  0
SECTION
  2
HEADER
  9
$ACADVER
  1
AC1009
  9
$INSBASE
 10
0.0
 20
0.0
 30
0.0
  9
$EXTMIN
 10
-4.7008599999999987
 20
-21.070699999999992
 30
0.0
  9
$EXTMAX
 10
205.30099999999999
 20
275.93099999999993
 30
0.0
  9
$LIMMIN
 10
0.0
 20
0.0
  9
$LIMMAX
 10
12.0
 20
9.0
  9
$ORTHOMODE
 70
     0
  9
$REGENMODE
 70
     1
  9
$FILLMODE
 70
     1
  9
$QTEXTMODE
 70
     0
  9
$MIRRTEXT
 70
     1
  9
$DRAGMODE
 70
     2
  9
$LTSCALE
 40
1.0
  9
$OSMODE
 70
    37
  9
$ATTMODE
 70
     1
  9
$TEXTSIZE
 40
0.0
  9
$TRACEWID
 40
0.05
  9
$TEXTSTYLE
  7
STANDARD
  9
$CLAYER
  8
0
  9
$CELTYPE
  6
CONTINUOUS
  9
$CECOLOR
 62
   256
  9
$DIMSCALE
 40
1.0
  9
$DIMASZ
 40
0.18
  9
$DIMEXO
 40
0.0625
  9
$DIMDLI
 40
0.38
  9
$DIMRND
 40
0.0
  9
$DIMDLE
 40
0.0
  9
$DIMEXE
 40
0.18
  9
$DIMTP
 40
0.0
  9
$DIMTM
 40
0.0
  9
$DIMTXT
 40
0.18
  9
$DIMCEN
 40
0.09
  9
$DIMTSZ
 40
0.0
  9
$DIMTOL
 70
     0
  9
$DIMLIM
 70
     0
  9
$DIMTIH
 70
     1
  9
$DIMTOH
 70
     1
  9
$DIMSE1
 70
     0
  9
$DIMSE2
 70
     0
  9
$DIMTAD
 70
     0
  9
$DIMZIN
 70
     0
  9
$DIMBLK
  1

  9
$DIMASO
 70
     1
  9
$DIMSHO
 70
     1
  9
$DIMPOST
  1

  9
$DIMAPOST
  1

  9
$DIMALT
 70
     0
  9
$DIMALTD
 70
     2
  9
$DIMALTF
 40
25.399999999999999
  9
$DIMLFAC
 40
1.0
  9
$DIMTOFL
 70
     0
  9
$DIMTVP
 40
0.0
  9
$DIMTIX
 70
     0
  9
$DIMSOXD
 70
     0
  9
$DIMSAH
 70
     0
  9
$DIMBLK1
  1

  9
$DIMBLK2
  1

  9
$DIMSTYLE
  2
STANDARD
  9
$DIMCLRD
 70
     0
  9
$DIMCLRE
 70
     0
  9
$DIMCLRT
 70
     0
  9
$DIMTFAC
 40
1.0
  9
$DIMGAP
 40
0.09
  9
$LUNITS
 70
     2
  9
$LUPREC
 70
     4
  9
$SKETCHINC
 40
0.1
  9
$FILLETRAD
 40
0.0
  9
$AUNITS
 70
     0
  9
$AUPREC
 70
     0
  9
$MENU
  1
.
  9
$ELEVATION
 40
0.0
  9
$PELEVATION
 40
0.0
  9
$THICKNESS
 40
0.0
  9
$LIMCHECK
 70
     0
  9
$BLIPMODE
 70
     0
  9
$CHAMFERA
 40
0.0
  9
$CHAMFERB
 40
0.0
  9
$SKPOLY
 70
     0
  9
$TDCREATE
 40
2444972.375
  9
$TDUPDATE
 40
2455965.367029618
  9
$TDINDWG
 40
0.0000134954
  9
$TDUSRTIMER
 40
0.0000134954
  9
$USRTIMER
 70
     1
  9
$ANGBASE
 50
0.0
  9
$ANGDIR
 70
     0
  9
$PDMODE
 70
     0
  9
$PDSIZE
 40
0.0
  9
$PLINEWID
 40
0.0
  9
$COORDS
 70
     1
  9
$SPLFRAME
 70
     0
  9
$SPLINETYPE
 70
     6
  9
$SPLINESEGS
 70
     8
  9
$ATTDIA
 70
     0
  9
$ATTREQ
 70
     1
  9
$HANDLING
 70
     1
  9
$HANDSEED
  5
609
  9
$SURFTAB1
 70
     6
  9
$SURFTAB2
 70
     6
  9
$SURFTYPE
 70
     6
  9
$SURFU
 70
     6
  9
$SURFV
 70
     6
  9
$UCSNAME
  2

  9
$UCSORG
 10
0.0
 20
0.0
 30
0.0
  9
$UCSXDIR
 10
1.0
 20
0.0
 30
0.0
  9
$UCSYDIR
 10
0.0
 20
1.0
 30
0.0
  9
$PUCSNAME
  2

  9
$PUCSORG
 10
0.0
 20
0.0
 30
0.0
  9
$PUCSXDIR
 10
1.0
 20
0.0
 30
0.0
  9
$PUCSYDIR
 10
0.0
 20
1.0
 30
0.0
  9
$USERI1
 70
     0
  9
$USERI2
 70
     0
  9
$USERI3
 70
     0
  9
$USERI4
 70
     0
  9
$USERI5
 70
     0
  9
$USERR1
 40
0.0
  9
$USERR2
 40
0.0
  9
$USERR3
 40
0.0
  9
$USERR4
 40
0.0
  9
$USERR5
 40
0.0
  9
$WORLDVIEW
 70
     1
  9
$SHADEDGE
 70
     3
  9
$SHADEDIF
 70
    70
  9
$TILEMODE
 70
     1
  9
$MAXACTVP
 70
    48
  9
$PLIMCHECK
 70
     0
  9
$PEXTMIN
 10
1.0000000000000000E+020
 20
1.0000000000000000E+020
 30
1.0000000000000000E+020
  9
$PEXTMAX
 10
-1.0000000000000000E+020
 20
-1.0000000000000000E+020
 30
-1.0000000000000000E+020
  9
$PLIMMIN
 10
0.0
 20
0.0
  9
$PLIMMAX
 10
12.0
 20
9.0
  9
$UNITMODE
 70
     0
  9
$VISRETAIN
 70
     1
  9
$PLINEGEN
 70
     0
  9
$PSLTSCALE
 70
     1
  0
ENDSEC
  0
SECTION
  2
TABLES
  0
TABLE
  2
VPORT
 70
     2
  0
VPORT
  2
*ACTIVE
 70
     0
 10
0.0
 20
0.0
 11
1.0
 21
1.0
 12
205.3102679972244
 22
127.4301499999999
 13
0.0
 23
0.0
 14
1.0
 24
1.0
 15
0.0
 25
0.0
 16
0.0
 26
0.0
 36
1.0
 17
0.0
 27
0.0
 37
0.0
 40
299.24604534005027
 41
2.2894736842105261
 42
50.0
 43
0.0
 44
0.0
 50
0.0
 51
0.0
 71
     0
 72
   100
 73
     1
 74
     1
 75
     0
 76
     0
 77
     0
 78
     0
  0
ENDTAB
  0
TABLE
  2
LTYPE
 70
     3
  0
LTYPE
  2
CONTINUOUS
 70
     0
  3
Solid line
 72
    65
 73
     0
 40
0.0
  0
LTYPE
  2
AIGENLINE001
 70
     0
  3
generate AI->DXF Converter
 72
    65
 73
     4
 40
5.8561449999999988
 49
3.5278
 49
-0.776115
 49
0.776115
 49
-0.776115
  0
LTYPE
  2
AIGENLINE002
 70
     0
  3
generate AI->DXF Converter
 72
    65
 73
     4
 40
10.300112
 49
8.0000600000000013
 49
-0.700021
 49
0.9000100000000001
 49
-0.700021
  0
ENDTAB
  0
TABLE
  2
LAYER
 70
     2
  0
LAYER
  2
0
 70
     0
 62
     7
  6
CONTINUOUS
  0
LAYER
  2
_________2
 70
     0
 62
     7
  6
CONTINUOUS
  0
ENDTAB
  0
TABLE
  2
STYLE
 70
     1
  0
STYLE
  2
STANDARD
 70
     0
 40
0.0
 41
0.0
 50
0.0
 71
     0
 42
0.0
  3
TXT
  4
EXTFONT.SHX
  0
ENDTAB
  0
TABLE
  2
VIEW
 70
     0
  0
ENDTAB
  0
TABLE
  2
UCS
 70
     0
  0
ENDTAB
  0
TABLE
  2
APPID
 70
     1
  0
APPID
  2
ACAD
 70
     0
  0
ENDTAB
  0
TABLE
  2
DIMSTYLE
 70
     1
  0
DIMSTYLE
  2
STANDARD
 70
     0
  3

  4

  5

  6

  7

 40
1.0
 41
0.18
 42
0.0625
 43
0.38
 44
0.18
 45
0.0
 46
0.0
 47
0.0
 48
0.0
140
0.18
141
0.09
142
0.0
143
25.399999999999999
144
1.0
145
0.0
146
1.0
147
0.09
 71
     0
 72
     0
 73
     1
 74
     1
 75
     0
 76
     0
 77
     0
 78
     0
170
     0
171
     2
172
     0
173
     0
174
     0
175
     0
176
     0
177
     0
178
     0
  0
ENDTAB
  0
ENDSEC
  0
SECTION
  2
BLOCKS
  0
BLOCK
  8
0
  2
$MODEL_SPACE
 70
     0
 10
0.0
 20
0.0
 30
0.0
  3
$MODEL_SPACE
  1

  0
ENDBLK
  5
1A
  8
0
  0
BLOCK
 67
     1
  8
0
  2
$PAPER_SPACE
 70
     0
 10
0.0
 20
0.0
 30
0.0
  3
$PAPER_SPACE
  1

  0
ENDBLK
  5
17
 67
     1
  8
0
  0
ENDSEC
  0
SECTION
  2
ENTITIES
  0
TEXT
  5
23
  8
0
 62
     7
 10
87.036382500000002
 20
50.835799999999999
 30
0.0
 40
3.0923400000000001
  1
190
 41
0.5
 72
     1
 11
88.711399999999998
 21
50.835799999999999
 31
0.0
  0
TEXT
  5
24
  8
0
 62
     7
 10
58.494500000000002
 20
68.899222500000008
 30
0.0
 40
3.0923400000000001
  1
max.50
 50
90.0
 41
0.5
 72
     1
 11
58.494500000000002
 21
72.635800000000003
 31
0.0
  0
TEXT
  5
25
  8
0
 62
     7
 10
54.800600000000003
 20
55.727899999999998
 30
0.0
 40
3.0923400000000001
  1
G1 1/4
 41
0.5
  0
TEXT
  5
26
  8
0
 62
     7
 10
67.823139999999995
 20
81.746399999999994
 30
0.0
 40
3.0923400000000001
  1
%%c63
 41
0.5
 72
     1
 11
69.884699999999995
 21
81.746399999999994
 31
0.0
  0
TEXT
  5
27
  8
0
 62
     7
 10
88.389499999999998
 20
65.692850000000007
 30
0.0
 40
3.0923400000000001
  1
%%c5
 50
90.0
 41
0.5
 72
     2
 11
88.389499999999998
 21
68.269800000000004
 31
0.0
  0
TEXT
  5
28
  8
0
 62
     7
 10
153.3252
 20
208.483
 30
0.0
 40
2.7831000000000001
  1
%%c35
 41
0.5
 72
     2
 11
157.03599999999989
 21
208.483
 31
0.0
  0
TEXT
  5
29
  8
0
 62
     7
 10
40.54977499999999
 20
179.87899999999999
 30
0.0
 40
2.7831000000000001
  1
76.5
 41
0.5
 72
     1
 11
42.63709999999999
 21
179.87899999999999
 31
0.0
  0
TEXT
  5
2A
  8
0
 62
     7
 10
141.0038899999999
 20
202.56700000000001
 30
0.0
 40
2.7831000000000001
  1
水栓取付穴
 41
0.5
 72
     1
 11
144.99299999999991
 21
202.56700000000001
 31
0.0
  0
TEXT
  5
2B
  8
0
 62
     7
 10
153.4614499999999
 20
226.154
 30
0.0
 40
2.7831000000000001
  1
100
 41
0.5
 72
     1
 11
154.85299999999989
 21
226.154
 31
0.0
  0
TEXT
  5
2C
  8
0
 62
     7
 10
133.09545
 20
226.154
 30
0.0
 40
2.7831000000000001
  1
100
 41
0.5
 72
     1
 11
134.48699999999999
 21
226.154
 31
0.0
  0
TEXT
  5
2D
  8
0
 62
     7
 10
116.73
 20
124.2882875
 30
0.0
 40
3.0923400000000001
  1
340
 50
90.0
 41
0.5
 72
     1
 11
116.73
 21
126.221
 31
0.0
  0
TEXT
  5
2E
  8
0
 62
     7
 10
38.951999999999991
 20
150.10415
 30
0.0
 40
3.0923400000000001
  1
max.45
 50
90.0
 41
0.5
 72
     2
 11
38.951999999999991
 21
157.83500000000001
 31
0.0
  0
TEXT
  5
2F
  8
0
 62
     7
 10
29.796800000000001
 20
147.1496775
 30
0.0
 40
3.0923400000000001
  1
101
 50
90.0
 41
0.5
 72
     1
 11
29.796800000000001
 21
148.56700000000001
 31
0.0
  0
TEXT
  5
30
  8
0
 62
     7
 10
29.796800000000001
 20
164.53237250000001
 30
0.0
 40
3.0923400000000001
  1
70
 50
90.0
 41
0.5
 72
     1
 11
29.796800000000001
 21
165.69200000000001
 31
0.0
  0
TEXT
  5
31
  8
0
 62
     7
 10
173.14099999999991
 20
165.1565249999999
 30
0.0
 40
3.0923400000000001
  1
78
 50
90.0
 41
0.5
 72
     1
 11
173.14099999999991
 21
166.44499999999991
 31
0.0
  0
TEXT
  5
32
  8
0
 62
     7
 10
116.73
 20
164.55652499999991
 30
0.0
 40
3.0923400000000001
  1
72
 50
90.0
 41
0.5
 72
     1
 11
116.73
 21
165.845
 31
0.0
  0
TEXT
  5
33
  8
0
 62
     7
 10
125.22499999999989
 20
161.71422000000001
 30
0.0
 40
3.0923400000000001
  1
41
 50
90.0
 41
0.5
 72
     1
 11
125.22499999999989
 21
162.745
 31
0.0
  0
TEXT
  5
34
  8
0
 62
     7
 10
55.021999999999998
 20
154.352
 30
0.0
 40
2.7831000000000001
  1
%%c26
 41
0.5
  0
TEXT
  5
35
  8
0
 62
     7
 10
40.997100000000003
 20
132.17599999999999
 30
0.0
 40
2.7831000000000001
  1
G 1/2
 41
0.5
  0
TEXT
  5
36
  8
0
 62
     7
 10
57.829700000000003
 20
165.25399999999999
 30
0.0
 40
2.7831000000000001
  1
%%c62
 41
0.5
  0
TEXT
  5
37
  8
0
 62
     7
 10
137.13599999999991
 20
159.90600000000001
 30
0.0
 40
2.7831000000000001
  1
10%%d
 41
0.5
  0
TEXT
  5
38
  8
0
 62
     7
 10
153.19200000000001
 20
113.307
 30
0.0
 40
2.7831000000000001
  1
%%c5
 41
0.5
  0
TEXT
  5
39
  8
0
 62
     7
 10
145.74752499999991
 20
143.53699999999989
 30
0.0
 40
2.7831000000000001
  1
137
 41
0.5
 72
     1
 11
147.37100000000001
 21
143.53699999999989
 31
0.0
  0
TEXT
  5
3A
  8
0
 62
     7
 10
78.986150000000009
 20
228.4609999999999
 30
0.0
 40
2.7831000000000001
  1
100
 41
0.5
 72
     1
 11
80.377700000000004
 21
228.4609999999999
 31
0.0
  0
TEXT
  5
3B
  8
0
 62
     7
 10
89.490210000000005
 20
230.12899999999999
 30
0.0
 40
2.7831000000000001
  1
水
 41
0.5
 72
     1
 11
90.139600000000002
 21
230.12899999999999
 31
0.0
  0
TEXT
  5
3C
  8
0
 62
     7
 10
107.547
 20
212.904
 30
0.0
 40
2.7831000000000001
  1
閉
 41
0.5
  0
TEXT
  5
3D
  8
0
 62
     7
 10
32.523189999999992
 20
212.904
 30
0.0
 40
2.7831000000000001
  1
閉
 41
0.5
 72
     2
 11
33.729199999999999
 21
212.904
 31
0.0
  0
TEXT
  5
3E
  8
0
 62
     7
 10
89.858710000000016
 20
196.00700000000001
 30
0.0
 40
2.7831000000000001
  1
開
 41
0.5
 72
     1
 11
90.508099999999999
 21
196.00700000000001
 31
0.0
  0
TEXT
  5
3F
  8
0
 62
     7
 10
49.755809999999997
 20
196.00700000000001
 30
0.0
 40
2.7831000000000001
  1
開
 41
0.5
 72
     1
 11
50.405200000000001
 21
196.00700000000001
 31
0.0
  0
TEXT
  5
40
  8
0
 62
     7
 10
49.801909999999999
 20
230.12899999999999
 30
0.0
 40
2.7831000000000001
  1
湯
 41
0.5
 72
     1
 11
50.451300000000003
 21
230.12899999999999
 31
0.0
  0
TEXT
  5
41
  8
0
 62
     7
 10
58.620449999999998
 20
228.4609999999999
 30
0.0
 40
2.7831000000000001
  1
100
 41
0.5
 72
     1
 11
60.012
 21
228.4609999999999
 31
0.0
  0
LINE
  5
42
  8
0
 62
     7
 10
163.57099999999991
 20
173.44499999999999
 30
0.0
 11
163.57099999999991
 21
172.6449999999999
 31
0.0
  0
ARC
  5
43
  8
0
 62
     7
 10
165.42358100000001
 20
170.69800799999999
 30
0.0
 40
2.6871169999999989
 50
133.57294899999999
 51
139.0408239999999
  0
LINE
  5
44
  8
0
 62
     7
 10
160.97200000000001
 20
173.44499999999999
 30
0.0
 11
160.97200000000001
 21
172.6449999999999
 31
0.0
  0
LINE
  5
45
  8
0
 62
     7
 10
158.37200000000001
 20
173.44499999999999
 30
0.0
 11
158.37200000000001
 21
172.6449999999999
 31
0.0
  0
ARC
  5
46
  8
0
 62
     7
 10
156.48523899999989
 20
170.66507999999999
 30
0.0
 40
2.7348449999999991
 50
40.971245999999987
 51
46.376885999999992
  0
ARC
  5
47
  8
0
 62
     7
 10
162.42805499999989
 20
172.41578000000001
 30
0.0
 40
1.5383260000000001
 50
41.991222999999991
 51
63.488496999999988
  0
ARC
  5
48
  8
0
 62
     7
 10
161.5942269999999
 20
170.92300299999999
 30
0.0
 40
3.2473119999999991
 50
62.080272000000001
 51
78.699153999999993
  0
ARC
  5
49
  8
0
 62
     7
 10
160.977386
 20
168.4673469999999
 30
0.0
 40
5.7775569999999989
 50
77.472626000000005
 51
90.056117000000015
  0
ARC
  5
4A
  8
0
 62
     7
 10
159.51539700000001
 20
172.41578000000001
 30
0.0
 40
1.5383260000000001
 50
116.511483
 51
138.008757
  0
ARC
  5
4B
  8
0
 62
     7
 10
160.3492249999999
 20
170.92300299999999
 30
0.0
 40
3.2473119999999991
 50
101.300826
 51
117.919709
  0
ARC
  5
4C
  8
0
 62
     7
 10
160.9660659999999
 20
168.4673469999999
 30
0.0
 40
5.7775569999999989
 50
89.943862999999993
 51
102.5273549999999
  0
ARC
  5
4D
  8
0
 62
     7
 10
162.60244
 20
175.1308939999999
 30
0.0
 40
2.6684860000000001
 50
280.77133700000002
 51
291.30759799999993
  0
ARC
  5
4E
  8
0
 62
     7
 10
162.59164699999991
 20
170.93235899999999
 30
0.0
 40
2.6971050000000001
 50
68.683429000000004
 51
84.317500999999993
  0
ARC
  5
4F
  8
0
 62
     7
 10
162.3056379999999
 20
168.32581799999991
 30
0.0
 40
5.3192240000000002
 50
84.031885000000003
 51
90.363251000000005
  0
ARC
  5
50
  8
0
 62
     7
 10
161.948116
 20
170.95406999999989
 30
0.0
 40
2.6754060000000002
 50
95.147289999999998
 51
111.4045009999999
  0
ARC
  5
51
  8
0
 62
     7
 10
162.2424419999999
 20
168.209092
 30
0.0
 40
5.4359229999999998
 50
89.689348999999979
 51
95.641302999999994
  0
ARC
  5
52
  8
0
 62
     7
 10
159.99127299999989
 20
170.93235899999999
 30
0.0
 40
2.6971050000000001
 50
68.683429000000004
 51
84.317500999999993
  0
ARC
  5
53
  8
0
 62
     7
 10
159.705263
 20
168.32581799999991
 30
0.0
 40
5.3192240000000002
 50
84.031885000000003
 51
90.363251000000005
  0
ARC
  5
54
  8
0
 62
     7
 10
159.32692399999991
 20
175.07623000000001
 30
0.0
 40
2.6121970000000001
 50
248.55868899999999
 51
259.3237049999999
  0
ARC
  5
55
  8
0
 62
     7
 10
159.34542399999989
 20
170.967725
 30
0.0
 40
2.6615969999999991
 50
95.123510999999979
 51
111.451516
  0
ARC
  5
56
  8
0
 62
     7
 10
159.6420489999999
 20
168.209924
 30
0.0
 40
5.4350899999999989
 50
89.68910799999999
 51
95.641748000000007
  0
LINE
  5
57
  8
0
 62
     7
 10
73.305499999999995
 20
173.44499999999999
 30
0.0
 11
73.305499999999995
 21
172.6449999999999
 31
0.0
  0
LINE
  5
58
  8
0
 62
     7
 10
71.505300000000005
 20
173.44499999999999
 30
0.0
 11
71.505300000000005
 21
173.0449999999999
 31
0.0
  0
ARC
  5
59
  8
0
 62
     7
 10
75.299745999999999
 20
169.44212300000001
 30
0.0
 40
3.394466
 50
165.489306
 51
179.95155099999991
  0
ARC
  5
5A
  8
0
 62
     7
 10
77.088529000000008
 20
169.08247600000001
 30
0.0
 40
5.2172599999999987
 50
144.71747500000001
 51
166.58783099999999
  0
ARC
  5
5B
  8
0
 62
     7
 10
76.130453000000003
 20
169.714191
 30
0.0
 40
4.070460999999999
 50
133.94764900000001
 51
144.1865929999999
  0
LINE
  5
5C
  8
0
 62
     7
 10
69.305300000000003
 20
173.44499999999999
 30
0.0
 11
69.305300000000003
 21
173.0449999999999
 31
0.0
  0
LINE
  5
5D
  8
0
 62
     7
 10
67.505499999999998
 20
173.44499999999999
 30
0.0
 11
67.505499999999998
 21
172.6449999999999
 31
0.0
  0
ARC
  5
5E
  8
0
 62
     7
 10
70.658479
 20
171.6111699999999
 30
0.0
 40
2.0198629999999991
 50
65.212820999999991
 51
83.354037000000005
  0
ARC
  5
5F
  8
0
 62
     7
 10
70.431775000000002
 20
169.78530900000001
 30
0.0
 40
3.8597160000000001
 50
83.148205000000004
 51
90.393341000000035
  0
ARC
  5
60
  8
0
 62
     7
 10
65.508193000000006
 20
169.44210299999989
 30
0.0
 40
3.3970820000000002
 50
0.048719
 51
14.494904
  0
ARC
  5
61
  8
0
 62
     7
 10
63.725273000000001
 20
169.08400800000001
 30
0.0
 40
5.213830999999999
 50
13.400783999999989
 51
35.274627000000002
  0
ARC
  5
62
  8
0
 62
     7
 10
64.680631999999989
 20
169.71661099999989
 30
0.0
 40
4.0687100000000003
 50
35.771228000000001
 51
46.028821999999991
  0
ARC
  5
63
  8
0
 62
     7
 10
72.130523999999994
 20
172.26477600000001
 30
0.0
 40
1.6653789999999999
 50
45.125137000000002
 51
65.669638000000006
  0
ARC
  5
64
  8
0
 62
     7
 10
71.374533
 20
170.84020200000001
 30
0.0
 40
3.2764809999999991
 50
63.886946000000002
 51
71.798740000000009
  0
ARC
  5
65
  8
0
 62
     7
 10
70.674623999999994
 20
168.66878899999989
 30
0.0
 40
5.5578839999999987
 50
71.936510999999996
 51
85.116732999999996
  0
ARC
  5
66
  8
0
 62
     7
 10
70.393275000000003
 20
166.81626299999991
 30
0.0
 40
7.4286490000000001
 50
84.170865000000006
 51
89.907415
  0
ARC
  5
67
  8
0
 62
     7
 10
68.680145999999993
 20
172.26563300000001
 30
0.0
 40
1.6644869999999989
 50
114.3340909999999
 51
134.885842
  0
ARC
  5
68
  8
0
 62
     7
 10
69.436363
 20
170.8409179999999
 30
0.0
 40
3.2758189999999989
 50
108.20616099999999
 51
116.1178929999999
  0
ARC
  5
69
  8
0
 62
     7
 10
70.130164000000008
 20
168.69011199999991
 30
0.0
 40
5.5357370000000001
 50
95.104596999999998
 51
108.072395
  0
ARC
  5
6A
  8
0
 62
     7
 10
70.417428000000001
 20
166.811812
 30
0.0
 40
7.4330990000000003
 50
90.093648000000002
 51
96.021946000000014
  0
ARC
  5
6B
  8
0
 62
     7
 10
70.150106999999991
 20
171.62085300000001
 30
0.0
 40
2.0102470000000001
 50
96.052975000000004
 51
114.851906
  0
ARC
  5
6C
  8
0
 62
     7
 10
70.381904000000006
 20
169.71118000000001
 30
0.0
 40
3.9338239999999991
 50
89.659555000000012
 51
96.477299000000016
  0
ARC
  5
6D
  8
0
 62
     7
 10
72.57531800000001
 20
173.94268999999991
 30
0.0
 40
1.4891989999999991
 50
274.06087500000001
 51
299.3637149999999
  0
ARC
  5
6E
  8
0
 62
     7
 10
72.587514999999996
 20
172.17280500000001
 30
0.0
 40
1.4607929999999989
 50
60.558281999999998
 51
81.806595999999999
  0
ARC
  5
6F
  8
0
 62
     7
 10
72.425550999999999
 20
171.029504
 30
0.0
 40
2.615507
 50
81.864147000000003
 51
90.43895999999998
  0
ARC
  5
70
  8
0
 62
     7
 10
72.220949000000005
 20
172.18114800000001
 30
0.0
 40
1.4523539999999999
 50
97.503220000000013
 51
119.521384
  0
ARC
  5
71
  8
0
 62
     7
 10
72.38794399999999
 20
170.97490300000001
 30
0.0
 40
2.670088999999999
 50
89.622992000000025
 51
97.675984
  0
ARC
  5
72
  8
0
 62
     7
 10
68.589068000000012
 20
172.17866000000001
 30
0.0
 40
1.4547840000000001
 50
60.508428000000009
 51
81.832053999999999
  0
ARC
  5
73
  8
0
 62
     7
 10
68.425481999999988
 20
171.02775800000001
 30
0.0
 40
2.6172539999999991
 50
81.866807999999992
 51
90.439897000000002
  0
ARC
  5
74
  8
0
 62
     7
 10
68.231853000000001
 20
173.928346
 30
0.0
 40
1.474788999999999
 50
240.49513400000001
 51
266.05133699999988
  0
ARC
  5
75
  8
0
 62
     7
 10
68.219785000000002
 20
172.18563999999989
 30
0.0
 40
1.4477649999999991
 50
97.485491999999994
 51
119.561369
  0
ARC
  5
76
  8
0
 62
     7
 10
68.387814000000006
 20
170.97504900000001
 30
0.0
 40
2.6699439999999992
 50
89.622883000000002
 51
97.676197999999999
  0
LINE
  5
77
  8
0
 62
     7
 10
71.905299999999997
 20
211.46000000000001
 30
0.0
 11
73.305199999999985
 21
214.06
 31
0.0
  0
LINE
  5
78
  8
0
 62
     7
 10
71.905299999999997
 20
216.65999999999991
 30
0.0
 11
73.305199999999985
 21
214.06
 31
0.0
  0
LINE
  5
79
  8
0
 62
     7
 10
67.505200000000002
 20
214.06
 30
0.0
 11
68.905299999999997
 21
216.65999999999991
 31
0.0
  0
LINE
  5
7A
  8
0
 62
     7
 10
67.505200000000002
 20
214.06
 30
0.0
 11
68.905299999999997
 21
211.46000000000001
 31
0.0
  0
LINE
  5
7B
  8
0
 62
     7
 10
71.905299999999997
 20
211.46000000000001
 30
0.0
 11
68.905299999999997
 21
211.46000000000001
 31
0.0
  0
LINE
  5
7C
  8
0
 62
     7
 10
71.905299999999997
 20
216.65999999999991
 30
0.0
 11
68.905299999999997
 21
216.65999999999991
 31
0.0
  0
ARC
  5
7D
  8
0
 62
     7
 10
90.405387000000005
 20
214.0604689999999
 30
0.0
 40
13.810098999999999
 50
270.00002000000001
 51
359.99998999999991
  0
LINE
  5
7E
  8
0
 62
     7
 10
92.204099999999997
 20
199.91
 30
0.0
 11
90.4054
 21
200.24999999999989
 31
0.0
  0
LINE
  5
7F
  8
0
 62
     7
 10
90.4054
 20
200.24999999999989
 30
0.0
 11
92.133300000000006
 21
200.85499999999999
 31
0.0
  0
LINE
  5
80
  8
0
 62
     7
 10
92.133300000000006
 20
200.85499999999999
 30
0.0
 11
92.204099999999997
 21
199.91
 31
0.0
  0
LINE
  5
81
  8
0
 62
     7
 10
103.651
 20
212.31899999999999
 30
0.0
 11
104.215
 21
214.06
 31
0.0
  0
LINE
  5
82
  8
0
 62
     7
 10
104.215
 20
214.06
 30
0.0
 11
104.5979999999999
 21
212.27000000000001
 31
0.0
  0
LINE
  5
83
  8
0
 62
     7
 10
104.5979999999999
 20
212.27000000000001
 30
0.0
 11
103.651
 21
212.31899999999999
 31
0.0
  0
ARC
  5
84
  8
0
 62
     7
 10
50.404992
 20
214.060464
 30
0.0
 40
13.810095
 50
179.99996999999991
 51
270.00002000000001
  0
ARC
  5
85
  8
0
  6
AIGENLINE001
 62
     7
 10
60.023457999999998
 20
137.0034149999999
 30
0.0
 40
8.8819920000000003
 50
331.14550799999989
 51
359.94295199999999
  0
ARC
  5
86
  8
0
  6
AIGENLINE001
 62
     7
 10
62.198363000000001
 20
135.95880099999991
 30
0.0
 40
6.4743899999999996
 50
302.74574499999989
 51
329.95375799999988
  0
ARC
  5
87
  8
0
  6
AIGENLINE001
 62
     7
 10
63.296675999999998
 20
134.50364699999989
 30
0.0
 40
4.6584039999999991
 50
270.71759100000003
 51
301.06467299999991
  0
ARC
  5
88
  8
0
  6
AIGENLINE001
 62
     7
 10
63.372255000000003
 20
134.42013299999999
 30
0.0
 40
4.5745569999999987
 50
229.80752799999991
 51
269.78410799999989
  0
ARC
  5
89
  8
0
  6
AIGENLINE001
 62
     7
 10
64.362139999999997
 20
135.7965529999999
 30
0.0
 40
6.2662000000000004
 50
207.98734799999991
 51
231.01575800000001
  0
ARC
  5
8A
  8
0
  6
AIGENLINE001
 62
     7
 10
66.158762999999993
 20
136.86559700000001
 30
0.0
 40
8.3549969999999991
 50
179.11548300000001
 51
208.67936
  0
ARC
  5
8B
  8
0
  6
AIGENLINE001
 62
     7
 10
66.688687000000002
 20
136.98573400000001
 30
0.0
 40
8.8839299999999994
 50
151.14956699999999
 51
179.94298499999999
  0
ARC
  5
8C
  8
0
  6
AIGENLINE001
 62
     7
 10
64.513064999999997
 20
138.030475
 30
0.0
 40
6.4756289999999996
 50
122.75298100000001
 51
149.957481
  0
ARC
  5
8D
  8
0
  6
AIGENLINE001
 62
     7
 10
63.41349799999999
 20
139.48675600000001
 30
0.0
 40
4.6580059999999994
 50
90.719342999999995
 51
121.069135
  0
ARC
  5
8E
  8
0
  6
AIGENLINE001
 62
     7
 10
80.787889000000007
 20
137.00341299999999
 30
0.0
 40
8.882439999999999
 50
180.057051
 51
208.85290699999999
  0
ARC
  5
8F
  8
0
  6
AIGENLINE001
 62
     7
 10
78.612504000000001
 20
135.95871099999999
 30
0.0
 40
6.4743719999999989
 50
210.045435
 51
237.253049
  0
ARC
  5
90
  8
0
  6
AIGENLINE001
 62
     7
 10
77.514037000000002
 20
134.50348199999999
 30
0.0
 40
4.658239
 50
238.93478599999989
 51
269.2825739999999
  0
ARC
  5
91
  8
0
  6
AIGENLINE001
 62
     7
 10
77.438475999999994
 20
134.42046199999999
 30
0.0
 40
4.5748860000000002
 50
270.21585299999992
 51
310.1909839999999
  0
ARC
  5
92
  8
0
  6
AIGENLINE001
 62
     7
 10
76.448740999999998
 20
135.79663699999989
 30
0.0
 40
6.266246999999999
 50
308.98357199999998
 51
332.01202999999992
  0
ARC
  5
93
  8
0
  6
AIGENLINE001
 62
     7
 10
74.652449000000004
 20
136.8655389999999
 30
0.0
 40
8.3546859999999992
 50
331.31994700000001
 51
0.8849289999999999
  0
ARC
  5
94
  8
0
  6
AIGENLINE001
 62
     7
 10
74.122278000000009
 20
136.98573099999999
 30
0.0
 40
8.8838650000000001
 50
0.057014
 51
28.850664999999999
  0
ARC
  5
95
  8
0
  6
AIGENLINE001
 62
     7
 10
76.297758000000002
 20
138.030326
 30
0.0
 40
6.4757619999999996
 50
30.043345999999989
 51
57.247618000000003
  0
ARC
  5
96
  8
0
  6
AIGENLINE001
 62
     7
 10
77.397246999999993
 20
139.48642899999999
 30
0.0
 40
4.6583339999999991
 50
58.931968999999988
 51
89.280897999999993
  0
ARC
  5
97
  8
0
 62
     7
 10
69.672104000000004
 20
170.09480199999999
 30
0.0
 40
3.6824439999999998
 50
4.7833259999999997
 51
20.65744299999999
  0
ARC
  5
98
  8
0
 62
     7
 10
71.505100999999996
 20
171.91726
 30
0.0
 40
1.294027
 50
20.637339000000001
 51
54.531146
  0
ARC
  5
99
  8
0
 62
     7
 10
71.992243000000002
 20
172.53685400000001
 30
0.0
 40
0.5081060000000001
 50
58.73169
 51
88.539822999999998
  0
ARC
  5
9A
  8
0
 62
     7
 10
99.853787999999994
 20
176.78486599999999
 30
0.0
 40
28.104516999999991
 50
208.94582500000001
 51
213.60943700000001
  0
ARC
  5
9B
  8
0
 62
     7
 10
88.756977000000006
 20
170.49862300000001
 30
0.0
 40
15.352067
 50
188.99043999999989
 51
208.45955000000001
  0
ARC
  5
9C
  8
0
 62
     7
 10
95.784164000000004
 20
171.6913989999999
 30
0.0
 40
22.47945799999999
 50
183.28857600000001
 51
189.19431399999999
  0
LINE
  5
9D
  8
0
 62
     7
 10
73.117800000000003
 20
171.39400000000001
 30
0.0
 11
72.716099999999983
 21
172.37299999999991
 31
0.0
  0
ARC
  5
9E
  8
0
 62
     7
 10
71.138451000000003
 20
170.09480199999999
 30
0.0
 40
3.6824439999999998
 50
159.34253699999999
 51
175.21665400000001
  0
ARC
  5
9F
  8
0
 62
     7
 10
69.305454999999995
 20
171.91726
 30
0.0
 40
1.294027
 50
125.468834
 51
159.36264099999991
  0
ARC
  5
A0
  8
0
 62
     7
 10
68.818313000000003
 20
172.53685400000001
 30
0.0
 40
0.5081060000000001
 50
91.460156999999995
 51
121.26828999999989
  0
LINE
  5
A1
  8
0
 62
     7
 10
108.4049999999999
 20
60.582700000000003
 30
0.0
 11
108.4049999999999
 21
49.558700000000002
 31
0.0
  0
LINE
  5
A2
  8
0
 62
     7
 10
106.465
 20
63.605800000000002
 30
0.0
 11
106.465
 21
63.6113
 31
0.0
  0
LINE
  5
A3
  8
0
 62
     7
 10
106.4769999999999
 20
62.896799999999999
 30
0.0
 11
106.4769999999999
 21
63.504899999999999
 31
0.0
  0
LINE
  5
A4
  8
0
 62
     7
 10
105.553
 20
62.896799999999999
 30
0.0
 11
105.553
 21
63.504899999999999
 31
0.0
  0
LINE
  5
A5
  8
0
 62
     7
 10
106.709
 20
63.912799999999997
 30
0.0
 11
106.709
 21
63.504899999999999
 31
0.0
  0
LINE
  5
A6
  8
0
 62
     7
 10
105.55499999999989
 20
64.137699999999995
 30
0.0
 11
106.48399999999999
 21
64.137699999999995
 31
0.0
  0
ARC
  5
A7
  8
0
 62
     7
 10
106.47587900000001
 20
63.904207999999997
 30
0.0
 40
0.233685
 50
2.102678
 51
87.984987000000004
  0
LINE
  5
A8
  8
0
 62
     7
 10
105.32899999999999
 20
63.912799999999997
 30
0.0
 11
105.32899999999999
 21
63.504899999999999
 31
0.0
  0
ARC
  5
A9
  8
0
 62
     7
 10
105.563061
 20
63.903965999999997
 30
0.0
 40
0.233935
 50
92.071940999999995
 51
177.84035399999999
  0
LINE
  5
AA
  8
0
 62
     7
 10
105.32899999999999
 20
63.504899999999999
 30
0.0
 11
106.709
 21
63.504899999999999
 31
0.0
  0
LINE
  5
AB
  8
0
 62
     7
 10
106.4459999999999
 20
62.797600000000003
 30
0.0
 11
106.4459999999999
 21
62.7986
 31
0.0
  0
LINE
  5
AC
  8
0
 62
     7
 10
105.31099999999989
 20
62.896799999999999
 30
0.0
 11
105.1139999999999
 21
62.667700000000011
 31
0.0
  0
LINE
  5
AD
  8
0
 62
     7
 10
106.691
 20
62.896799999999999
 30
0.0
 11
106.88799999999991
 21
62.667700000000011
 31
0.0
  0
LINE
  5
AE
  8
0
 62
     7
 10
106.88799999999991
 20
59.77859999999999
 30
0.0
 11
106.691
 21
59.549199999999999
 31
0.0
  0
LINE
  5
AF
  8
0
 62
     7
 10
105.116
 20
59.77859999999999
 30
0.0
 11
105.3129999999999
 21
59.549199999999999
 31
0.0
  0
LINE
  5
B0
  8
0
 62
     7
 10
105.3129999999999
 20
59.549199999999999
 30
0.0
 11
106.691
 21
59.549199999999999
 31
0.0
  0
ARC
  5
B1
  8
0
 62
     7
 10
105.9755439999999
 20
60.422136000000002
 30
0.0
 40
0.716429
 50
2.0986750000000001
 51
87.901314999999997
  0
ARC
  5
B2
  8
0
 62
     7
 10
106.028048
 20
60.422818000000007
 30
0.0
 40
0.715749
 50
92.103289000000018
 51
177.95394899999991
  0
ARC
  5
B3
  8
0
 62
     7
 10
106.02799999999991
 20
60.474592000000001
 30
0.0
 40
0.715724
 50
182.0994869999999
 51
267.90054300000003
  0
ARC
  5
B4
  8
0
 62
     7
 10
105.975587
 20
60.475279999999998
 30
0.0
 40
0.71641
 50
272.095235
 51
357.847508
  0
LINE
  5
B5
  8
0
 62
     7
 10
106.88799999999991
 20
59.7742
 30
0.0
 11
106.88799999999991
 21
62.671500000000002
 31
0.0
  0
LINE
  5
B6
  8
0
 62
     7
 10
105.116
 20
59.77859999999999
 30
0.0
 11
105.116
 21
62.669800000000002
 31
0.0
  0
LINE
  5
B7
  8
0
 62
     7
 10
105.31099999999989
 20
62.896799999999999
 30
0.0
 11
106.691
 21
62.896799999999999
 31
0.0
  0
LINE
  5
B8
  8
0
 62
     7
 10
81.125399999999999
 20
61.226300000000002
 30
0.0
 11
105.116
 21
61.226300000000002
 31
0.0
  0
LINE
  5
B9
  8
0
 62
     7
 10
81.125399999999999
 20
62.226100000000002
 30
0.0
 11
105.116
 21
62.226100000000002
 31
0.0
  0
LINE
  5
BA
  8
0
 62
     7
 10
106.88799999999991
 20
61.233899999999998
 30
0.0
 11
108.20699999999999
 21
61.233899999999998
 31
0.0
  0
LINE
  5
BB
  8
0
 62
     7
 10
106.88799999999991
 20
62.218499999999992
 30
0.0
 11
108.20699999999999
 21
62.218499999999992
 31
0.0
  0
LINE
  5
BC
  8
0
 62
     7
 10
108.4049999999999
 20
61.430599999999998
 30
0.0
 11
108.20699999999999
 21
61.233899999999998
 31
0.0
  0
LINE
  5
BD
  8
0
 62
     7
 10
108.20699999999999
 20
62.218499999999992
 30
0.0
 11
108.4049999999999
 21
62.021399999999993
 31
0.0
  0
LINE
  5
BE
  8
0
 62
     7
 10
108.4049999999999
 20
61.430599999999998
 30
0.0
 11
108.4049999999999
 21
62.021399999999993
 31
0.0
  0
LINE
  5
BF
  8
0
 62
     7
 10
64.385999999999996
 20
75.903899999999993
 30
0.0
 11
76.424199999999999
 21
75.903899999999993
 31
0.0
  0
LINE
  5
C0
  8
0
 62
     7
 10
76.705399999999983
 20
75.622399999999999
 30
0.0
 11
76.705399999999983
 21
75.507000000000005
 31
0.0
  0
ARC
  5
C1
  8
0
 62
     7
 10
76.413212000000001
 20
75.611718999999994
 30
0.0
 40
0.292346
 50
2.092074999999999
 51
87.837742000000006
  0
ARC
  5
C2
  8
0
 62
     7
 10
64.396672999999993
 20
75.612043999999997
 30
0.0
 40
0.292009
 50
92.100793999999993
 51
177.96934799999991
  0
LINE
  5
C3
  8
0
 62
     7
 10
64.104799999999983
 20
75.507000000000005
 30
0.0
 11
64.104799999999983
 21
75.622399999999999
 31
0.0
  0
LINE
  5
C4
  8
0
 62
     7
 10
74.260000000000005
 20
69.134900000000002
 30
0.0
 11
74.343699999999998
 21
69.134900000000002
 31
0.0
  0
LINE
  5
C5
  8
0
 62
     7
 10
68.964200000000005
 20
69.500399999999999
 30
0.0
 11
68.964200000000005
 21
71.148200000000003
 31
0.0
  0
ARC
  5
C6
  8
0
 62
     7
 10
69.343695999999994
 20
69.514415
 30
0.0
 40
0.379769
 50
182.1122179999999
 51
267.94178799999992
  0
LINE
  5
C7
  8
0
 62
     7
 10
69.330100000000002
 20
69.134900000000002
 30
0.0
 11
71.540400000000005
 21
69.134900000000002
 31
0.0
  0
ARC
  5
C8
  8
0
 62
     7
 10
71.526531000000006
 20
69.513972999999993
 30
0.0
 40
0.379337
 50
272.10184800000002
 51
357.95218899999998
  0
ARC
  5
C9
  8
0
 62
     7
 10
69.344008000000002
 20
71.134265999999997
 30
0.0
 40
0.380079
 50
92.103581999999989
 51
177.896388
  0
LINE
  5
CA
  8
0
 62
     7
 10
69.330100000000002
 20
71.514099999999999
 30
0.0
 11
71.540400000000005
 21
71.514099999999999
 31
0.0
  0
ARC
  5
CB
  8
0
 62
     7
 10
71.526601999999997
 20
71.135090000000005
 30
0.0
 40
0.379251
 50
1.9836159999999989
 51
87.908371000000002
  0
LINE
  5
CC
  8
0
 62
     7
 10
73.894499999999994
 20
69.500399999999999
 30
0.0
 11
73.894499999999994
 21
71.148200000000003
 31
0.0
  0
ARC
  5
CD
  8
0
 62
     7
 10
74.273992000000007
 20
69.514390000000006
 30
0.0
 40
0.379757
 50
182.108608
 51
267.89142199999998
  0
LINE
  5
CE
  8
0
 62
     7
 10
71.905600000000007
 20
69.500399999999999
 30
0.0
 11
71.905600000000007
 21
71.148200000000003
 31
0.0
  0
LINE
  5
CF
  8
0
 62
     7
 10
66.926699999999997
 20
69.500399999999999
 30
0.0
 11
66.926699999999997
 21
71.148200000000003
 31
0.0
  0
LINE
  5
D0
  8
0
 62
     7
 10
66.466499999999996
 20
69.134900000000002
 30
0.0
 11
66.560900000000004
 21
69.134900000000002
 31
0.0
  0
ARC
  5
D1
  8
0
 62
     7
 10
66.547072999999997
 20
69.514572999999999
 30
0.0
 40
0.3799329999999999
 50
272.08126900000002
 51
357.86476399999998
  0
LINE
  5
D2
  8
0
 62
     7
 10
74.260000000000005
 20
71.514099999999999
 30
0.0
 11
74.343699999999998
 21
71.514099999999999
 31
0.0
  0
ARC
  5
D3
  8
0
 62
     7
 10
74.273995999999997
 20
71.134597999999997
 30
0.0
 40
0.379748
 50
92.109227000000004
 51
177.94471899999991
  0
LINE
  5
D4
  8
0
 62
     7
 10
66.466499999999996
 20
71.514099999999999
 30
0.0
 11
66.560900000000004
 21
71.514099999999999
 31
0.0
  0
ARC
  5
D5
  8
0
 62
     7
 10
66.54692
 20
71.134265999999997
 30
0.0
 40
0.380079
 50
2.1036090000000001
 51
87.896381000000005
  0
LINE
  5
D6
  8
0
 62
     7
 10
66.466499999999996
 20
68.583299999999994
 30
0.0
 11
66.466499999999996
 21
69.134900000000002
 31
0.0
  0
LINE
  5
D7
  8
0
 62
     7
 10
66.466499999999996
 20
73.383399999999995
 30
0.0
 11
66.296300000000002
 21
73.560100000000006
 31
0.0
  0
LINE
  5
D8
  8
0
 62
     7
 10
74.4709
 20
73.560100000000006
 30
0.0
 11
74.343699999999998
 21
73.383399999999995
 31
0.0
  0
LINE
  5
D9
  8
0
 62
     7
 10
74.343699999999998
 20
69.134900000000002
 30
0.0
 11
74.343699999999998
 21
68.583299999999994
 31
0.0
  0
LINE
  5
DA
  8
0
 62
     7
 10
74.343699999999998
 20
73.383399999999995
 30
0.0
 11
74.343699999999998
 21
71.514099999999999
 31
0.0
  0
LINE
  5
DB
  8
0
 62
     7
 10
64.104799999999983
 20
75.507000000000005
 30
0.0
 11
76.705399999999983
 21
75.507000000000005
 31
0.0
  0
LINE
  5
DC
  8
0
 62
     7
 10
81.125399999999999
 20
59.7087
 30
0.0
 11
81.125399999999999
 21
63.748100000000001
 31
0.0
  0
LINE
  5
DD
  8
0
 62
     7
 10
80.844300000000004
 20
59.426900000000003
 30
0.0
 11
78.959199999999996
 21
59.426900000000003
 31
0.0
  0
ARC
  5
DE
  8
0
 62
     7
 10
80.833399
 20
59.718918999999993
 30
0.0
 40
0.292229
 50
272.14318600000001
 51
357.99708299999998
  0
LINE
  5
DF
  8
0
 62
     7
 10
80.844300000000004
 20
64.029600000000002
 30
0.0
 11
78.959199999999996
 21
64.029600000000002
 31
0.0
  0
ARC
  5
E0
  8
0
 62
     7
 10
80.833297000000002
 20
63.737433000000003
 30
0.0
 40
0.292346
 50
2.092074999999999
 51
87.837742000000006
  0
LINE
  5
E1
  8
0
 62
     7
 10
78.959199999999996
 20
64.029600000000002
 30
0.0
 11
78.959199999999996
 21
59.426900000000003
 31
0.0
  0
LINE
  5
E2
  8
0
 62
     7
 10
74.540499999999994
 20
59.6584
 30
0.0
 11
66.269400000000005
 21
59.6584
 31
0.0
  0
LINE
  5
E3
  8
0
 62
     7
 10
76.6571
 20
67.535300000000007
 30
0.0
 11
64.152000000000001
 21
67.535300000000007
 31
0.0
  0
ARC
  5
E4
  8
0
 62
     7
 10
74.885986000000003
 20
59.453348999999989
 30
0.0
 40
0.401799
 50
90.63699299999999
 51
149.31289699999991
  0
LINE
  5
E5
  8
0
 62
     7
 10
78.171599999999998
 20
59.608800000000002
 30
0.0
 11
78.171599999999998
 21
63.843200000000003
 31
0.0
  0
ARC
  5
E6
  8
0
 62
     7
 10
74.949624999999983
 20
64.006038000000004
 30
0.0
 40
0.40945
 50
182.1067819999999
 51
267.89324799999991
  0
LINE
  5
E7
  8
0
 62
     7
 10
78.171599999999998
 20
59.608800000000002
 30
0.0
 11
78.270099999999999
 21
59.510599999999997
 31
0.0
  0
LINE
  5
E8
  8
0
 62
     7
 10
78.270099999999999
 20
63.941400000000002
 30
0.0
 11
78.171599999999998
 21
63.843200000000003
 31
0.0
  0
LINE
  5
E9
  8
0
 62
     7
 10
74.934600000000003
 20
63.596899999999998
 30
0.0
 11
78.171599999999998
 21
63.596899999999998
 31
0.0
  0
LINE
  5
EA
  8
0
 62
     7
 10
78.171599999999998
 20
59.8551
 30
0.0
 11
74.881500000000003
 21
59.8551
 31
0.0
  0
LINE
  5
EB
  8
0
 62
     7
 10
78.959199999999996
 20
59.510599999999997
 30
0.0
 11
78.270099999999999
 21
59.510599999999997
 31
0.0
  0
ARC
  5
EC
  8
0
 62
     7
 10
76.506969999999995
 20
73.501222999999996
 30
0.0
 40
2.0369619999999991
 50
99.109851000000035
 51
178.342422
  0
ARC
  5
ED
  8
0
 62
     7
 10
64.260525999999999
 20
73.501529000000005
 30
0.0
 40
2.0366040000000001
 50
1.649225999999999
 51
80.898460999999998
  0
ARC
  5
EE
  8
0
 62
     7
 10
65.110301000000007
 20
67.969556999999995
 30
0.0
 40
0.614185
 50
92.105160999999995
 51
177.82799199999991
  0
ARC
  5
EF
  8
0
 62
     7
 10
65.094495999999992
 20
67.996952000000007
 30
0.0
 40
0.597954
 50
180.39458400000001
 51
230.4314619999999
  0
ARC
  5
F0
  8
0
 62
     7
 10
75.716743000000008
 20
67.995114000000001
 30
0.0
 40
0.5958820000000001
 50
309.604895
 51
359.78079600000001
  0
ARC
  5
F1
  8
0
 62
     7
 10
75.699543000000006
 20
67.970276999999996
 30
0.0
 40
0.6134920000000002
 50
2.1071379999999991
 51
87.825956000000005
  0
LINE
  5
F2
  8
0
 62
     7
 10
74.540499999999994
 20
65.547799999999995
 30
0.0
 11
74.540499999999994
 21
63.991
 31
0.0
  0
ARC
  5
F3
  8
0
 62
     7
 10
65.263984999999991
 20
65.536338999999998
 30
0.0
 40
1.005495
 50
0.6550810000000001
 51
59.292163999999993
  0
ARC
  5
F4
  8
0
 62
     7
 10
75.544828999999993
 20
65.536531999999994
 30
0.0
 40
1.0044399999999989
 50
120.6280439999999
 51
179.35523699999999
  0
LINE
  5
F5
  8
0
 62
     7
 10
66.269400000000005
 20
59.6584
 30
0.0
 11
66.269400000000005
 21
65.547799999999995
 31
0.0
  0
LINE
  5
F6
  8
0
 62
     7
 10
76.6571
 20
67.338599999999985
 30
0.0
 11
75.033100000000005
 21
66.400800000000004
 31
0.0
  0
LINE
  5
F7
  8
0
 62
     7
 10
76.6571
 20
67.338599999999985
 30
0.0
 11
76.6571
 21
67.535300000000007
 31
0.0
  0
LINE
  5
F8
  8
0
 62
     7
 10
74.343699999999998
 20
59.067599999999999
 30
0.0
 11
66.5154
 21
59.067599999999999
 31
0.0
  0
LINE
  5
F9
  8
0
 62
     7
 10
74.294499999999999
 20
59.067599999999999
 30
0.0
 11
74.294499999999999
 21
59.6584
 31
0.0
  0
LINE
  5
FA
  8
0
 62
     7
 10
66.5154
 20
59.067599999999999
 30
0.0
 11
66.5154
 21
59.6584
 31
0.0
  0
LINE
  5
FB
  8
0
 62
     7
 10
66.466499999999996
 20
57.955800000000011
 30
0.0
 11
66.733099999999993
 21
57.688800000000001
 31
0.0
  0
LINE
  5
FC
  8
0
 62
     7
 10
74.343699999999998
 20
57.955800000000011
 30
0.0
 11
74.076700000000002
 21
57.688800000000001
 31
0.0
  0
LINE
  5
FD
  8
0
 62
     7
 10
74.343699999999998
 20
59.067599999999999
 30
0.0
 11
74.343699999999998
 21
57.955800000000011
 31
0.0
  0
LINE
  5
FE
  8
0
 62
     7
 10
66.466499999999996
 20
57.955800000000011
 30
0.0
 11
66.466499999999996
 21
59.067599999999999
 31
0.0
  0
LINE
  5
FF
  8
0
 62
     7
 10
74.076700000000002
 20
57.688800000000001
 30
0.0
 11
66.733099999999993
 21
57.688800000000001
 31
0.0
  0
LINE
  5
100
  8
0
 62
     7
 10
64.152000000000001
 20
67.338599999999985
 30
0.0
 11
65.777500000000003
 21
66.400800000000004
 31
0.0
  0
LINE
  5
101
  8
0
 62
     7
 10
64.152000000000001
 20
67.338599999999985
 30
0.0
 11
64.152000000000001
 21
67.535300000000007
 31
0.0
  0
LINE
  5
102
  8
0
 62
     7
 10
65.087699999999998
 20
68.583299999999994
 30
0.0
 11
75.722800000000007
 21
68.583299999999994
 31
0.0
  0
LINE
  5
103
  8
0
 62
     7
 10
78.959199999999996
 20
63.941400000000002
 30
0.0
 11
78.270099999999999
 21
63.941400000000002
 31
0.0
  0
LINE
  5
104
  8
0
 62
     7
 10
89.847499999999997
 20
59.398299999999999
 30
0.0
 11
89.373400000000004
 21
61.167700000000004
 31
0.0
  0
LINE
  5
105
  8
0
 62
     7
 10
89.373400000000004
 20
61.167700000000004
 30
0.0
 11
88.898700000000005
 21
59.398299999999999
 31
0.0
  0
LINE
  5
106
  8
0
 62
     7
 10
88.898700000000005
 20
59.398299999999999
 30
0.0
 11
89.847499999999997
 21
59.398299999999999
 31
0.0
  0
LINE
  5
107
  8
0
 62
     7
 10
88.910399999999996
 20
64.018199999999993
 30
0.0
 11
89.384399999999985
 21
62.248800000000003
 31
0.0
  0
LINE
  5
108
  8
0
 62
     7
 10
89.384399999999985
 20
62.248800000000003
 30
0.0
 11
89.858500000000006
 21
64.018199999999993
 31
0.0
  0
LINE
  5
109
  8
0
 62
     7
 10
89.858500000000006
 20
64.018199999999993
 30
0.0
 11
88.910399999999996
 21
64.018199999999993
 31
0.0
  0
LINE
  5
10A
  8
0
 62
     7
 10
89.378900000000016
 20
68.3994
 30
0.0
 11
89.378900000000016
 21
57.816299999999991
 31
0.0
  0
LINE
  5
10B
  8
0
 62
     7
 10
80.375799999999998
 20
62.443800000000003
 30
0.0
 11
78.959199999999996
 21
62.443800000000003
 31
0.0
  0
LINE
  5
10C
  8
0
 62
     7
 10
80.375799999999998
 20
61.933900000000001
 30
0.0
 11
78.959199999999996
 21
61.933900000000001
 31
0.0
  0
LINE
  5
10D
  8
0
 62
     7
 10
80.375799999999998
 20
61.423999999999999
 30
0.0
 11
78.959199999999996
 21
61.423999999999999
 31
0.0
  0
LINE
  5
10E
  8
0
 62
     7
 10
80.375799999999998
 20
60.885899999999992
 30
0.0
 11
78.959199999999996
 21
60.885899999999992
 31
0.0
  0
LINE
  5
10F
  8
0
 62
     7
 10
80.375799999999998
 20
63.576500000000003
 30
0.0
 11
78.959199999999996
 21
63.576500000000003
 31
0.0
  0
LINE
  5
110
  8
0
 62
     7
 10
80.375799999999998
 20
62.981900000000003
 30
0.0
 11
78.959199999999996
 21
62.981900000000003
 31
0.0
  0
LINE
  5
111
  8
0
 62
     7
 10
80.375799999999998
 20
60.319499999999998
 30
0.0
 11
78.959199999999996
 21
60.319499999999998
 31
0.0
  0
LINE
  5
112
  8
0
 62
     7
 10
80.375799999999998
 20
59.809600000000003
 30
0.0
 11
78.959199999999996
 21
59.809600000000003
 31
0.0
  0
LINE
  5
113
  8
0
 62
     7
 10
80.375799999999998
 20
64.029600000000002
 30
0.0
 11
80.375799999999998
 21
59.426900000000003
 31
0.0
  0
LINE
  5
114
  8
0
 62
     7
 10
77.295199999999994
 20
63.596899999999998
 30
0.0
 11
77.295199999999994
 21
59.8551
 31
0.0
  0
LINE
  5
115
  8
0
 62
     7
 10
65.087699999999998
 20
68.583299999999994
 30
0.0
 11
59.1614
 21
68.583299999999994
 31
0.0
  0
LINE
  5
116
  8
0
 62
     7
 10
64.457599999999985
 20
55.071199999999997
 30
0.0
 11
54.688000000000002
 21
55.071199999999997
 31
0.0
  0
LINE
  5
117
  8
0
 62
     7
 10
65.841200000000001
 20
56.320399999999992
 30
0.0
 11
66.463700000000003
 21
58.043300000000002
 31
0.0
  0
LINE
  5
118
  8
0
 62
     7
 10
66.463700000000003
 20
58.043300000000002
 30
0.0
 11
65.063599999999994
 21
56.861699999999999
 31
0.0
  0
LINE
  5
119
  8
0
 62
     7
 10
65.063599999999994
 20
56.861699999999999
 30
0.0
 11
65.841200000000001
 21
56.320399999999992
 31
0.0
  0
ARC
  5
11A
  8
0
 62
     7
 10
5476.7460000000001
 20
-3711.9319999999998
 30
0.0
 40
6594.1769999999988
 50
145.13116199999999
 51
145.16170500000001
  0
LINE
  5
11B
  8
0
 62
     7
 10
70.404899999999998
 20
55.433999999999997
 30
0.0
 11
70.404899999999998
 21
49.557999999999993
 31
0.0
  0
LINE
  5
11C
  8
0
 62
     7
 10
77.691400000000002
 20
63.368099999999991
 30
0.0
 11
78.171599999999998
 21
63.368099999999991
 31
0.0
  0
LINE
  5
11D
  8
0
 62
     7
 10
78.171599999999998
 20
60.0839
 30
0.0
 11
77.691400000000002
 21
60.0839
 31
0.0
  0
LINE
  5
11E
  8
0
 62
     7
 10
77.691400000000002
 20
60.0839
 30
0.0
 11
77.295199999999994
 21
59.8551
 31
0.0
  0
LINE
  5
11F
  8
0
 62
     7
 10
74.076700000000002
 20
57.688800000000001
 30
0.0
 11
74.076700000000002
 21
59.067599999999999
 31
0.0
  0
LINE
  5
120
  8
0
 62
     7
 10
66.466499999999996
 20
57.955800000000011
 30
0.0
 11
74.343699999999998
 21
57.955800000000011
 31
0.0
  0
LINE
  5
121
  8
0
 62
     7
 10
66.733099999999993
 20
57.688800000000001
 30
0.0
 11
66.733099999999993
 21
59.067599999999999
 31
0.0
  0
LINE
  5
122
  8
0
 62
     7
 10
77.691400000000002
 20
59.8551
 30
0.0
 11
77.691400000000002
 21
63.596899999999998
 31
0.0
  0
LINE
  5
123
  8
0
 62
     7
 10
77.295199999999994
 20
63.596899999999998
 30
0.0
 11
77.691400000000002
 21
63.368099999999991
 31
0.0
  0
ARC
  5
124
  8
0
 62
     7
 10
106.666651
 20
63.754786000000003
 30
0.0
 40
0.24826
 50
185.41733699999989
 51
268.57699100000002
  0
ARC
  5
125
  8
0
 62
     7
 10
106.891873
 20
63.814137000000002
 30
0.0
 40
0.479573
 50
178.62789100000001
 51
189.94081800000001
  0
ARC
  5
126
  8
0
 62
     7
 10
106.765556
 20
63.826347999999989
 30
0.0
 40
0.353119
 50
123.58421299999991
 51
180.11806799999999
  0
ARC
  5
127
  8
0
 62
     7
 10
105.391673
 20
63.728673000000001
 30
0.0
 40
0.223164
 50
271.32078100000001
 51
339.45199100000002
  0
ARC
  5
128
  8
0
 62
     7
 10
105.1357969999999
 20
63.813606
 30
0.0
 40
0.492679
 50
340.64779199999992
 51
1.3973789999999999
  0
ARC
  5
129
  8
0
 62
     7
 10
105.27020899999999
 20
63.825178000000001
 30
0.0
 40
0.358121
 50
0.070839
 51
55.852333999999992
  0
ARC
  5
12A
  8
0
 62
     7
 10
105.8824879999999
 20
63.754787
 30
0.0
 40
0.248259
 50
185.41745199999991
 51
268.58964099999997
  0
ARC
  5
12B
  8
0
 62
     7
 10
106.109972
 20
63.814031
 30
0.0
 40
0.4817820000000001
 50
178.6216169999999
 51
189.88202100000001
  0
ARC
  5
12C
  8
0
 62
     7
 10
106.016729
 20
63.829093000000007
 30
0.0
 40
0.3884159999999999
 50
140.594707
 51
180.51232400000001
  0
ARC
  5
12D
  8
0
 62
     7
 10
105.8799379999999
 20
63.900027000000001
 30
0.0
 40
0.23984
 50
97.621765000000025
 51
132.92087000000001
  0
ARC
  5
12E
  8
0
 62
     7
 10
106.17653199999999
 20
63.728354000000003
 30
0.0
 40
0.222843
 50
271.30685699999992
 51
339.508802
  0
ARC
  5
12F
  8
0
 62
     7
 10
105.922979
 20
63.811729999999997
 30
0.0
 40
0.4896550000000001
 50
340.75619399999988
 51
1.625624
  0
ARC
  5
130
  8
0
 62
     7
 10
106.0103969999999
 20
63.826506000000009
 30
0.0
 40
0.402042
 50
359.87379800000002
 51
38.747957999999997
  0
ARC
  5
131
  8
0
 62
     7
 10
106.1649419999999
 20
63.904859999999999
 30
0.0
 40
0.235183
 50
47.459325
 51
80.863564000000011
  0
LINE
  5
132
  8
0
 62
     7
 10
106.339
 20
63.504899999999999
 30
0.0
 11
106.339
 21
62.896799999999999
 31
0.0
  0
LINE
  5
133
  8
0
 62
     7
 10
105.6899999999999
 20
63.504899999999999
 30
0.0
 11
105.6899999999999
 21
62.896799999999999
 31
0.0
  0
ARC
  5
134
  8
0
 62
     7
 10
105.6335559999999
 20
60.259872999999999
 30
0.0
 40
0.5343930000000001
 50
194.28915299999991
 51
230.020567
  0
ARC
  5
135
  8
0
 62
     7
 10
105.947506
 20
60.610565000000001
 30
0.0
 40
1.0049529999999991
 50
229.151195
 51
272.70249799999988
  0
ARC
  5
136
  8
0
 62
     7
 10
105.99225199999999
 20
60.765571999999992
 30
0.0
 40
1.1588459999999989
 50
270.13038699999993
 51
306.22801699999991
  0
ARC
  5
137
  8
0
 62
     7
 10
106.31673600000001
 20
60.27538100000001
 30
0.0
 40
0.572336
 50
309.0273049999999
 51
356.27719100000002
  0
ARC
  5
138
  8
0
 62
     7
 10
106.379233
 20
62.235390999999993
 30
0.0
 40
0.5188810000000002
 50
11.407527999999999
 51
47.888612000000002
  0
ARC
  5
139
  8
0
 62
     7
 10
106.108586
 20
61.964559999999999
 30
0.0
 40
0.9014879999999999
 50
46.670437
 51
78.304244999999995
  0
ARC
  5
13A
  8
0
 62
     7
 10
106.0027179999999
 20
61.638762
 30
0.0
 40
1.242553
 50
76.568995000000001
 51
89.947950000000006
  0
ARC
  5
13B
  8
0
 62
     7
 10
106.00620000000001
 20
61.725940000000001
 30
0.0
 40
1.1553759999999991
 50
90.116685000000004
 51
126.638153
  0
ARC
  5
13C
  8
0
 62
     7
 10
105.6925319999999
 20
62.199464999999996
 30
0.0
 40
0.5890360000000001
 50
129.6439629999999
 51
168.31866099999999
  0
LINE
  5
13D
  8
0
 62
     7
 10
105.90299999999991
 20
59.765900000000002
 30
0.0
 11
105.90299999999991
 21
61.130800000000001
 31
0.0
  0
LINE
  5
13E
  8
0
 62
     7
 10
106.101
 20
59.765900000000002
 30
0.0
 11
106.101
 21
61.130800000000001
 31
0.0
  0
LINE
  5
13F
  8
0
 62
     7
 10
108.20699999999999
 20
62.218499999999992
 30
0.0
 11
108.20699999999999
 21
61.233899999999998
 31
0.0
  0
LINE
  5
140
  8
0
 62
     7
 10
64.104799999999983
 20
76.065399999999997
 30
0.0
 11
64.104799999999983
 21
81.024299999999997
 31
0.0
  0
LINE
  5
141
  8
0
 62
     7
 10
63.92669999999999
 20
75.903899999999993
 30
0.0
 11
59.1614
 21
75.903899999999993
 31
0.0
  0
LINE
  5
142
  8
0
 62
     7
 10
74.933499999999995
 20
80.161999999999992
 30
0.0
 11
76.703000000000003
 21
80.636099999999999
 31
0.0
  0
LINE
  5
143
  8
0
 62
     7
 10
76.703000000000003
 20
80.636099999999999
 30
0.0
 11
74.933499999999995
 21
81.110100000000003
 31
0.0
  0
LINE
  5
144
  8
0
 62
     7
 10
74.933499999999995
 20
81.110100000000003
 30
0.0
 11
74.933499999999995
 21
80.161999999999992
 31
0.0
  0
LINE
  5
145
  8
0
 62
     7
 10
65.8767
 20
81.098699999999994
 30
0.0
 11
64.107299999999995
 21
80.624700000000004
 31
0.0
  0
LINE
  5
146
  8
0
 62
     7
 10
64.107299999999995
 20
80.624700000000004
 30
0.0
 11
65.8767
 21
80.150000000000006
 31
0.0
  0
LINE
  5
147
  8
0
 62
     7
 10
65.8767
 20
80.150000000000006
 30
0.0
 11
65.8767
 21
81.098699999999994
 31
0.0
  0
LINE
  5
148
  8
0
 62
     7
 10
76.705399999999983
 20
80.630199999999988
 30
0.0
 11
64.104799999999983
 21
80.630199999999988
 31
0.0
  0
LINE
  5
149
  8
0
 62
     7
 10
60.024099999999997
 20
74.132400000000004
 30
0.0
 11
59.5501
 21
75.901799999999994
 31
0.0
  0
LINE
  5
14A
  8
0
 62
     7
 10
59.5501
 20
75.901799999999994
 30
0.0
 11
59.076000000000001
 21
74.132400000000004
 31
0.0
  0
LINE
  5
14B
  8
0
 62
     7
 10
59.076000000000001
 20
74.132400000000004
 30
0.0
 11
60.024099999999997
 21
74.132400000000004
 31
0.0
  0
LINE
  5
14C
  8
0
 62
     7
 10
59.087699999999998
 20
70.4482
 30
0.0
 11
59.561799999999991
 21
68.678799999999995
 31
0.0
  0
LINE
  5
14D
  8
0
 62
     7
 10
59.561799999999991
 20
68.678799999999995
 30
0.0
 11
60.035800000000002
 21
70.4482
 31
0.0
  0
LINE
  5
14E
  8
0
 62
     7
 10
60.035800000000002
 20
70.4482
 30
0.0
 11
59.087699999999998
 21
70.4482
 31
0.0
  0
LINE
  5
14F
  8
0
 62
     7
 10
59.555599999999998
 20
75.903899999999993
 30
0.0
 11
59.555599999999998
 21
68.583299999999994
 31
0.0
  0
LINE
  5
150
  8
0
 62
     7
 10
76.705399999999983
 20
75.549700000000001
 30
0.0
 11
76.705399999999983
 21
81.024299999999997
 31
0.0
  0
LINE
  5
151
  8
0
 62
     7
 10
72.210899999999995
 20
50.420000000000002
 30
0.0
 11
70.441500000000005
 21
49.945900000000002
 31
0.0
  0
LINE
  5
152
  8
0
 62
     7
 10
70.441500000000005
 20
49.945900000000002
 30
0.0
 11
72.210899999999995
 21
49.471899999999991
 31
0.0
  0
LINE
  5
153
  8
0
 62
     7
 10
72.210899999999995
 20
49.471899999999991
 30
0.0
 11
72.210899999999995
 21
50.420000000000002
 31
0.0
  0
LINE
  5
154
  8
0
 62
     7
 10
106.633
 20
49.483600000000003
 30
0.0
 11
108.4019999999999
 21
49.957599999999999
 31
0.0
  0
LINE
  5
155
  8
0
 62
     7
 10
108.4019999999999
 20
49.957599999999999
 30
0.0
 11
106.633
 21
50.431699999999992
 31
0.0
  0
LINE
  5
156
  8
0
 62
     7
 10
106.633
 20
50.431699999999992
 30
0.0
 11
106.633
 21
49.483600000000003
 31
0.0
  0
LINE
  5
157
  8
0
 62
     7
 10
70.463200000000001
 20
49.952100000000002
 30
0.0
 11
108.4049999999999
 21
49.952100000000002
 31
0.0
  0
LINE
  5
158
  8
0
  6
AIGENLINE002
 62
     7
 10
106.88799999999991
 20
61.726199999999999
 30
0.0
 11
110.1369999999999
 21
61.726199999999999
 31
0.0
  0
LINE
  5
159
  8
0
  6
AIGENLINE001
 62
     7
 10
70.404899999999998
 20
55.753700000000002
 30
0.0
 11
70.404899999999998
 21
76.864400000000003
 31
0.0
  0
LINE
  5
15A
  8
0
  6
AIGENLINE001
 62
     7
 10
60.519500000000001
 20
61.726199999999999
 30
0.0
 11
105.116
 21
61.726199999999999
 31
0.0
  0
LINE
  5
15B
  8
0
 62
     7
 10
66.466499999999996
 20
71.514099999999999
 30
0.0
 11
66.466499999999996
 21
73.383399999999995
 31
0.0
  0
LINE
  5
15C
  8
0
  6
AIGENLINE001
 62
     7
 10
105.9989999999999
 20
58.810600000000001
 30
0.0
 11
105.9989999999999
 21
65.037999999999997
 31
0.0
  0
ARC
  5
15D
  8
0
 62
     7
 10
164.858103
 20
214.194872
 30
0.0
 40
3.6367980000000002
 50
272.12362200000001
 51
357.88202799999988
  0
ARC
  5
15E
  8
0
 62
     7
 10
165.1265129999999
 20
214.19447
 30
0.0
 40
3.636355
 50
182.11190799999989
 51
267.89376199999998
  0
ARC
  5
15F
  8
0
 62
     7
 10
165.127137
 20
213.926018
 30
0.0
 40
3.6369949999999989
 50
92.115706000000003
 51
177.8814439999999
  0
ARC
  5
160
  8
0
 62
     7
 10
164.85920899999999
 20
213.927345
 30
0.0
 40
3.635645999999999
 50
2.0983839999999989
 51
87.893146000000002
  0
ARC
  5
161
  8
0
 62
     7
 10
144.99275499999999
 20
214.06063900000001
 30
0.0
 40
3.500067
 50
269.99720000000002
 51
359.99716999999998
  0
ARC
  5
162
  8
0
 62
     7
 10
145.12622699999989
 20
214.1937529999999
 30
0.0
 40
3.6356379999999988
 50
182.1010179999999
 51
267.893372
  0
ARC
  5
163
  8
0
 62
     7
 10
145.12751999999989
 20
213.92606599999999
 30
0.0
 40
3.6369709999999991
 50
92.126232999999999
 51
177.88219799999999
  0
ARC
  5
164
  8
0
 62
     7
 10
144.99266900000001
 20
214.06038000000001
 30
0.0
 40
3.5001540000000002
 50
0.00142
 51
90.001390000000001
  0
ARC
  5
165
  8
0
 62
     7
 10
124.9924709999999
 20
214.06063900000001
 30
0.0
 40
3.500067
 50
269.99720000000002
 51
359.99716999999998
  0
ARC
  5
166
  8
0
 62
     7
 10
124.9924709999999
 20
214.06029399999991
 30
0.0
 40
3.4997220000000002
 50
179.99715
 51
269.99720000000002
  0
ARC
  5
167
  8
0
 62
     7
 10
124.9925579999999
 20
214.06072399999999
 30
0.0
 40
3.4998089999999991
 50
90.004230000000007
 51
180.0042399999999
  0
ARC
  5
168
  8
0
 62
     7
 10
124.992385
 20
214.06038000000001
 30
0.0
 40
3.5001540000000002
 50
0.00142
 51
90.001390000000001
  0
LINE
  5
169
  8
0
 62
     7
 10
144.99299999999991
 20
225.93000000000001
 30
0.0
 11
144.99299999999991
 21
220.77099999999999
 31
0.0
  0
LINE
  5
16A
  8
0
 62
     7
 10
164.99299999999991
 20
225.93199999999999
 30
0.0
 11
164.99299999999991
 21
220.38800000000001
 31
0.0
  0
LINE
  5
16B
  8
0
 62
     7
 10
124.992
 20
225.93199999999999
 30
0.0
 11
124.992
 21
220.38800000000001
 31
0.0
  0
LINE
  5
16C
  8
0
 62
     7
 10
146.761
 20
225.90299999999999
 30
0.0
 11
144.99299999999991
 21
225.43000000000001
 31
0.0
  0
LINE
  5
16D
  8
0
 62
     7
 10
144.99299999999991
 20
225.43000000000001
 30
0.0
 11
146.761
 21
224.9559999999999
 31
0.0
  0
LINE
  5
16E
  8
0
 62
     7
 10
146.761
 20
224.9559999999999
 30
0.0
 11
146.761
 21
225.90299999999999
 31
0.0
  0
LINE
  5
16F
  8
0
 62
     7
 10
126.761
 20
225.90299999999999
 30
0.0
 11
124.992
 21
225.43000000000001
 31
0.0
  0
LINE
  5
170
  8
0
 62
     7
 10
124.992
 20
225.43000000000001
 30
0.0
 11
126.761
 21
224.9559999999999
 31
0.0
  0
LINE
  5
171
  8
0
 62
     7
 10
126.761
 20
224.9559999999999
 30
0.0
 11
126.761
 21
225.90299999999999
 31
0.0
  0
LINE
  5
172
  8
0
 62
     7
 10
143.22499999999991
 20
224.96700000000001
 30
0.0
 11
144.99299999999991
 21
225.44099999999989
 31
0.0
  0
LINE
  5
173
  8
0
 62
     7
 10
144.99299999999991
 20
225.44099999999989
 30
0.0
 11
143.22499999999991
 21
225.91499999999991
 31
0.0
  0
LINE
  5
174
  8
0
 62
     7
 10
143.22499999999991
 20
225.91499999999991
 30
0.0
 11
143.22499999999991
 21
224.96700000000001
 31
0.0
  0
LINE
  5
175
  8
0
 62
     7
 10
163.22499999999991
 20
224.96700000000001
 30
0.0
 11
164.99299999999991
 21
225.44099999999989
 31
0.0
  0
LINE
  5
176
  8
0
 62
     7
 10
164.99299999999991
 20
225.44099999999989
 30
0.0
 11
163.22499999999991
 21
225.91499999999991
 31
0.0
  0
LINE
  5
177
  8
0
 62
     7
 10
163.22499999999991
 20
225.91499999999991
 30
0.0
 11
163.22499999999991
 21
224.96700000000001
 31
0.0
  0
LINE
  5
178
  8
0
 62
     7
 10
151.24199999999999
 20
207.81099999999989
 30
0.0
 11
157.291
 21
207.81099999999989
 31
0.0
  0
LINE
  5
179
  8
0
 62
     7
 10
124.992
 20
225.435
 30
0.0
 11
164.99299999999991
 21
225.435
 31
0.0
  0
LINE
  5
17A
  8
0
  6
AIGENLINE001
 62
     7
 10
164.99299999999991
 20
219.76400000000001
 30
0.0
 11
164.99299999999991
 21
208.38499999999991
 31
0.0
  0
LINE
  5
17B
  8
0
  6
AIGENLINE001
 62
     7
 10
119.06699999999999
 20
214.06
 30
0.0
 11
171.24299999999991
 21
214.06
 31
0.0
  0
LINE
  5
17C
  8
0
 62
     7
 10
149.05299999999991
 20
210.66999999999999
 30
0.0
 11
147.46799999999999
 21
211.58500000000001
 31
0.0
  0
LINE
  5
17D
  8
0
 62
     7
 10
147.46799999999999
 20
211.58500000000001
 30
0.0
 11
148.3829999999999
 21
210.0
 31
0.0
  0
LINE
  5
17E
  8
0
 62
     7
 10
148.3829999999999
 20
210.0
 30
0.0
 11
149.05299999999991
 21
210.66999999999999
 31
0.0
  0
LINE
  5
17F
  8
0
 62
     7
 10
140.93199999999999
 20
217.45099999999999
 30
0.0
 11
142.518
 21
216.535
 31
0.0
  0
LINE
  5
180
  8
0
 62
     7
 10
142.518
 20
216.535
 30
0.0
 11
141.60299999999989
 21
218.1209999999999
 31
0.0
  0
LINE
  5
181
  8
0
 62
     7
 10
141.60299999999989
 20
218.1209999999999
 30
0.0
 11
140.93199999999999
 21
217.45099999999999
 31
0.0
  0
LINE
  5
182
  8
0
 62
     7
 10
140.256
 20
218.79699999999991
 30
0.0
 11
151.24199999999999
 21
207.81099999999989
 31
0.0
  0
LINE
  5
183
  8
0
  6
AIGENLINE001
 62
     7
 10
144.99299999999991
 20
220.102
 30
0.0
 11
144.99299999999991
 21
208.01899999999989
 31
0.0
  0
LINE
  5
184
  8
0
  6
AIGENLINE001
 62
     7
 10
124.992
 20
219.76400000000001
 30
0.0
 11
124.992
 21
208.20199999999991
 31
0.0
  0
ARC
  5
185
  8
0
 62
     7
 10
163.82479900000001
 20
161.99309099999991
 30
0.0
 40
0.201244
 50
193.72356599999989
 51
220.603813
  0
ARC
  5
186
  8
0
 62
     7
 10
164.60661499999989
 20
162.28930600000001
 30
0.0
 40
1.0360750000000001
 50
183.144858
 51
199.38909499999991
  0
ARC
  5
187
  8
0
 62
     7
 10
163.38302200000001
 20
161.597724
 30
0.0
 40
0.391684
 50
6.8418369999999999
 51
42.455224000000001
  0
LINE
  5
188
  8
0
 62
     7
 10
163.572
 20
162.99399999999989
 30
0.0
 11
163.572
 21
162.232
 31
0.0
  0
ARC
  5
189
  8
0
 62
     7
 10
158.1127139999999
 20
161.99687900000001
 30
0.0
 40
0.208746
 50
319.79080299999993
 51
346.53628700000002
  0
ARC
  5
18A
  8
0
 62
     7
 10
157.33376799999991
 20
162.288026
 30
0.0
 40
1.0390699999999999
 50
340.91477099999992
 51
356.93491899999998
  0
ARC
  5
18B
  8
0
 62
     7
 10
158.5693389999999
 20
161.59269499999991
 30
0.0
 40
0.4011490000000001
 50
137.8072469999999
 51
172.59645399999991
  0
LINE
  5
18C
  8
0
  6
AIGENLINE001
 62
     7
 10
160.97200000000001
 20
89.558200000000014
 30
0.0
 11
160.97200000000001
 21
175.05299999999991
 31
0.0
  0
ARC
  5
18D
  8
0
 62
     7
 10
160.8207919999999
 20
169.654144
 30
0.0
 40
2.8210669999999989
 50
190.01716399999989
 51
205.38624599999989
  0
ARC
  5
18E
  8
0
 62
     7
 10
162.05468200000001
 20
169.92195799999999
 30
0.0
 40
4.0830260000000003
 50
179.68317500000001
 51
190.70625200000001
  0
ARC
  5
18F
  8
0
 62
     7
 10
160.8207919999999
 20
170.23526799999991
 30
0.0
 40
2.8210669999999989
 50
154.613754
 51
169.98283599999999
  0
ARC
  5
190
  8
0
 62
     7
 10
162.05468200000001
 20
169.967455
 30
0.0
 40
4.0830260000000003
 50
169.29374799999991
 51
180.31682499999991
  0
ARC
  5
191
  8
0
 62
     7
 10
161.1298689999999
 20
169.6510669999999
 30
0.0
 40
2.8138570000000001
 50
334.61346700000001
 51
350.02055300000001
  0
ARC
  5
192
  8
0
 62
     7
 10
159.886346
 20
169.91996499999991
 30
0.0
 40
4.0854619999999997
 50
349.32866999999999
 51
0.344566
  0
ARC
  5
193
  8
0
 62
     7
 10
161.1298689999999
 20
170.23834600000001
 30
0.0
 40
2.8138570000000001
 50
9.9794470000000004
 51
25.386533
  0
ARC
  5
194
  8
0
 62
     7
 10
159.886346
 20
169.96944799999989
 30
0.0
 40
4.0854619999999997
 50
359.6554339999999
 51
10.671329999999999
  0
LINE
  5
195
  8
0
 62
     7
 10
158.17199999999991
 20
163.44499999999999
 30
0.0
 11
158.17199999999991
 21
163.44499999999999
 31
0.0
  0
LINE
  5
196
  8
0
 62
     7
 10
163.77199999999999
 20
163.44499999999999
 30
0.0
 11
163.77199999999999
 21
163.44499999999999
 31
0.0
  0
LINE
  5
197
  8
0
 62
     7
 10
160.97200000000001
 20
171.84499999999991
 30
0.0
 11
160.97200000000001
 21
171.49000000000001
 31
0.0
  0
ARC
  5
198
  8
0
 62
     7
 10
160.98205400000001
 20
148.43764999999991
 30
0.0
 40
24.206997000000001
 50
87.790785999999997
 51
90.024433999999999
  0
ARC
  5
199
  8
0
 62
     7
 10
161.4423919999999
 20
161.820741
 30
0.0
 40
10.816252
 50
79.183612999999994
 51
87.494671999999994
  0
ARC
  5
19A
  8
0
 62
     7
 10
160.96140999999989
 20
148.46388300000001
 30
0.0
 40
24.180764
 50
89.975544999999997
 51
92.210392000000013
  0
ARC
  5
19B
  8
0
 62
     7
 10
160.50182599999999
 20
161.82053500000001
 30
0.0
 40
10.816468999999991
 50
92.506575999999981
 51
100.816559
  0
ARC
  5
19C
  8
0
 62
     7
 10
160.97198399999999
 20
169.84436700000001
 30
0.0
 40
1.6003430000000001
 50
0.009261
 51
90.009231000000014
  0
ARC
  5
19D
  8
0
 62
     7
 10
161.03292999999999
 20
169.78360000000001
 30
0.0
 40
1.662237
 50
92.110111999999987
 51
177.896027
  0
ARC
  5
19E
  8
0
 62
     7
 10
161.03308200000001
 20
169.90580299999991
 30
0.0
 40
1.6623950000000001
 50
182.10902100000001
 51
267.88484
  0
ARC
  5
19F
  8
0
 62
     7
 10
160.91056
 20
169.90632899999989
 30
0.0
 40
1.6629130000000001
 50
272.107978
 51
357.8735299999999
  0
LINE
  5
1A0
  8
0
 62
     7
 10
162.87200000000001
 20
169.845
 30
0.0
 11
161.922
 21
171.49000000000001
 31
0.0
  0
LINE
  5
1A1
  8
0
 62
     7
 10
161.922
 20
171.49000000000001
 30
0.0
 11
160.02199999999999
 21
171.49000000000001
 31
0.0
  0
LINE
  5
1A2
  8
0
 62
     7
 10
160.02199999999999
 20
171.49000000000001
 30
0.0
 11
159.072
 21
169.845
 31
0.0
  0
LINE
  5
1A3
  8
0
 62
     7
 10
159.072
 20
169.845
 30
0.0
 11
160.02199999999999
 21
168.19900000000001
 31
0.0
  0
LINE
  5
1A4
  8
0
 62
     7
 10
160.02199999999999
 20
168.19900000000001
 30
0.0
 11
161.922
 21
168.19900000000001
 31
0.0
  0
LINE
  5
1A5
  8
0
 62
     7
 10
161.922
 20
168.19900000000001
 30
0.0
 11
162.87200000000001
 21
169.845
 31
0.0
  0
ARC
  5
1A6
  8
0
 62
     7
 10
163.13805199999999
 20
163.438715
 30
0.0
 40
0.6338930000000002
 50
0.5347450000000003
 51
53.162787000000002
  0
ARC
  5
1A7
  8
0
 62
     7
 10
162.7494989999999
 20
163.0346649999999
 30
0.0
 40
1.192207999999999
 50
49.857905000000002
 51
77.666753
  0
ARC
  5
1A8
  8
0
 62
     7
 10
162.62560300000001
 20
162.63793299999989
 30
0.0
 40
1.606657999999999
 50
76.372263000000004
 51
90.130706000000004
  0
ARC
  5
1A9
  8
0
 62
     7
 10
162.62393399999999
 20
162.70916800000001
 30
0.0
 40
1.535420999999999
 50
90.074493000000018
 51
122.06897600000001
  0
ARC
  5
1AA
  8
0
 62
     7
 10
162.28014899999999
 20
163.31540699999991
 30
0.0
 40
0.8397149999999999
 50
124.15396200000001
 51
156.210679
  0
ARC
  5
1AB
  8
0
 62
     7
 10
162.04922699999989
 20
163.44343000000001
 30
0.0
 40
0.577271
 50
158.59313700000001
 51
179.880718
  0
ARC
  5
1AC
  8
0
 62
     7
 10
162.1058229999999
 20
163.450547
 30
0.0
 40
0.6338930000000002
 50
180.53476499999991
 51
233.1628069999999
  0
ARC
  5
1AD
  8
0
 62
     7
 10
162.49437499999991
 20
163.8545969999999
 30
0.0
 40
1.192207999999999
 50
229.85792499999999
 51
257.66677299999998
  0
ARC
  5
1AE
  8
0
 62
     7
 10
162.61827199999991
 20
164.251329
 30
0.0
 40
1.606657999999999
 50
256.37228299999992
 51
270.13072599999998
  0
ARC
  5
1AF
  8
0
 62
     7
 10
162.6199409999999
 20
164.18009499999991
 30
0.0
 40
1.535420999999999
 50
270.07451299999991
 51
302.06899599999991
  0
ARC
  5
1B0
  8
0
 62
     7
 10
162.96372500000001
 20
163.57385500000001
 30
0.0
 40
0.8397149999999999
 50
304.15398199999998
 51
336.21069899999998
  0
ARC
  5
1B1
  8
0
 62
     7
 10
163.194648
 20
163.44583299999999
 30
0.0
 40
0.577271
 50
338.59315600000002
 51
359.88073800000001
  0
ARC
  5
1B2
  8
0
 62
     7
 10
159.8383189999999
 20
163.438715
 30
0.0
 40
0.6338930000000002
 50
0.5347450000000003
 51
53.162787000000002
  0
ARC
  5
1B3
  8
0
 62
     7
 10
159.4497659999999
 20
163.0346649999999
 30
0.0
 40
1.192207999999999
 50
49.857905000000002
 51
77.666753
  0
ARC
  5
1B4
  8
0
 62
     7
 10
159.3258689999999
 20
162.63793299999989
 30
0.0
 40
1.606657999999999
 50
76.372263000000004
 51
90.130706000000004
  0
ARC
  5
1B5
  8
0
 62
     7
 10
159.3242009999999
 20
162.70916800000001
 30
0.0
 40
1.535420999999999
 50
90.074493000000018
 51
122.06897600000001
  0
ARC
  5
1B6
  8
0
 62
     7
 10
158.98041599999991
 20
163.31540699999991
 30
0.0
 40
0.8397149999999999
 50
124.15396200000001
 51
156.210679
  0
ARC
  5
1B7
  8
0
 62
     7
 10
158.749494
 20
163.44343000000001
 30
0.0
 40
0.577271
 50
158.59313700000001
 51
179.880718
  0
ARC
  5
1B8
  8
0
 62
     7
 10
158.8060889999999
 20
163.450547
 30
0.0
 40
0.6338930000000002
 50
180.53476499999991
 51
233.1628069999999
  0
ARC
  5
1B9
  8
0
 62
     7
 10
159.19464199999999
 20
163.8545969999999
 30
0.0
 40
1.192207999999999
 50
229.85792499999999
 51
257.66677299999998
  0
ARC
  5
1BA
  8
0
 62
     7
 10
159.3185389999999
 20
164.251329
 30
0.0
 40
1.606657999999999
 50
256.37228299999992
 51
270.13072599999998
  0
ARC
  5
1BB
  8
0
 62
     7
 10
159.32020700000001
 20
164.18009499999991
 30
0.0
 40
1.535420999999999
 50
270.07451299999991
 51
302.06899599999991
  0
ARC
  5
1BC
  8
0
 62
     7
 10
159.66399199999989
 20
163.57385500000001
 30
0.0
 40
0.8397149999999999
 50
304.15398199999998
 51
336.21069899999998
  0
ARC
  5
1BD
  8
0
 62
     7
 10
159.894914
 20
163.44583299999999
 30
0.0
 40
0.577271
 50
338.59315600000002
 51
359.88073800000001
  0
LINE
  5
1BE
  8
0
 62
     7
 10
159.072
 20
140.84399999999991
 30
0.0
 11
158.87200000000001
 21
141.0439999999999
 31
0.0
  0
LINE
  5
1BF
  8
0
 62
     7
 10
162.87200000000001
 20
140.845
 30
0.0
 11
163.072
 21
141.0439999999999
 31
0.0
  0
LINE
  5
1C0
  8
0
 62
     7
 10
163.072
 20
138.64400000000001
 30
0.0
 11
162.87200000000001
 21
138.44499999999991
 31
0.0
  0
LINE
  5
1C1
  8
0
 62
     7
 10
158.87200000000001
 20
138.64400000000001
 30
0.0
 11
159.072
 21
138.44499999999991
 31
0.0
  0
LINE
  5
1C2
  8
0
 62
     7
 10
163.072
 20
138.64400000000001
 30
0.0
 11
158.87200000000001
 21
138.64400000000001
 31
0.0
  0
LINE
  5
1C3
  8
0
 62
     7
 10
159.072
 20
140.84399999999991
 30
0.0
 11
159.072
 21
138.44499999999991
 31
0.0
  0
LINE
  5
1C4
  8
0
 62
     7
 10
162.87200000000001
 20
138.44499999999991
 30
0.0
 11
162.87200000000001
 21
140.845
 31
0.0
  0
LINE
  5
1C5
  8
0
 62
     7
 10
163.072
 20
138.64400000000001
 30
0.0
 11
163.072
 21
141.84499999999991
 31
0.0
  0
LINE
  5
1C6
  8
0
 62
     7
 10
158.87200000000001
 20
141.84499999999991
 30
0.0
 11
158.87200000000001
 21
138.64400000000001
 31
0.0
  0
LINE
  5
1C7
  8
0
 62
     7
 10
162.87200000000001
 20
138.44499999999991
 30
0.0
 11
159.072
 21
138.44499999999991
 31
0.0
  0
LINE
  5
1C8
  8
0
 62
     7
 10
163.072
 20
140.845
 30
0.0
 11
158.87200000000001
 21
140.845
 31
0.0
  0
LINE
  5
1C9
  8
0
 62
     7
 10
163.572
 20
141.84499999999991
 30
0.0
 11
158.37200000000001
 21
141.84499999999991
 31
0.0
  0
LINE
  5
1CA
  8
0
 62
     7
 10
163.572
 20
147.6449999999999
 30
0.0
 11
163.37200000000001
 21
147.845
 31
0.0
  0
LINE
  5
1CB
  8
0
 62
     7
 10
158.37200000000001
 20
147.6449999999999
 30
0.0
 11
158.572
 21
147.845
 31
0.0
  0
LINE
  5
1CC
  8
0
 62
     7
 10
163.37200000000001
 20
147.845
 30
0.0
 11
163.37200000000001
 21
151.245
 31
0.0
  0
LINE
  5
1CD
  8
0
 62
     7
 10
163.572
 20
141.84499999999991
 30
0.0
 11
163.572
 21
151.245
 31
0.0
  0
LINE
  5
1CE
  8
0
 62
     7
 10
158.572
 20
147.845
 30
0.0
 11
158.572
 21
151.245
 31
0.0
  0
LINE
  5
1CF
  8
0
 62
     7
 10
158.37200000000001
 20
141.84499999999991
 30
0.0
 11
158.37200000000001
 21
151.245
 31
0.0
  0
LINE
  5
1D0
  8
0
 62
     7
 10
163.572
 20
147.845
 30
0.0
 11
158.37200000000001
 21
147.845
 31
0.0
  0
LINE
  5
1D1
  8
0
 62
     7
 10
163.97200000000001
 20
151.245
 30
0.0
 11
157.97200000000001
 21
151.245
 31
0.0
  0
LINE
  5
1D2
  8
0
 62
     7
 10
163.97200000000001
 20
152.245
 30
0.0
 11
163.97200000000001
 21
151.245
 31
0.0
  0
LINE
  5
1D3
  8
0
 62
     7
 10
160.97200000000001
 20
152.245
 30
0.0
 11
160.97200000000001
 21
151.245
 31
0.0
  0
LINE
  5
1D4
  8
0
 62
     7
 10
157.97200000000001
 20
152.245
 30
0.0
 11
157.97200000000001
 21
151.245
 31
0.0
  0
LINE
  5
1D5
  8
0
 62
     7
 10
156.47200000000001
 20
152.245
 30
0.0
 11
156.47200000000001
 21
152.44499999999991
 31
0.0
  0
LINE
  5
1D6
  8
0
 62
     7
 10
165.47200000000001
 20
152.245
 30
0.0
 11
165.47200000000001
 21
152.44499999999991
 31
0.0
  0
LINE
  5
1D7
  8
0
 62
     7
 10
165.47200000000001
 20
152.245
 30
0.0
 11
156.47200000000001
 21
152.245
 31
0.0
  0
LINE
  5
1D8
  8
0
 62
     7
 10
163.37200000000001
 20
152.64500000000001
 30
0.0
 11
163.37200000000001
 21
158.64500000000001
 31
0.0
  0
LINE
  5
1D9
  8
0
 62
     7
 10
163.572
 20
152.64500000000001
 30
0.0
 11
163.572
 21
158.64500000000001
 31
0.0
  0
LINE
  5
1DA
  8
0
 62
     7
 10
158.572
 20
152.64500000000001
 30
0.0
 11
158.572
 21
158.64500000000001
 31
0.0
  0
LINE
  5
1DB
  8
0
 62
     7
 10
158.37200000000001
 20
152.64500000000001
 30
0.0
 11
158.37200000000001
 21
158.64500000000001
 31
0.0
  0
LINE
  5
1DC
  8
0
 62
     7
 10
165.172
 20
152.44499999999991
 30
0.0
 11
165.172
 21
152.64500000000001
 31
0.0
  0
LINE
  5
1DD
  8
0
 62
     7
 10
156.77199999999999
 20
152.44499999999991
 30
0.0
 11
156.77199999999999
 21
152.64500000000001
 31
0.0
  0
LINE
  5
1DE
  8
0
 62
     7
 10
165.47200000000001
 20
152.44499999999991
 30
0.0
 11
156.47200000000001
 21
152.44499999999991
 31
0.0
  0
LINE
  5
1DF
  8
0
 62
     7
 10
165.172
 20
152.64500000000001
 30
0.0
 11
156.77199999999999
 21
152.64500000000001
 31
0.0
  0
LINE
  5
1E0
  8
0
 62
     7
 10
163.22200000000001
 20
171.84499999999991
 30
0.0
 11
163.22200000000001
 21
171.44499999999999
 31
0.0
  0
LINE
  5
1E1
  8
0
 62
     7
 10
162.77199999999999
 20
171.84499999999991
 30
0.0
 11
162.77199999999999
 21
171.44499999999999
 31
0.0
  0
LINE
  5
1E2
  8
0
 62
     7
 10
162.322
 20
171.84499999999991
 30
0.0
 11
162.322
 21
171.44499999999999
 31
0.0
  0
LINE
  5
1E3
  8
0
 62
     7
 10
161.87200000000001
 20
171.84499999999991
 30
0.0
 11
161.87200000000001
 21
171.49000000000001
 31
0.0
  0
LINE
  5
1E4
  8
0
 62
     7
 10
161.42199999999991
 20
171.84499999999991
 30
0.0
 11
161.42199999999991
 21
171.49000000000001
 31
0.0
  0
LINE
  5
1E5
  8
0
 62
     7
 10
163.47200000000001
 20
172.44499999999999
 30
0.0
 11
160.97200000000001
 21
172.44499999999999
 31
0.0
  0
LINE
  5
1E6
  8
0
 62
     7
 10
163.47200000000001
 20
172.44499999999999
 30
0.0
 11
163.47200000000001
 21
171.84499999999991
 31
0.0
  0
LINE
  5
1E7
  8
0
 62
     7
 10
163.67199999999991
 20
171.84499999999991
 30
0.0
 11
163.67199999999991
 21
171.44499999999999
 31
0.0
  0
LINE
  5
1E8
  8
0
 62
     7
 10
160.97200000000001
 20
171.84499999999991
 30
0.0
 11
163.67199999999991
 21
171.84499999999991
 31
0.0
  0
LINE
  5
1E9
  8
0
 62
     7
 10
161.94799999999989
 20
171.44499999999999
 30
0.0
 11
163.67199999999991
 21
171.44499999999999
 31
0.0
  0
LINE
  5
1EA
  8
0
 62
     7
 10
162.06399999999991
 20
168.44499999999999
 30
0.0
 11
163.67199999999991
 21
168.44499999999999
 31
0.0
  0
LINE
  5
1EB
  8
0
 62
     7
 10
160.97200000000001
 20
167.84499999999991
 30
0.0
 11
162.37200000000001
 21
167.84499999999991
 31
0.0
  0
LINE
  5
1EC
  8
0
 62
     7
 10
162.072
 20
167.84499999999991
 30
0.0
 11
162.072
 21
168.44499999999999
 31
0.0
  0
LINE
  5
1ED
  8
0
 62
     7
 10
163.172
 20
164.84499999999991
 30
0.0
 11
162.77199999999999
 21
164.84499999999991
 31
0.0
  0
LINE
  5
1EE
  8
0
 62
     7
 10
163.572
 20
164.44499999999991
 30
0.0
 11
163.572
 21
163.89500000000001
 31
0.0
  0
ARC
  5
1EF
  8
0
 62
     7
 10
163.156946
 20
164.42938699999999
 30
0.0
 40
0.415432
 50
2.0953300000000001
 51
87.953989000000007
  0
LINE
  5
1F0
  8
0
 62
     7
 10
162.37200000000001
 20
165.24499999999989
 30
0.0
 11
162.37200000000001
 21
167.84499999999991
 31
0.0
  0
ARC
  5
1F1
  8
0
 62
     7
 10
162.78698600000001
 20
165.25973200000001
 30
0.0
 40
0.415442
 50
182.096676
 51
267.95268299999992
  0
LINE
  5
1F2
  8
0
 62
     7
 10
158.72200000000001
 20
171.84499999999991
 30
0.0
 11
158.72200000000001
 21
171.44499999999999
 31
0.0
  0
LINE
  5
1F3
  8
0
 62
     7
 10
159.172
 20
171.84499999999991
 30
0.0
 11
159.172
 21
171.44499999999999
 31
0.0
  0
LINE
  5
1F4
  8
0
 62
     7
 10
159.62200000000001
 20
171.84499999999991
 30
0.0
 11
159.62200000000001
 21
171.44499999999999
 31
0.0
  0
LINE
  5
1F5
  8
0
 62
     7
 10
160.072
 20
171.84499999999991
 30
0.0
 11
160.072
 21
171.49000000000001
 31
0.0
  0
LINE
  5
1F6
  8
0
 62
     7
 10
160.52199999999999
 20
171.84499999999991
 30
0.0
 11
160.52199999999999
 21
171.49000000000001
 31
0.0
  0
LINE
  5
1F7
  8
0
 62
     7
 10
158.47200000000001
 20
172.44499999999999
 30
0.0
 11
160.97200000000001
 21
172.44499999999999
 31
0.0
  0
LINE
  5
1F8
  8
0
 62
     7
 10
158.47200000000001
 20
172.44499999999999
 30
0.0
 11
158.47200000000001
 21
171.84499999999991
 31
0.0
  0
LINE
  5
1F9
  8
0
 62
     7
 10
158.27199999999999
 20
171.84499999999991
 30
0.0
 11
158.27199999999999
 21
171.44499999999999
 31
0.0
  0
LINE
  5
1FA
  8
0
 62
     7
 10
160.97200000000001
 20
171.84499999999991
 30
0.0
 11
158.27199999999999
 21
171.84499999999991
 31
0.0
  0
LINE
  5
1FB
  8
0
 62
     7
 10
159.99600000000001
 20
171.44499999999999
 30
0.0
 11
158.27199999999999
 21
171.44499999999999
 31
0.0
  0
LINE
  5
1FC
  8
0
 62
     7
 10
159.87999999999991
 20
168.44499999999999
 30
0.0
 11
158.27199999999999
 21
168.44499999999999
 31
0.0
  0
LINE
  5
1FD
  8
0
 62
     7
 10
160.97200000000001
 20
167.84499999999991
 30
0.0
 11
159.572
 21
167.84499999999991
 31
0.0
  0
LINE
  5
1FE
  8
0
 62
     7
 10
159.87200000000001
 20
167.84499999999991
 30
0.0
 11
159.87200000000001
 21
168.44499999999999
 31
0.0
  0
LINE
  5
1FF
  8
0
 62
     7
 10
158.77199999999999
 20
164.84499999999991
 30
0.0
 11
159.172
 21
164.84499999999991
 31
0.0
  0
LINE
  5
200
  8
0
 62
     7
 10
158.37100000000001
 20
162.99399999999989
 30
0.0
 11
158.37100000000001
 21
162.232
 31
0.0
  0
LINE
  5
201
  8
0
 62
     7
 10
158.37200000000001
 20
164.44499999999991
 30
0.0
 11
158.37200000000001
 21
163.89500000000001
 31
0.0
  0
ARC
  5
202
  8
0
 62
     7
 10
158.78751299999999
 20
164.429069
 30
0.0
 40
0.415762
 50
92.08822099999999
 51
177.8624199999999
  0
LINE
  5
203
  8
0
 62
     7
 10
159.572
 20
165.24499999999989
 30
0.0
 11
159.572
 21
167.84499999999991
 31
0.0
  0
ARC
  5
204
  8
0
 62
     7
 10
159.1568399999999
 20
165.259332
 30
0.0
 40
0.415054
 50
272.09273400000001
 51
357.95664799999992
  0
LINE
  5
205
  8
0
 62
     7
 10
159.322
 20
164.245
 30
0.0
 11
162.62200000000001
 21
164.245
 31
0.0
  0
LINE
  5
206
  8
0
 62
     7
 10
159.322
 20
162.64500000000001
 30
0.0
 11
162.62200000000001
 21
162.64500000000001
 31
0.0
  0
LINE
  5
207
  8
0
 62
     7
 10
166.1159999999999
 20
159.8249999999999
 30
0.0
 11
166.4679999999999
 21
159.75399999999991
 31
0.0
  0
LINE
  5
208
  8
0
 62
     7
 10
167.09999999999999
 20
159.09700000000001
 30
0.0
 11
167.172
 21
158.64500000000001
 31
0.0
  0
ARC
  5
209
  8
0
 62
     7
 10
166.29140399999989
 20
158.95232999999999
 30
0.0
 40
0.8212889999999999
 50
10.12580099999999
 51
77.578378999999998
  0
ARC
  5
20A
  8
0
 62
     7
 10
166.47043400000001
 20
161.43057999999991
 30
0.0
 40
1.643886
 50
190.15625099999991
 51
257.54796899999991
  0
LINE
  5
20B
  8
0
 62
     7
 10
164.25999999999991
 20
161.64400000000001
 30
0.0
 11
160.97200000000001
 21
161.64400000000001
 31
0.0
  0
ARC
  5
20C
  8
0
 62
     7
 10
164.24345099999999
 20
161.02427900000001
 30
0.0
 40
0.6203390000000001
 50
10.704529000000001
 51
88.431150000000002
  0
LINE
  5
20D
  8
0
 62
     7
 10
167.172
 20
158.64500000000001
 30
0.0
 11
160.97200000000001
 21
158.64500000000001
 31
0.0
  0
LINE
  5
20E
  8
0
 62
     7
 10
155.827
 20
159.8249999999999
 30
0.0
 11
155.47599999999991
 21
159.75399999999991
 31
0.0
  0
LINE
  5
20F
  8
0
 62
     7
 10
154.84399999999999
 20
159.09700000000001
 30
0.0
 11
154.77199999999999
 21
158.64500000000001
 31
0.0
  0
ARC
  5
210
  8
0
 62
     7
 10
155.65266299999999
 20
158.95240100000001
 30
0.0
 40
0.8212040000000001
 50
102.4176259999999
 51
169.87815399999991
  0
ARC
  5
211
  8
0
 62
     7
 10
155.47453799999991
 20
161.4291199999999
 30
0.0
 40
1.6421330000000001
 50
282.41125499999993
 51
349.88456500000001
  0
LINE
  5
212
  8
0
 62
     7
 10
157.68399999999991
 20
161.64400000000001
 30
0.0
 11
160.97200000000001
 21
161.64400000000001
 31
0.0
  0
ARC
  5
213
  8
0
 62
     7
 10
157.70029700000001
 20
161.02473999999989
 30
0.0
 40
0.6198670000000001
 50
91.533676000000014
 51
169.33060599999999
  0
LINE
  5
214
  8
0
 62
     7
 10
154.77199999999999
 20
158.64500000000001
 30
0.0
 11
160.97200000000001
 21
158.64500000000001
 31
0.0
  0
ARC
  5
215
  8
0
 62
     7
 10
93.353914000000003
 20
211.49140299999999
 30
0.0
 40
1.256105
 50
50.014232000000007
 51
59.997554000000008
  0
ARC
  5
216
  8
0
 62
     7
 10
92.984538999999998
 20
211.00351900000001
 30
0.0
 40
1.8648619999999989
 50
57.664346999999999
 51
84.741444999999985
  0
ARC
  5
217
  8
0
 62
     7
 10
94.548156999999989
 20
212.874
 30
0.0
 40
0.5442140000000001
 50
135.336849
 51
184.141896
  0
LINE
  5
218
  8
0
 62
     7
 10
94.161100000000005
 20
213.25700000000001
 30
0.0
 11
105.20999999999999
 21
212.96599999999989
 31
0.0
  0
LINE
  5
219
  8
0
 62
     7
 10
94.161100000000005
 20
212.45400000000001
 30
0.0
 11
105.20999999999999
 21
211.96899999999999
 31
0.0
  0
ARC
  5
21A
  8
0
 62
     7
 10
105.0037639999999
 20
212.6429399999999
 30
0.0
 40
0.383327
 50
13.703943000000001
 51
57.373918999999987
  0
ARC
  5
21B
  8
0
 62
     7
 10
104.39559800000001
 20
212.48804899999999
 30
0.0
 40
1.0108939999999991
 50
358.44144899999998
 51
14.06692
  0
ARC
  5
21C
  8
0
 62
     7
 10
104.752785
 20
213.30525
 30
0.0
 40
0.569811
 50
323.43332099999992
 51
338.45828199999988
  0
ARC
  5
21D
  8
0
 62
     7
 10
104.094032
 20
213.57033100000001
 30
0.0
 40
1.279890999999999
 50
338.2485069999999
 51
350.77233899999987
  0
ARC
  5
21E
  8
0
 62
     7
 10
101.656144
 20
213.97401499999989
 30
0.0
 40
3.7509709999999989
 50
350.657399
 51
1.320662
  0
ARC
  5
21F
  8
0
 62
     7
 10
94.519429000000002
 20
213.551817
 30
0.0
 40
0.4643220000000001
 50
202.240679
 51
219.48781500000001
  0
ARC
  5
220
  8
0
 62
     7
 10
94.929731999999987
 20
213.72252700000001
 30
0.0
 40
0.908717
 50
187.85156299999991
 51
202.41158200000001
  0
ARC
  5
221
  8
0
 62
     7
 10
96.800768000000005
 20
213.97501399999999
 30
0.0
 40
2.796708999999999
 50
178.24906100000001
 51
187.73937799999999
  0
ARC
  5
222
  8
0
 62
     7
 10
94.456438000000006
 20
212.79685900000001
 30
0.0
 40
0.452658
 50
175.20540600000001
 51
229.27043499999999
  0
ARC
  5
223
  8
0
 62
     7
 10
105.112573
 20
212.17178899999999
 30
0.0
 40
0.224916
 50
295.79227400000002
 51
322.74763799999999
  0
ARC
  5
224
  8
0
 62
     7
 10
104.92785499999999
 20
212.31528499999999
 30
0.0
 40
0.4588160000000001
 50
322.4474009999999
 51
343.459654
  0
ARC
  5
225
  8
0
 62
     7
 10
104.5059879999999
 20
212.44533100000001
 30
0.0
 40
0.9002600000000001
 50
343.16924999999998
 51
0.9689020000000002
  0
LINE
  5
226
  8
0
 62
     7
 10
105.40599999999991
 20
214.06
 30
0.0
 11
105.40599999999991
 21
212.4609999999999
 31
0.0
  0
ARC
  5
227
  8
0
 62
     7
 10
93.353914000000003
 20
216.62970200000001
 30
0.0
 40
1.256105
 50
300.00244600000002
 51
309.98576799999989
  0
ARC
  5
228
  8
0
 62
     7
 10
92.984538999999998
 20
217.1175859999999
 30
0.0
 40
1.8648619999999989
 50
275.258555
 51
302.33565299999998
  0
ARC
  5
229
  8
0
 62
     7
 10
94.548121999999992
 20
215.24707599999991
 30
0.0
 40
0.5441690000000001
 50
175.872905
 51
224.66355599999989
  0
LINE
  5
22A
  8
0
 62
     7
 10
94.161100000000005
 20
214.8649999999999
 30
0.0
 11
105.20999999999999
 21
215.15499999999989
 31
0.0
  0
LINE
  5
22B
  8
0
 62
     7
 10
94.161100000000005
 20
215.667
 30
0.0
 11
105.20999999999999
 21
216.15199999999999
 31
0.0
  0
LINE
  5
22C
  8
0
 62
     7
 10
105.40599999999991
 20
212.4609999999999
 30
0.0
 11
105.706
 21
212.4609999999999
 31
0.0
  0
LINE
  5
22D
  8
0
 62
     7
 10
105.706
 20
212.46000000000001
 30
0.0
 11
105.706
 21
215.66
 31
0.0
  0
LINE
  5
22E
  8
0
 62
     7
 10
105.40599999999991
 20
215.66
 30
0.0
 11
105.706
 21
215.66
 31
0.0
  0
ARC
  5
22F
  8
0
 62
     7
 10
90.405733999999995
 20
214.06046599999999
 30
0.0
 40
2.000062999999999
 50
90.0
 51
179.99996999999991
  0
ARC
  5
230
  8
0
 62
     7
 10
90.405560999999992
 20
214.0606379999999
 30
0.0
 40
1.9998910000000001
 50
359.99507499999999
 51
89.995044999999976
  0
ARC
  5
231
  8
0
 62
     7
 10
90.405647000000002
 20
214.06038099999989
 30
0.0
 40
1.9998049999999989
 50
270.00248699999997
 51
0.002458
  0
ARC
  5
232
  8
0
 62
     7
 10
90.405647000000002
 20
214.060552
 30
0.0
 40
1.9999759999999991
 50
180.002477
 51
270.00248699999997
  0
ARC
  5
233
  8
0
 62
     7
 10
90.405733999999995
 20
214.06046599999999
 30
0.0
 40
2.5001220000000002
 50
90.0
 51
179.99996999999991
  0
ARC
  5
234
  8
0
 62
     7
 10
90.405560999999992
 20
214.0606379999999
 30
0.0
 40
2.4999500000000001
 50
359.99606199999999
 51
89.996032000000014
  0
ARC
  5
235
  8
0
 62
     7
 10
90.405647000000002
 20
214.06038099999989
 30
0.0
 40
2.4998640000000001
 50
270.00199399999991
 51
0.001964
  0
ARC
  5
236
  8
0
 62
     7
 10
90.405647000000002
 20
214.060552
 30
0.0
 40
2.500035
 50
180.00198399999999
 51
270.00199399999991
  0
ARC
  5
237
  8
0
 62
     7
 10
105.003744
 20
215.47819699999999
 30
0.0
 40
0.383364
 50
302.62610100000001
 51
346.28597600000001
  0
ARC
  5
238
  8
0
 62
     7
 10
104.3964349999999
 20
215.6329089999999
 30
0.0
 40
1.0100569999999991
 50
345.92730399999988
 51
1.5584549999999999
  0
ARC
  5
239
  8
0
 62
     7
 10
104.753417
 20
214.81630999999999
 30
0.0
 40
0.569032
 50
21.516448999999991
 51
36.567830999999998
  0
ARC
  5
23A
  8
0
 62
     7
 10
104.093238
 20
214.55050600000001
 30
0.0
 40
1.2807029999999999
 50
9.2300039999999992
 51
21.746790000000001
  0
ARC
  5
23B
  8
0
 62
     7
 10
101.6559849999999
 20
214.14698300000001
 30
0.0
 40
3.7511309999999991
 50
358.67841199999998
 51
9.3425370000000001
  0
ARC
  5
23C
  8
0
 62
     7
 10
94.519429000000002
 20
214.56928799999989
 30
0.0
 40
0.4643220000000001
 50
140.51218499999999
 51
157.759321
  0
ARC
  5
23D
  8
0
 62
     7
 10
94.929589000000007
 20
214.39862899999989
 30
0.0
 40
0.9085649999999998
 50
157.587932
 51
172.1517189999999
  0
ARC
  5
23E
  8
0
 62
     7
 10
96.801807999999994
 20
214.14598699999999
 30
0.0
 40
2.797750999999999
 50
172.261821
 51
181.751689
  0
ARC
  5
23F
  8
0
 62
     7
 10
94.456470999999993
 20
215.32421600000001
 30
0.0
 40
0.4527020000000001
 50
130.73015100000001
 51
184.81215599999999
  0
ARC
  5
240
  8
0
 62
     7
 10
105.112573
 20
215.94931600000001
 30
0.0
 40
0.224916
 50
37.252361999999991
 51
64.207725999999994
  0
ARC
  5
241
  8
0
 62
     7
 10
104.92812600000001
 20
215.80599599999999
 30
0.0
 40
0.458493
 50
16.523720999999998
 51
37.555816
  0
ARC
  5
242
  8
0
 62
     7
 10
104.50559199999999
 20
215.67566899999991
 30
0.0
 40
0.9006559999999998
 50
359.027265
 51
16.827252999999988
  0
ARC
  5
243
  8
0
 62
     7
 10
90.405733999999995
 20
214.06046599999999
 30
0.0
 40
3.000008999999999
 50
90.0
 51
179.99996999999991
  0
ARC
  5
244
  8
0
 62
     7
 10
90.405732999999998
 20
214.06046599999999
 30
0.0
 40
3.000008999999999
 50
0.00001
 51
89.999980000000008
  0
ARC
  5
245
  8
0
 62
     7
 10
90.405732999999998
 20
214.06046699999999
 30
0.0
 40
3.000008999999999
 50
270.00002000000001
 51
359.99998999999991
  0
ARC
  5
246
  8
0
 62
     7
 10
90.405732999999998
 20
214.06046599999999
 30
0.0
 40
3.0000079999999998
 50
179.99996999999991
 51
270.00002000000001
  0
ARC
  5
247
  8
0
 62
     7
 10
90.405474999999996
 20
214.060554
 30
0.0
 40
6.2000900000000003
 50
254.03090199999991
 51
344.03087199999999
  0
ARC
  5
248
  8
0
 62
     7
 10
90.58426
 20
214.19517300000001
 30
0.0
 40
6.3801259999999997
 50
181.2098179999999
 51
252.8198109999999
  0
ARC
  5
249
  8
0
 62
     7
 10
90.405734999999979
 20
214.06046499999991
 30
0.0
 40
6.2001790000000003
 50
90.0
 51
179.99996999999991
  0
ARC
  5
24A
  8
0
 62
     7
 10
90.269986000000003
 20
213.8808709999999
 30
0.0
 40
6.3812169999999986
 50
17.143508999999991
 51
88.781042000000014
  0
LINE
  5
24B
  8
0
  6
AIGENLINE001
 62
     7
 10
90.4054
 20
206.7359999999999
 30
0.0
 11
90.4054
 21
221.59699999999989
 31
0.0
  0
LINE
  5
24C
  8
0
 62
     7
 10
105.40599999999991
 20
214.06
 30
0.0
 11
105.40599999999991
 21
215.66
 31
0.0
  0
ARC
  5
24D
  8
0
 62
     7
 10
47.494500999999993
 20
211.4394649999999
 30
0.0
 40
1.3202359999999991
 50
119.9541679999999
 51
129.79625799999991
  0
ARC
  5
24E
  8
0
 62
     7
 10
47.823042000000001
 20
211.01288899999989
 30
0.0
 40
1.855259999999999
 50
95.193601000000001
 51
122.16788099999999
  0
ARC
  5
24F
  8
0
 62
     7
 10
46.261738999999999
 20
212.8737569999999
 30
0.0
 40
0.544854
 50
355.88868100000002
 51
44.632573000000001
  0
LINE
  5
250
  8
0
 62
     7
 10
46.649500000000003
 20
213.25700000000001
 30
0.0
 11
35.600099999999998
 21
212.96599999999989
 31
0.0
  0
LINE
  5
251
  8
0
 62
     7
 10
46.649500000000003
 20
212.45400000000001
 30
0.0
 11
35.600099999999998
 21
211.96899999999999
 31
0.0
  0
ARC
  5
252
  8
0
 62
     7
 10
35.809849
 20
212.642019
 30
0.0
 40
0.385757
 50
122.9348169999999
 51
165.57386699999989
  0
ARC
  5
253
  8
0
 62
     7
 10
36.401620999999992
 20
212.48932499999989
 30
0.0
 40
0.996911
 50
165.547999
 51
181.6538229999999
  0
ARC
  5
254
  8
0
 62
     7
 10
36.060355999999999
 20
213.3051449999999
 30
0.0
 40
0.5718270000000001
 50
201.450785
 51
216.40400999999989
  0
ARC
  5
255
  8
0
 62
     7
 10
36.724099000000002
 20
213.57118299999999
 30
0.0
 40
1.2868939999999991
 50
189.21542400000001
 51
201.66794100000001
  0
ARC
  5
256
  8
0
 62
     7
 10
39.164831
 20
213.974323
 30
0.0
 40
3.7606919999999988
 50
178.6874389999999
 51
189.323025
  0
ARC
  5
257
  8
0
 62
     7
 10
46.291980000000002
 20
213.55128799999989
 30
0.0
 40
0.4633270000000001
 50
320.49560600000001
 51
337.779742
  0
ARC
  5
258
  8
0
 62
     7
 10
45.881197
 20
213.72244599999999
 30
0.0
 40
0.908336
 50
337.58403199999998
 51
352.15027700000002
  0
ARC
  5
259
  8
0
 62
     7
 10
44.009776000000002
 20
213.9750149999999
 30
0.0
 40
2.7967209999999989
 50
352.26066200000002
 51
1.7508999999999999
  0
ARC
  5
25A
  8
0
 62
     7
 10
46.356486999999987
 20
212.7958899999999
 30
0.0
 40
0.450379
 50
310.581569
 51
4.942588999999999
  0
ARC
  5
25B
  8
0
 62
     7
 10
35.692107999999998
 20
212.1622899999999
 30
0.0
 40
0.21381
 50
218.9910129999999
 51
244.51743099999999
  0
ARC
  5
25C
  8
0
 62
     7
 10
35.859279999999998
 20
212.30151799999999
 30
0.0
 40
0.431356
 50
198.103318
 51
219.393495
  0
ARC
  5
25D
  8
0
 62
     7
 10
36.277535999999998
 20
212.4421209999999
 30
0.0
 40
0.8726049999999999
 50
178.78958499999999
 51
198.34480600000001
  0
LINE
  5
25E
  8
0
 62
     7
 10
35.40509999999999
 20
214.06
 30
0.0
 11
35.40509999999999
 21
212.4609999999999
 31
0.0
  0
ARC
  5
25F
  8
0
 62
     7
 10
47.494500999999993
 20
216.68163999999999
 30
0.0
 40
1.3202359999999991
 50
230.20374200000001
 51
240.0458319999999
  0
ARC
  5
260
  8
0
 62
     7
 10
47.823042000000001
 20
217.108217
 30
0.0
 40
1.855259999999999
 50
237.83211900000001
 51
264.806399
  0
ARC
  5
261
  8
0
 62
     7
 10
46.261774000000003
 20
215.24732
 30
0.0
 40
0.544809
 50
315.367006
 51
4.0965329999999991
  0
ARC
  5
262
  8
0
 62
     7
 10
70.273777999999993
 20
214.132294
 30
0.0
 40
6.5318889999999987
 50
302.76943399999999
 51
359.36993899999987
  0
ARC
  5
263
  8
0
 62
     7
 10
70.405017999999998
 20
214.06037900000001
 30
0.0
 40
6.4002540000000003
 50
0.000781
 51
90.000750999999994
  0
ARC
  5
264
  8
0
 62
     7
 10
70.405107000000001
 20
214.0606379999999
 30
0.0
 40
6.3999949999999988
 50
90.001542000000001
 51
180.001552
  0
ARC
  5
265
  8
0
 62
     7
 10
70.528407999999999
 20
214.127588
 30
0.0
 40
6.5236419999999988
 50
180.58954900000001
 51
237.26957599999989
  0
ARC
  5
266
  8
0
 62
     7
 10
87.476462999999995
 20
208.7556439999999
 30
0.0
 40
14.478073999999999
 50
158.50597999999991
 51
165.36578399999999
  0
ARC
  5
267
  8
0
 62
     7
 10
99.628489999999999
 20
205.40512699999991
 30
0.0
 40
27.082913000000001
 50
165.002645
 51
170.990306
  0
ARC
  5
268
  8
0
 62
     7
 10
122.094403
 20
201.56586299999989
 30
0.0
 40
49.87362499999999
 50
170.6758669999999
 51
175.00509700000001
  0
ARC
  5
269
  8
0
 62
     7
 10
158.67435900000001
 20
198.051974
 30
0.0
 40
86.621185999999994
 50
174.796312
 51
178.02528100000001
  0
ARC
  5
26A
  8
0
 62
     7
 10
219.05605199999999
 20
195.60339999999999
 30
0.0
 40
147.05185099999991
 50
177.8824909999999
 51
180.169613
  0
LINE
  5
26B
  8
0
 62
     7
 10
72.004800000000003
 20
195.16799999999989
 30
0.0
 11
72.004800000000003
 21
187.01799999999989
 31
0.0
  0
ARC
  5
26C
  8
0
 62
     7
 10
86.828128000000007
 20
191.071223
 30
0.0
 40
13.923073999999991
 50
179.979522
 51
186.52225399999989
  0
ARC
  5
26D
  8
0
 62
     7
 10
84.750292999999999
 20
191.05515299999999
 30
0.0
 40
11.858903
 50
187.58548999999999
 51
191.859117
  0
ARC
  5
26E
  8
0
 62
     7
 10
-223.56299100000001
 20
125.2920019999999
 30
0.0
 40
303.390064
 50
11.881672
 51
12.047834
  0
ARC
  5
26F
  8
0
 62
     7
 10
86.653120999999985
 20
207.93820299999999
 30
0.0
 40
12.713772000000001
 50
154.23500999999999
 51
161.55872699999989
  0
ARC
  5
270
  8
0
 62
     7
 10
93.611447999999996
 20
205.52114
 30
0.0
 40
20.079582999999989
 50
161.29678000000001
 51
168.1419249999999
  0
ARC
  5
271
  8
0
 62
     7
 10
106.1814819999999
 20
202.71168399999999
 30
0.0
 40
32.959097999999997
 50
167.85246000000001
 51
173.05121600000001
  0
ARC
  5
272
  8
0
 62
     7
 10
129.50906399999991
 20
199.6449639999999
 30
0.0
 40
56.486787
 50
172.826053
 51
176.87454799999989
  0
ARC
  5
273
  8
0
 62
     7
 10
168.31202899999991
 20
197.12701999999999
 30
0.0
 40
95.370149999999995
 50
176.63508999999991
 51
178.12562899999989
  0
ARC
  5
274
  8
0
 62
     7
 10
219.13224500000001
 20
195.46830600000001
 30
0.0
 40
146.21742900000001
 50
178.12734900000001
 51
179.3509699999999
  0
ARC
  5
275
  8
0
 62
     7
 10
490.30875999999989
 20
192.779381
 30
0.0
 40
417.40717999999998
 50
179.40352899999999
 51
180.23381000000001
  0
ARC
  5
276
  8
0
 62
     7
 10
53.981999000000002
 20
191.07122799999999
 30
0.0
 40
13.92315799999999
 50
353.47778499999993
 51
0.020438
  0
ARC
  5
277
  8
0
 62
     7
 10
56.059918000000003
 20
191.05515299999999
 30
0.0
 40
11.858903
 50
348.14090299999998
 51
352.4145299999999
  0
ARC
  5
278
  8
0
 62
     7
 10
364.37320099999988
 20
125.2920019999999
 30
0.0
 40
303.390064
 50
167.952146
 51
168.11830900000001
  0
ARC
  5
279
  8
0
 62
     7
 10
54.157089999999997
 20
207.93820299999999
 30
0.0
 40
12.713772000000001
 50
18.441252999999989
 51
25.764970000000002
  0
ARC
  5
27A
  8
0
 62
     7
 10
47.198763
 20
205.52114
 30
0.0
 40
20.079582999999989
 50
11.858055
 51
18.703199999999988
  0
ARC
  5
27B
  8
0
 62
     7
 10
34.628729
 20
202.71168399999999
 30
0.0
 40
32.959097999999997
 50
6.948764999999999
 51
12.14752
  0
ARC
  5
27C
  8
0
 62
     7
 10
11.301147
 20
199.6449639999999
 30
0.0
 40
56.486787
 50
3.1254319999999991
 51
7.1739269999999999
  0
ARC
  5
27D
  8
0
 62
     7
 10
-27.501818
 20
197.12701999999999
 30
0.0
 40
95.370149999999995
 50
1.8743510000000001
 51
3.364889999999999
  0
ARC
  5
27E
  8
0
 62
     7
 10
-78.322034000000002
 20
195.46830600000001
 30
0.0
 40
146.21742900000001
 50
0.6490100000000001
 51
1.8726309999999999
  0
ARC
  5
27F
  8
0
 62
     7
 10
-349.518507
 20
192.7793179999999
 30
0.0
 40
417.42713700000002
 50
359.76623000000001
 51
0.5964310000000002
  0
ARC
  5
280
  8
0
 62
     7
 10
53.338603999999997
 20
208.75686200000001
 30
0.0
 40
14.47310899999999
 50
14.634345
 51
21.496559000000001
  0
ARC
  5
281
  8
0
 62
     7
 10
41.191096000000002
 20
205.40685099999999
 30
0.0
 40
27.073453999999991
 50
9.0091539999999988
 51
14.998920999999999
  0
ARC
  5
282
  8
0
 62
     7
 10
18.736038000000001
 20
201.56839500000001
 30
0.0
 40
49.853321000000001
 50
4.994000999999999
 51
9.3249949999999995
  0
ARC
  5
283
  8
0
 62
     7
 10
-17.856507000000001
 20
198.053023
 30
0.0
 40
86.613550999999987
 50
1.9741789999999999
 51
5.2034320000000003
  0
ARC
  5
284
  8
0
 62
     7
 10
-78.296231000000006
 20
195.603487
 30
0.0
 40
147.10224099999991
 50
359.83043099999998
 51
2.11673
  0
LINE
  5
285
  8
0
 62
     7
 10
68.636899999999997
 20
227.154
 30
0.0
 11
70.405299999999997
 21
227.6279999999999
 31
0.0
  0
LINE
  5
286
  8
0
 62
     7
 10
70.405299999999997
 20
227.6279999999999
 30
0.0
 11
68.636899999999997
 21
228.102
 31
0.0
  0
LINE
  5
287
  8
0
 62
     7
 10
68.636899999999997
 20
228.102
 30
0.0
 11
68.636899999999997
 21
227.154
 31
0.0
  0
LINE
  5
288
  8
0
 62
     7
 10
88.636999999999986
 20
227.154
 30
0.0
 11
90.4054
 21
227.6279999999999
 31
0.0
  0
LINE
  5
289
  8
0
 62
     7
 10
90.4054
 20
227.6279999999999
 30
0.0
 11
88.636999999999986
 21
228.102
 31
0.0
  0
LINE
  5
28A
  8
0
 62
     7
 10
88.636999999999986
 20
228.102
 30
0.0
 11
88.636999999999986
 21
227.154
 31
0.0
  0
LINE
  5
28B
  8
0
 62
     7
 10
72.173699999999997
 20
228.09099999999989
 30
0.0
 11
70.405299999999997
 21
227.61699999999999
 31
0.0
  0
LINE
  5
28C
  8
0
 62
     7
 10
70.405299999999997
 20
227.61699999999999
 30
0.0
 11
72.173699999999997
 21
227.143
 31
0.0
  0
LINE
  5
28D
  8
0
 62
     7
 10
72.173699999999997
 20
227.143
 30
0.0
 11
72.173699999999997
 21
228.09099999999989
 31
0.0
  0
LINE
  5
28E
  8
0
 62
     7
 10
48.606299999999997
 20
199.91
 30
0.0
 11
50.405000000000001
 21
200.24999999999989
 31
0.0
  0
LINE
  5
28F
  8
0
 62
     7
 10
50.405000000000001
 20
200.24999999999989
 30
0.0
 11
48.677100000000003
 21
200.85499999999999
 31
0.0
  0
LINE
  5
290
  8
0
 62
     7
 10
48.677100000000003
 20
200.85499999999999
 30
0.0
 11
48.606299999999997
 21
199.91
 31
0.0
  0
LINE
  5
291
  8
0
 62
     7
 10
37.158999999999992
 20
212.31899999999999
 30
0.0
 11
36.594900000000003
 21
214.06
 31
0.0
  0
LINE
  5
292
  8
0
 62
     7
 10
36.594900000000003
 20
214.06
 30
0.0
 11
36.212699999999991
 21
212.27000000000001
 31
0.0
  0
LINE
  5
293
  8
0
 62
     7
 10
36.212699999999991
 20
212.27000000000001
 30
0.0
 11
37.158999999999992
 21
212.31899999999999
 31
0.0
  0
LINE
  5
294
  8
0
 62
     7
 10
52.17349999999999
 20
228.09099999999989
 30
0.0
 11
50.405299999999997
 21
227.61699999999999
 31
0.0
  0
LINE
  5
295
  8
0
 62
     7
 10
50.405299999999997
 20
227.61699999999999
 30
0.0
 11
52.17349999999999
 21
227.143
 31
0.0
  0
LINE
  5
296
  8
0
 62
     7
 10
52.17349999999999
 20
227.143
 30
0.0
 11
52.17349999999999
 21
228.09099999999989
 31
0.0
  0
LINE
  5
297
  8
0
 62
     7
 10
90.4054
 20
227.62299999999991
 30
0.0
 11
50.405200000000001
 21
227.62299999999991
 31
0.0
  0
LINE
  5
298
  8
0
 62
     7
 10
90.4054
 20
206.28599999999989
 30
0.0
 11
90.4054
 21
199.65299999999991
 31
0.0
  0
LINE
  5
299
  8
0
 62
     7
 10
50.405200000000001
 20
206.28599999999989
 30
0.0
 11
50.405200000000001
 21
199.65299999999991
 31
0.0
  0
LINE
  5
29A
  8
0
 62
     7
 10
90.4054
 20
227.92500000000001
 30
0.0
 11
90.4054
 21
221.93299999999991
 31
0.0
  0
LINE
  5
29B
  8
0
 62
     7
 10
70.405299999999997
 20
227.92500000000001
 30
0.0
 11
70.405299999999997
 21
221.93299999999991
 31
0.0
  0
LINE
  5
29C
  8
0
 62
     7
 10
50.405200000000001
 20
227.92500000000001
 30
0.0
 11
50.405200000000001
 21
221.93299999999991
 31
0.0
  0
LINE
  5
29D
  8
0
 62
     7
 10
73.375299999999996
 20
219.40599999999989
 30
0.0
 11
72.350700000000003
 21
217.35499999999999
 31
0.0
  0
LINE
  5
29E
  8
0
  6
AIGENLINE001
 62
     7
 10
70.405299999999997
 20
221.59499999999991
 30
0.0
 11
70.405299999999997
 21
183.04900000000001
 31
0.0
  0
LINE
  5
29F
  8
0
 62
     7
 10
67.432000000000002
 20
219.40599999999989
 30
0.0
 11
68.456400000000002
 21
217.35499999999999
 31
0.0
  0
LINE
  5
2A0
  8
0
 62
     7
 10
68.805400000000006
 20
195.16799999999989
 30
0.0
 11
68.805400000000006
 21
187.01799999999989
 31
0.0
  0
LINE
  5
2A1
  8
0
 62
     7
 10
74.005099999999999
 20
214.06
 30
0.0
 11
72.203599999999994
 21
217.05999999999989
 31
0.0
  0
LINE
  5
2A2
  8
0
 62
     7
 10
68.603700000000003
 20
217.05999999999989
 30
0.0
 11
66.805000000000007
 21
214.06
 31
0.0
  0
LINE
  5
2A3
  8
0
 62
     7
 10
68.603700000000003
 20
217.05999999999989
 30
0.0
 11
72.203599999999994
 21
217.05999999999989
 31
0.0
  0
ARC
  5
2A4
  8
0
 62
     7
 10
70.518248
 20
187.13622899999999
 30
0.0
 40
3.097850999999999
 50
168.43391800000001
 51
247.37703300000001
  0
ARC
  5
2A5
  8
0
 62
     7
 10
70.405162000000004
 20
187.07633000000001
 30
0.0
 40
3.0001639999999989
 50
248.93069499999999
 51
338.92296499999992
  0
ARC
  5
2A6
  8
0
 62
     7
 10
70.395922999999996
 20
187.0779379999999
 30
0.0
 40
3.009363
 50
338.95764500000001
 51
359.9644009999999
  0
ARC
  5
2A7
  8
0
 62
     7
 10
70.402578000000005
 20
187.07576899999989
 30
0.0
 40
3.0027080000000002
 50
0.005723
 51
13.119673000000001
  0
LINE
  5
2A8
  8
0
 62
     7
 10
46.649500000000003
 20
214.8649999999999
 30
0.0
 11
35.600099999999998
 21
215.15499999999989
 31
0.0
  0
LINE
  5
2A9
  8
0
 62
     7
 10
46.649500000000003
 20
215.667
 30
0.0
 11
35.600099999999998
 21
216.15199999999999
 31
0.0
  0
LINE
  5
2AA
  8
0
 62
     7
 10
35.40509999999999
 20
212.4609999999999
 30
0.0
 11
35.104900000000001
 21
212.4609999999999
 31
0.0
  0
LINE
  5
2AB
  8
0
 62
     7
 10
35.104900000000001
 20
212.46000000000001
 30
0.0
 11
35.104900000000001
 21
215.66
 31
0.0
  0
LINE
  5
2AC
  8
0
 62
     7
 10
35.40509999999999
 20
215.66
 30
0.0
 11
35.104900000000001
 21
215.66
 31
0.0
  0
ARC
  5
2AD
  8
0
 62
     7
 10
50.404821000000013
 20
214.06046599999999
 30
0.0
 40
2.000062999999999
 50
0.00001
 51
89.999980000000008
  0
ARC
  5
2AE
  8
0
 62
     7
 10
50.404994000000002
 20
214.0606379999999
 30
0.0
 40
1.9998910000000001
 50
90.004935000000003
 51
180.00494499999991
  0
ARC
  5
2AF
  8
0
 62
     7
 10
50.404907000000001
 20
214.06038000000001
 30
0.0
 40
1.9998039999999999
 50
179.99750299999991
 51
269.99755199999993
  0
ARC
  5
2B0
  8
0
 62
     7
 10
50.404907000000001
 20
214.06055299999991
 30
0.0
 40
1.9999769999999999
 50
269.99755199999993
 51
359.997523
  0
ARC
  5
2B1
  8
0
 62
     7
 10
50.404821000000013
 20
214.06046599999999
 30
0.0
 40
2.5001220000000002
 50
0.00001
 51
89.999980000000008
  0
ARC
  5
2B2
  8
0
 62
     7
 10
50.404994000000002
 20
214.0606379999999
 30
0.0
 40
2.4999500000000001
 50
90.003947999999994
 51
180.00395800000001
  0
ARC
  5
2B3
  8
0
 62
     7
 10
50.404907000000001
 20
214.06038000000001
 30
0.0
 40
2.4998629999999991
 50
179.99799599999989
 51
269.99804599999987
  0
ARC
  5
2B4
  8
0
 62
     7
 10
50.404907000000001
 20
214.06055299999991
 30
0.0
 40
2.5000360000000001
 50
269.99804599999987
 51
359.99801600000001
  0
ARC
  5
2B5
  8
0
 62
     7
 10
35.809871000000001
 20
215.47911999999999
 30
0.0
 40
0.385797
 50
194.43636799999999
 51
237.06522699999991
  0
ARC
  5
2B6
  8
0
 62
     7
 10
36.400793
 20
215.631631
 30
0.0
 40
0.996082
 50
178.346114
 51
194.45797400000001
  0
ARC
  5
2B7
  8
0
 62
     7
 10
36.05971799999999
 20
214.81641499999989
 30
0.0
 40
0.5710440000000001
 50
143.594842
 51
158.5744139999999
  0
ARC
  5
2B8
  8
0
 62
     7
 10
36.724899000000001
 20
214.54965299999989
 30
0.0
 40
1.287712999999999
 50
158.336748
 51
170.782241
  0
ARC
  5
2B9
  8
0
 62
     7
 10
39.164988999999998
 20
214.14667399999999
 30
0.0
 40
3.760851999999999
 50
170.67703899999989
 51
181.31348600000001
  0
ARC
  5
2BA
  8
0
 62
     7
 10
46.291980000000002
 20
214.569817
 30
0.0
 40
0.4633270000000001
 50
22.220257999999991
 51
39.504393999999998
  0
ARC
  5
2BB
  8
0
 62
     7
 10
45.881340000000002
 20
214.39870899999991
 30
0.0
 40
0.9081839999999999
 50
7.8464409999999987
 51
22.416454000000002
  0
ARC
  5
2BC
  8
0
 62
     7
 10
44.008735999999992
 20
214.14598599999991
 30
0.0
 40
2.7977630000000002
 50
358.24835000000002
 51
7.7381390000000003
  0
ARC
  5
2BD
  8
0
 62
     7
 10
46.356453000000002
 20
215.32518399999989
 30
0.0
 40
0.4504240000000001
 50
355.03988900000002
 51
49.41780399999999
  0
ARC
  5
2BE
  8
0
 62
     7
 10
35.692107999999998
 20
215.9588149999999
 30
0.0
 40
0.21381
 50
115.482569
 51
141.00898699999999
  0
ARC
  5
2BF
  8
0
 62
     7
 10
35.859563000000001
 20
215.8194729999999
 30
0.0
 40
0.431647
 50
140.61866199999989
 51
161.89941499999989
  0
ARC
  5
2C0
  8
0
 62
     7
 10
36.277925000000003
 20
215.67887400000001
 30
0.0
 40
0.872995
 50
161.65906599999991
 51
181.21398099999999
  0
ARC
  5
2C1
  8
0
 62
     7
 10
50.404821000000013
 20
214.06046599999999
 30
0.0
 40
3.000008999999999
 50
0.00001
 51
89.999980000000008
  0
ARC
  5
2C2
  8
0
 62
     7
 10
50.404821999999989
 20
214.06046599999999
 30
0.0
 40
3.000008999999999
 50
90.0
 51
179.99996999999991
  0
ARC
  5
2C3
  8
0
 62
     7
 10
50.404821000000013
 20
214.06046599999999
 30
0.0
 40
3.0000079999999998
 50
179.99996999999991
 51
270.00002000000001
  0
ARC
  5
2C4
  8
0
 62
     7
 10
50.404821000000013
 20
214.06046699999999
 30
0.0
 40
3.000008999999999
 50
270.00002000000001
 51
359.99998999999991
  0
ARC
  5
2C5
  8
0
 62
     7
 10
50.405081000000003
 20
214.060554
 30
0.0
 40
6.2000900000000003
 50
195.96914799999999
 51
285.96911799999998
  0
ARC
  5
2C6
  8
0
 62
     7
 10
50.226292999999998
 20
214.19517500000001
 30
0.0
 40
6.3801290000000002
 50
287.18022699999989
 51
358.79018400000001
  0
ARC
  5
2C7
  8
0
 62
     7
 10
50.404821000000013
 20
214.06046499999991
 30
0.0
 40
6.2001790000000003
 50
0.00001
 51
89.999980000000008
  0
ARC
  5
2C8
  8
0
 62
     7
 10
50.54057499999999
 20
213.880864
 30
0.0
 40
6.3812239999999987
 50
91.218983999999992
 51
162.856425
  0
LINE
  5
2C9
  8
0
  6
AIGENLINE001
 62
     7
 10
50.405200000000001
 20
206.7359999999999
 30
0.0
 11
50.405200000000001
 21
221.59699999999989
 31
0.0
  0
LINE
  5
2CA
  8
0
  6
AIGENLINE001
 62
     7
 10
34.113
 20
214.06
 30
0.0
 11
107.0029999999999
 21
214.06
 31
0.0
  0
LINE
  5
2CB
  8
0
 62
     7
 10
35.40509999999999
 20
214.06
 30
0.0
 11
35.40509999999999
 21
215.66
 31
0.0
  0
ARC
  5
2CC
  8
0
 62
     7
 10
93.192215000000004
 20
172.29580799999991
 30
0.0
 40
1.251380999999999
 50
272.97149899999999
 51
310.52668899999998
  0
ARC
  5
2CD
  8
0
 62
     7
 10
93.190438999999998
 20
167.3887959999999
 30
0.0
 40
1.256067
 50
49.549479999999988
 51
90.008640999999983
  0
ARC
  5
2CE
  8
0
 62
     7
 10
103.99737399999989
 20
168.6294419999999
 30
0.0
 40
1.3902350000000001
 50
330.81564500000002
 51
353.15048999999999
  0
ARC
  5
2CF
  8
0
 62
     7
 10
102.712109
 20
168.8543249999999
 30
0.0
 40
2.6940550000000001
 50
351.66171099999991
 51
0.333419
  0
ARC
  5
2D0
  8
0
 62
     7
 10
103.9220459999999
 20
169.145782
 30
0.0
 40
1.4663250000000001
 50
6.9210059999999984
 51
28.463283000000001
  0
ARC
  5
2D1
  8
0
 62
     7
 10
102.225702
 20
168.897277
 30
0.0
 40
3.1805340000000002
 50
359.50863900000002
 51
7.6827300000000003
  0
ARC
  5
2D2
  8
0
 62
     7
 10
103.99511699999999
 20
171.05926199999999
 30
0.0
 40
1.392555999999999
 50
6.8660889999999979
 51
29.164942
  0
ARC
  5
2D3
  8
0
 62
     7
 10
102.71295499999999
 20
170.835117
 30
0.0
 40
2.6932099999999992
 50
359.66609899999997
 51
8.3396170000000005
  0
ARC
  5
2D4
  8
0
 62
     7
 10
103.922128
 20
170.54342500000001
 30
0.0
 40
1.4662319999999991
 50
331.53671200000002
 51
353.08241900000002
  0
ARC
  5
2D5
  8
0
 62
     7
 10
102.224344
 20
170.7921199999999
 30
0.0
 40
3.1818919999999991
 50
352.31888900000001
 51
0.4916190000000001
  0
ARC
  5
2D6
  8
0
 62
     7
 10
85.125729000000007
 20
142.21037100000001
 30
0.0
 40
1.1201700000000001
 50
143.46747500000001
 51
179.78301099999999
  0
ARC
  5
2D7
  8
0
 62
     7
 10
84.543823000000003
 20
142.58408299999999
 30
0.0
 40
0.432599
 50
123.462434
 51
137.34862199999989
  0
ARC
  5
2D8
  8
0
 62
     7
 10
84.912435000000016
 20
142.21853100000001
 30
0.0
 40
0.906877
 50
180.247558
 51
227.972454
  0
ARC
  5
2D9
  8
0
 62
     7
 10
87.543163000000007
 20
144.141974
 30
0.0
 40
3.5375959999999989
 50
179.96076599999989
 51
192.895612
  0
ARC
  5
2DA
  8
0
 62
     7
 10
85.099043999999992
 20
143.61312899999999
 30
0.0
 40
1.037529999999999
 50
194.5503479999999
 51
220.08950200000001
  0
LINE
  5
2DB
  8
0
 62
     7
 10
84.005600000000001
 20
142.215
 30
0.0
 11
84.005600000000001
 21
144.14400000000001
 31
0.0
  0
ARC
  5
2DC
  8
0
 62
     7
 10
85.085948000000002
 20
142.21037200000001
 30
0.0
 40
1.119505999999999
 50
0.217038
 51
36.557589
  0
ARC
  5
2DD
  8
0
 62
     7
 10
85.666846000000007
 20
142.58383000000001
 30
0.0
 40
0.4329050000000001
 50
42.659559999999999
 51
56.536989000000013
  0
ARC
  5
2DE
  8
0
 62
     7
 10
85.298917999999986
 20
142.218535
 30
0.0
 40
0.9065369999999999
 50
312.0033509999999
 51
359.75212299999993
  0
ARC
  5
2DF
  8
0
 62
     7
 10
82.672466999999983
 20
144.1419689999999
 30
0.0
 40
3.532980999999999
 50
347.08735399999989
 51
0.039347
  0
ARC
  5
2E0
  8
0
 62
     7
 10
85.111491000000001
 20
143.6134209999999
 30
0.0
 40
1.0379519999999991
 50
319.90912500000002
 51
345.43911600000001
  0
LINE
  5
2E1
  8
0
 62
     7
 10
84.305300000000003
 20
142.94499999999991
 30
0.0
 11
85.905500000000004
 21
142.94499999999991
 31
0.0
  0
LINE
  5
2E2
  8
0
 62
     7
 10
84.305300000000003
 20
141.5449999999999
 30
0.0
 11
85.905500000000004
 21
141.5449999999999
 31
0.0
  0
LINE
  5
2E3
  8
0
 62
     7
 10
86.205399999999997
 20
142.215
 30
0.0
 11
86.205399999999997
 21
144.14400000000001
 31
0.0
  0
ARC
  5
2E4
  8
0
 62
     7
 10
85.126194999999996
 20
146.0789399999999
 30
0.0
 40
1.1206359999999991
 50
180.217062
 51
216.52465599999991
  0
ARC
  5
2E5
  8
0
 62
     7
 10
84.542271999999997
 20
145.7040519999999
 30
0.0
 40
0.4307660000000001
 50
222.69115799999989
 51
236.62365399999999
  0
ARC
  5
2E6
  8
0
 62
     7
 10
84.912435000000016
 20
146.07077699999991
 30
0.0
 40
0.906877
 50
132.02754599999989
 51
179.752442
  0
ARC
  5
2E7
  8
0
 62
     7
 10
87.544224999999997
 20
144.146815
 30
0.0
 40
3.5386589999999991
 50
167.10633200000001
 51
180.03919599999989
  0
ARC
  5
2E8
  8
0
 62
     7
 10
85.101306999999991
 20
144.67526399999991
 30
0.0
 40
1.0398499999999991
 50
139.95229099999989
 51
165.45349999999991
  0
LINE
  5
2E9
  8
0
 62
     7
 10
84.005600000000001
 20
146.0749999999999
 30
0.0
 11
84.005600000000001
 21
144.14400000000001
 31
0.0
  0
ARC
  5
2EA
  8
0
 62
     7
 10
85.085481999999985
 20
146.07893799999999
 30
0.0
 40
1.1199719999999991
 50
323.45028500000001
 51
359.78288900000001
  0
ARC
  5
2EB
  8
0
 62
     7
 10
85.668398999999994
 20
145.70430300000001
 30
0.0
 40
0.43107
 50
303.37692400000009
 51
317.30066299999987
  0
ARC
  5
2EC
  8
0
 62
     7
 10
83.252255000000005
 20
144.14288999999999
 30
0.0
 40
4.9858109999999991
 50
355.16121499999991
 51
0.017294
  0
ARC
  5
2ED
  8
0
 62
     7
 10
85.992640000000009
 20
143.90797499999991
 30
0.0
 40
2.2353800000000001
 50
335.65400199999999
 51
355.23607700000002
  0
ARC
  5
2EE
  8
0
 62
     7
 10
86.549677999999986
 20
143.71105099999991
 30
0.0
 40
1.6474619999999991
 50
319.65776799999998
 51
333.90698500000002
  0
ARC
  5
2EF
  8
0
 62
     7
 10
85.298917999999986
 20
146.070773
 30
0.0
 40
0.9065369999999999
 50
0.247877
 51
47.996648999999977
  0
ARC
  5
2F0
  8
0
 62
     7
 10
82.671406000000005
 20
144.14681999999991
 30
0.0
 40
3.534041999999999
 50
359.96069099999988
 51
12.910698999999999
  0
ARC
  5
2F1
  8
0
 62
     7
 10
85.109227000000004
 20
144.67497299999999
 30
0.0
 40
1.040273
 50
14.55702999999999
 51
40.049079999999989
  0
ARC
  5
2F2
  8
0
 62
     7
 10
83.250422999999984
 20
144.1458979999999
 30
0.0
 40
4.9876440000000004
 50
359.98273599999987
 51
4.8378949999999987
  0
ARC
  5
2F3
  8
0
 62
     7
 10
85.990343999999979
 20
144.38074099999989
 30
0.0
 40
2.2376789999999991
 50
4.7628909999999998
 51
24.333579
  0
ARC
  5
2F4
  8
0
 62
     7
 10
86.550212000000002
 20
144.578789
 30
0.0
 40
1.646709999999999
 50
26.081866999999999
 51
40.340150999999999
  0
ARC
  5
2F5
  8
0
 62
     7
 10
90.255995999999996
 20
169.653942
 30
0.0
 40
2.8225279999999988
 50
190.0077489999999
 51
205.36761899999999
  0
ARC
  5
2F6
  8
0
 62
     7
 10
91.490495999999993
 20
169.92046199999999
 30
0.0
 40
4.0848409999999991
 50
179.662339
 51
190.680091
  0
ARC
  5
2F7
  8
0
 62
     7
 10
90.255995999999996
 20
170.2354709999999
 30
0.0
 40
2.8225279999999988
 50
154.63238100000001
 51
169.99225100000001
  0
ARC
  5
2F8
  8
0
 62
     7
 10
91.490495999999993
 20
169.96895000000001
 30
0.0
 40
4.0848409999999991
 50
169.319909
 51
180.33766099999991
  0
ARC
  5
2F9
  8
0
 62
     7
 10
90.56173299999999
 20
169.65183500000001
 30
0.0
 40
2.8156560000000002
 50
334.61354299999988
 51
350.01112799999999
  0
ARC
  5
2FA
  8
0
 62
     7
 10
89.319296999999992
 20
169.92058299999991
 30
0.0
 40
4.0861700000000001
 50
349.3217259999999
 51
0.335844
  0
ARC
  5
2FB
  8
0
 62
     7
 10
88.971327000000002
 20
167.861481
 30
0.0
 40
4.705654
 50
98.031834000000003
 51
103.0917979999999
  0
ARC
  5
2FC
  8
0
 62
     7
 10
89.748350000000002
 20
162.5944549999999
 30
0.0
 40
10.029638
 50
93.764478999999994
 51
98.223057000000011
  0
ARC
  5
2FD
  8
0
 62
     7
 10
90.344766000000007
 20
154.00458399999999
 30
0.0
 40
18.640159000000001
 50
89.813647000000003
 51
93.860247999999984
  0
ARC
  5
2FE
  8
0
 62
     7
 10
91.838977999999997
 20
167.857462
 30
0.0
 40
4.7097150000000001
 50
76.911610999999994
 51
81.967981999999992
  0
ARC
  5
2FF
  8
0
 62
     7
 10
91.062303999999983
 20
162.59163499999991
 30
0.0
 40
10.03246199999999
 50
81.777913999999996
 51
86.235666000000009
  0
ARC
  5
300
  8
0
 62
     7
 10
90.465994999999992
 20
154.00308799999991
 30
0.0
 40
18.641655
 50
86.139890000000008
 51
90.186265000000006
  0
ARC
  5
301
  8
0
 62
     7
 10
90.56173299999999
 20
170.23757800000001
 30
0.0
 40
2.8156560000000002
 50
9.9888720000000006
 51
25.386457
  0
ARC
  5
302
  8
0
 62
     7
 10
89.319296999999992
 20
169.96883
 30
0.0
 40
4.0861700000000001
 50
359.66415599999999
 51
10.678274
  0
LINE
  5
303
  8
0
 62
     7
 10
81.705299999999994
 20
142.84499999999991
 30
0.0
 11
80.605199999999996
 21
142.84499999999991
 31
0.0
  0
ARC
  5
304
  8
0
 62
     7
 10
81.909618999999992
 20
142.94045199999999
 30
0.0
 40
0.104346
 50
92.304001999999997
 51
177.89286100000001
  0
ARC
  5
305
  8
0
 62
     7
 10
81.701862000000006
 20
142.94804600000001
 30
0.0
 40
0.103549
 50
271.88179500000001
 51
357.92064299999998
  0
ARC
  5
306
  8
0
 62
     7
 10
83.101338999999996
 20
142.94062700000001
 30
0.0
 40
0.104164
 50
2.014422999999999
 51
87.788674000000015
  0
LINE
  5
307
  8
0
 62
     7
 10
83.805400000000006
 20
142.84499999999991
 30
0.0
 11
83.305499999999995
 21
142.84499999999991
 31
0.0
  0
ARC
  5
308
  8
0
 62
     7
 10
83.309166000000005
 20
142.94829299999989
 30
0.0
 40
0.103805
 50
182.210959
 51
267.98664200000002
  0
LINE
  5
309
  8
0
 62
     7
 10
81.9054
 20
143.0449999999999
 30
0.0
 11
83.105400000000003
 21
143.0449999999999
 31
0.0
  0
LINE
  5
30A
  8
0
 62
     7
 10
81.705299999999994
 20
145.44499999999999
 30
0.0
 11
80.605199999999996
 21
145.44499999999999
 31
0.0
  0
ARC
  5
30B
  8
0
 62
     7
 10
81.909157999999991
 20
145.34842199999991
 30
0.0
 40
0.103895
 50
182.25722599999989
 51
267.9403759999999
  0
ARC
  5
30C
  8
0
 62
     7
 10
81.701500999999993
 20
145.34092499999991
 30
0.0
 40
0.103898
 50
1.8780429999999999
 51
87.925055
  0
ARC
  5
30D
  8
0
 62
     7
 10
83.101957999999996
 20
145.34808699999999
 30
0.0
 40
0.103549
 50
271.88179500000001
 51
357.92064299999998
  0
LINE
  5
30E
  8
0
 62
     7
 10
83.805400000000006
 20
145.44499999999999
 30
0.0
 11
83.305499999999995
 21
145.44499999999999
 31
0.0
  0
ARC
  5
30F
  8
0
 62
     7
 10
83.309516999999985
 20
145.34069
 30
0.0
 40
0.104142
 50
92.199871000000002
 51
177.99699200000001
  0
LINE
  5
310
  8
0
 62
     7
 10
84.005600000000001
 20
142.9439999999999
 30
0.0
 11
83.805400000000006
 21
142.9439999999999
 31
0.0
  0
LINE
  5
311
  8
0
 62
     7
 10
84.005600000000001
 20
145.34399999999999
 30
0.0
 11
83.805400000000006
 21
145.34399999999999
 31
0.0
  0
LINE
  5
312
  8
0
 62
     7
 10
80.605199999999996
 20
142.9439999999999
 30
0.0
 11
77.240399999999994
 21
142.9439999999999
 31
0.0
  0
LINE
  5
313
  8
0
 62
     7
 10
80.605199999999996
 20
145.34399999999999
 30
0.0
 11
77.240399999999994
 21
145.34399999999999
 31
0.0
  0
LINE
  5
314
  8
0
 62
     7
 10
81.9054
 20
145.24499999999989
 30
0.0
 11
83.105400000000003
 21
145.24499999999989
 31
0.0
  0
LINE
  5
315
  8
0
 62
     7
 10
80.605199999999996
 20
145.44499999999999
 30
0.0
 11
80.605199999999996
 21
142.84499999999991
 31
0.0
  0
LINE
  5
316
  8
0
 62
     7
 10
83.805400000000006
 20
145.44499999999999
 30
0.0
 11
83.805400000000006
 21
142.84499999999991
 31
0.0
  0
LINE
  5
317
  8
0
 62
     7
 10
84.305300000000003
 20
145.34399999999999
 30
0.0
 11
85.905500000000004
 21
145.34399999999999
 31
0.0
  0
LINE
  5
318
  8
0
 62
     7
 10
84.305300000000003
 20
146.744
 30
0.0
 11
85.905500000000004
 21
146.744
 31
0.0
  0
LINE
  5
319
  8
0
 62
     7
 10
86.205399999999997
 20
142.64500000000001
 30
0.0
 11
87.805400000000006
 21
142.64500000000001
 31
0.0
  0
LINE
  5
31A
  8
0
 62
     7
 10
86.205399999999997
 20
145.64500000000001
 30
0.0
 11
87.805400000000006
 21
145.64500000000001
 31
0.0
  0
LINE
  5
31B
  8
0
 62
     7
 10
86.205399999999997
 20
146.0749999999999
 30
0.0
 11
86.205399999999997
 21
144.14400000000001
 31
0.0
  0
LINE
  5
31C
  8
0
  6
AIGENLINE001
 62
     7
 10
50.405200000000001
 20
144.14400000000001
 30
0.0
 11
90.4054
 21
144.14400000000001
 31
0.0
  0
LINE
  5
31D
  8
0
 62
     7
 10
92.305499999999995
 20
140.84399999999991
 30
0.0
 11
92.505499999999998
 21
141.0439999999999
 31
0.0
  0
LINE
  5
31E
  8
0
 62
     7
 10
88.505399999999995
 20
140.845
 30
0.0
 11
88.305599999999998
 21
141.0439999999999
 31
0.0
  0
LINE
  5
31F
  8
0
 62
     7
 10
88.305599999999998
 20
138.64400000000001
 30
0.0
 11
88.505399999999995
 21
138.44499999999991
 31
0.0
  0
LINE
  5
320
  8
0
 62
     7
 10
92.505499999999998
 20
138.64400000000001
 30
0.0
 11
92.305499999999995
 21
138.44499999999991
 31
0.0
  0
LINE
  5
321
  8
0
 62
     7
 10
88.305599999999998
 20
138.64400000000001
 30
0.0
 11
92.505499999999998
 21
138.64400000000001
 31
0.0
  0
LINE
  5
322
  8
0
 62
     7
 10
92.305499999999995
 20
140.84399999999991
 30
0.0
 11
92.305499999999995
 21
138.44499999999991
 31
0.0
  0
LINE
  5
323
  8
0
 62
     7
 10
88.505399999999995
 20
138.44499999999991
 30
0.0
 11
88.505399999999995
 21
140.845
 31
0.0
  0
LINE
  5
324
  8
0
 62
     7
 10
88.305599999999998
 20
138.64400000000001
 30
0.0
 11
88.305599999999998
 21
141.84499999999991
 31
0.0
  0
LINE
  5
325
  8
0
 62
     7
 10
92.505499999999998
 20
141.84499999999991
 30
0.0
 11
92.505499999999998
 21
138.64400000000001
 31
0.0
  0
LINE
  5
326
  8
0
 62
     7
 10
88.505399999999995
 20
138.44499999999991
 30
0.0
 11
92.305499999999995
 21
138.44499999999991
 31
0.0
  0
LINE
  5
327
  8
0
 62
     7
 10
88.305599999999998
 20
140.845
 30
0.0
 11
92.505499999999998
 21
140.845
 31
0.0
  0
LINE
  5
328
  8
0
 62
     7
 10
87.805400000000006
 20
141.84499999999991
 30
0.0
 11
93.005600000000001
 21
141.84499999999991
 31
0.0
  0
LINE
  5
329
  8
0
 62
     7
 10
87.805400000000006
 20
147.6449999999999
 30
0.0
 11
88.005300000000005
 21
147.845
 31
0.0
  0
LINE
  5
32A
  8
0
 62
     7
 10
93.005600000000001
 20
147.6449999999999
 30
0.0
 11
92.805400000000006
 21
147.845
 31
0.0
  0
LINE
  5
32B
  8
0
 62
     7
 10
88.005300000000005
 20
147.845
 30
0.0
 11
88.005300000000005
 21
151.245
 31
0.0
  0
LINE
  5
32C
  8
0
 62
     7
 10
87.805400000000006
 20
145.64400000000001
 30
0.0
 11
87.805400000000006
 21
151.245
 31
0.0
  0
LINE
  5
32D
  8
0
 62
     7
 10
87.805400000000006
 20
141.84499999999991
 30
0.0
 11
87.805400000000006
 21
142.64500000000001
 31
0.0
  0
LINE
  5
32E
  8
0
 62
     7
 10
92.805400000000006
 20
147.845
 30
0.0
 11
92.805400000000006
 21
151.245
 31
0.0
  0
LINE
  5
32F
  8
0
 62
     7
 10
93.005600000000001
 20
141.84499999999991
 30
0.0
 11
93.005600000000001
 21
151.245
 31
0.0
  0
LINE
  5
330
  8
0
 62
     7
 10
87.805400000000006
 20
147.845
 30
0.0
 11
93.005600000000001
 21
147.845
 31
0.0
  0
LINE
  5
331
  8
0
 62
     7
 10
86.941299999999984
 20
151.245
 30
0.0
 11
93.869600000000005
 21
151.245
 31
0.0
  0
LINE
  5
332
  8
0
 62
     7
 10
86.941299999999984
 20
152.245
 30
0.0
 11
86.941299999999984
 21
151.245
 31
0.0
  0
LINE
  5
333
  8
0
 62
     7
 10
88.673199999999994
 20
152.245
 30
0.0
 11
88.673199999999994
 21
151.245
 31
0.0
  0
LINE
  5
334
  8
0
 62
     7
 10
92.137600000000006
 20
152.245
 30
0.0
 11
92.137600000000006
 21
151.245
 31
0.0
  0
LINE
  5
335
  8
0
 62
     7
 10
93.869600000000005
 20
152.245
 30
0.0
 11
93.869600000000005
 21
151.245
 31
0.0
  0
LINE
  5
336
  8
0
 62
     7
 10
94.905600000000007
 20
152.245
 30
0.0
 11
94.905600000000007
 21
152.44499999999991
 31
0.0
  0
LINE
  5
337
  8
0
 62
     7
 10
85.905199999999994
 20
152.245
 30
0.0
 11
85.905199999999994
 21
152.44499999999991
 31
0.0
  0
LINE
  5
338
  8
0
 62
     7
 10
85.905199999999994
 20
152.245
 30
0.0
 11
94.905600000000007
 21
152.245
 31
0.0
  0
LINE
  5
339
  8
0
 62
     7
 10
88.005300000000005
 20
152.64500000000001
 30
0.0
 11
88.005300000000005
 21
158.64500000000001
 31
0.0
  0
LINE
  5
33A
  8
0
 62
     7
 10
87.805400000000006
 20
152.64500000000001
 30
0.0
 11
87.805400000000006
 21
158.64500000000001
 31
0.0
  0
LINE
  5
33B
  8
0
 62
     7
 10
92.805400000000006
 20
152.64500000000001
 30
0.0
 11
92.805400000000006
 21
158.64500000000001
 31
0.0
  0
LINE
  5
33C
  8
0
 62
     7
 10
93.005600000000001
 20
152.64500000000001
 30
0.0
 11
93.005600000000001
 21
158.64500000000001
 31
0.0
  0
LINE
  5
33D
  8
0
 62
     7
 10
86.205399999999997
 20
152.44499999999991
 30
0.0
 11
86.205399999999997
 21
152.64500000000001
 31
0.0
  0
LINE
  5
33E
  8
0
 62
     7
 10
94.605500000000006
 20
152.44499999999991
 30
0.0
 11
94.605500000000006
 21
152.64500000000001
 31
0.0
  0
LINE
  5
33F
  8
0
 62
     7
 10
85.905199999999994
 20
152.44499999999991
 30
0.0
 11
94.905600000000007
 21
152.44499999999991
 31
0.0
  0
LINE
  5
340
  8
0
 62
     7
 10
86.205399999999997
 20
152.64500000000001
 30
0.0
 11
94.605500000000006
 21
152.64500000000001
 31
0.0
  0
LINE
  5
341
  8
0
 62
     7
 10
88.1554
 20
171.84499999999991
 30
0.0
 11
88.1554
 21
171.44499999999999
 31
0.0
  0
LINE
  5
342
  8
0
 62
     7
 10
88.605500000000006
 20
171.84499999999991
 30
0.0
 11
88.605500000000006
 21
171.44499999999999
 31
0.0
  0
LINE
  5
343
  8
0
 62
     7
 10
89.055400000000006
 20
171.84499999999991
 30
0.0
 11
89.055400000000006
 21
171.44499999999999
 31
0.0
  0
LINE
  5
344
  8
0
 62
     7
 10
89.505499999999984
 20
171.84499999999991
 30
0.0
 11
89.505499999999984
 21
171.44499999999999
 31
0.0
  0
LINE
  5
345
  8
0
 62
     7
 10
89.955299999999994
 20
171.84499999999991
 30
0.0
 11
89.955299999999994
 21
171.44499999999999
 31
0.0
  0
LINE
  5
346
  8
0
 62
     7
 10
87.9054
 20
172.44499999999999
 30
0.0
 11
90.4054
 21
172.44499999999999
 31
0.0
  0
LINE
  5
347
  8
0
 62
     7
 10
87.9054
 20
172.44499999999999
 30
0.0
 11
87.9054
 21
171.84499999999991
 31
0.0
  0
LINE
  5
348
  8
0
 62
     7
 10
87.705600000000004
 20
171.84499999999991
 30
0.0
 11
87.705600000000004
 21
171.44499999999999
 31
0.0
  0
LINE
  5
349
  8
0
 62
     7
 10
90.4054
 20
171.84499999999991
 30
0.0
 11
87.705600000000004
 21
171.84499999999991
 31
0.0
  0
LINE
  5
34A
  8
0
 62
     7
 10
90.4054
 20
171.44499999999999
 30
0.0
 11
87.705600000000004
 21
171.44499999999999
 31
0.0
  0
LINE
  5
34B
  8
0
 62
     7
 10
90.4054
 20
168.44499999999999
 30
0.0
 11
87.705600000000004
 21
168.44499999999999
 31
0.0
  0
LINE
  5
34C
  8
0
 62
     7
 10
90.4054
 20
167.84499999999991
 30
0.0
 11
89.005600000000001
 21
167.84499999999991
 31
0.0
  0
LINE
  5
34D
  8
0
 62
     7
 10
89.305499999999995
 20
167.84499999999991
 30
0.0
 11
89.305499999999995
 21
168.44499999999999
 31
0.0
  0
LINE
  5
34E
  8
0
 62
     7
 10
88.205500000000001
 20
164.84499999999991
 30
0.0
 11
88.605500000000006
 21
164.84499999999991
 31
0.0
  0
LINE
  5
34F
  8
0
 62
     7
 10
87.805499999999995
 20
164.44499999999991
 30
0.0
 11
87.805499999999995
 21
164.173
 31
0.0
  0
ARC
  5
350
  8
0
 62
     7
 10
88.220673999999988
 20
164.42941200000001
 30
0.0
 40
0.41542
 50
92.092000999999996
 51
177.90796900000001
  0
LINE
  5
351
  8
0
 62
     7
 10
89.005600000000001
 20
165.24499999999989
 30
0.0
 11
89.005600000000001
 21
167.84499999999991
 31
0.0
  0
ARC
  5
352
  8
0
 62
     7
 10
88.590346999999994
 20
165.25985299999991
 30
0.0
 40
0.415574
 50
272.08797099999992
 51
357.88736899999992
  0
LINE
  5
353
  8
0
 62
     7
 10
94.005399999999995
 20
169.845
 30
0.0
 11
105.211
 21
169.845
 31
0.0
  0
LINE
  5
354
  8
0
 62
     7
 10
94.005399999999995
 20
168.345
 30
0.0
 11
105.211
 21
167.952
 31
0.0
  0
LINE
  5
355
  8
0
 62
     7
 10
105.211
 20
171.738
 30
0.0
 11
94.005399999999995
 21
171.34499999999991
 31
0.0
  0
LINE
  5
356
  8
0
 62
     7
 10
94.005399999999995
 20
168.345
 30
0.0
 11
94.005399999999995
 21
171.34499999999991
 31
0.0
  0
LINE
  5
357
  8
0
 62
     7
 10
105.3299999999999
 20
168.245
 30
0.0
 11
105.706
 21
168.245
 31
0.0
  0
LINE
  5
358
  8
0
 62
     7
 10
105.40599999999991
 20
168.87
 30
0.0
 11
105.40599999999991
 21
170.81899999999999
 31
0.0
  0
LINE
  5
359
  8
0
 62
     7
 10
105.706
 20
168.245
 30
0.0
 11
105.706
 21
171.44499999999999
 31
0.0
  0
LINE
  5
35A
  8
0
 62
     7
 10
105.3299999999999
 20
171.44499999999999
 30
0.0
 11
105.706
 21
171.44499999999999
 31
0.0
  0
LINE
  5
35B
  8
0
 62
     7
 10
92.655600000000007
 20
171.84499999999991
 30
0.0
 11
92.655600000000007
 21
171.44499999999999
 31
0.0
  0
LINE
  5
35C
  8
0
 62
     7
 10
92.205500000000015
 20
171.84499999999991
 30
0.0
 11
92.205500000000015
 21
171.44499999999999
 31
0.0
  0
LINE
  5
35D
  8
0
 62
     7
 10
91.755399999999995
 20
171.84499999999991
 30
0.0
 11
91.755399999999995
 21
171.44499999999999
 31
0.0
  0
LINE
  5
35E
  8
0
 62
     7
 10
91.305599999999998
 20
171.84499999999991
 30
0.0
 11
91.305599999999998
 21
171.44499999999999
 31
0.0
  0
LINE
  5
35F
  8
0
 62
     7
 10
90.855500000000006
 20
171.84499999999991
 30
0.0
 11
90.855500000000006
 21
171.44499999999999
 31
0.0
  0
LINE
  5
360
  8
0
 62
     7
 10
92.905500000000004
 20
172.44499999999999
 30
0.0
 11
90.4054
 21
172.44499999999999
 31
0.0
  0
LINE
  5
361
  8
0
 62
     7
 10
92.905500000000004
 20
172.44499999999999
 30
0.0
 11
92.905500000000004
 21
171.84499999999991
 31
0.0
  0
LINE
  5
362
  8
0
 62
     7
 10
93.105500000000006
 20
171.84499999999991
 30
0.0
 11
93.105500000000006
 21
171.44499999999999
 31
0.0
  0
LINE
  5
363
  8
0
 62
     7
 10
90.4054
 20
171.84499999999991
 30
0.0
 11
90.4054
 21
171.44499999999999
 31
0.0
  0
LINE
  5
364
  8
0
 62
     7
 10
90.4054
 20
171.84499999999991
 30
0.0
 11
93.105500000000006
 21
171.84499999999991
 31
0.0
  0
LINE
  5
365
  8
0
 62
     7
 10
90.4054
 20
171.44499999999999
 30
0.0
 11
93.105500000000006
 21
171.44499999999999
 31
0.0
  0
LINE
  5
366
  8
0
 62
     7
 10
90.4054
 20
168.44499999999999
 30
0.0
 11
93.105500000000006
 21
168.44499999999999
 31
0.0
  0
LINE
  5
367
  8
0
 62
     7
 10
90.4054
 20
167.84499999999991
 30
0.0
 11
91.805499999999995
 21
167.84499999999991
 31
0.0
  0
LINE
  5
368
  8
0
 62
     7
 10
91.505399999999995
 20
167.84499999999991
 30
0.0
 11
91.505399999999995
 21
168.44499999999999
 31
0.0
  0
LINE
  5
369
  8
0
 62
     7
 10
92.605300000000014
 20
164.84499999999991
 30
0.0
 11
92.205500000000015
 21
164.84499999999991
 31
0.0
  0
LINE
  5
36A
  8
0
 62
     7
 10
93.005600000000001
 20
164.44499999999991
 30
0.0
 11
93.005600000000001
 21
164.173
 31
0.0
  0
ARC
  5
36B
  8
0
 62
     7
 10
92.590433000000004
 20
164.429383
 30
0.0
 40
0.415436
 50
2.095863
 51
87.953456000000003
  0
LINE
  5
36C
  8
0
 62
     7
 10
91.805499999999995
 20
165.24499999999989
 30
0.0
 11
91.805499999999995
 21
167.84499999999991
 31
0.0
  0
ARC
  5
36D
  8
0
 62
     7
 10
92.220637999999994
 20
165.25970799999999
 30
0.0
 40
0.41543
 50
182.09337400000001
 51
267.90665499999989
  0
ARC
  5
36E
  8
0
 62
     7
 10
88.073099999999997
 20
163.5974479999999
 30
0.0
 40
0.6472780000000001
 50
29.434228000000001
 51
88.815434999999994
  0
ARC
  5
36F
  8
0
 62
     7
 10
87.880255000000005
 20
163.452507
 30
0.0
 40
0.887016
 50
359.49124399999988
 51
31.466964999999998
  0
ARC
  5
370
  8
0
 62
     7
 10
87.889156000000014
 20
163.453216
 30
0.0
 40
0.8781219999999999
 50
302.34979800000002
 51
359.43983800000001
  0
ARC
  5
371
  8
0
 62
     7
 10
88.084571999999994
 20
163.24260899999999
 30
0.0
 40
0.5979370000000001
 50
270.18289700000003
 51
297.3228279999999
  0
ARC
  5
372
  8
0
 62
     7
 10
88.092057999999994
 20
163.27062699999991
 30
0.0
 40
0.625977
 50
216.34114700000001
 51
269.48948200000001
  0
ARC
  5
373
  8
0
 62
     7
 10
88.272922999999992
 20
163.4320669999999
 30
0.0
 40
0.867633
 50
179.1702379999999
 51
217.8510399999999
  0
ARC
  5
374
  8
0
 62
     7
 10
88.283309000000003
 20
163.43604099999999
 30
0.0
 40
0.87797
 50
122.333512
 51
179.43938799999989
  0
ARC
  5
375
  8
0
 62
     7
 10
88.088346000000001
 20
163.6459909999999
 30
0.0
 40
0.5986000000000001
 50
90.178487000000004
 51
117.30735199999999
  0
ARC
  5
376
  8
0
 62
     7
 10
85.602319999999992
 20
162.23373199999989
 30
0.0
 40
2.2030389999999991
 50
359.96708699999999
 51
7.381950999999999
  0
ARC
  5
377
  8
0
 62
     7
 10
87.229021000000003
 20
162.4350649999999
 30
0.0
 40
0.5640310000000001
 50
8.3307479999999998
 51
28.891829999999999
  0
ARC
  5
378
  8
0
 62
     7
 10
85.528606999999994
 20
161.324557
 30
0.0
 40
2.5937329999999998
 50
32.223108000000003
 51
36.918613000000001
  0
ARC
  5
379
  8
0
 62
     7
 10
87.545524999999998
 20
161.99752899999999
 30
0.0
 40
0.209685
 50
319.77519699999999
 51
346.41517099999987
  0
ARC
  5
37A
  8
0
 62
     7
 10
86.771124999999984
 20
162.28870499999991
 30
0.0
 40
1.0357620000000001
 50
340.81169799999992
 51
356.88751899999988
  0
ARC
  5
37B
  8
0
 62
     7
 10
87.996824000000004
 20
161.59639899999999
 30
0.0
 40
0.394214
 50
137.6198709999999
 51
173.00816199999991
  0
ARC
  5
37C
  8
0
 62
     7
 10
95.189561999999995
 20
162.23495700000001
 30
0.0
 40
2.1839719999999998
 50
172.58561599999999
 51
180.06534599999989
  0
ARC
  5
37D
  8
0
 62
     7
 10
93.582228000000001
 20
162.43496399999989
 30
0.0
 40
0.564341
 50
151.11385999999999
 51
171.663523
  0
ARC
  5
37E
  8
0
 62
     7
 10
95.278006999999974
 20
161.3275449999999
 30
0.0
 40
2.5884709999999989
 50
143.07659099999989
 51
147.78164699999999
  0
ARC
  5
37F
  8
0
 62
     7
 10
93.257844999999989
 20
161.99287499999991
 30
0.0
 40
0.200896
 50
193.684414
 51
220.6077599999999
  0
ARC
  5
380
  8
0
 62
     7
 10
94.041895999999994
 20
162.289185
 30
0.0
 40
1.0378549999999991
 50
183.13277899999991
 51
199.347443
  0
ARC
  5
381
  8
0
 62
     7
 10
92.814126000000016
 20
161.59639899999999
 30
0.0
 40
0.394214
 50
6.9918179999999994
 51
42.380108999999997
  0
ARC
  5
382
  8
0
 62
     7
 10
92.711312000000007
 20
163.59746000000001
 30
0.0
 40
0.647265
 50
29.433658999999999
 51
88.819952999999984
  0
ARC
  5
383
  8
0
 62
     7
 10
92.518619999999999
 20
163.45263299999999
 30
0.0
 40
0.886814
 50
359.48302100000001
 51
31.465454999999999
  0
ARC
  5
384
  8
0
 62
     7
 10
92.527241000000004
 20
163.453214
 30
0.0
 40
0.8781979999999999
 50
302.35792299999991
 51
359.44006200000001
  0
ARC
  5
385
  8
0
 62
     7
 10
92.722789000000006
 20
163.24266900000001
 30
0.0
 40
0.597997
 50
270.17753299999993
 51
297.32139999999998
  0
ARC
  5
386
  8
0
 62
     7
 10
92.730217999999994
 20
163.270432
 30
0.0
 40
0.625781
 50
216.332111
 51
269.48948899999999
  0
ARC
  5
387
  8
0
 62
     7
 10
92.911193000000011
 20
163.431951
 30
0.0
 40
0.8675709999999998
 50
179.162521
 51
217.84450699999991
  0
ARC
  5
388
  8
0
 62
     7
 10
92.921800000000005
 20
163.436047
 30
0.0
 40
0.8781269999999999
 50
122.35038400000001
 51
179.43985399999991
  0
ARC
  5
389
  8
0
 62
     7
 10
92.726505000000003
 20
163.64611099999999
 30
0.0
 40
0.5984790000000001
 50
90.178292999999996
 51
117.31015600000001
  0
ARC
  5
38A
  8
0
 62
     7
 10
89.888361999999987
 20
163.43903700000001
 30
0.0
 40
0.6331500000000001
 50
126.795958
 51
179.493741
  0
ARC
  5
38B
  8
0
 62
     7
 10
90.277935999999997
 20
163.03415699999991
 30
0.0
 40
1.192733
 50
102.334108
 51
130.13405599999999
  0
ARC
  5
38C
  8
0
 62
     7
 10
90.401737999999995
 20
162.637629
 30
0.0
 40
1.606962999999999
 50
89.869821999999985
 51
103.62641499999999
  0
ARC
  5
38D
  8
0
 62
     7
 10
90.403392000000011
 20
162.708865
 30
0.0
 40
1.5357240000000001
 50
57.934255999999998
 51
89.925464000000005
  0
ARC
  5
38E
  8
0
 62
     7
 10
90.74724599999999
 20
163.31523000000001
 30
0.0
 40
0.839872
 50
23.797816000000001
 51
55.851804999999999
  0
ARC
  5
38F
  8
0
 62
     7
 10
90.978575000000006
 20
163.44345999999999
 30
0.0
 40
0.576967
 50
0.116337
 51
21.415451999999998
  0
ARC
  5
390
  8
0
 62
     7
 10
90.921785000000014
 20
163.450549
 30
0.0
 40
0.633784
 50
306.82377899999989
 51
359.46497999999991
  0
ARC
  5
391
  8
0
 62
     7
 10
90.532893999999999
 20
163.85498499999991
 30
0.0
 40
1.1926030000000001
 50
282.332943
 51
310.13573700000001
  0
ARC
  5
392
  8
0
 62
     7
 10
90.409028000000006
 20
164.25173399999991
 30
0.0
 40
1.607062999999999
 50
269.87027399999988
 51
283.62600299999991
  0
ARC
  5
393
  8
0
 62
     7
 10
90.407387
 20
164.18039799999991
 30
0.0
 40
1.5357240000000001
 50
237.9342759999999
 51
269.92548399999998
  0
ARC
  5
394
  8
0
 62
     7
 10
90.063532999999978
 20
163.57403299999999
 30
0.0
 40
0.839872
 50
203.79783599999999
 51
235.85182499999991
  0
ARC
  5
395
  8
0
 62
     7
 10
89.832502000000005
 20
163.44586000000001
 30
0.0
 40
0.577267
 50
180.12194600000001
 51
201.40988300000001
  0
LINE
  5
396
  8
0
 62
     7
 10
92.724599999999995
 20
164.245
 30
0.0
 11
88.086500000000001
 21
164.245
 31
0.0
  0
LINE
  5
397
  8
0
 62
     7
 10
92.724599999999995
 20
162.64500000000001
 30
0.0
 11
88.086500000000001
 21
162.64500000000001
 31
0.0
  0
LINE
  5
398
  8
0
 62
     7
 10
85.261099999999999
 20
159.8249999999999
 30
0.0
 11
84.909599999999983
 21
159.75399999999991
 31
0.0
  0
LINE
  5
399
  8
0
 62
     7
 10
84.277699999999996
 20
159.09700000000001
 30
0.0
 11
84.205399999999997
 21
158.64500000000001
 31
0.0
  0
ARC
  5
39A
  8
0
 62
     7
 10
85.085556999999994
 20
158.95297500000001
 30
0.0
 40
0.8205149999999999
 50
102.385518
 51
169.91026199999999
  0
ARC
  5
39B
  8
0
 62
     7
 10
84.908684999999991
 20
161.42865599999999
 30
0.0
 40
1.641575999999999
 50
282.39825200000001
 51
349.89756799999998
  0
LINE
  5
39C
  8
0
 62
     7
 10
87.117199999999997
 20
161.64400000000001
 30
0.0
 11
90.4054
 21
161.64400000000001
 31
0.0
  0
ARC
  5
39D
  8
0
 62
     7
 10
87.133516000000014
 20
161.02505899999991
 30
0.0
 40
0.619541
 50
91.509334999999979
 51
169.35494700000001
  0
LINE
  5
39E
  8
0
 62
     7
 10
84.205399999999997
 20
158.64500000000001
 30
0.0
 11
90.4054
 21
158.64500000000001
 31
0.0
  0
LINE
  5
39F
  8
0
 62
     7
 10
95.549599999999984
 20
159.8249999999999
 30
0.0
 11
95.901399999999995
 21
159.75399999999991
 31
0.0
  0
LINE
  5
3A0
  8
0
 62
     7
 10
96.532999999999987
 20
159.09700000000001
 30
0.0
 11
96.605599999999995
 21
158.64500000000001
 31
0.0
  0
ARC
  5
3A1
  8
0
 62
     7
 10
95.724804000000006
 20
158.95261999999991
 30
0.0
 40
0.8209889999999999
 50
10.108995
 51
77.579575000000006
  0
ARC
  5
3A2
  8
0
 62
     7
 10
95.902576999999994
 20
161.4291199999999
 30
0.0
 40
1.6421330000000001
 50
190.115455
 51
257.58876499999991
  0
LINE
  5
3A3
  8
0
 62
     7
 10
93.693899999999999
 20
161.64400000000001
 30
0.0
 11
90.4054
 21
161.64400000000001
 31
0.0
  0
ARC
  5
3A4
  8
0
 62
     7
 10
93.677486000000002
 20
161.025125
 30
0.0
 40
0.6194790000000001
 50
10.639961
 51
88.479270999999983
  0
LINE
  5
3A5
  8
0
  6
AIGENLINE001
 62
     7
 10
90.4054
 20
137.74999999999989
 30
0.0
 11
90.4054
 21
174.03599999999989
 31
0.0
  0
LINE
  5
3A6
  8
0
 62
     7
 10
96.605599999999995
 20
158.64500000000001
 30
0.0
 11
90.4054
 21
158.64500000000001
 31
0.0
  0
ARC
  5
3A7
  8
0
 62
     7
 10
47.61876199999999
 20
172.296863
 30
0.0
 40
1.252456
 50
229.49005299999999
 51
267.011798
  0
ARC
  5
3A8
  8
0
 62
     7
 10
47.619478999999998
 20
167.39052499999991
 30
0.0
 40
1.254338999999999
 50
89.962241000000006
 51
130.47959800000001
  0
ARC
  5
3A9
  8
0
 62
     7
 10
36.801355000000001
 20
168.62495699999999
 30
0.0
 40
1.3771219999999991
 50
187.061466
 51
209.275384
  0
ARC
  5
3AA
  8
0
 62
     7
 10
38.088676
 20
168.85318100000001
 30
0.0
 40
2.683603999999999
 50
179.64085299999991
 51
188.51852999999991
  0
ARC
  5
3AB
  8
0
 62
     7
 10
36.879269000000001
 20
169.14863600000001
 30
0.0
 40
1.4562369999999989
 50
151.449231
 51
173.143923
  0
ARC
  5
3AC
  8
0
 62
     7
 10
38.596973999999989
 20
168.89734899999991
 30
0.0
 40
3.191965999999999
 50
172.34623400000001
 51
180.49091299999989
  0
ARC
  5
3AD
  8
0
 62
     7
 10
36.803618999999991
 20
171.06373500000001
 30
0.0
 40
1.379454999999999
 50
150.74407600000001
 51
172.9212489999999
  0
ARC
  5
3AE
  8
0
 62
     7
 10
38.088109000000003
 20
170.836252
 30
0.0
 40
2.6830359999999991
 50
171.480558
 51
180.3594249999999
  0
ARC
  5
3AF
  8
0
 62
     7
 10
36.879188999999997
 20
170.54057199999991
 30
0.0
 40
1.456145
 50
186.85265000000001
 51
208.55077299999999
  0
ARC
  5
3B0
  8
0
 62
     7
 10
38.598337000000001
 20
170.79204799999999
 30
0.0
 40
3.1933289999999999
 50
179.50883099999999
 51
187.65215299999991
  0
ARC
  5
3B1
  8
0
 62
     7
 10
55.684826999999999
 20
142.21037100000001
 30
0.0
 40
1.1201700000000001
 50
0.216969
 51
36.532505999999991
  0
ARC
  5
3B2
  8
0
 62
     7
 10
56.26673199999999
 20
142.58408299999999
 30
0.0
 40
0.432599
 50
42.651358000000002
 51
56.537545999999992
  0
ARC
  5
3B3
  8
0
 62
     7
 10
55.898118999999987
 20
142.21853100000001
 30
0.0
 40
0.906877
 50
312.02758399999999
 51
359.75244199999992
  0
ARC
  5
3B4
  8
0
 62
     7
 10
53.267381999999998
 20
144.141975
 30
0.0
 40
3.5376069999999991
 50
347.10442799999998
 51
0.039194
  0
ARC
  5
3B5
  8
0
 62
     7
 10
55.711511999999999
 20
143.61312899999999
 30
0.0
 40
1.037529999999999
 50
319.91051699999991
 51
345.44967200000002
  0
LINE
  5
3B6
  8
0
 62
     7
 10
56.805
 20
142.215
 30
0.0
 11
56.805
 21
144.14400000000001
 31
0.0
  0
ARC
  5
3B7
  8
0
 62
     7
 10
55.724606999999992
 20
142.21037200000001
 30
0.0
 40
1.119505999999999
 50
143.4423909999999
 51
179.78294199999999
  0
ARC
  5
3B8
  8
0
 62
     7
 10
55.143708999999987
 20
142.58383000000001
 30
0.0
 40
0.4329050000000001
 50
123.4629909999999
 51
137.34041999999991
  0
ARC
  5
3B9
  8
0
 62
     7
 10
55.511635999999989
 20
142.218535
 30
0.0
 40
0.906536
 50
180.24787799999999
 51
227.99668699999989
  0
ARC
  5
3BA
  8
0
 62
     7
 10
58.138078
 20
144.14196799999991
 30
0.0
 40
3.5329699999999988
 50
179.96061399999991
 51
192.91268600000001
  0
ARC
  5
3BB
  8
0
 62
     7
 10
55.699064
 20
143.6134209999999
 30
0.0
 40
1.0379519999999991
 50
194.56090399999991
 51
220.09089499999999
  0
LINE
  5
3BC
  8
0
 62
     7
 10
56.505299999999991
 20
142.94499999999991
 30
0.0
 11
54.905000000000001
 21
142.94499999999991
 31
0.0
  0
LINE
  5
3BD
  8
0
 62
     7
 10
56.505299999999991
 20
141.5449999999999
 30
0.0
 11
54.905000000000001
 21
141.5449999999999
 31
0.0
  0
LINE
  5
3BE
  8
0
 62
     7
 10
54.6051
 20
142.215
 30
0.0
 11
54.6051
 21
144.14400000000001
 31
0.0
  0
ARC
  5
3BF
  8
0
 62
     7
 10
55.684359999999998
 20
146.0789399999999
 30
0.0
 40
1.1206359999999991
 50
323.47536400000001
 51
359.78295799999989
  0
ARC
  5
3C0
  8
0
 62
     7
 10
56.26828299999999
 20
145.7040519999999
 30
0.0
 40
0.4307660000000001
 50
303.37636600000002
 51
317.30886199999998
  0
ARC
  5
3C1
  8
0
 62
     7
 10
55.898118999999987
 20
146.070776
 30
0.0
 40
0.906877
 50
0.247558
 51
47.972415999999981
  0
ARC
  5
3C2
  8
0
 62
     7
 10
53.266318999999989
 20
144.14681399999989
 30
0.0
 40
3.5386699999999989
 50
359.96084400000001
 51
12.893628
  0
ARC
  5
3C3
  8
0
 62
     7
 10
55.709249
 20
144.67526399999991
 30
0.0
 40
1.0398499999999991
 50
14.54647999999999
 51
40.047688999999998
  0
LINE
  5
3C4
  8
0
 62
     7
 10
56.805
 20
146.0749999999999
 30
0.0
 11
56.805
 21
144.14400000000001
 31
0.0
  0
ARC
  5
3C5
  8
0
 62
     7
 10
55.725072999999988
 20
146.07893799999999
 30
0.0
 40
1.1199719999999991
 50
180.21713099999999
 51
216.54973499999991
  0
ARC
  5
3C6
  8
0
 62
     7
 10
55.142156999999997
 20
145.70430300000001
 30
0.0
 40
0.43107
 50
222.69935699999991
 51
236.623096
  0
ARC
  5
3C7
  8
0
 62
     7
 10
95.347682000000006
 20
171.54443299999991
 30
0.0
 40
21.609707999999991
 50
194.130539
 51
205.89169399999989
  0
ARC
  5
3C8
  8
0
 62
     7
 10
89.631129000000001
 20
169.96783799999989
 30
0.0
 40
15.68179599999999
 50
184.84008799999989
 51
193.643505
  0
LINE
  5
3C9
  8
0
 62
     7
 10
74.005300000000005
 20
168.64500000000001
 30
0.0
 11
73.6905
 21
168.64500000000001
 31
0.0
  0
ARC
  5
3CA
  8
0
 62
     7
 10
57.552082999999989
 20
144.14288199999999
 30
0.0
 40
4.9795939999999996
 50
179.98256599999991
 51
184.84476100000001
  0
ARC
  5
3CB
  8
0
 62
     7
 10
54.818596999999997
 20
143.9082949999999
 30
0.0
 40
2.2360630000000001
 50
184.77071599999999
 51
204.34709699999991
  0
ARC
  5
3CC
  8
0
 62
     7
 10
54.262143000000002
 20
143.71155400000001
 30
0.0
 40
1.6487519999999991
 50
206.09052
 51
220.32708500000001
  0
ARC
  5
3CD
  8
0
 62
     7
 10
55.511635999999989
 20
146.070773
 30
0.0
 40
0.906536
 50
132.00331299999991
 51
179.7521219999999
  0
ARC
  5
3CE
  8
0
 62
     7
 10
58.139139
 20
144.1468209999999
 30
0.0
 40
3.5340309999999988
 50
167.08926099999999
 51
180.0393479999999
  0
ARC
  5
3CF
  8
0
 62
     7
 10
55.701327999999997
 20
144.67497299999999
 30
0.0
 40
1.040273
 50
139.9508999999999
 51
165.44294999999991
  0
ARC
  5
3D0
  8
0
 62
     7
 10
57.553913999999999
 20
144.14590699999999
 30
0.0
 40
4.9814239999999987
 50
175.15612999999999
 51
180.01740399999991
  0
ARC
  5
3D1
  8
0
 62
     7
 10
54.820893000000012
 20
144.3804199999999
 30
0.0
 40
2.2383639999999989
 50
155.665323
 51
175.23031800000001
  0
ARC
  5
3D2
  8
0
 62
     7
 10
54.261607999999988
 20
144.57828699999999
 30
0.0
 40
1.647999
 50
139.674995
 51
153.920626
  0
ARC
  5
3D3
  8
0
 62
     7
 10
45.462873999999992
 20
171.54443299999991
 30
0.0
 40
21.609707999999991
 50
334.10832599999992
 51
345.8694799999999
  0
ARC
  5
3D4
  8
0
 62
     7
 10
51.179425999999999
 20
169.96783799999989
 30
0.0
 40
15.68179599999999
 50
346.35651499999989
 51
355.15993199999991
  0
ARC
  5
3D5
  8
0
 62
     7
 10
40.956766999999999
 20
176.78486599999999
 30
0.0
 40
28.104516999999991
 50
326.39058299999999
 51
331.05419499999999
  0
ARC
  5
3D6
  8
0
 62
     7
 10
52.053578000000002
 20
170.49862300000001
 30
0.0
 40
15.352067
 50
331.54047000000003
 51
351.00957999999991
  0
ARC
  5
3D7
  8
0
 62
     7
 10
45.02639099999999
 20
171.6913989999999
 30
0.0
 40
22.47945799999999
 50
350.80570499999999
 51
356.71144399999991
  0
ARC
  5
3D8
  8
0
 62
     7
 10
72.36420600000001
 20
169.14053000000001
 30
0.0
 40
1.6228590000000001
 50
285.77213899999998
 51
295.336231
  0
ARC
  5
3D9
  8
0
 62
     7
 10
72.970320000000001
 20
167.90363300000001
 30
0.0
 40
0.246258
 50
291.02584400000001
 51
342.45670200000001
  0
ARC
  5
3DA
  8
0
 62
     7
 10
73.105393000000007
 20
167.828159
 30
0.0
 40
0.099739
 50
0.7156670000000001
 51
39.251342000000001
  0
ARC
  5
3DB
  8
0
 62
     7
 10
72.941174000000004
 20
167.69495000000001
 30
0.0
 40
0.311192
 50
39.113022999999998
 51
63.663448999999993
  0
ARC
  5
3DC
  8
0
 62
     7
 10
72.478571000000002
 20
166.82327599999991
 30
0.0
 40
1.297919
 50
62.432842999999998
 51
74.880918999999992
  0
ARC
  5
3DD
  8
0
 62
     7
 10
71.700488000000007
 20
164.113528
 30
0.0
 40
4.1170540000000004
 50
74.263314000000008
 51
81.107573000000016
  0
ARC
  5
3DE
  8
0
 62
     7
 10
70.865296999999984
 20
158.987943
 30
0.0
 40
9.3101939999999992
 50
80.905461000000003
 51
85.737286999999995
  0
ARC
  5
3DF
  8
0
 62
     7
 10
70.430944999999994
 20
153.53416799999991
 30
0.0
 40
14.781193
 50
85.629630000000006
 51
90.100817000000006
  0
ARC
  5
3E0
  8
0
 62
     7
 10
70.404456999999994
 20
153.69134999999989
 30
0.0
 40
14.623988000000001
 50
89.998125000000002
 51
96.469111999999996
  0
ARC
  5
3E1
  8
0
 62
     7
 10
69.429743000000002
 20
162.53890399999989
 30
0.0
 40
5.7230199999999991
 50
96.75269999999999
 51
103.411965
  0
ARC
  5
3E2
  8
0
 62
     7
 10
68.473956999999984
 20
166.4591639999999
 30
0.0
 40
1.688104
 50
102.719216
 51
115.3127479999999
  0
ARC
  5
3E3
  8
0
 62
     7
 10
67.839686
 20
167.75522099999989
 30
0.0
 40
0.246049
 50
110.829661
 51
162.45230000000001
  0
ARC
  5
3E4
  8
0
 62
     7
 10
67.706773999999996
 20
167.83113099999991
 30
0.0
 40
0.101703
 50
180.97288599999999
 51
219.80396499999989
  0
ARC
  5
3E5
  8
0
 62
     7
 10
67.874713999999997
 20
167.97030799999999
 30
0.0
 40
0.319817
 50
219.69870299999991
 51
243.75502700000001
  0
ARC
  5
3E6
  8
0
 62
     7
 10
68.343305000000001
 20
168.86142100000001
 30
0.0
 40
1.3265409999999991
 50
242.62225499999991
 51
255.21997999999991
  0
ARC
  5
3E7
  8
0
 62
     7
 10
50.554559000000012
 20
169.653942
 30
0.0
 40
2.8225279999999988
 50
334.6324009999999
 51
349.99227100000002
  0
ARC
  5
3E8
  8
0
 62
     7
 10
49.320045
 20
169.9204639999999
 30
0.0
 40
4.0848559999999994
 50
349.31994900000001
 51
0.337621
  0
ARC
  5
3E9
  8
0
 62
     7
 10
50.554559000000012
 20
170.2354709999999
 30
0.0
 40
2.8225279999999988
 50
10.007728999999999
 51
25.367598999999991
  0
ARC
  5
3EA
  8
0
 62
     7
 10
49.320045
 20
169.96894900000001
 30
0.0
 40
4.0848559999999994
 50
359.66237899999987
 51
10.68005099999999
  0
ARC
  5
3EB
  8
0
 62
     7
 10
50.255428999999999
 20
169.653942
 30
0.0
 40
2.8225279999999988
 50
190.0077489999999
 51
205.36761899999999
  0
ARC
  5
3EC
  8
0
 62
     7
 10
51.489928999999989
 20
169.92046199999999
 30
0.0
 40
4.0848409999999991
 50
179.662339
 51
190.680091
  0
ARC
  5
3ED
  8
0
 62
     7
 10
51.83931900000001
 20
167.86187699999991
 30
0.0
 40
4.7052480000000001
 50
76.908171999999993
 51
81.968700999999996
  0
ARC
  5
3EE
  8
0
 62
     7
 10
51.062146000000013
 20
162.59364600000001
 30
0.0
 40
10.030446
 50
81.777309999999986
 51
86.235775000000004
  0
ARC
  5
3EF
  8
0
 62
     7
 10
50.465696000000001
 20
154.00327300000001
 30
0.0
 40
18.641470000000002
 50
86.139881999999986
 51
90.186032999999995
  0
ARC
  5
3F0
  8
0
 62
     7
 10
48.971485999999999
 20
167.85785799999999
 30
0.0
 40
4.7093089999999993
 50
98.03144300000001
 51
103.0883789999999
  0
ARC
  5
3F1
  8
0
 62
     7
 10
49.748336000000002
 20
162.59062700000001
 30
0.0
 40
10.033471
 50
93.764143000000004
 51
98.221660000000014
  0
ARC
  5
3F2
  8
0
 62
     7
 10
50.344659999999998
 20
154.00140899999991
 30
0.0
 40
18.643333999999989
 50
89.814039000000008
 51
93.859900999999994
  0
ARC
  5
3F3
  8
0
 62
     7
 10
50.255428999999999
 20
170.2354709999999
 30
0.0
 40
2.8225279999999988
 50
154.63238100000001
 51
169.99225100000001
  0
ARC
  5
3F4
  8
0
 62
     7
 10
51.489928999999989
 20
169.96895000000001
 30
0.0
 40
4.0848409999999991
 50
169.319909
 51
180.33766099999991
  0
LINE
  5
3F5
  8
0
 62
     7
 10
164.27199999999999
 20
154.74499999999989
 30
0.0
 11
164.27199999999999
 21
153.64500000000001
 31
0.0
  0
ARC
  5
3F6
  8
0
 62
     7
 10
164.175117
 20
154.9480659999999
 30
0.0
 40
0.103542
 50
182.07270299999999
 51
268.02619800000002
  0
ARC
  5
3F7
  8
0
 62
     7
 10
164.16851699999989
 20
154.74092400000001
 30
0.0
 40
0.103706
 50
2.1692239999999998
 51
88.323418000000004
  0
ARC
  5
3F8
  8
0
 62
     7
 10
164.175318
 20
156.14101700000001
 30
0.0
 40
0.103732
 50
92.081246999999991
 51
178.11595500000001
  0
LINE
  5
3F9
  8
0
 62
     7
 10
164.27199999999999
 20
156.84399999999999
 30
0.0
 11
164.27199999999999
 21
156.34399999999991
 31
0.0
  0
ARC
  5
3FA
  8
0
 62
     7
 10
164.167821
 20
156.34904399999991
 30
0.0
 40
0.10443
 50
272.04681299999987
 51
357.46054500000002
  0
LINE
  5
3FB
  8
0
 62
     7
 10
164.07199999999989
 20
154.9439999999999
 30
0.0
 11
164.07199999999989
 21
156.14400000000001
 31
0.0
  0
LINE
  5
3FC
  8
0
 62
     7
 10
164.27199999999999
 20
153.64500000000001
 30
0.0
 11
163.572
 21
153.64500000000001
 31
0.0
  0
LINE
  5
3FD
  8
0
 62
     7
 10
164.27199999999999
 20
156.84399999999999
 30
0.0
 11
163.572
 21
156.84399999999999
 31
0.0
  0
LINE
  5
3FE
  8
0
 62
     7
 10
154.572
 20
158.64500000000001
 30
0.0
 11
154.572
 21
158.99499999999989
 31
0.0
  0
ARC
  5
3FF
  8
0
 62
     7
 10
155.91588300000001
 20
158.990951
 30
0.0
 40
1.343813999999999
 50
142.88855899999999
 51
179.81617299999991
  0
ARC
  5
400
  8
0
 62
     7
 10
151.33466799999991
 20
162.43680000000001
 30
0.0
 40
4.4827180000000002
 50
347.16123599999992
 51
358.83033799999993
  0
ARC
  5
401
  8
0
 62
     7
 10
152.50471999999991
 20
162.2860169999999
 30
0.0
 40
3.310343
 50
327.82830300000001
 51
345.20535899999987
  0
ARC
  5
402
  8
0
 62
     7
 10
142.72203999999991
 20
168.08067800000001
 30
0.0
 40
14.67951499999999
 50
325.66869700000001
 51
329.01470499999988
  0
LINE
  5
403
  8
0
 62
     7
 10
167.37200000000001
 20
158.64500000000001
 30
0.0
 11
167.37200000000001
 21
158.99499999999989
 31
0.0
  0
ARC
  5
404
  8
0
 62
     7
 10
166.0309509999999
 20
158.99094700000001
 30
0.0
 40
1.341121
 50
0.184355
 51
37.198740999999998
  0
ARC
  5
405
  8
0
 62
     7
 10
-90.288328000000007
 20
110.8206129999999
 30
0.0
 40
260.7065859999999
 50
11.623991999999999
 51
12.252808
  0
ARC
  5
406
  8
0
 62
     7
 10
167.89446599999991
 20
163.92796299999989
 30
0.0
 40
2.8816280000000001
 50
191.572427
 51
198.28243199999989
  0
ARC
  5
407
  8
0
 62
     7
 10
169.69495599999999
 20
164.5128949999999
 30
0.0
 40
4.7747349999999988
 50
198.16951499999999
 51
204.65608399999999
  0
ARC
  5
408
  8
0
 62
     7
 10
172.67234500000001
 20
165.87181799999991
 30
0.0
 40
8.0475770000000004
 50
204.605886
 51
209.80041299999999
  0
ARC
  5
409
  8
0
 62
     7
 10
177.27488199999999
 20
168.493595
 30
0.0
 40
13.34446
 50
209.74764300000001
 51
213.75114999999991
  0
ARC
  5
40A
  8
0
 62
     7
 10
184.94798899999989
 20
173.6180249999999
 30
0.0
 40
22.571395999999989
 50
213.74525099999991
 51
217.74251099999989
  0
LINE
  5
40B
  8
0
 62
     7
 10
163.97200000000001
 20
168.64500000000001
 30
0.0
 11
164.47999999999999
 21
166.149
 31
0.0
  0
LINE
  5
40C
  8
0
 62
     7
 10
164.172
 20
150.64500000000001
 30
0.0
 11
164.172
 21
152.245
 31
0.0
  0
LINE
  5
40D
  8
0
 62
     7
 10
163.97200000000001
 20
156.84399999999999
 30
0.0
 11
163.97200000000001
 21
158.64500000000001
 31
0.0
  0
LINE
  5
40E
  8
0
 62
     7
 10
164.172
 20
152.64500000000001
 30
0.0
 11
164.172
 21
153.64500000000001
 31
0.0
  0
LINE
  5
40F
  8
0
  6
AIGENLINE001
 62
     7
 10
162.97200000000001
 20
142.27000000000001
 30
0.0
 11
162.97200000000001
 21
159.49600000000001
 31
0.0
  0
LINE
  5
410
  8
0
  6
AIGENLINE001
 62
     7
 10
159.77099999999999
 20
141.93700000000001
 30
0.0
 11
159.77099999999999
 21
159.54900000000001
 31
0.0
  0
LINE
  5
411
  8
0
 62
     7
 10
161.47200000000001
 20
90.644800000000004
 30
0.0
 11
161.47200000000001
 21
138.4439999999999
 31
0.0
  0
LINE
  5
412
  8
0
 62
     7
 10
160.471
 20
90.644800000000004
 30
0.0
 11
160.471
 21
138.44499999999991
 31
0.0
  0
LINE
  5
413
  8
0
 62
     7
 10
160.471
 20
90.645499999999998
 30
0.0
 11
161.47200000000001
 21
90.645499999999998
 31
0.0
  0
LINE
  5
414
  8
0
 62
     7
 10
156.57199999999989
 20
152.44499999999991
 30
0.0
 11
156.57199999999989
 21
152.64500000000001
 31
0.0
  0
LINE
  5
415
  8
0
 62
     7
 10
156.57199999999989
 20
151.64500000000001
 30
0.0
 11
156.57199999999989
 21
152.245
 31
0.0
  0
LINE
  5
416
  8
0
 62
     7
 10
156.57199999999989
 20
151.64500000000001
 30
0.0
 11
157.97200000000001
 21
151.64500000000001
 31
0.0
  0
LINE
  5
417
  8
0
 62
     7
 10
163.97200000000001
 20
151.64500000000001
 30
0.0
 11
164.172
 21
151.64500000000001
 31
0.0
  0
LINE
  5
418
  8
0
 62
     7
 10
156.57199999999989
 20
152.245
 30
0.0
 11
160.97200000000001
 21
152.245
 31
0.0
  0
LINE
  5
419
  8
0
 62
     7
 10
160.97200000000001
 20
152.245
 30
0.0
 11
164.172
 21
152.245
 31
0.0
  0
LINE
  5
41A
  8
0
 62
     7
 10
156.57199999999989
 20
152.64500000000001
 30
0.0
 11
160.97200000000001
 21
152.64500000000001
 31
0.0
  0
LINE
  5
41B
  8
0
 62
     7
 10
160.97200000000001
 20
152.64500000000001
 30
0.0
 11
164.172
 21
152.64500000000001
 31
0.0
  0
LINE
  5
41C
  8
0
 62
     7
 10
135.34
 20
143.39099999999999
 30
0.0
 11
133.572
 21
142.91800000000001
 31
0.0
  0
LINE
  5
41D
  8
0
 62
     7
 10
133.572
 20
142.91800000000001
 30
0.0
 11
135.34
 21
142.4439999999999
 31
0.0
  0
LINE
  5
41E
  8
0
 62
     7
 10
135.34
 20
142.4439999999999
 30
0.0
 11
135.34
 21
143.39099999999999
 31
0.0
  0
LINE
  5
41F
  8
0
 62
     7
 10
159.20400000000001
 20
142.45500000000001
 30
0.0
 11
160.97200000000001
 21
142.92899999999989
 31
0.0
  0
LINE
  5
420
  8
0
 62
     7
 10
160.97200000000001
 20
142.92899999999989
 30
0.0
 11
159.20400000000001
 21
143.40299999999991
 31
0.0
  0
LINE
  5
421
  8
0
 62
     7
 10
159.20400000000001
 20
143.40299999999991
 30
0.0
 11
159.20400000000001
 21
142.45500000000001
 31
0.0
  0
LINE
  5
422
  8
0
 62
     7
 10
163.68299999999991
 20
113.2789999999999
 30
0.0
 11
161.47200000000001
 21
112.687
 31
0.0
  0
LINE
  5
423
  8
0
 62
     7
 10
161.47200000000001
 20
112.687
 30
0.0
 11
163.68299999999991
 21
112.09399999999999
 31
0.0
  0
LINE
  5
424
  8
0
 62
     7
 10
163.68299999999991
 20
112.09399999999999
 30
0.0
 11
163.68299999999991
 21
113.2789999999999
 31
0.0
  0
LINE
  5
425
  8
0
 62
     7
 10
158.261
 20
112.1089999999999
 30
0.0
 11
160.471
 21
112.70099999999999
 31
0.0
  0
LINE
  5
426
  8
0
 62
     7
 10
160.471
 20
112.70099999999999
 30
0.0
 11
158.261
 21
113.29299999999991
 31
0.0
  0
LINE
  5
427
  8
0
 62
     7
 10
158.261
 20
113.29299999999991
 30
0.0
 11
158.261
 21
112.1089999999999
 31
0.0
  0
LINE
  5
428
  8
0
 62
     7
 10
153.08099999999999
 20
112.694
 30
0.0
 11
164.90899999999999
 21
112.694
 31
0.0
  0
LINE
  5
429
  8
0
 62
     7
 10
133.572
 20
142.923
 30
0.0
 11
160.97200000000001
 21
142.923
 31
0.0
  0
LINE
  5
42A
  8
0
 62
     7
 10
174.31499999999991
 20
160.4129999999999
 30
0.0
 11
173.84099999999989
 21
158.64500000000001
 31
0.0
  0
LINE
  5
42B
  8
0
 62
     7
 10
173.84099999999989
 20
158.64500000000001
 30
0.0
 11
173.36699999999999
 21
160.4129999999999
 31
0.0
  0
LINE
  5
42C
  8
0
 62
     7
 10
173.36699999999999
 20
160.4129999999999
 30
0.0
 11
174.31499999999991
 21
160.4129999999999
 31
0.0
  0
LINE
  5
42D
  8
0
 62
     7
 10
174.18599999999989
 20
174.245
 30
0.0
 11
164.61799999999999
 21
174.245
 31
0.0
  0
LINE
  5
42E
  8
0
 62
     7
 10
174.18599999999989
 20
158.64500000000001
 30
0.0
 11
168.60299999999989
 21
158.64500000000001
 31
0.0
  0
LINE
  5
42F
  8
0
 62
     7
 10
173.36699999999999
 20
172.476
 30
0.0
 11
173.84099999999989
 21
174.245
 31
0.0
  0
LINE
  5
430
  8
0
 62
     7
 10
173.84099999999989
 20
174.245
 30
0.0
 11
174.31399999999999
 21
172.476
 31
0.0
  0
LINE
  5
431
  8
0
 62
     7
 10
174.31399999999999
 20
172.476
 30
0.0
 11
173.36699999999999
 21
172.476
 31
0.0
  0
LINE
  5
432
  8
0
 62
     7
 10
173.84099999999989
 20
158.64500000000001
 30
0.0
 11
173.84099999999989
 21
174.245
 31
0.0
  0
LINE
  5
433
  8
0
 62
     7
 10
117.91200000000001
 20
156.876
 30
0.0
 11
117.43899999999999
 21
158.64500000000001
 31
0.0
  0
LINE
  5
434
  8
0
 62
     7
 10
117.43899999999999
 20
158.64500000000001
 30
0.0
 11
116.964
 21
156.876
 31
0.0
  0
LINE
  5
435
  8
0
 62
     7
 10
116.964
 20
156.876
 30
0.0
 11
117.91200000000001
 21
156.876
 31
0.0
  0
LINE
  5
436
  8
0
 62
     7
 10
116.9759999999999
 20
160.4129999999999
 30
0.0
 11
117.45
 21
158.64500000000001
 31
0.0
  0
LINE
  5
437
  8
0
 62
     7
 10
117.45
 20
158.64500000000001
 30
0.0
 11
117.92399999999989
 21
160.4129999999999
 31
0.0
  0
LINE
  5
438
  8
0
 62
     7
 10
117.92399999999989
 20
160.4129999999999
 30
0.0
 11
116.9759999999999
 21
160.4129999999999
 31
0.0
  0
LINE
  5
439
  8
0
 62
     7
 10
126.36199999999999
 20
165.07599999999999
 30
0.0
 11
125.88799999999991
 21
166.84499999999991
 31
0.0
  0
LINE
  5
43A
  8
0
 62
     7
 10
125.88799999999991
 20
166.84499999999991
 30
0.0
 11
125.41500000000001
 21
165.07599999999999
 31
0.0
  0
LINE
  5
43B
  8
0
 62
     7
 10
125.41500000000001
 20
165.07599999999999
 30
0.0
 11
126.36199999999999
 21
165.07599999999999
 31
0.0
  0
LINE
  5
43C
  8
0
 62
     7
 10
125.426
 20
160.4129999999999
 30
0.0
 11
125.90000000000001
 21
158.64500000000001
 31
0.0
  0
LINE
  5
43D
  8
0
 62
     7
 10
125.90000000000001
 20
158.64500000000001
 30
0.0
 11
126.374
 21
160.4129999999999
 31
0.0
  0
LINE
  5
43E
  8
0
 62
     7
 10
126.374
 20
160.4129999999999
 30
0.0
 11
125.426
 21
160.4129999999999
 31
0.0
  0
LINE
  5
43F
  8
0
 62
     7
 10
125.895
 20
166.84499999999991
 30
0.0
 11
125.895
 21
158.64500000000001
 31
0.0
  0
LINE
  5
440
  8
0
 62
     7
 10
125.523
 20
166.84499999999991
 30
0.0
 11
132.27299999999991
 21
166.84499999999991
 31
0.0
  0
LINE
  5
441
  8
0
 62
     7
 10
117.105
 20
173.0449999999999
 30
0.0
 11
132.43600000000001
 21
173.0449999999999
 31
0.0
  0
LINE
  5
442
  8
0
 62
     7
 10
117.105
 20
158.64500000000001
 30
0.0
 11
154.095
 21
158.64500000000001
 31
0.0
  0
LINE
  5
443
  8
0
 62
     7
 10
135.27000000000001
 20
160.40899999999999
 30
0.0
 11
133.572
 21
159.72499999999999
 31
0.0
  0
LINE
  5
444
  8
0
 62
     7
 10
133.572
 20
159.72499999999999
 30
0.0
 11
135.38499999999991
 21
159.4679999999999
 31
0.0
  0
LINE
  5
445
  8
0
 62
     7
 10
135.38499999999991
 20
159.4679999999999
 30
0.0
 11
135.27000000000001
 21
160.40899999999999
 31
0.0
  0
LINE
  5
446
  8
0
 62
     7
 10
130.50700000000001
 20
159.92500000000001
 30
0.0
 11
132.33600000000001
 21
159.83199999999999
 31
0.0
  0
LINE
  5
447
  8
0
 62
     7
 10
132.33600000000001
 20
159.83199999999999
 30
0.0
 11
130.79899999999989
 21
160.82599999999999
 31
0.0
  0
LINE
  5
448
  8
0
 62
     7
 10
130.79899999999989
 20
160.82599999999999
 30
0.0
 11
130.50700000000001
 21
159.92500000000001
 31
0.0
  0
ARC
  5
449
  8
0
 62
     7
 10
133.579398
 20
167.00901899999991
 30
0.0
 40
7.2639610000000001
 50
237.81983700000001
 51
296.47144199999991
  0
LINE
  5
44A
  8
0
 62
     7
 10
133.572
 20
142.2179999999999
 30
0.0
 11
133.572
 21
165.66900000000001
 31
0.0
  0
LINE
  5
44B
  8
0
 62
     7
 10
133.39699999999999
 20
165.84999999999999
 30
0.0
 11
132.28399999999999
 21
159.53700000000001
 31
0.0
  0
LINE
  5
44C
  8
0
 62
     7
 10
158.41200000000001
 20
165.4429999999999
 30
0.0
 11
137.70199999999991
 21
170.99199999999999
 31
0.0
  0
LINE
  5
44D
  8
0
 62
     7
 10
154.4379999999999
 20
164.2459999999999
 30
0.0
 11
138.46100000000001
 21
169.21299999999991
 31
0.0
  0
LINE
  5
44E
  8
0
 62
     7
 10
136.5029999999999
 20
167.3429999999999
 30
0.0
 11
136.691
 21
168.40599999999989
 31
0.0
  0
ARC
  5
44F
  8
0
 62
     7
 10
137.7716889999999
 20
166.408818
 30
0.0
 40
2.8881229999999989
 50
76.192182999999986
 51
90.889727000000008
  0
ARC
  5
450
  8
0
 62
     7
 10
137.77885599999999
 20
168.05794099999989
 30
0.0
 40
1.2397439999999991
 50
92.404599000000005
 51
119.47711699999989
  0
ARC
  5
451
  8
0
 62
     7
 10
137.6672889999999
 20
168.33106000000001
 30
0.0
 40
0.9478139999999999
 50
121.730695
 51
152.997512
  0
ARC
  5
452
  8
0
 62
     7
 10
138.29729299999991
 20
167.99989299999999
 30
0.0
 40
1.659522999999999
 50
152.68590800000001
 51
162.89091199999999
  0
ARC
  5
453
  8
0
 62
     7
 10
137.25682499999999
 20
168.30757800000001
 30
0.0
 40
0.5747060000000001
 50
161.69163499999999
 51
170.17955799999999
  0
LINE
  5
454
  8
0
 62
     7
 10
157.97200000000001
 20
168.64500000000001
 30
0.0
 11
139.4499999999999
 21
172.7109999999999
 31
0.0
  0
LINE
  5
455
  8
0
 62
     7
 10
130.98799999999989
 20
168.31599999999989
 30
0.0
 11
131.23099999999991
 21
169.66800000000001
 31
0.0
  0
ARC
  5
456
  8
0
 62
     7
 10
136.24086800000001
 20
164.76216099999999
 30
0.0
 40
6.3989180000000001
 50
76.800364000000002
 51
86.808440000000004
  0
ARC
  5
457
  8
0
 62
     7
 10
136.445018
 20
167.69013299999989
 30
0.0
 40
3.4643609999999998
 50
87.48357
 51
103.3244269999999
  0
ARC
  5
458
  8
0
 62
     7
 10
136.19285400000001
 20
168.9605509999999
 30
0.0
 40
2.1705450000000002
 50
104.5760199999999
 51
157.19880800000001
  0
ARC
  5
459
  8
0
 62
     7
 10
137.3490699999999
 20
168.42709799999989
 30
0.0
 40
3.443417999999999
 50
156.471767
 51
168.7052139999999
  0
ARC
  5
45A
  8
0
 62
     7
 10
136.8784149999999
 20
161.70598200000001
 30
0.0
 40
11.301876999999999
 50
76.845733999999993
 51
97.580346000000006
  0
ARC
  5
45B
  8
0
 62
     7
 10
136.4868689999999
 20
165.63970399999991
 30
0.0
 40
7.3520440000000002
 50
98.599735999999993
 51
114.61399899999989
  0
ARC
  5
45C
  8
0
 62
     7
 10
135.44127499999991
 20
168.09015299999999
 30
0.0
 40
4.6892870000000002
 50
115.4697419999999
 51
135.36373399999999
  0
ARC
  5
45D
  8
0
 62
     7
 10
134.565021
 20
169.05318500000001
 30
0.0
 40
3.389845999999999
 50
136.540491
 51
169.54934999999989
  0
ARC
  5
45E
  8
0
 62
     7
 10
153.76232400000001
 20
162.30588599999999
 30
0.0
 40
2.0545059999999991
 50
1.0990949999999999
 51
70.787503000000001
  0
LINE
  5
45F
  8
0
  6
AIGENLINE001
 62
     7
 10
133.44599999999991
 20
166.1279999999999
 30
0.0
 11
133.97200000000001
 21
169.10199999999989
 31
0.0
  0
LINE
  5
460
  8
0
 62
     7
 10
136.5029999999999
 20
167.3429999999999
 30
0.0
 11
130.98799999999989
 21
168.31599999999989
 31
0.0
  0
LINE
  5
461
  8
0
 62
     7
 10
131.20899999999989
 20
167.26099999999991
 30
0.0
 11
131.38199999999989
 21
168.2459999999999
 31
0.0
  0
LINE
  5
462
  8
0
 62
     7
 10
135.93600000000001
 20
166.42799999999991
 30
0.0
 11
136.11000000000001
 21
167.4129999999999
 31
0.0
  0
LINE
  5
463
  8
0
 62
     7
 10
135.93600000000001
 20
166.42799999999991
 30
0.0
 11
131.20899999999989
 21
167.26099999999991
 31
0.0
  0
LINE
  5
464
  8
0
 62
     7
 10
160.97200000000001
 20
171.84499999999991
 30
0.0
 11
160.97200000000001
 21
172.44499999999999
 31
0.0
  0
LINE
  5
465
  8
0
 62
     7
 10
158.18700000000001
 20
168.64500000000001
 30
0.0
 11
157.97200000000001
 21
168.64500000000001
 31
0.0
  0
LINE
  5
466
  8
0
 62
     7
 10
163.97200000000001
 20
168.64500000000001
 30
0.0
 11
163.756
 21
168.64500000000001
 31
0.0
  0
LINE
  5
467
  8
0
 62
     7
 10
154.572
 20
158.64500000000001
 30
0.0
 11
167.37200000000001
 21
158.64500000000001
 31
0.0
  0
LINE
  5
468
  8
0
 62
     7
 10
73.205500000000001
 20
154.74499999999989
 30
0.0
 11
73.205500000000001
 21
153.64500000000001
 31
0.0
  0
ARC
  5
469
  8
0
 62
     7
 10
73.109030000000004
 20
154.94883100000001
 30
0.0
 40
0.103793
 50
182.1095729999999
 51
267.98915699999992
  0
ARC
  5
46A
  8
0
 62
     7
 10
73.101448000000005
 20
154.74108699999999
 30
0.0
 40
0.104089
 50
2.071037
 51
87.830421999999999
  0
ARC
  5
46B
  8
0
 62
     7
 10
73.109121999999999
 20
156.14085299999999
 30
0.0
 40
0.103895
 50
92.059623999999985
 51
177.742774
  0
LINE
  5
46C
  8
0
 62
     7
 10
73.205500000000001
 20
156.845
 30
0.0
 11
73.205500000000001
 21
156.345
 31
0.0
  0
ARC
  5
46D
  8
0
 62
     7
 10
73.101368999999991
 20
156.3487669999999
 30
0.0
 40
0.104164
 50
272.21132599999999
 51
357.98557699999992
  0
LINE
  5
46E
  8
0
 62
     7
 10
73.005300000000005
 20
153.64500000000001
 30
0.0
 11
73.205500000000001
 21
153.64500000000001
 31
0.0
  0
LINE
  5
46F
  8
0
 62
     7
 10
70.905500000000004
 20
153.64500000000001
 30
0.0
 11
71.805400000000006
 21
153.64500000000001
 31
0.0
  0
LINE
  5
470
  8
0
 62
     7
 10
73.005300000000005
 20
156.845
 30
0.0
 11
73.205500000000001
 21
156.845
 31
0.0
  0
LINE
  5
471
  8
0
 62
     7
 10
70.905500000000004
 20
156.845
 30
0.0
 11
71.805400000000006
 21
156.845
 31
0.0
  0
LINE
  5
472
  8
0
 62
     7
 10
73.105400000000003
 20
152.64500000000001
 30
0.0
 11
73.105400000000003
 21
153.64500000000001
 31
0.0
  0
LINE
  5
473
  8
0
 62
     7
 10
67.605400000000003
 20
154.74499999999989
 30
0.0
 11
67.605400000000003
 21
153.64500000000001
 31
0.0
  0
ARC
  5
474
  8
0
 62
     7
 10
67.701410999999993
 20
154.94911799999991
 30
0.0
 40
0.10409
 50
272.16303699999997
 51
357.73827299999999
  0
ARC
  5
475
  8
0
 62
     7
 10
67.709128000000007
 20
154.7414169999999
 30
0.0
 40
0.103754
 50
92.092934999999997
 51
178.10426699999991
  0
ARC
  5
476
  8
0
 62
     7
 10
67.701611
 20
156.14085800000001
 30
0.0
 40
0.103889
 50
2.254159
 51
87.943402000000006
  0
LINE
  5
477
  8
0
 62
     7
 10
67.605400000000003
 20
156.845
 30
0.0
 11
67.605400000000003
 21
156.345
 31
0.0
  0
ARC
  5
478
  8
0
 62
     7
 10
67.709634999999992
 20
156.34886399999991
 30
0.0
 40
0.104272
 50
182.06561999999991
 51
267.63881800000001
  0
LINE
  5
479
  8
0
 62
     7
 10
67.805400000000006
 20
153.64500000000001
 30
0.0
 11
67.605400000000003
 21
153.64500000000001
 31
0.0
  0
LINE
  5
47A
  8
0
 62
     7
 10
69.9054
 20
153.64500000000001
 30
0.0
 11
69.005499999999984
 21
153.64500000000001
 31
0.0
  0
LINE
  5
47B
  8
0
 62
     7
 10
67.805400000000006
 20
156.845
 30
0.0
 11
67.605400000000003
 21
156.845
 31
0.0
  0
LINE
  5
47C
  8
0
 62
     7
 10
69.9054
 20
156.845
 30
0.0
 11
69.005499999999984
 21
156.845
 31
0.0
  0
LINE
  5
47D
  8
0
 62
     7
 10
67.705299999999994
 20
152.64500000000001
 30
0.0
 11
67.705299999999994
 21
153.64500000000001
 31
0.0
  0
LINE
  5
47E
  8
0
 62
     7
 10
116.982
 20
92.413499999999999
 30
0.0
 11
117.456
 21
90.645499999999998
 31
0.0
  0
LINE
  5
47F
  8
0
 62
     7
 10
117.456
 20
90.645499999999998
 30
0.0
 11
117.93000000000001
 21
92.413499999999999
 31
0.0
  0
LINE
  5
480
  8
0
 62
     7
 10
117.93000000000001
 20
92.413499999999999
 30
0.0
 11
116.982
 21
92.413499999999999
 31
0.0
  0
LINE
  5
481
  8
0
 62
     7
 10
117.91799999999991
 20
171.2759999999999
 30
0.0
 11
117.444
 21
173.0449999999999
 31
0.0
  0
LINE
  5
482
  8
0
 62
     7
 10
117.444
 20
173.0449999999999
 30
0.0
 11
116.971
 21
171.2759999999999
 31
0.0
  0
LINE
  5
483
  8
0
 62
     7
 10
116.971
 20
171.2759999999999
 30
0.0
 11
117.91799999999991
 21
171.2759999999999
 31
0.0
  0
LINE
  5
484
  8
0
 62
     7
 10
117.45
 20
90.645499999999998
 30
0.0
 11
117.45
 21
173.0449999999999
 31
0.0
  0
LINE
  5
485
  8
0
 62
     7
 10
117.105
 20
90.645499999999998
 30
0.0
 11
159.3489999999999
 21
90.645499999999998
 31
0.0
  0
LINE
  5
486
  8
0
 62
     7
 10
72.9054
 20
147.24399999999989
 30
0.0
 11
72.9054
 21
151.64500000000001
 31
0.0
  0
LINE
  5
487
  8
0
 62
     7
 10
71.905500000000004
 20
147.24399999999989
 30
0.0
 11
71.905500000000004
 21
151.64500000000001
 31
0.0
  0
LINE
  5
488
  8
0
 62
     7
 10
71.405199999999994
 20
147.24399999999989
 30
0.0
 11
73.405299999999997
 21
147.24399999999989
 31
0.0
  0
LINE
  5
489
  8
0
 62
     7
 10
73.405299999999997
 20
151.64500000000001
 30
0.0
 11
73.405299999999997
 21
147.24399999999989
 31
0.0
  0
LINE
  5
48A
  8
0
 62
     7
 10
71.405199999999994
 20
151.64500000000001
 30
0.0
 11
71.405199999999994
 21
147.24399999999989
 31
0.0
  0
LINE
  5
48B
  8
0
 62
     7
 10
71.805400000000006
 20
142.64500000000001
 30
0.0
 11
71.805400000000006
 21
147.24399999999989
 31
0.0
  0
LINE
  5
48C
  8
0
 62
     7
 10
71.805400000000006
 20
142.64500000000001
 30
0.0
 11
73.005300000000005
 21
142.64500000000001
 31
0.0
  0
LINE
  5
48D
  8
0
 62
     7
 10
73.005300000000005
 20
142.64500000000001
 30
0.0
 11
73.005300000000005
 21
147.24399999999989
 31
0.0
  0
LINE
  5
48E
  8
0
 62
     7
 10
73.005300000000005
 20
152.64500000000001
 30
0.0
 11
73.005300000000005
 21
158.64500000000001
 31
0.0
  0
LINE
  5
48F
  8
0
 62
     7
 10
71.805400000000006
 20
152.64500000000001
 30
0.0
 11
71.805400000000006
 21
158.64500000000001
 31
0.0
  0
LINE
  5
490
  8
0
  6
AIGENLINE001
 62
     7
 10
72.405299999999997
 20
159.50200000000001
 30
0.0
 11
72.405299999999997
 21
141.70500000000001
 31
0.0
  0
LINE
  5
491
  8
0
 62
     7
 10
68.9054
 20
147.24399999999989
 30
0.0
 11
68.9054
 21
151.64500000000001
 31
0.0
  0
LINE
  5
492
  8
0
 62
     7
 10
67.905199999999994
 20
147.24399999999989
 30
0.0
 11
67.905199999999994
 21
151.64500000000001
 31
0.0
  0
LINE
  5
493
  8
0
 62
     7
 10
67.405299999999997
 20
147.24399999999989
 30
0.0
 11
69.405299999999997
 21
147.24399999999989
 31
0.0
  0
LINE
  5
494
  8
0
 62
     7
 10
69.405299999999997
 20
151.64500000000001
 30
0.0
 11
69.405299999999997
 21
147.24399999999989
 31
0.0
  0
LINE
  5
495
  8
0
 62
     7
 10
67.405299999999997
 20
151.64500000000001
 30
0.0
 11
67.405299999999997
 21
147.24399999999989
 31
0.0
  0
LINE
  5
496
  8
0
 62
     7
 10
67.805199999999999
 20
142.64500000000001
 30
0.0
 11
67.805199999999999
 21
147.24399999999989
 31
0.0
  0
LINE
  5
497
  8
0
 62
     7
 10
67.805199999999999
 20
142.64500000000001
 30
0.0
 11
69.005200000000002
 21
142.64500000000001
 31
0.0
  0
LINE
  5
498
  8
0
 62
     7
 10
69.005200000000002
 20
142.64500000000001
 30
0.0
 11
69.005200000000002
 21
147.24399999999989
 31
0.0
  0
LINE
  5
499
  8
0
 62
     7
 10
69.005499999999984
 20
152.64500000000001
 30
0.0
 11
69.005499999999984
 21
158.64500000000001
 31
0.0
  0
LINE
  5
49A
  8
0
 62
     7
 10
67.805400000000006
 20
152.64500000000001
 30
0.0
 11
67.805400000000006
 21
158.64500000000001
 31
0.0
  0
LINE
  5
49B
  8
0
  6
AIGENLINE001
 62
     7
 10
68.405199999999994
 20
159.50200000000001
 30
0.0
 11
68.405199999999994
 21
141.70500000000001
 31
0.0
  0
LINE
  5
49C
  8
0
 62
     7
 10
70.905500000000004
 20
152.64500000000001
 30
0.0
 11
70.905500000000004
 21
158.64500000000001
 31
0.0
  0
LINE
  5
49D
  8
0
 62
     7
 10
69.9054
 20
152.64500000000001
 30
0.0
 11
69.9054
 21
158.64500000000001
 31
0.0
  0
LINE
  5
49E
  8
0
 62
     7
 10
69.9054
 20
90.644800000000004
 30
0.0
 11
69.9054
 21
151.64400000000001
 31
0.0
  0
LINE
  5
49F
  8
0
 62
     7
 10
75.405299999999997
 20
152.64500000000001
 30
0.0
 11
75.405299999999997
 21
151.64500000000001
 31
0.0
  0
LINE
  5
4A0
  8
0
 62
     7
 10
65.405199999999994
 20
152.64500000000001
 30
0.0
 11
65.405199999999994
 21
151.64500000000001
 31
0.0
  0
LINE
  5
4A1
  8
0
 62
     7
 10
65.405199999999994
 20
151.64500000000001
 30
0.0
 11
75.405299999999997
 21
151.64500000000001
 31
0.0
  0
LINE
  5
4A2
  8
0
 62
     7
 10
65.405199999999994
 20
152.245
 30
0.0
 11
75.405199999999994
 21
152.245
 31
0.0
  0
LINE
  5
4A3
  8
0
 62
     7
 10
65.405199999999994
 20
152.64500000000001
 30
0.0
 11
75.405299999999997
 21
152.64500000000001
 31
0.0
  0
LINE
  5
4A4
  8
0
 62
     7
 10
76.805300000000003
 20
158.64500000000001
 30
0.0
 11
76.805300000000003
 21
159.96000000000001
 31
0.0
  0
ARC
  5
4A5
  8
0
 62
     7
 10
74.364370999999991
 20
159.955973
 30
0.0
 40
2.4409040000000002
 50
0.092076
 51
31.413964
  0
LINE
  5
4A6
  8
0
 62
     7
 10
73.205100000000002
 20
167.82900000000001
 30
0.0
 11
73.205100000000002
 21
169.2579999999999
 31
0.0
  0
LINE
  5
4A7
  8
0
 62
     7
 10
64.005300000000005
 20
158.64500000000001
 30
0.0
 11
64.005300000000005
 21
159.96000000000001
 31
0.0
  0
ARC
  5
4A8
  8
0
 62
     7
 10
66.442521999999997
 20
159.95700600000001
 30
0.0
 40
2.4372400000000001
 50
148.56186600000001
 51
179.93205399999999
  0
LINE
  5
4A9
  8
0
 62
     7
 10
67.605099999999993
 20
167.82900000000001
 30
0.0
 11
67.605099999999993
 21
169.2579999999999
 31
0.0
  0
LINE
  5
4AA
  8
0
 62
     7
 10
72.805000000000007
 20
167.84499999999991
 30
0.0
 11
72.805000000000007
 21
166.84499999999991
 31
0.0
  0
LINE
  5
4AB
  8
0
 62
     7
 10
68.005200000000002
 20
167.84499999999991
 30
0.0
 11
68.005200000000002
 21
166.84499999999991
 31
0.0
  0
ARC
  5
4AC
  8
0
 62
     7
 10
72.716077999999996
 20
167.84269399999999
 30
0.0
 40
0.08926
 50
1.1999079999999991
 51
42.362751000000003
  0
ARC
  5
4AD
  8
0
 62
     7
 10
72.541492000000005
 20
167.684597
 30
0.0
 40
0.324791
 50
42.217511000000002
 51
66.769941000000003
  0
ARC
  5
4AE
  8
0
 62
     7
 10
72.06201999999999
 20
166.665663
 30
0.0
 40
1.45075
 50
65.241011
 51
76.715525999999997
  0
ARC
  5
4AF
  8
0
 62
     7
 10
71.292045999999999
 20
163.58384099999989
 30
0.0
 40
4.6272180000000001
 50
76.205229000000003
 51
82.897429999999986
  0
ARC
  5
4B0
  8
0
 62
     7
 10
70.500998999999993
 20
157.45152899999991
 30
0.0
 40
10.810317
 50
82.75569200000001
 51
90.507328000000001
  0
ARC
  5
4B1
  8
0
 62
     7
 10
70.402806000000012
 20
155.96629799999991
 30
0.0
 40
12.295123999999999
 50
89.988471000000004
 51
97.015811999999997
  0
ARC
  5
4B2
  8
0
 62
     7
 10
69.427289999999985
 20
164.077009
 30
0.0
 40
4.1260510000000004
 50
97.327674000000016
 51
105.095657
  0
ARC
  5
4B3
  8
0
 62
     7
 10
68.585177999999999
 20
167.1099659999999
 30
0.0
 40
0.978716
 50
103.738848
 51
121.0200279999999
  0
ARC
  5
4B4
  8
0
 62
     7
 10
68.147587000000001
 20
167.82076599999991
 30
0.0
 40
0.144325
 50
117.560912
 51
170.50942499999991
  0
LINE
  5
4B5
  8
0
 62
     7
 10
66.805300000000003
 20
168.64500000000001
 30
0.0
 11
67.120000000000005
 21
168.64500000000001
 31
0.0
  0
ARC
  5
4B6
  8
0
 62
     7
 10
72.715733999999998
 20
166.842748
 30
0.0
 40
0.08926
 50
1.1999079999999991
 51
42.362751000000003
  0
ARC
  5
4B7
  8
0
 62
     7
 10
72.541251000000003
 20
166.684822
 30
0.0
 40
0.3246
 50
42.207458000000003
 51
66.772211999999996
  0
ARC
  5
4B8
  8
0
 62
     7
 10
72.061692000000008
 20
165.665831
 30
0.0
 40
1.450647
 50
65.239130000000003
 51
76.713247999999993
  0
ARC
  5
4B9
  8
0
 62
     7
 10
71.291781999999998
 20
162.58422599999989
 30
0.0
 40
4.6268900000000004
 50
76.204638000000003
 51
82.896985999999984
  0
ARC
  5
4BA
  8
0
 62
     7
 10
70.500718999999975
 20
156.45148599999999
 30
0.0
 40
10.81041499999999
 50
82.755701000000016
 51
90.507665999999986
  0
ARC
  5
4BB
  8
0
 62
     7
 10
70.402459999999991
 20
154.96751399999991
 30
0.0
 40
12.293963
 50
89.988465000000005
 51
97.016143000000014
  0
ARC
  5
4BC
  8
0
 62
     7
 10
69.426850000000002
 20
163.07848300000001
 30
0.0
 40
4.1246219999999996
 50
97.327911
 51
105.09778
  0
ARC
  5
4BD
  8
0
 62
     7
 10
68.584968000000003
 20
166.11015399999991
 30
0.0
 40
0.9785879999999998
 50
103.740988
 51
121.02267999999999
  0
ARC
  5
4BE
  8
0
 62
     7
 10
68.147435000000002
 20
166.82081299999999
 30
0.0
 40
0.144346
 50
117.570335
 51
170.50776200000001
  0
ARC
  5
4BF
  8
0
 62
     7
 10
68.094417000000007
 20
166.846487
 30
0.0
 40
0.089372
 50
181.1985389999999
 51
222.33499999999989
  0
ARC
  5
4C0
  8
0
 62
     7
 10
68.268825000000007
 20
167.004333
 30
0.0
 40
0.324602
 50
222.1982799999999
 51
246.76429300000001
  0
ARC
  5
4C1
  8
0
 62
     7
 10
68.74805400000001
 20
168.022325
 30
0.0
 40
1.4496059999999991
 50
245.23268899999999
 51
256.71501299999989
  0
ARC
  5
4C2
  8
0
 62
     7
 10
69.518119999999996
 20
171.105133
 30
0.0
 40
4.6270540000000002
 50
256.20676299999991
 51
262.89856400000002
  0
ARC
  5
4C3
  8
0
 62
     7
 10
70.309054000000003
 20
177.24066199999999
 30
0.0
 40
10.81332799999999
 50
262.75892999999991
 51
270.50804499999998
  0
ARC
  5
4C4
  8
0
 62
     7
 10
70.407400999999993
 20
178.73131000000001
 30
0.0
 40
12.303551999999989
 50
269.988516
 51
277.01137199999988
  0
ARC
  5
4C5
  8
0
 62
     7
 10
71.383169999999993
 20
170.611661
 30
0.0
 40
4.1255759999999997
 50
277.32611899999989
 51
285.094424
  0
ARC
  5
4C6
  8
0
 62
     7
 10
72.225430000000003
 20
167.57798399999999
 30
0.0
 40
0.9775089999999999
 50
283.73448300000001
 51
301.03618499999988
  0
ARC
  5
4C7
  8
0
 62
     7
 10
72.662583999999995
 20
166.86837
 30
0.0
 40
0.144357
 50
297.57692700000001
 51
350.52935200000002
  0
LINE
  5
4C8
  8
0
 62
     7
 10
67.692800000000005
 20
171.39400000000001
 30
0.0
 11
68.094499999999996
 21
172.37299999999991
 31
0.0
  0
LINE
  5
4C9
  8
0
 62
     7
 10
68.805400000000006
 20
173.0449999999999
 30
0.0
 11
72.005200000000002
 21
173.0449999999999
 31
0.0
  0
LINE
  5
4CA
  8
0
  6
AIGENLINE001
 62
     7
 10
70.405299999999997
 20
176.0559999999999
 30
0.0
 11
70.405299999999997
 21
89.519599999999997
 31
0.0
  0
LINE
  5
4CB
  8
0
 62
     7
 10
64.005300000000005
 20
158.64500000000001
 30
0.0
 11
76.805300000000003
 21
158.64500000000001
 31
0.0
  0
LINE
  5
4CC
  8
0
 62
     7
 10
48.305
 20
131.0679999999999
 30
0.0
 11
48.305
 21
138.02499999999989
 31
0.0
  0
LINE
  5
4CD
  8
0
 62
     7
 10
52.505000000000003
 20
131.0679999999999
 30
0.0
 11
52.505000000000003
 21
138.02499999999989
 31
0.0
  0
LINE
  5
4CE
  8
0
 62
     7
 10
50.736600000000003
 20
130.953
 30
0.0
 11
52.505000000000003
 21
131.42699999999999
 31
0.0
  0
LINE
  5
4CF
  8
0
 62
     7
 10
52.505000000000003
 20
131.42699999999999
 30
0.0
 11
50.736600000000003
 21
131.90000000000001
 31
0.0
  0
LINE
  5
4D0
  8
0
 62
     7
 10
50.736600000000003
 20
131.90000000000001
 30
0.0
 11
50.736600000000003
 21
130.953
 31
0.0
  0
LINE
  5
4D1
  8
0
 62
     7
 10
50.073399999999999
 20
131.88900000000001
 30
0.0
 11
48.305199999999992
 21
131.41499999999991
 31
0.0
  0
LINE
  5
4D2
  8
0
 62
     7
 10
48.305199999999992
 20
131.41499999999991
 30
0.0
 11
50.073399999999999
 21
130.94099999999989
 31
0.0
  0
LINE
  5
4D3
  8
0
 62
     7
 10
50.073399999999999
 20
130.94099999999989
 30
0.0
 11
50.073399999999999
 21
131.88900000000001
 31
0.0
  0
LINE
  5
4D4
  8
0
 62
     7
 10
52.505000000000003
 20
131.42099999999991
 30
0.0
 11
40.86719999999999
 21
131.42099999999991
 31
0.0
  0
LINE
  5
4D5
  8
0
 62
     7
 10
30.930399999999999
 20
156.876
 30
0.0
 11
30.456700000000001
 21
158.64500000000001
 31
0.0
  0
LINE
  5
4D6
  8
0
 62
     7
 10
30.456700000000001
 20
158.64500000000001
 30
0.0
 11
29.982900000000001
 21
156.876
 31
0.0
  0
LINE
  5
4D7
  8
0
 62
     7
 10
29.982900000000001
 20
156.876
 30
0.0
 11
30.930399999999999
 21
156.876
 31
0.0
  0
LINE
  5
4D8
  8
0
 62
     7
 10
30.930399999999999
 20
170.87599999999989
 30
0.0
 11
30.456700000000001
 21
172.6449999999999
 31
0.0
  0
LINE
  5
4D9
  8
0
 62
     7
 10
30.456700000000001
 20
172.6449999999999
 30
0.0
 11
29.982900000000001
 21
170.87599999999989
 31
0.0
  0
LINE
  5
4DA
  8
0
 62
     7
 10
29.982900000000001
 20
170.87599999999989
 30
0.0
 11
30.930399999999999
 21
170.87599999999989
 31
0.0
  0
LINE
  5
4DB
  8
0
 62
     7
 10
29.994599999999998
 20
160.4129999999999
 30
0.0
 11
30.468299999999989
 21
158.64500000000001
 31
0.0
  0
LINE
  5
4DC
  8
0
 62
     7
 10
30.468299999999989
 20
158.64500000000001
 30
0.0
 11
30.9421
 21
160.4129999999999
 31
0.0
  0
LINE
  5
4DD
  8
0
 62
     7
 10
30.9421
 20
160.4129999999999
 30
0.0
 11
29.994599999999998
 21
160.4129999999999
 31
0.0
  0
LINE
  5
4DE
  8
0
 62
     7
 10
29.994599999999998
 20
140.21299999999991
 30
0.0
 11
30.468299999999989
 21
138.44499999999991
 31
0.0
  0
LINE
  5
4DF
  8
0
 62
     7
 10
30.468299999999989
 20
138.44499999999991
 30
0.0
 11
30.9421
 21
140.21299999999991
 31
0.0
  0
LINE
  5
4E0
  8
0
 62
     7
 10
30.9421
 20
140.21299999999991
 30
0.0
 11
29.994599999999998
 21
140.21299999999991
 31
0.0
  0
LINE
  5
4E1
  8
0
 62
     7
 10
30.462599999999998
 20
172.6449999999999
 30
0.0
 11
30.462599999999998
 21
138.44499999999991
 31
0.0
  0
LINE
  5
4E2
  8
0
 62
     7
 10
40.309100000000001
 20
156.876
 30
0.0
 11
39.8352
 21
158.64500000000001
 31
0.0
  0
LINE
  5
4E3
  8
0
 62
     7
 10
39.8352
 20
158.64500000000001
 30
0.0
 11
39.3613
 21
156.876
 31
0.0
  0
LINE
  5
4E4
  8
0
 62
     7
 10
39.3613
 20
156.876
 30
0.0
 11
40.309100000000001
 21
156.876
 31
0.0
  0
LINE
  5
4E5
  8
0
 62
     7
 10
39.372999999999998
 20
154.4129999999999
 30
0.0
 11
39.846699999999991
 21
152.64500000000001
 31
0.0
  0
LINE
  5
4E6
  8
0
 62
     7
 10
39.846699999999991
 20
152.64500000000001
 30
0.0
 11
40.320799999999991
 21
154.4129999999999
 31
0.0
  0
LINE
  5
4E7
  8
0
 62
     7
 10
40.320799999999991
 20
154.4129999999999
 30
0.0
 11
39.372999999999998
 21
154.4129999999999
 31
0.0
  0
LINE
  5
4E8
  8
0
 62
     7
 10
39.84109999999999
 20
158.64500000000001
 30
0.0
 11
39.84109999999999
 21
152.64500000000001
 31
0.0
  0
LINE
  5
4E9
  8
0
 62
     7
 10
44.204999999999991
 20
166.20500000000001
 30
0.0
 11
44.204999999999991
 21
159.8839999999999
 31
0.0
  0
LINE
  5
4EA
  8
0
 62
     7
 10
35.104900000000001
 20
179.81499999999991
 30
0.0
 11
35.104900000000001
 21
172.005
 31
0.0
  0
LINE
  5
4EB
  8
0
 62
     7
 10
50.405200000000001
 20
179.70400000000001
 30
0.0
 11
50.405200000000001
 21
174.03599999999989
 31
0.0
  0
LINE
  5
4EC
  8
0
 62
     7
 10
56.605200000000004
 20
166.20500000000001
 30
0.0
 11
56.605200000000004
 21
159.8839999999999
 31
0.0
  0
LINE
  5
4ED
  8
0
 62
     7
 10
54.83679999999999
 20
165.39500000000001
 30
0.0
 11
56.605200000000004
 21
165.86799999999991
 31
0.0
  0
LINE
  5
4EE
  8
0
 62
     7
 10
56.605200000000004
 20
165.86799999999991
 30
0.0
 11
54.83679999999999
 21
166.34200000000001
 31
0.0
  0
LINE
  5
4EF
  8
0
 62
     7
 10
54.83679999999999
 20
166.34200000000001
 30
0.0
 11
54.83679999999999
 21
165.39500000000001
 31
0.0
  0
LINE
  5
4F0
  8
0
 62
     7
 10
45.973500000000001
 20
166.3309999999999
 30
0.0
 11
44.205199999999991
 21
165.857
 31
0.0
  0
LINE
  5
4F1
  8
0
 62
     7
 10
44.205199999999991
 20
165.857
 30
0.0
 11
45.973500000000001
 21
165.3829999999999
 31
0.0
  0
LINE
  5
4F2
  8
0
 62
     7
 10
45.973500000000001
 20
165.3829999999999
 30
0.0
 11
45.973500000000001
 21
166.3309999999999
 31
0.0
  0
LINE
  5
4F3
  8
0
 62
     7
 10
48.636600000000001
 20
178.798
 30
0.0
 11
50.405200000000001
 21
179.27199999999999
 31
0.0
  0
LINE
  5
4F4
  8
0
 62
     7
 10
50.405200000000001
 20
179.27199999999999
 30
0.0
 11
48.636600000000001
 21
179.7459999999999
 31
0.0
  0
LINE
  5
4F5
  8
0
 62
     7
 10
48.636600000000001
 20
179.7459999999999
 30
0.0
 11
48.636600000000001
 21
178.798
 31
0.0
  0
LINE
  5
4F6
  8
0
 62
     7
 10
36.8733
 20
179.73400000000001
 30
0.0
 11
35.104900000000001
 21
179.26099999999991
 31
0.0
  0
LINE
  5
4F7
  8
0
 62
     7
 10
35.104900000000001
 20
179.26099999999991
 30
0.0
 11
36.8733
 21
178.78700000000001
 31
0.0
  0
LINE
  5
4F8
  8
0
 62
     7
 10
36.8733
 20
178.78700000000001
 30
0.0
 11
36.8733
 21
179.73400000000001
 31
0.0
  0
LINE
  5
4F9
  8
0
 62
     7
 10
50.405200000000001
 20
179.26599999999991
 30
0.0
 11
35.104900000000001
 21
179.26599999999991
 31
0.0
  0
LINE
  5
4FA
  8
0
 62
     7
 10
47.2517
 20
172.6449999999999
 30
0.0
 11
29.797999999999998
 21
172.6449999999999
 31
0.0
  0
LINE
  5
4FB
  8
0
 62
     7
 10
47.383999999999993
 20
138.44499999999991
 30
0.0
 11
29.797999999999998
 21
138.44499999999991
 31
0.0
  0
LINE
  5
4FC
  8
0
 62
     7
 10
43.515399999999993
 20
158.64500000000001
 30
0.0
 11
29.797999999999998
 21
158.64500000000001
 31
0.0
  0
LINE
  5
4FD
  8
0
 62
     7
 10
57.744599999999998
 20
165.863
 30
0.0
 11
44.204999999999991
 21
165.863
 31
0.0
  0
LINE
  5
4FE
  8
0
 62
     7
 10
51.236800000000002
 20
154.459
 30
0.0
 11
53.005200000000002
 21
154.93299999999991
 31
0.0
  0
LINE
  5
4FF
  8
0
 62
     7
 10
53.005200000000002
 20
154.93299999999991
 30
0.0
 11
51.236800000000002
 21
155.40700000000001
 31
0.0
  0
LINE
  5
500
  8
0
 62
     7
 10
51.236800000000002
 20
155.40700000000001
 30
0.0
 11
51.236800000000002
 21
154.459
 31
0.0
  0
LINE
  5
501
  8
0
 62
     7
 10
49.573300000000003
 20
155.39500000000001
 30
0.0
 11
47.804999999999993
 21
154.92099999999991
 31
0.0
  0
LINE
  5
502
  8
0
 62
     7
 10
47.804999999999993
 20
154.92099999999991
 30
0.0
 11
49.573300000000003
 21
154.44799999999989
 31
0.0
  0
LINE
  5
503
  8
0
 62
     7
 10
49.573300000000003
 20
154.44799999999989
 30
0.0
 11
49.573300000000003
 21
155.39500000000001
 31
0.0
  0
LINE
  5
504
  8
0
 62
     7
 10
55.0137
 20
154.92699999999999
 30
0.0
 11
47.804999999999993
 21
154.92699999999999
 31
0.0
  0
LINE
  5
505
  8
0
 62
     7
 10
59.1053
 20
142.84499999999991
 30
0.0
 11
60.205300000000001
 21
142.84499999999991
 31
0.0
  0
ARC
  5
506
  8
0
 62
     7
 10
58.900936999999999
 20
142.94045199999999
 30
0.0
 40
0.104346
 50
2.1071189999999991
 51
87.695977999999997
  0
ARC
  5
507
  8
0
 62
     7
 10
59.108693000000002
 20
142.94804600000001
 30
0.0
 40
0.103549
 50
182.07936000000001
 51
268.11824200000001
  0
ARC
  5
508
  8
0
 62
     7
 10
57.709023999999999
 20
142.940819
 30
0.0
 40
0.103965
 50
92.109334000000004
 51
178.08752899999999
  0
LINE
  5
509
  8
0
 62
     7
 10
57.005099999999999
 20
142.84499999999991
 30
0.0
 11
57.505000000000003
 21
142.84499999999991
 31
0.0
  0
ARC
  5
50A
  8
0
 62
     7
 10
57.501494999999998
 20
142.94818699999999
 30
0.0
 40
0.103695
 50
271.95708400000001
 51
357.84535499999993
  0
LINE
  5
50B
  8
0
 62
     7
 10
58.90509999999999
 20
143.0449999999999
 30
0.0
 11
57.705199999999998
 21
143.0449999999999
 31
0.0
  0
LINE
  5
50C
  8
0
 62
     7
 10
59.1053
 20
145.44499999999999
 30
0.0
 11
60.205300000000001
 21
145.44499999999999
 31
0.0
  0
ARC
  5
50D
  8
0
 62
     7
 10
58.90138799999999
 20
145.34843100000001
 30
0.0
 40
0.103905
 50
272.06471599999998
 51
357.73772300000002
  0
ARC
  5
50E
  8
0
 62
     7
 10
59.108989000000001
 20
145.34098999999989
 30
0.0
 40
0.10383
 50
92.039861000000016
 51
178.15700200000001
  0
ARC
  5
50F
  8
0
 62
     7
 10
57.708598000000002
 20
145.34808699999999
 30
0.0
 40
0.103549
 50
182.07936000000001
 51
268.11824200000001
  0
LINE
  5
510
  8
0
 62
     7
 10
57.005099999999999
 20
145.44499999999999
 30
0.0
 11
57.505000000000003
 21
145.44499999999999
 31
0.0
  0
ARC
  5
511
  8
0
 62
     7
 10
57.501038999999999
 20
145.34069
 30
0.0
 40
0.104142
 50
2.003004999999999
 51
87.800092000000006
  0
LINE
  5
512
  8
0
 62
     7
 10
56.805
 20
142.9439999999999
 30
0.0
 11
57.005099999999999
 21
142.9439999999999
 31
0.0
  0
LINE
  5
513
  8
0
 62
     7
 10
56.805
 20
145.34399999999999
 30
0.0
 11
57.005099999999999
 21
145.34399999999999
 31
0.0
  0
LINE
  5
514
  8
0
 62
     7
 10
60.205300000000001
 20
142.9439999999999
 30
0.0
 11
63.5702
 21
142.9439999999999
 31
0.0
  0
LINE
  5
515
  8
0
 62
     7
 10
60.205300000000001
 20
145.34399999999999
 30
0.0
 11
63.5702
 21
145.34399999999999
 31
0.0
  0
LINE
  5
516
  8
0
 62
     7
 10
58.90509999999999
 20
145.24499999999989
 30
0.0
 11
57.705199999999998
 21
145.24499999999989
 31
0.0
  0
LINE
  5
517
  8
0
 62
     7
 10
60.205300000000001
 20
145.44499999999999
 30
0.0
 11
60.205300000000001
 21
142.84499999999991
 31
0.0
  0
LINE
  5
518
  8
0
 62
     7
 10
57.005099999999999
 20
145.44499999999999
 30
0.0
 11
57.005099999999999
 21
142.84499999999991
 31
0.0
  0
LINE
  5
519
  8
0
 62
     7
 10
56.505299999999991
 20
145.34399999999999
 30
0.0
 11
54.905000000000001
 21
145.34399999999999
 31
0.0
  0
LINE
  5
51A
  8
0
 62
     7
 10
56.505299999999991
 20
146.744
 30
0.0
 11
54.905000000000001
 21
146.744
 31
0.0
  0
LINE
  5
51B
  8
0
 62
     7
 10
54.6051
 20
142.64500000000001
 30
0.0
 11
53.005200000000002
 21
142.64500000000001
 31
0.0
  0
LINE
  5
51C
  8
0
 62
     7
 10
54.6051
 20
145.64500000000001
 30
0.0
 11
53.005200000000002
 21
145.64500000000001
 31
0.0
  0
LINE
  5
51D
  8
0
 62
     7
 10
54.6051
 20
146.0749999999999
 30
0.0
 11
54.6051
 21
144.14400000000001
 31
0.0
  0
LINE
  5
51E
  8
0
 62
     7
 10
48.505000000000003
 20
140.84399999999991
 30
0.0
 11
48.305
 21
141.0439999999999
 31
0.0
  0
LINE
  5
51F
  8
0
 62
     7
 10
52.305100000000003
 20
140.845
 30
0.0
 11
52.505000000000003
 21
141.0439999999999
 31
0.0
  0
LINE
  5
520
  8
0
 62
     7
 10
52.505000000000003
 20
138.64400000000001
 30
0.0
 11
52.305100000000003
 21
138.44499999999991
 31
0.0
  0
LINE
  5
521
  8
0
 62
     7
 10
48.305
 20
138.64400000000001
 30
0.0
 11
48.505000000000003
 21
138.44499999999991
 31
0.0
  0
LINE
  5
522
  8
0
 62
     7
 10
52.505000000000003
 20
138.64400000000001
 30
0.0
 11
48.305
 21
138.64400000000001
 31
0.0
  0
LINE
  5
523
  8
0
 62
     7
 10
48.505000000000003
 20
140.84399999999991
 30
0.0
 11
48.505000000000003
 21
138.44499999999991
 31
0.0
  0
LINE
  5
524
  8
0
 62
     7
 10
52.305100000000003
 20
138.44499999999991
 30
0.0
 11
52.305100000000003
 21
140.845
 31
0.0
  0
LINE
  5
525
  8
0
 62
     7
 10
52.505000000000003
 20
138.64400000000001
 30
0.0
 11
52.505000000000003
 21
141.84499999999991
 31
0.0
  0
LINE
  5
526
  8
0
 62
     7
 10
48.305
 20
141.84499999999991
 30
0.0
 11
48.305
 21
138.64400000000001
 31
0.0
  0
LINE
  5
527
  8
0
 62
     7
 10
52.305100000000003
 20
138.44499999999991
 30
0.0
 11
48.505000000000003
 21
138.44499999999991
 31
0.0
  0
LINE
  5
528
  8
0
 62
     7
 10
52.505000000000003
 20
140.845
 30
0.0
 11
48.305
 21
140.845
 31
0.0
  0
LINE
  5
529
  8
0
 62
     7
 10
53.005200000000002
 20
141.84499999999991
 30
0.0
 11
47.804999999999993
 21
141.84499999999991
 31
0.0
  0
LINE
  5
52A
  8
0
 62
     7
 10
53.005200000000002
 20
147.6449999999999
 30
0.0
 11
52.805199999999999
 21
147.845
 31
0.0
  0
LINE
  5
52B
  8
0
 62
     7
 10
47.804999999999993
 20
147.6449999999999
 30
0.0
 11
48.005099999999999
 21
147.845
 31
0.0
  0
LINE
  5
52C
  8
0
 62
     7
 10
52.805199999999999
 20
147.845
 30
0.0
 11
52.805199999999999
 21
151.245
 31
0.0
  0
LINE
  5
52D
  8
0
 62
     7
 10
53.005200000000002
 20
145.64400000000001
 30
0.0
 11
53.005200000000002
 21
151.245
 31
0.0
  0
LINE
  5
52E
  8
0
 62
     7
 10
53.005200000000002
 20
141.84499999999991
 30
0.0
 11
53.005200000000002
 21
142.64500000000001
 31
0.0
  0
LINE
  5
52F
  8
0
 62
     7
 10
48.005099999999999
 20
147.845
 30
0.0
 11
48.005099999999999
 21
151.245
 31
0.0
  0
LINE
  5
530
  8
0
 62
     7
 10
47.804999999999993
 20
141.84499999999991
 30
0.0
 11
47.804999999999993
 21
151.245
 31
0.0
  0
LINE
  5
531
  8
0
 62
     7
 10
53.005200000000002
 20
147.845
 30
0.0
 11
47.804999999999993
 21
147.845
 31
0.0
  0
LINE
  5
532
  8
0
 62
     7
 10
53.869199999999992
 20
151.245
 30
0.0
 11
46.940899999999999
 21
151.245
 31
0.0
  0
LINE
  5
533
  8
0
 62
     7
 10
53.869199999999992
 20
152.245
 30
0.0
 11
53.869199999999992
 21
151.245
 31
0.0
  0
LINE
  5
534
  8
0
 62
     7
 10
52.1374
 20
152.245
 30
0.0
 11
52.1374
 21
151.245
 31
0.0
  0
LINE
  5
535
  8
0
 62
     7
 10
48.673000000000002
 20
152.245
 30
0.0
 11
48.673000000000002
 21
151.245
 31
0.0
  0
LINE
  5
536
  8
0
 62
     7
 10
46.940899999999999
 20
152.245
 30
0.0
 11
46.940899999999999
 21
151.245
 31
0.0
  0
LINE
  5
537
  8
0
 62
     7
 10
45.905000000000001
 20
152.245
 30
0.0
 11
45.905000000000001
 21
152.44499999999991
 31
0.0
  0
LINE
  5
538
  8
0
 62
     7
 10
54.9054
 20
152.245
 30
0.0
 11
54.9054
 21
152.44499999999991
 31
0.0
  0
LINE
  5
539
  8
0
 62
     7
 10
54.9054
 20
152.245
 30
0.0
 11
45.905000000000001
 21
152.245
 31
0.0
  0
LINE
  5
53A
  8
0
 62
     7
 10
52.805199999999999
 20
152.64500000000001
 30
0.0
 11
52.805199999999999
 21
158.64500000000001
 31
0.0
  0
LINE
  5
53B
  8
0
 62
     7
 10
53.005200000000002
 20
152.64500000000001
 30
0.0
 11
53.005200000000002
 21
158.64500000000001
 31
0.0
  0
LINE
  5
53C
  8
0
 62
     7
 10
48.005099999999999
 20
152.64500000000001
 30
0.0
 11
48.005099999999999
 21
158.64500000000001
 31
0.0
  0
LINE
  5
53D
  8
0
 62
     7
 10
47.804999999999993
 20
152.64500000000001
 30
0.0
 11
47.804999999999993
 21
158.64500000000001
 31
0.0
  0
LINE
  5
53E
  8
0
 62
     7
 10
54.6051
 20
152.44499999999991
 30
0.0
 11
54.6051
 21
152.64500000000001
 31
0.0
  0
LINE
  5
53F
  8
0
 62
     7
 10
46.205100000000002
 20
152.44499999999991
 30
0.0
 11
46.205100000000002
 21
152.64500000000001
 31
0.0
  0
LINE
  5
540
  8
0
 62
     7
 10
54.9054
 20
152.44499999999991
 30
0.0
 11
45.905000000000001
 21
152.44499999999991
 31
0.0
  0
LINE
  5
541
  8
0
 62
     7
 10
45.409700000000001
 20
152.64500000000001
 30
0.0
 11
39.40659999999999
 21
152.64500000000001
 31
0.0
  0
LINE
  5
542
  8
0
 62
     7
 10
54.6051
 20
152.64500000000001
 30
0.0
 11
46.205100000000002
 21
152.64500000000001
 31
0.0
  0
LINE
  5
543
  8
0
 62
     7
 10
52.655200000000001
 20
171.84499999999991
 30
0.0
 11
52.655200000000001
 21
171.44499999999999
 31
0.0
  0
LINE
  5
544
  8
0
 62
     7
 10
52.205100000000002
 20
171.84499999999991
 30
0.0
 11
52.205100000000002
 21
171.44499999999999
 31
0.0
  0
LINE
  5
545
  8
0
 62
     7
 10
51.755099999999999
 20
171.84499999999991
 30
0.0
 11
51.755099999999999
 21
171.44499999999999
 31
0.0
  0
LINE
  5
546
  8
0
 62
     7
 10
51.305
 20
171.84499999999991
 30
0.0
 11
51.305
 21
171.44499999999999
 31
0.0
  0
LINE
  5
547
  8
0
 62
     7
 10
50.8553
 20
171.84499999999991
 30
0.0
 11
50.8553
 21
171.44499999999999
 31
0.0
  0
LINE
  5
548
  8
0
 62
     7
 10
52.905099999999997
 20
172.44499999999999
 30
0.0
 11
50.405200000000001
 21
172.44499999999999
 31
0.0
  0
LINE
  5
549
  8
0
 62
     7
 10
52.905099999999997
 20
172.44499999999999
 30
0.0
 11
52.905099999999997
 21
171.84499999999991
 31
0.0
  0
LINE
  5
54A
  8
0
 62
     7
 10
53.104900000000001
 20
171.84499999999991
 30
0.0
 11
53.104900000000001
 21
171.44499999999999
 31
0.0
  0
LINE
  5
54B
  8
0
 62
     7
 10
50.405200000000001
 20
171.84499999999991
 30
0.0
 11
53.104900000000001
 21
171.84499999999991
 31
0.0
  0
LINE
  5
54C
  8
0
 62
     7
 10
50.405200000000001
 20
171.44499999999999
 30
0.0
 11
53.104900000000001
 21
171.44499999999999
 31
0.0
  0
LINE
  5
54D
  8
0
 62
     7
 10
50.405200000000001
 20
168.44499999999999
 30
0.0
 11
53.104900000000001
 21
168.44499999999999
 31
0.0
  0
LINE
  5
54E
  8
0
 62
     7
 10
50.405200000000001
 20
167.84499999999991
 30
0.0
 11
51.804900000000004
 21
167.84499999999991
 31
0.0
  0
LINE
  5
54F
  8
0
 62
     7
 10
51.505000000000003
 20
167.84499999999991
 30
0.0
 11
51.505000000000003
 21
168.44499999999999
 31
0.0
  0
LINE
  5
550
  8
0
 62
     7
 10
52.604999999999997
 20
164.84499999999991
 30
0.0
 11
52.205100000000002
 21
164.84499999999991
 31
0.0
  0
LINE
  5
551
  8
0
 62
     7
 10
53.005000000000003
 20
164.44499999999991
 30
0.0
 11
53.005000000000003
 21
164.173
 31
0.0
  0
ARC
  5
552
  8
0
 62
     7
 10
52.589880999999998
 20
164.42941200000001
 30
0.0
 40
0.41542
 50
2.0920279999999991
 51
87.907961999999998
  0
LINE
  5
553
  8
0
 62
     7
 10
51.804900000000004
 20
165.24499999999989
 30
0.0
 11
51.804900000000004
 21
167.84499999999991
 31
0.0
  0
ARC
  5
554
  8
0
 62
     7
 10
52.220208
 20
165.25985199999991
 30
0.0
 40
0.415574
 50
182.11263400000001
 51
267.91206599999998
  0
LINE
  5
555
  8
0
 62
     7
 10
46.805199999999999
 20
169.845
 30
0.0
 11
35.600099999999998
 21
169.845
 31
0.0
  0
LINE
  5
556
  8
0
 62
     7
 10
46.805199999999999
 20
168.345
 30
0.0
 11
35.600099999999998
 21
167.952
 31
0.0
  0
LINE
  5
557
  8
0
 62
     7
 10
35.600099999999998
 20
171.738
 30
0.0
 11
46.805199999999999
 21
171.34499999999991
 31
0.0
  0
LINE
  5
558
  8
0
 62
     7
 10
46.805199999999999
 20
168.345
 30
0.0
 11
46.805199999999999
 21
171.34499999999991
 31
0.0
  0
LINE
  5
559
  8
0
 62
     7
 10
35.480400000000003
 20
168.245
 30
0.0
 11
35.104900000000001
 21
168.245
 31
0.0
  0
LINE
  5
55A
  8
0
 62
     7
 10
35.40509999999999
 20
168.87
 30
0.0
 11
35.40509999999999
 21
170.81899999999999
 31
0.0
  0
LINE
  5
55B
  8
0
 62
     7
 10
35.104900000000001
 20
168.245
 30
0.0
 11
35.104900000000001
 21
171.44499999999999
 31
0.0
  0
LINE
  5
55C
  8
0
 62
     7
 10
35.480400000000003
 20
171.44499999999999
 30
0.0
 11
35.104900000000001
 21
171.44499999999999
 31
0.0
  0
LINE
  5
55D
  8
0
 62
     7
 10
48.155000000000001
 20
171.84499999999991
 30
0.0
 11
48.155000000000001
 21
171.44499999999999
 31
0.0
  0
LINE
  5
55E
  8
0
 62
     7
 10
48.6051
 20
171.84499999999991
 30
0.0
 11
48.6051
 21
171.44499999999999
 31
0.0
  0
LINE
  5
55F
  8
0
 62
     7
 10
49.055199999999999
 20
171.84499999999991
 30
0.0
 11
49.055199999999999
 21
171.44499999999999
 31
0.0
  0
LINE
  5
560
  8
0
 62
     7
 10
49.505000000000003
 20
171.84499999999991
 30
0.0
 11
49.505000000000003
 21
171.44499999999999
 31
0.0
  0
LINE
  5
561
  8
0
 62
     7
 10
49.955100000000002
 20
171.84499999999991
 30
0.0
 11
49.955100000000002
 21
171.44499999999999
 31
0.0
  0
LINE
  5
562
  8
0
 62
     7
 10
47.905000000000001
 20
172.44499999999999
 30
0.0
 11
50.405200000000001
 21
172.44499999999999
 31
0.0
  0
LINE
  5
563
  8
0
 62
     7
 10
47.905000000000001
 20
172.44499999999999
 30
0.0
 11
47.905000000000001
 21
171.84499999999991
 31
0.0
  0
LINE
  5
564
  8
0
 62
     7
 10
47.705100000000002
 20
171.84499999999991
 30
0.0
 11
47.705100000000002
 21
171.44499999999999
 31
0.0
  0
LINE
  5
565
  8
0
 62
     7
 10
50.405200000000001
 20
171.84499999999991
 30
0.0
 11
50.405200000000001
 21
171.44499999999999
 31
0.0
  0
LINE
  5
566
  8
0
 62
     7
 10
50.405200000000001
 20
171.84499999999991
 30
0.0
 11
47.705100000000002
 21
171.84499999999991
 31
0.0
  0
LINE
  5
567
  8
0
 62
     7
 10
50.405200000000001
 20
171.44499999999999
 30
0.0
 11
47.705100000000002
 21
171.44499999999999
 31
0.0
  0
LINE
  5
568
  8
0
 62
     7
 10
50.405200000000001
 20
168.44499999999999
 30
0.0
 11
47.705100000000002
 21
168.44499999999999
 31
0.0
  0
LINE
  5
569
  8
0
 62
     7
 10
50.405200000000001
 20
167.84499999999991
 30
0.0
 11
49.005099999999999
 21
167.84499999999991
 31
0.0
  0
LINE
  5
56A
  8
0
 62
     7
 10
49.305100000000003
 20
167.84499999999991
 30
0.0
 11
49.305100000000003
 21
168.44499999999999
 31
0.0
  0
LINE
  5
56B
  8
0
 62
     7
 10
48.205300000000001
 20
164.84499999999991
 30
0.0
 11
48.6051
 21
164.84499999999991
 31
0.0
  0
LINE
  5
56C
  8
0
 62
     7
 10
47.804999999999993
 20
164.44499999999991
 30
0.0
 11
47.804999999999993
 21
164.173
 31
0.0
  0
ARC
  5
56D
  8
0
 62
     7
 10
48.220435999999999
 20
164.429069
 30
0.0
 40
0.415762
 50
92.08822099999999
 51
177.8624199999999
  0
LINE
  5
56E
  8
0
 62
     7
 10
49.005099999999999
 20
165.24499999999989
 30
0.0
 11
49.005099999999999
 21
167.84499999999991
 31
0.0
  0
ARC
  5
56F
  8
0
 62
     7
 10
48.590057000000002
 20
165.259568
 30
0.0
 40
0.415286
 50
272.07486399999999
 51
357.92514599999998
  0
ARC
  5
570
  8
0
 62
     7
 10
52.729663000000002
 20
163.61922100000001
 30
0.0
 40
0.6253910000000001
 50
90.511981999999975
 51
143.68598700000001
  0
ARC
  5
571
  8
0
 62
     7
 10
52.911006999999998
 20
163.4571939999999
 30
0.0
 40
0.8677790000000001
 50
142.15632400000001
 51
180.82952299999991
  0
ARC
  5
572
  8
0
 62
     7
 10
52.921399000000001
 20
163.453216
 30
0.0
 40
0.8781219999999999
 50
180.5601629999999
 51
237.65024099999999
  0
ARC
  5
573
  8
0
 62
     7
 10
52.725982999999992
 20
163.24260899999999
 30
0.0
 40
0.5979370000000001
 50
242.67719099999999
 51
269.81712299999992
  0
ARC
  5
574
  8
0
 62
     7
 10
52.710763
 20
163.2922419999999
 30
0.0
 40
0.647704
 50
271.1776089999999
 51
330.54361399999988
  0
ARC
  5
575
  8
0
 62
     7
 10
52.518455000000003
 20
163.43672599999991
 30
0.0
 40
0.8867549999999999
 50
328.52491700000002
 51
0.5107910000000001
  0
ARC
  5
576
  8
0
 62
     7
 10
52.527244999999994
 20
163.43604099999999
 30
0.0
 40
0.877971
 50
0.560611
 51
57.666449000000007
  0
ARC
  5
577
  8
0
 62
     7
 10
52.722209999999997
 20
163.6459909999999
 30
0.0
 40
0.5986000000000001
 50
62.692627999999999
 51
89.821493000000004
  0
ARC
  5
578
  8
0
 62
     7
 10
55.204267999999999
 20
162.23373900000001
 30
0.0
 40
2.1990720000000001
 50
172.6048219999999
 51
180.033176
  0
ARC
  5
579
  8
0
 62
     7
 10
53.581890999999999
 20
162.434844
 30
0.0
 40
0.564384
 50
151.102328
 51
171.65182599999989
  0
ARC
  5
57A
  8
0
 62
     7
 10
55.299506000000008
 20
161.31341
 30
0.0
 40
2.6144660000000002
 50
143.11719899999991
 51
147.77450999999999
  0
ARC
  5
57B
  8
0
 62
     7
 10
53.257940000000012
 20
161.99312699999999
 30
0.0
 40
0.201302
 50
193.7300899999999
 51
220.60315499999999
  0
ARC
  5
57C
  8
0
 62
     7
 10
54.040025999999997
 20
162.28935100000001
 30
0.0
 40
1.0363919999999991
 50
183.146353
 51
199.3855329999999
  0
ARC
  5
57D
  8
0
 62
     7
 10
52.812626999999999
 20
161.59612200000001
 30
0.0
 40
0.395343
 50
7.0120839999999989
 51
42.284975999999993
  0
ARC
  5
57E
  8
0
 62
     7
 10
45.605880999999989
 20
162.23373900000001
 30
0.0
 40
2.199084
 50
359.96686399999999
 51
7.3951380000000002
  0
ARC
  5
57F
  8
0
 62
     7
 10
47.228268999999997
 20
162.434844
 30
0.0
 40
0.564384
 50
8.3481539999999992
 51
28.897652000000001
  0
ARC
  5
580
  8
0
 62
     7
 10
45.510653999999988
 20
161.31341
 30
0.0
 40
2.6144660000000002
 50
32.225470999999992
 51
36.882781000000001
  0
ARC
  5
581
  8
0
 62
     7
 10
47.544575999999999
 20
161.99782400000001
 30
0.0
 40
0.210167
 50
319.78083500000002
 51
346.36399599999999
  0
ARC
  5
582
  8
0
 62
     7
 10
46.772195999999987
 20
162.28886
 30
0.0
 40
1.0343059999999991
 50
340.77453800000001
 51
356.87453799999992
  0
ARC
  5
583
  8
0
 62
     7
 10
48.00029399999999
 20
161.59485599999991
 30
0.0
 40
0.398239
 50
137.847385
 51
172.855515
  0
ARC
  5
584
  8
0
 62
     7
 10
48.091492000000002
 20
163.619124
 30
0.0
 40
0.6254890000000001
 50
90.510994999999994
 51
143.681453
  0
ARC
  5
585
  8
0
 62
     7
 10
48.272872
 20
163.45725999999999
 30
0.0
 40
0.867806
 50
142.1632139999999
 51
180.83383000000001
  0
ARC
  5
586
  8
0
 62
     7
 10
48.283318999999999
 20
163.45321299999989
 30
0.0
 40
0.878203
 50
180.559921
 51
237.641491
  0
ARC
  5
587
  8
0
 62
     7
 10
48.087790000000012
 20
163.2427889999999
 30
0.0
 40
0.5981170000000001
 50
242.68141700000001
 51
269.82021200000003
  0
ARC
  5
588
  8
0
 62
     7
 10
48.072620000000001
 20
163.29202799999999
 30
0.0
 40
0.6474890000000001
 50
271.17641299999991
 51
330.55467599999992
  0
ARC
  5
589
  8
0
 62
     7
 10
47.879853999999987
 20
163.4366959999999
 30
0.0
 40
0.8870219999999999
 50
328.537755
 51
0.512552
  0
ARC
  5
58A
  8
0
 62
     7
 10
47.888759999999998
 20
163.436046
 30
0.0
 40
0.8781219999999999
 50
0.5601620000000001
 51
57.650202
  0
ARC
  5
58B
  8
0
 62
     7
 10
48.084060000000001
 20
163.64617199999989
 30
0.0
 40
0.5984189999999999
 50
62.688425000000002
 51
89.822564
  0
ARC
  5
58C
  8
0
 62
     7
 10
50.922193999999998
 20
163.43903700000001
 30
0.0
 40
0.6331500000000001
 50
0.50624
 51
53.204022999999999
  0
ARC
  5
58D
  8
0
 62
     7
 10
50.532620000000001
 20
163.03415699999991
 30
0.0
 40
1.192733
 50
49.865924
 51
77.665871999999993
  0
ARC
  5
58E
  8
0
 62
     7
 10
50.408816999999992
 20
162.637629
 30
0.0
 40
1.606962999999999
 50
76.373564999999999
 51
90.130157999999994
  0
ARC
  5
58F
  8
0
 62
     7
 10
50.407164000000002
 20
162.708865
 30
0.0
 40
1.5357240000000001
 50
90.074515999999988
 51
122.0657239999999
  0
ARC
  5
590
  8
0
 62
     7
 10
50.063309999999987
 20
163.31523000000001
 30
0.0
 40
0.839872
 50
124.1481749999999
 51
156.2021639999999
  0
ARC
  5
591
  8
0
 62
     7
 10
49.832279
 20
163.4434029999999
 30
0.0
 40
0.577267
 50
158.59011699999991
 51
179.87805399999991
  0
ARC
  5
592
  8
0
 62
     7
 10
49.888139000000002
 20
163.4502249999999
 30
0.0
 40
0.6331500000000001
 50
180.506259
 51
233.2040419999999
  0
ARC
  5
593
  8
0
 62
     7
 10
50.277712999999999
 20
163.85510600000001
 30
0.0
 40
1.192733
 50
229.8659439999999
 51
257.66589199999987
  0
ARC
  5
594
  8
0
 62
     7
 10
50.401515000000003
 20
164.251634
 30
0.0
 40
1.606962999999999
 50
256.37358499999999
 51
270.130178
  0
ARC
  5
595
  8
0
 62
     7
 10
50.403168999999998
 20
164.18039799999991
 30
0.0
 40
1.5357240000000001
 50
270.07453599999991
 51
302.06574399999988
  0
ARC
  5
596
  8
0
 62
     7
 10
50.747021999999987
 20
163.57403299999999
 30
0.0
 40
0.839872
 50
304.14819499999999
 51
336.20218399999999
  0
ARC
  5
597
  8
0
 62
     7
 10
50.978053000000003
 20
163.44586000000001
 30
0.0
 40
0.577267
 50
338.59013700000003
 51
359.87807400000003
  0
LINE
  5
598
  8
0
 62
     7
 10
48.085900000000002
 20
164.245
 30
0.0
 11
52.7241
 21
164.245
 31
0.0
  0
LINE
  5
599
  8
0
 62
     7
 10
48.085900000000002
 20
162.64500000000001
 30
0.0
 11
52.7241
 21
162.64500000000001
 31
0.0
  0
LINE
  5
59A
  8
0
 62
     7
 10
55.549399999999999
 20
159.8249999999999
 30
0.0
 11
55.901000000000003
 21
159.75399999999991
 31
0.0
  0
LINE
  5
59B
  8
0
 62
     7
 10
56.532800000000002
 20
159.09700000000001
 30
0.0
 11
56.605200000000004
 21
158.64500000000001
 31
0.0
  0
ARC
  5
59C
  8
0
 62
     7
 10
55.724997999999999
 20
158.95297500000001
 30
0.0
 40
0.8205149999999999
 50
10.089718
 51
77.614462000000003
  0
ARC
  5
59D
  8
0
 62
     7
 10
55.901870000000002
 20
161.42865599999999
 30
0.0
 40
1.641575999999999
 50
190.102452
 51
257.60176799999999
  0
LINE
  5
59E
  8
0
 62
     7
 10
53.693399999999997
 20
161.64400000000001
 30
0.0
 11
50.405200000000001
 21
161.64400000000001
 31
0.0
  0
ARC
  5
59F
  8
0
 62
     7
 10
53.677039999999998
 20
161.02505899999991
 30
0.0
 40
0.619541
 50
10.64503399999999
 51
88.490645000000001
  0
LINE
  5
5A0
  8
0
 62
     7
 10
56.605200000000004
 20
158.64500000000001
 30
0.0
 11
50.405200000000001
 21
158.64500000000001
 31
0.0
  0
LINE
  5
5A1
  8
0
 62
     7
 10
45.260899999999992
 20
159.8249999999999
 30
0.0
 11
44.909199999999998
 21
159.75399999999991
 31
0.0
  0
LINE
  5
5A2
  8
0
 62
     7
 10
44.277500000000003
 20
159.09700000000001
 30
0.0
 11
44.204999999999991
 21
158.64500000000001
 31
0.0
  0
ARC
  5
5A3
  8
0
 62
     7
 10
45.085856999999997
 20
158.95251899999991
 30
0.0
 40
0.82111
 50
102.426072
 51
169.8853179999999
  0
ARC
  5
5A4
  8
0
 62
     7
 10
44.907837999999991
 20
161.42925500000001
 30
0.0
 40
1.6422950000000001
 50
282.41502700000001
 51
349.88079299999998
  0
LINE
  5
5A5
  8
0
 62
     7
 10
47.116599999999998
 20
161.64400000000001
 30
0.0
 11
50.405200000000001
 21
161.64400000000001
 31
0.0
  0
ARC
  5
5A6
  8
0
 62
     7
 10
47.133232
 20
161.024934
 30
0.0
 40
0.619674
 50
91.535292999999996
 51
169.34543699999989
  0
LINE
  5
5A7
  8
0
  6
AIGENLINE001
 62
     7
 10
50.405200000000001
 20
137.74999999999989
 30
0.0
 11
50.405200000000001
 21
174.03599999999989
 31
0.0
  0
LINE
  5
5A8
  8
0
 62
     7
 10
44.204999999999991
 20
158.64500000000001
 30
0.0
 11
50.405200000000001
 21
158.64500000000001
 31
0.0
  0
LINE
  5
5A9
  8
0
 62
     7
 10
70.905500000000004
 20
90.644800000000004
 30
0.0
 11
70.905500000000004
 21
151.64500000000001
 31
0.0
  0
LINE
  5
5AA
  8
0
 62
     7
 10
69.9054
 20
90.645499999999998
 30
0.0
 11
70.905500000000004
 21
90.645499999999998
 31
0.0
  0
LINE
  5
5AB
  8
0
  6
AIGENLINE001
 62
     7
 10
71.905500000000004
 20
136.995
 30
0.0
 11
71.905500000000004
 21
159.495
 31
0.0
  0
LINE
  5
5AC
  8
0
  6
AIGENLINE001
 62
     7
 10
68.9054
 20
136.995
 30
0.0
 11
68.9054
 21
159.495
 31
0.0
  0
LINE
  5
5AD
  8
_________2
 62
     7
 10
139.75999999999991
 20
258.911
 30
0.0
 11
139.75999999999991
 21
237.91099999999989
 31
0.0
  0
LINE
  5
5AE
  8
_________2
 62
     7
 10
165.1809999999999
 20
258.911
 30
0.0
 11
165.1809999999999
 21
237.91099999999989
 31
0.0
  0
LINE
  5
5AF
  8
_________2
 62
     7
 10
139.75999999999991
 20
237.91099999999989
 30
0.0
 11
183.55099999999999
 21
237.91099999999989
 31
0.0
  0
TEXT
  5
5B0
  8
_________2
 62
     7
 10
171.16633466666659
 20
240.0619999999999
 30
0.0
 40
3.3734599999999988
  1
クロム
 41
0.5
 72
     1
 11
174.09
 21
240.0619999999999
 31
0.0
  0
TEXT
  5
5B1
  8
_________2
 62
     7
 10
171.27878333333331
 20
247.06099999999989
 30
0.0
 40
3.3734599999999988
  1
ブラス
 41
0.5
 72
     1
 11
174.09
 21
247.06099999999989
 31
0.0
  0
TEXT
  5
5B2
  8
_________2
 62
     7
 10
172.2908213333333
 20
254.06200000000001
 30
0.0
 40
3.3734599999999988
  1
仕上
 41
0.5
 72
     1
 11
174.09
 21
254.06200000000001
 31
0.0
  0
TEXT
  5
5B3
  8
_________2
 62
     7
 10
144.03978916666659
 20
240.0619999999999
 30
0.0
 40
3.3734599999999988
  1
HR21260R-CH
 41
0.5
 72
     1
 11
152.614
 21
240.0619999999999
 31
0.0
  0
TEXT
  5
5B4
  8
_________2
 62
     7
 10
144.03978916666659
 20
247.06200000000001
 30
0.0
 40
3.3734599999999988
  1
HR21260R-PB
 41
0.5
 72
     1
 11
152.614
 21
247.06200000000001
 31
0.0
  0
TEXT
  5
5B5
  8
_________2
 62
     7
 10
150.8148213333333
 20
254.06200000000001
 30
0.0
 40
3.3734599999999988
  1
品番
 41
0.5
 72
     1
 11
152.614
 21
254.06200000000001
 31
0.0
  0
LINE
  5
5B6
  8
_________2
 62
     7
 10
139.75999999999991
 20
244.91099999999989
 30
0.0
 11
183.55099999999999
 21
244.91099999999989
 31
0.0
  0
LINE
  5
5B7
  8
_________2
 62
     7
 10
139.75999999999991
 20
251.91099999999989
 30
0.0
 11
183.55099999999999
 21
251.91099999999989
 31
0.0
  0
TEXT
  5
5B8
  8
_________2
 62
     7
 10
20.159300000000002
 20
39.144799999999989
 30
0.0
 40
3.6545800000000002
  1
・国産洗面器とのセットの場合は、国産の排水ヘッド部を別途準備してください。
 41
0.5
  0
LINE
  5
5B9
  8
_________2
 62
     7
 10
205.30099999999999
 20
127.411
 30
0.0
 11
183.55099999999999
 21
127.411
 31
0.0
  0
LINE
  5
5BA
  8
_________2
 62
     7
 10
100.2999999999999
 20
-4.0910799999999998
 30
0.0
 11
100.2999999999999
 21
-21.070699999999992
 31
0.0
  0
LINE
  5
5BB
  8
_________2
 62
     7
 10
100.2999999999999
 20
275.93099999999993
 30
0.0
 11
100.2999999999999
 21
258.911
 31
0.0
  0
LINE
  5
5BC
  8
_________2
 62
     7
 10
17.049499999999998
 20
127.411
 30
0.0
 11
-4.7008599999999987
 21
127.411
 31
0.0
  0
LINE
  5
5BD
  8
_________2
 62
     7
 10
76.741
 20
29.8047
 30
0.0
 11
74.554699999999997
 21
29.8047
 31
0.0
  0
LINE
  5
5BE
  8
_________2
 62
     7
 10
77.233699999999999
 20
29.8047
 30
0.0
 11
76.981499999999997
 21
29.8047
 31
0.0
  0
LINE
  5
5BF
  8
_________2
 62
     7
 10
77.726299999999995
 20
29.8047
 30
0.0
 11
80.651200000000003
 21
29.8047
 31
0.0
  0
LINE
  5
5C0
  8
_________2
 62
     7
 10
77.233699999999999
 20
29.8047
 30
0.0
 11
77.485900000000001
 21
29.8047
 31
0.0
  0
LINE
  5
5C1
  8
_________2
 62
     7
 10
70.837500000000006
 20
29.8047
 30
0.0
 11
68.650499999999994
 21
29.8047
 31
0.0
  0
LINE
  5
5C2
  8
_________2
 62
     7
 10
71.329400000000007
 20
29.8047
 30
0.0
 11
71.0779
 21
29.8047
 31
0.0
  0
LINE
  5
5C3
  8
_________2
 62
     7
 10
71.329400000000007
 20
30.2974
 30
0.0
 11
71.329400000000007
 21
32.484400000000001
 31
0.0
  0
LINE
  5
5C4
  8
_________2
 62
     7
 10
71.329400000000007
 20
29.8047
 30
0.0
 11
71.329400000000007
 21
30.057600000000001
 31
0.0
  0
LINE
  5
5C5
  8
_________2
 62
     7
 10
71.822100000000006
 20
29.8047
 30
0.0
 11
74.009
 21
29.8047
 31
0.0
  0
LINE
  5
5C6
  8
_________2
 62
     7
 10
71.329400000000007
 20
29.8047
 30
0.0
 11
71.581599999999995
 21
29.8047
 31
0.0
  0
LINE
  5
5C7
  8
_________2
 62
     7
 10
71.329400000000007
 20
29.312799999999999
 30
0.0
 11
71.329400000000007
 21
27.1265
 31
0.0
  0
LINE
  5
5C8
  8
_________2
 62
     7
 10
71.329400000000007
 20
29.8047
 30
0.0
 11
71.329400000000007
 21
29.5532
 31
0.0
  0
LINE
  5
5C9
  8
_________2
 62
     7
 10
75.040499999999994
 20
28.5852
 30
0.0
 11
80.218500000000006
 21
27.720400000000001
 31
0.0
  0
LINE
  5
5CA
  8
_________2
 62
     7
 10
75.040499999999994
 20
31.024999999999999
 30
0.0
 11
80.218500000000006
 21
31.8904
 31
0.0
  0
LINE
  5
5CB
  8
_________2
 62
     7
 10
80.218500000000006
 20
27.720400000000001
 30
0.0
 11
80.218500000000006
 21
31.8904
 31
0.0
  0
LINE
  5
5CC
  8
_________2
 62
     7
 10
75.040499999999994
 20
28.5852
 30
0.0
 11
75.040499999999994
 21
31.024999999999999
 31
0.0
  0
ARC
  5
5CD
  8
_________2
 62
     7
 10
71.282506999999995
 20
29.757819999999999
 30
0.0
 40
1.2680519999999991
 50
2.120652999999999
 51
87.879336999999992
  0
ARC
  5
5CE
  8
_________2
 62
     7
 10
71.376008999999996
 20
29.758879
 30
0.0
 40
1.266980999999999
 50
92.106864999999985
 51
177.925467
  0
ARC
  5
5CF
  8
_________2
 62
     7
 10
71.376357999999996
 20
29.851671
 30
0.0
 40
1.2673680000000001
 50
182.12203600000001
 51
267.877993
  0
ARC
  5
5D0
  8
_________2
 62
     7
 10
71.282541000000009
 20
29.852347999999999
 30
0.0
 40
1.2680439999999991
 50
272.11916400000001
 51
357.84848499999993
  0
ARC
  5
5D1
  8
_________2
 62
     7
 10
71.248712999999995
 20
29.724740999999991
 30
0.0
 40
2.1671800000000001
 50
2.1155650000000001
 51
87.865493000000015
  0
ARC
  5
5D2
  8
_________2
 62
     7
 10
71.409125000000003
 20
29.726479000000001
 30
0.0
 40
2.1654049999999989
 50
92.109143000000003
 51
177.928697
  0
ARC
  5
5D3
  8
_________2
 62
     7
 10
71.409439000000006
 20
29.884751999999999
 30
0.0
 40
2.1657829999999998
 50
182.117133
 51
267.88289700000001
  0
ARC
  5
5D4
  8
_________2
 62
     7
 10
71.249459000000002
 20
29.885429999999989
 30
0.0
 40
2.1664590000000001
 50
272.11546800000002
 51
357.86560400000002
  0
TEXT
  5
5D5
  8
_________2
 62
     7
 10
104.605
 20
1.6794899999999999
 30
0.0
 40
3.0923400000000001
  1
図番
 41
0.5
  0
LINE
  5
5D6
  8
_________2
 62
     7
 10
103.55
 20
5.9087199999999989
 30
0.0
 11
183.55099999999999
 21
5.9087199999999989
 31
0.0
  0
TEXT
  5
5D7
  8
_________2
 62
     7
 10
104.605
 20
11.679299999999991
 30
0.0
 40
3.0923400000000001
  1
品番
 41
0.5
  0
TEXT
  5
5D8
  8
_________2
 62
     7
 10
104.605
 20
31.8188
 30
0.0
 40
3.0923400000000001
  1
名称
 41
0.5
  0
TEXT
  5
5D9
  8
_________2
 62
     7
 10
91.845058333333341
 20
26.822600000000001
 30
0.0
 40
3.6545800000000002
  1
mm
 41
0.5
 72
     1
 11
93.367800000000003
 21
26.822600000000001
 31
0.0
  0
TEXT
  5
5DA
  8
_________2
 62
     7
 10
85.643199999999993
 20
31.8188
 30
0.0
 40
3.0923400000000001
  1
単位
 41
0.5
  0
TEXT
  5
5DB
  8
_________2
 62
     7
 10
85.643199999999993
 20
19.410799999999991
 30
0.0
 40
3.0923400000000001
  1
尺度
 41
0.5
  0
TEXT
  5
5DC
  8
_________2
 62
     7
 10
90.548758666666686
 20
13.2186
 30
0.0
 40
3.6545800000000002
  1
1 ： 5
 41
0.5
 72
     1
 11
93.959699999999998
 21
13.2186
 31
0.0
  0
TEXT
  5
5DD
  8
_________2
 62
     7
 10
136.66252499999999
 20
9.1085499999999993
 30
0.0
 40
3.9357000000000002
  1
図中の表参照
 41
0.5
 72
     1
 11
143.55000000000001
 21
9.1085499999999993
 31
0.0
  0
TEXT
  5
5DE
  8
_________2
 62
     7
 10
136.4985375
 20
-0.8926299999999999
 30
0.0
 40
3.9357000000000002
  1
HR21260R
 41
0.5
 72
     1
 11
143.55000000000001
 21
-0.8926299999999999
 31
0.0
  0
TEXT
  5
5DF
  8
_________2
 62
     7
 10
24.5868
 20
0.7079720000000001
 30
0.0
 40
3.9357000000000002
  1
（社）日本水道協会認証品
 41
0.5
  0
TEXT
  5
5E0
  8
_________2
 62
     7
 10
109.179
 20
24.226400000000002
 30
0.0
 40
3.9357000000000002
  1
アストリア　洗面器用湯水混合栓
 41
0.5
  0
TEXT
  5
5E1
  8
_________2
 62
     7
 10
39.364390666666658
 20
13.6037
 30
0.0
 40
3.6545800000000002
  1
石原
 41
0.5
 72
     1
 11
41.313499999999998
 21
13.6037
 31
0.0
  0
TEXT
  5
5E2
  8
_________2
 62
     7
 10
20.79039066666666
 20
13.6037
 30
0.0
 40
3.6545800000000002
  1
菅原
 41
0.5
 72
     1
 11
22.7395
 21
13.6037
 31
0.0
  0
TEXT
  5
5E3
  8
_________2
 62
     7
 10
67.785799999999995
 20
13.2186
 30
0.0
 40
3.6545800000000002
  1
11.10.18
 41
0.5
  0
TEXT
  5
5E4
  8
_________2
 62
     7
 10
66.593100000000007
 20
19.410799999999991
 30
0.0
 40
3.0923400000000001
  1
日付
 41
0.5
  0
TEXT
  5
5E5
  8
_________2
 62
     7
 10
29.639399999999998
 20
19.410799999999991
 30
0.0
 40
3.0923400000000001
  1
検図
 41
0.5
  0
TEXT
  5
5E6
  8
_________2
 62
     7
 10
18.021100000000001
 20
5.21143
 30
0.0
 40
3.0923400000000001
  1
備考
 41
0.5
  0
TEXT
  5
5E7
  8
_________2
 62
     7
 10
18.021100000000001
 20
19.410799999999991
 30
0.0
 40
3.0923400000000001
  1
製図
 41
0.5
  0
TEXT
  5
5E8
  8
_________2
 62
     7
 10
23.788465333333338
 20
27.936800000000002
 30
0.0
 40
4.4979399999999989
  1
セラトレーディング株式会社
 41
0.5
 72
     1
 11
41.180500000000002
 21
27.936800000000002
 31
0.0
  0
LINE
  5
5E9
  8
_________2
 62
     7
 10
183.55099999999999
 20
-4.0910799999999998
 30
0.0
 11
17.049499999999998
 21
-4.0910799999999998
 31
0.0
  0
LINE
  5
5EA
  8
_________2
 62
     7
 10
17.049499999999998
 20
-4.0910799999999998
 30
0.0
 11
17.049499999999998
 21
258.911
 31
0.0
  0
LINE
  5
5EB
  8
_________2
 62
     7
 10
17.049499999999998
 20
258.911
 30
0.0
 11
183.55099999999999
 21
258.911
 31
0.0
  0
LINE
  5
5EC
  8
_________2
 62
     7
 10
183.55099999999999
 20
258.911
 30
0.0
 11
183.55099999999999
 21
-4.0910799999999998
 31
0.0
  0
LINE
  5
5ED
  8
_________2
 62
     7
 10
65.549899999999994
 20
9.4096499999999992
 30
0.0
 11
65.549899999999994
 21
35.909500000000001
 31
0.0
  0
LINE
  5
5EE
  8
_________2
 62
     7
 10
84.549700000000016
 20
9.4096499999999992
 30
0.0
 11
84.549700000000016
 21
35.909500000000001
 31
0.0
  0
LINE
  5
5EF
  8
_________2
 62
     7
 10
103.55
 20
-4.0910799999999998
 30
0.0
 11
103.55
 21
35.909500000000001
 31
0.0
  0
LINE
  5
5F0
  8
_________2
 62
     7
 10
28.549299999999992
 20
9.4096499999999992
 30
0.0
 11
28.549299999999992
 21
23.409199999999998
 31
0.0
  0
LINE
  5
5F1
  8
_________2
 62
     7
 10
17.049499999999998
 20
9.4096499999999992
 30
0.0
 11
103.55
 21
9.4096499999999992
 31
0.0
  0
LINE
  5
5F2
  8
_________2
 62
     7
 10
17.049499999999998
 20
23.409199999999998
 30
0.0
 11
103.55
 21
23.409199999999998
 31
0.0
  0
LINE
  5
5F3
  8
_________2
 62
     7
 10
103.55
 20
15.9085
 30
0.0
 11
183.55099999999999
 21
15.9085
 31
0.0
  0
LINE
  5
5F4
  8
_________2
 62
     7
 10
17.049499999999998
 20
35.909500000000001
 30
0.0
 11
183.55099999999999
 21
35.909500000000001
 31
0.0
  0
ENDSEC
  0
EOF
