  0
SECTION
  2
HEADER
  9
$ACADVER
  1
AC1009
  9
$INSBASE
 10
0.0
 20
0.0
 30
0.0
  9
$EXTMIN
 10
-104.794
 20
0.176045
 30
0.0
  9
$EXTMAX
 10
315.209
 20
297.178
 30
0.0
  9
$LIMMIN
 10
0.0
 20
0.0
  9
$LIMMAX
 10
12.0
 20
9.0
  9
$ORTHOMODE
 70
     0
  9
$REGENMODE
 70
     1
  9
$FILLMODE
 70
     1
  9
$QTEXTMODE
 70
     0
  9
$MIRRTEXT
 70
     1
  9
$DRAGMODE
 70
     2
  9
$LTSCALE
 40
1.0
  9
$OSMODE
 70
    37
  9
$ATTMODE
 70
     1
  9
$TEXTSIZE
 40
0.0
  9
$TRACEWID
 40
0.05
  9
$TEXTSTYLE
  7
STANDARD
  9
$CLAYER
  8
0
  9
$CELTYPE
  6
CONTINUOUS
  9
$CECOLOR
 62
   256
  9
$DIMSCALE
 40
1.0
  9
$DIMASZ
 40
0.18
  9
$DIMEXO
 40
0.0625
  9
$DIMDLI
 40
0.38
  9
$DIMRND
 40
0.0
  9
$DIMDLE
 40
0.0
  9
$DIMEXE
 40
0.18
  9
$DIMTP
 40
0.0
  9
$DIMTM
 40
0.0
  9
$DIMTXT
 40
0.18
  9
$DIMCEN
 40
0.09
  9
$DIMTSZ
 40
0.0
  9
$DIMTOL
 70
     0
  9
$DIMLIM
 70
     0
  9
$DIMTIH
 70
     1
  9
$DIMTOH
 70
     1
  9
$DIMSE1
 70
     0
  9
$DIMSE2
 70
     0
  9
$DIMTAD
 70
     0
  9
$DIMZIN
 70
     0
  9
$DIMBLK
  1

  9
$DIMASO
 70
     1
  9
$DIMSHO
 70
     1
  9
$DIMPOST
  1

  9
$DIMAPOST
  1

  9
$DIMALT
 70
     0
  9
$DIMALTD
 70
     2
  9
$DIMALTF
 40
25.399999999999999
  9
$DIMLFAC
 40
1.0
  9
$DIMTOFL
 70
     0
  9
$DIMTVP
 40
0.0
  9
$DIMTIX
 70
     0
  9
$DIMSOXD
 70
     0
  9
$DIMSAH
 70
     0
  9
$DIMBLK1
  1

  9
$DIMBLK2
  1

  9
$DIMSTYLE
  2
STANDARD
  9
$DIMCLRD
 70
     0
  9
$DIMCLRE
 70
     0
  9
$DIMCLRT
 70
     0
  9
$DIMTFAC
 40
1.0
  9
$DIMGAP
 40
0.09
  9
$LUNITS
 70
     2
  9
$LUPREC
 70
     4
  9
$SKETCHINC
 40
0.1
  9
$FILLETRAD
 40
0.0
  9
$AUNITS
 70
     0
  9
$AUPREC
 70
     0
  9
$MENU
  1
.
  9
$ELEVATION
 40
0.0
  9
$PELEVATION
 40
0.0
  9
$THICKNESS
 40
0.0
  9
$LIMCHECK
 70
     0
  9
$BLIPMODE
 70
     0
  9
$CHAMFERA
 40
0.0
  9
$CHAMFERB
 40
0.0
  9
$SKPOLY
 70
     0
  9
$TDCREATE
 40
2444972.375
  9
$TDUPDATE
 40
2458574.2508683908
  9
$TDINDWG
 40
0.0000423611
  9
$TDUSRTIMER
 40
0.0000423611
  9
$USRTIMER
 70
     1
  9
$ANGBASE
 50
0.0
  9
$ANGDIR
 70
     0
  9
$PDMODE
 70
     0
  9
$PDSIZE
 40
0.0
  9
$PLINEWID
 40
0.0
  9
$COORDS
 70
     1
  9
$SPLFRAME
 70
     0
  9
$SPLINETYPE
 70
     6
  9
$SPLINESEGS
 70
     8
  9
$ATTDIA
 70
     1
  9
$ATTREQ
 70
     1
  9
$HANDLING
 70
     1
  9
$HANDSEED
  5
7DD
  9
$SURFTAB1
 70
     6
  9
$SURFTAB2
 70
     6
  9
$SURFTYPE
 70
     6
  9
$SURFU
 70
     6
  9
$SURFV
 70
     6
  9
$UCSNAME
  2

  9
$UCSORG
 10
0.0
 20
0.0
 30
0.0
  9
$UCSXDIR
 10
1.0
 20
0.0
 30
0.0
  9
$UCSYDIR
 10
0.0
 20
1.0
 30
0.0
  9
$PUCSNAME
  2

  9
$PUCSORG
 10
0.0
 20
0.0
 30
0.0
  9
$PUCSXDIR
 10
1.0
 20
0.0
 30
0.0
  9
$PUCSYDIR
 10
0.0
 20
1.0
 30
0.0
  9
$USERI1
 70
     0
  9
$USERI2
 70
     0
  9
$USERI3
 70
     0
  9
$USERI4
 70
     0
  9
$USERI5
 70
     0
  9
$USERR1
 40
0.0
  9
$USERR2
 40
0.0
  9
$USERR3
 40
0.0
  9
$USERR4
 40
0.0
  9
$USERR5
 40
0.0
  9
$WORLDVIEW
 70
     1
  9
$SHADEDGE
 70
     3
  9
$SHADEDIF
 70
    70
  9
$TILEMODE
 70
     1
  9
$MAXACTVP
 70
    48
  9
$PLIMCHECK
 70
     0
  9
$PEXTMIN
 10
1.0000000000000000E+020
 20
1.0000000000000000E+020
 30
1.0000000000000000E+020
  9
$PEXTMAX
 10
-1.0000000000000000E+020
 20
-1.0000000000000000E+020
 30
-1.0000000000000000E+020
  9
$PLIMMIN
 10
0.0
 20
0.0
  9
$PLIMMAX
 10
12.0
 20
9.0
  9
$UNITMODE
 70
     0
  9
$VISRETAIN
 70
     1
  9
$PLINEGEN
 70
     0
  9
$PSLTSCALE
 70
     1
  0
ENDSEC
  0
SECTION
  2
TABLES
  0
TABLE
  2
VPORT
 70
     1
  0
VPORT
  2
*ACTIVE
 70
     0
 10
0.0
 20
0.0
 11
1.0
 21
1.0
 12
195.84271114783351
 22
148.589
 13
0.0
 23
0.0
 14
1.0
 24
1.0
 15
0.0
 25
0.0
 16
0.0
 26
0.0
 36
1.0
 17
0.0
 27
0.0
 37
0.0
 40
281.11539623648741
 41
2.298642533936651
 42
50.0
 43
0.0
 44
0.0
 50
0.0
 51
0.0
 71
     0
 72
   100
 73
     1
 74
     1
 75
     0
 76
     0
 77
     0
 78
     0
  0
ENDTAB
  0
TABLE
  2
LTYPE
 70
     3
  0
LTYPE
  2
CONTINUOUS
 70
     0
  3
Solid line
 72
    65
 73
     0
 40
0.0
  0
LTYPE
  2
AIGENLINE001
 70
     0
  3
generate AI->DXF Converter
 72
    65
 73
     4
 40
5.8561449999999988
 49
3.5278
 49
-0.776115
 49
0.776115
 49
-0.776115
  0
LTYPE
  2
AIGENLINE002
 70
     0
  3
generate AI->DXF Converter
 72
    65
 73
     4
 40
10.300112
 49
8.0000600000000013
 49
-0.700021
 49
0.9000100000000001
 49
-0.700021
  0
ENDTAB
  0
TABLE
  2
LAYER
 70
     4
  0
LAYER
  2
0
 70
     0
 62
     7
  6
CONTINUOUS
  0
LAYER
  2
____
 70
     0
 62
     7
  6
CONTINUOUS
  0
LAYER
  2
_________1
 70
     0
 62
     7
  6
CONTINUOUS
  0
LAYER
  2
_________2
 70
     0
 62
     7
  6
CONTINUOUS
  0
ENDTAB
  0
TABLE
  2
STYLE
 70
     1
  0
STYLE
  2
STANDARD
 70
     0
 40
0.0
 41
0.0
 50
0.0
 71
     0
 42
0.0
  3
TXT
  4
EXTFONT.SHX
  0
ENDTAB
  0
TABLE
  2
VIEW
 70
     0
  0
ENDTAB
  0
TABLE
  2
UCS
 70
     0
  0
ENDTAB
  0
TABLE
  2
APPID
 70
     3
  0
APPID
  2
ACAD
 70
     0
  0
APPID
  2
ACAD_NAV_VCDISPLAY
 70
     0
  0
APPID
  2
ACAD_MLEADERVER
 70
     0
  0
ENDTAB
  0
TABLE
  2
DIMSTYLE
 70
     1
  0
DIMSTYLE
  2
STANDARD
 70
     0
  3

  4

  5

  6

  7

 40
1.0
 41
0.18
 42
0.0625
 43
0.38
 44
0.18
 45
0.0
 46
0.0
 47
0.0
 48
0.0
140
0.18
141
0.09
142
0.0
143
25.399999999999999
144
1.0
145
0.0
146
1.0
147
0.09
 71
     0
 72
     0
 73
     1
 74
     1
 75
     0
 76
     0
 77
     0
 78
     0
170
     0
171
     2
172
     0
173
     0
174
     0
175
     0
176
     0
177
     0
178
     0
  0
ENDTAB
  0
ENDSEC
  0
SECTION
  2
BLOCKS
  0
BLOCK
  8
0
  2
$MODEL_SPACE
 70
     0
 10
0.0
 20
0.0
 30
0.0
  3
$MODEL_SPACE
  1

  0
ENDBLK
  5
1A
  8
0
  0
BLOCK
 67
     1
  8
0
  2
$PAPER_SPACE
 70
     0
 10
0.0
 20
0.0
 30
0.0
  3
$PAPER_SPACE
  1

  0
ENDBLK
  5
17
 67
     1
  8
0
  0
BLOCK
  8
_________1
  2
AIGNBL0202000C
 70
     0
 10
0.0
 20
0.0
 30
0.0
  3
AIGNBL0202000C
  1

  0
LINE
  5
27
  8
_________1
 62
     7
 10
80.073800000000006
 20
125.041
 30
0.0
 11
77.863100000000003
 21
124.449
 31
0.0
  0
LINE
  5
28
  8
_________1
 62
     7
 10
77.863100000000003
 20
124.449
 30
0.0
 11
80.073800000000006
 21
123.857
 31
0.0
  0
LINE
  5
29
  8
_________1
 62
     7
 10
80.073800000000006
 20
123.857
 30
0.0
 11
80.073800000000006
 21
125.041
 31
0.0
  0
LINE
  5
2A
  8
_________1
 62
     7
 10
74.651899999999983
 20
123.871
 30
0.0
 11
76.8626
 21
124.464
 31
0.0
  0
LINE
  5
2B
  8
_________1
 62
     7
 10
76.8626
 20
124.464
 30
0.0
 11
74.651899999999983
 21
125.056
 31
0.0
  0
LINE
  5
2C
  8
_________1
 62
     7
 10
74.651899999999983
 20
125.056
 30
0.0
 11
74.651899999999983
 21
123.871
 31
0.0
  0
LINE
  5
2D
  8
_________1
 62
     7
 10
69.472499999999997
 20
124.456
 30
0.0
 11
81.300600000000003
 21
124.456
 31
0.0
  0
ENDBLK
  5
2E
  8
_________1
  0
BLOCK
  8
_________1
  2
AIGNBL02020015
 70
     0
 10
0.0
 20
0.0
 30
0.0
  3
AIGNBL02020015
  1

  0
LINE
  5
31
  8
_________1
 62
     7
 10
-43.077899999999993
 20
190.56100000000001
 30
0.0
 11
-41.309399999999989
 21
191.035
 31
0.0
  0
LINE
  5
32
  8
_________1
 62
     7
 10
-41.309399999999989
 20
191.035
 30
0.0
 11
-43.077899999999993
 21
191.50899999999999
 31
0.0
  0
LINE
  5
33
  8
_________1
 62
     7
 10
-43.077899999999993
 20
191.50899999999999
 30
0.0
 11
-43.077899999999993
 21
190.56100000000001
 31
0.0
  0
LINE
  5
34
  8
_________1
 62
     7
 10
-54.841299999999997
 20
191.49700000000001
 30
0.0
 11
-56.609699999999989
 21
191.023
 31
0.0
  0
LINE
  5
35
  8
_________1
 62
     7
 10
-56.609699999999989
 20
191.023
 30
0.0
 11
-54.841299999999997
 21
190.54900000000001
 31
0.0
  0
LINE
  5
36
  8
_________1
 62
     7
 10
-54.841299999999997
 20
190.54900000000001
 30
0.0
 11
-54.841299999999997
 21
191.49700000000001
 31
0.0
  0
LINE
  5
37
  8
_________1
 62
     7
 10
-41.309399999999989
 20
191.029
 30
0.0
 11
-56.609699999999989
 21
191.029
 31
0.0
  0
ENDBLK
  5
38
  8
_________1
  0
BLOCK
  8
_________1
  2
AIGNBL02010002
 70
     0
 10
0.0
 20
0.0
 30
0.0
  3
AIGNBL02010002
  1

  0
LINE
  5
3B
  8
_________1
 62
     7
 10
-1.867079999999999
 20
58.310000000000002
 30
0.0
 11
-2.3411299999999988
 21
60.0794
 31
0.0
  0
LINE
  5
3C
  8
_________1
 62
     7
 10
-2.3411299999999988
 20
60.0794
 30
0.0
 11
-2.815869999999999
 21
58.310000000000002
 31
0.0
  0
LINE
  5
3D
  8
_________1
 62
     7
 10
-2.815869999999999
 20
58.310000000000002
 30
0.0
 11
-1.867079999999999
 21
58.310000000000002
 31
0.0
  0
LINE
  5
3E
  8
_________1
 62
     7
 10
-2.804149999999999
 20
62.929900000000004
 30
0.0
 11
-2.330109999999999
 21
61.160499999999999
 31
0.0
  0
LINE
  5
3F
  8
_________1
 62
     7
 10
-2.330109999999999
 20
61.160499999999999
 30
0.0
 11
-1.8560599999999989
 21
62.929900000000004
 31
0.0
  0
LINE
  5
40
  8
_________1
 62
     7
 10
-1.8560599999999989
 20
62.929900000000004
 30
0.0
 11
-2.804149999999999
 21
62.929900000000004
 31
0.0
  0
LINE
  5
41
  8
_________1
 62
     7
 10
-2.33562
 20
67.310699999999997
 30
0.0
 11
-2.33562
 21
56.728000000000002
 31
0.0
  0
ENDBLK
  5
42
  8
_________1
  0
BLOCK
  8
_________1
  2
AIGNBL02010003
 70
     0
 10
0.0
 20
0.0
 30
0.0
  3
AIGNBL02010003
  1

  0
LINE
  5
45
  8
_________1
 62
     7
 10
-25.8733
 20
55.232100000000003
 30
0.0
 11
-25.250800000000002
 21
56.954700000000003
 31
0.0
  0
LINE
  5
46
  8
_________1
 62
     7
 10
-25.250800000000002
 20
56.954700000000003
 30
0.0
 11
-26.6509
 21
55.77300000000001
 31
0.0
  0
LINE
  5
47
  8
_________1
 62
     7
 10
-26.6509
 20
55.77300000000001
 30
0.0
 11
-25.8733
 21
55.232100000000003
 31
0.0
  0
ARC
  5
48
  8
_________1
 62
     7
 10
3079.3034160000002
 20
-2107.5582840000002
 30
0.0
 40
3784.570968
 50
145.11661799999999
 51
145.16983099999999
  0
ENDBLK
  5
49
  8
_________1
  0
BLOCK
  8
_________1
  2
AIGNBL02010004
 70
     0
 10
0.0
 20
0.0
 30
0.0
  3
AIGNBL02010004
  1

  0
LINE
  5
4C
  8
_________1
 62
     7
 10
-16.780999999999999
 20
79.073700000000002
 30
0.0
 11
-15.0116
 21
79.547799999999995
 31
0.0
  0
LINE
  5
4D
  8
_________1
 62
     7
 10
-15.0116
 20
79.547799999999995
 30
0.0
 11
-16.780999999999999
 21
80.021799999999999
 31
0.0
  0
LINE
  5
4E
  8
_________1
 62
     7
 10
-16.780999999999999
 20
80.021799999999999
 30
0.0
 11
-16.780999999999999
 21
79.073700000000002
 31
0.0
  0
LINE
  5
4F
  8
_________1
 62
     7
 10
-25.837900000000001
 20
80.010099999999994
 30
0.0
 11
-27.607299999999999
 21
79.536000000000001
 31
0.0
  0
LINE
  5
50
  8
_________1
 62
     7
 10
-27.607299999999999
 20
79.536000000000001
 30
0.0
 11
-25.837900000000001
 21
79.061300000000003
 31
0.0
  0
LINE
  5
51
  8
_________1
 62
     7
 10
-25.837900000000001
 20
79.061300000000003
 30
0.0
 11
-25.837900000000001
 21
80.010099999999994
 31
0.0
  0
LINE
  5
52
  8
_________1
 62
     7
 10
-15.0092
 20
79.541600000000003
 30
0.0
 11
-27.6097
 21
79.541600000000003
 31
0.0
  0
ENDBLK
  5
53
  8
_________1
  0
BLOCK
  8
_________1
  2
AIGNBL02010005
 70
     0
 10
0.0
 20
0.0
 30
0.0
  3
AIGNBL02010005
  1

  0
LINE
  5
56
  8
_________1
 62
     7
 10
-31.6904
 20
73.0441
 30
0.0
 11
-32.164499999999997
 21
74.813500000000005
 31
0.0
  0
LINE
  5
57
  8
_________1
 62
     7
 10
-32.164499999999997
 20
74.813500000000005
 30
0.0
 11
-32.638500000000001
 21
73.0441
 31
0.0
  0
LINE
  5
58
  8
_________1
 62
     7
 10
-32.638500000000001
 20
73.0441
 30
0.0
 11
-31.6904
 21
73.0441
 31
0.0
  0
LINE
  5
59
  8
_________1
 62
     7
 10
-32.626800000000003
 20
69.359899999999996
 30
0.0
 11
-32.152799999999999
 21
67.590400000000002
 31
0.0
  0
LINE
  5
5A
  8
_________1
 62
     7
 10
-32.152799999999999
 20
67.590400000000002
 30
0.0
 11
-31.678699999999999
 21
69.359899999999996
 31
0.0
  0
LINE
  5
5B
  8
_________1
 62
     7
 10
-31.678699999999999
 20
69.359899999999996
 30
0.0
 11
-32.626800000000003
 21
69.359899999999996
 31
0.0
  0
LINE
  5
5C
  8
_________1
 62
     7
 10
-32.158999999999999
 20
74.8155
 30
0.0
 11
-32.158999999999999
 21
67.494699999999995
 31
0.0
  0
ENDBLK
  5
5D
  8
_________1
  0
BLOCK
  8
_________1
  2
AIGNBL02010006
 70
     0
 10
0.0
 20
0.0
 30
0.0
  3
AIGNBL02010006
  1

  0
LINE
  5
60
  8
_________1
 62
     7
 10
-19.503699999999998
 20
49.331299999999999
 30
0.0
 11
-21.273099999999999
 21
48.857300000000002
 31
0.0
  0
LINE
  5
61
  8
_________1
 62
     7
 10
-21.273099999999999
 20
48.857300000000002
 30
0.0
 11
-19.503699999999998
 21
48.383200000000002
 31
0.0
  0
LINE
  5
62
  8
_________1
 62
     7
 10
-19.503699999999998
 20
48.383200000000002
 30
0.0
 11
-19.503699999999998
 21
49.331299999999999
 31
0.0
  0
LINE
  5
63
  8
_________1
 62
     7
 10
14.9184
 20
48.3949
 30
0.0
 11
16.687799999999999
 21
48.869
 31
0.0
  0
LINE
  5
64
  8
_________1
 62
     7
 10
16.687799999999999
 20
48.869
 30
0.0
 11
14.9184
 21
49.343000000000004
 31
0.0
  0
LINE
  5
65
  8
_________1
 62
     7
 10
14.9184
 20
49.343000000000004
 30
0.0
 11
14.9184
 21
48.3949
 31
0.0
  0
LINE
  5
66
  8
_________1
 62
     7
 10
-21.2514
 20
48.863500000000002
 30
0.0
 11
16.6906
 21
48.863500000000002
 31
0.0
  0
ENDBLK
  5
67
  8
_________1
  0
BLOCK
  8
_________1
  2
AIGNBL02010007
 70
     0
 10
0.0
 20
0.0
 30
0.0
  3
AIGNBL02010007
  1

  0
LINE
  5
6A
  8
_________1
 62
     7
 10
62.101700000000001
 20
257.97300000000001
 30
0.0
 11
60.333599999999997
 21
257.5
 31
0.0
  0
LINE
  5
6B
  8
_________1
 62
     7
 10
60.333599999999997
 20
257.5
 30
0.0
 11
62.101700000000001
 21
257.02600000000001
 31
0.0
  0
LINE
  5
6C
  8
_________1
 62
     7
 10
62.101700000000001
 20
257.02600000000001
 30
0.0
 11
62.101700000000001
 21
257.97300000000001
 31
0.0
  0
LINE
  5
6D
  8
_________1
 62
     7
 10
42.1021
 20
257.97300000000001
 30
0.0
 11
40.33339999999999
 21
257.5
 31
0.0
  0
LINE
  5
6E
  8
_________1
 62
     7
 10
40.33339999999999
 20
257.5
 30
0.0
 11
42.1021
 21
257.02600000000001
 31
0.0
  0
LINE
  5
6F
  8
_________1
 62
     7
 10
42.1021
 20
257.02600000000001
 30
0.0
 11
42.1021
 21
257.97300000000001
 31
0.0
  0
LINE
  5
70
  8
_________1
 62
     7
 10
58.565600000000003
 20
257.03699999999998
 30
0.0
 11
60.333599999999997
 21
257.51100000000002
 31
0.0
  0
LINE
  5
71
  8
_________1
 62
     7
 10
60.333599999999997
 20
257.51100000000002
 30
0.0
 11
58.565600000000003
 21
257.98500000000001
 31
0.0
  0
LINE
  5
72
  8
_________1
 62
     7
 10
58.565600000000003
 20
257.98500000000001
 30
0.0
 11
58.565600000000003
 21
257.03699999999998
 31
0.0
  0
LINE
  5
73
  8
_________1
 62
     7
 10
78.565899999999999
 20
257.03699999999998
 30
0.0
 11
80.3339
 21
257.51100000000002
 31
0.0
  0
LINE
  5
74
  8
_________1
 62
     7
 10
80.3339
 20
257.51100000000002
 30
0.0
 11
78.565899999999999
 21
257.98500000000001
 31
0.0
  0
LINE
  5
75
  8
_________1
 62
     7
 10
78.565899999999999
 20
257.98500000000001
 30
0.0
 11
78.565899999999999
 21
257.03699999999998
 31
0.0
  0
LINE
  5
76
  8
_________1
 62
     7
 10
66.583100000000002
 20
239.881
 30
0.0
 11
72.632000000000005
 21
239.881
 31
0.0
  0
LINE
  5
77
  8
_________1
 62
     7
 10
40.33339999999999
 20
257.505
 30
0.0
 11
80.3339
 21
257.505
 31
0.0
  0
ENDBLK
  5
78
  8
_________1
  0
BLOCK
  8
_________1
  2
AIGNBL02010008
 70
     0
 10
0.0
 20
0.0
 30
0.0
  3
AIGNBL02010008
  1

  0
LINE
  5
7B
  8
_________1
 62
     7
 10
64.394099999999995
 20
242.74000000000001
 30
0.0
 11
62.808599999999998
 21
243.65600000000001
 31
0.0
  0
LINE
  5
7C
  8
_________1
 62
     7
 10
62.808599999999998
 20
243.65600000000001
 30
0.0
 11
63.723599999999998
 21
242.06999999999999
 31
0.0
  0
LINE
  5
7D
  8
_________1
 62
     7
 10
63.723599999999998
 20
242.06999999999999
 30
0.0
 11
64.394099999999995
 21
242.74000000000001
 31
0.0
  0
LINE
  5
7E
  8
_________1
 62
     7
 10
56.273200000000003
 20
249.52099999999999
 30
0.0
 11
57.858699999999999
 21
248.60599999999999
 31
0.0
  0
LINE
  5
7F
  8
_________1
 62
     7
 10
57.858699999999999
 20
248.60599999999999
 30
0.0
 11
56.9437
 21
250.191
 31
0.0
  0
LINE
  5
80
  8
_________1
 62
     7
 10
56.9437
 20
250.191
 30
0.0
 11
56.273200000000003
 21
249.52099999999999
 31
0.0
  0
LINE
  5
81
  8
_________1
 62
     7
 10
55.597299999999997
 20
250.86699999999999
 30
0.0
 11
66.583100000000002
 21
239.881
 31
0.0
  0
ENDBLK
  5
82
  8
_________1
  0
BLOCK
  8
_________1
  2
AIGNBL02010009
 70
     0
 10
0.0
 20
0.0
 30
0.0
  3
AIGNBL02010009
  1

  0
ARC
  5
85
  8
_________1
 62
     7
 10
80.127413000000004
 20
173.68763000000001
 30
0.0
 40
0.08989
 50
206.93240499999999
 51
224.361482
  0
ARC
  5
86
  8
_________1
 62
     7
 10
80.394570000000002
 20
173.835925
 30
0.0
 40
0.3953980000000001
 50
198.87493599999999
 51
208.55640099999999
  0
ARC
  5
87
  8
_________1
 62
     7
 10
80.996122999999997
 20
174.051627
 30
0.0
 40
1.0344279999999999
 50
183.13083900000001
 51
199.401048
  0
ARC
  5
88
  8
_________1
 62
     7
 10
79.285689000000005
 20
173.28593100000001
 30
0.0
 40
0.885687
 50
7.8598539999999986
 51
13.024297000000001
  0
ARC
  5
89
  8
_________1
 62
     7
 10
79.859553000000005
 20
173.40401399999999
 30
0.0
 40
0.300314
 50
15.750439
 51
47.317382000000009
  0
LINE
  5
8A
  8
_________1
 62
     7
 10
79.963200000000001
 20
174.75700000000001
 30
0.0
 11
79.963200000000001
 21
173.995
 31
0.0
  0
ARC
  5
8B
  8
_________1
 62
     7
 10
74.59863399999999
 20
173.68781799999999
 30
0.0
 40
0.090286
 50
315.717915
 51
333.06188100000003
  0
ARC
  5
8C
  8
_________1
 62
     7
 10
74.339430000000007
 20
173.83174500000001
 30
0.0
 40
0.386722
 50
331.44902999999999
 51
341.33989500000001
  0
ARC
  5
8D
  8
_________1
 62
     7
 10
73.728828000000007
 20
174.04998699999999
 30
0.0
 40
1.0351170000000001
 50
340.708575
 51
356.96215699999999
  0
ARC
  5
8E
  8
_________1
 62
     7
 10
75.503884999999997
 20
173.26689099999999
 30
0.0
 40
0.9515909999999999
 50
166.614813
 51
171.53016599999989
  0
ARC
  5
8F
  8
_________1
 62
     7
 10
74.868888999999996
 20
173.40244200000001
 30
0.0
 40
0.302842
 50
132.76263299999999
 51
163.75109800000001
  0
LINE
  5
90
  8
_________1
  6
AIGENLINE001
 62
     7
 10
77.362899999999996
 20
101.321
 30
0.0
 11
77.362899999999996
 21
186.81599999999989
 31
0.0
  0
ARC
  5
91
  8
_________1
 62
     7
 10
77.218560999999994
 20
181.418925
 30
0.0
 40
2.8279649999999998
 50
190.036022
 51
205.36738800000001
  0
ARC
  5
92
  8
_________1
 62
     7
 10
78.380270999999993
 20
181.678662
 30
0.0
 40
4.0175159999999996
 50
179.593018
 51
190.79640800000001
  0
ARC
  5
93
  8
_________1
 62
     7
 10
77.218560999999994
 20
181.99581599999999
 30
0.0
 40
2.8279649999999998
 50
154.63261199999999
 51
169.963978
  0
ARC
  5
94
  8
_________1
 62
     7
 10
78.380270999999993
 20
181.73607799999999
 30
0.0
 40
4.0175159999999996
 50
169.20359199999999
 51
180.406982
  0
ARC
  5
95
  8
_________1
 62
     7
 10
77.514273000000003
 20
181.415899
 30
0.0
 40
2.8208700000000002
 50
334.63233000000002
 51
350.00090999999998
  0
ARC
  5
96
  8
_________1
 62
     7
 10
76.34173100000001
 20
181.676796
 30
0.0
 40
4.0212570000000003
 50
349.24084399999998
 51
0.433176
  0
ARC
  5
97
  8
_________1
 62
     7
 10
77.514273000000003
 20
181.998842
 30
0.0
 40
2.8208700000000002
 50
9.9990899999999971
 51
25.367670000000011
  0
ARC
  5
98
  8
_________1
 62
     7
 10
76.34173100000001
 20
181.737944
 30
0.0
 40
4.0212570000000003
 50
359.566824
 51
10.759156000000001
  0
LINE
  5
99
  8
_________1
 62
     7
 10
74.563400000000001
 20
175.20699999999999
 30
0.0
 11
74.563400000000001
 21
175.20699999999999
 31
0.0
  0
LINE
  5
9A
  8
_________1
 62
     7
 10
80.1631
 20
175.20699999999999
 30
0.0
 11
80.1631
 21
175.20699999999999
 31
0.0
  0
LINE
  5
9B
  8
_________1
 62
     7
 10
77.362899999999996
 20
183.607
 30
0.0
 11
77.362899999999996
 21
183.25299999999999
 31
0.0
  0
ARC
  5
9C
  8
_________1
 62
     7
 10
77.373188999999996
 20
160.185689
 30
0.0
 40
24.221622
 50
87.792113999999984
 51
90.024412999999996
  0
ARC
  5
9D
  8
_________1
 62
     7
 10
77.814093999999997
 20
173.41762600000001
 30
0.0
 40
10.982739
 50
79.246320999999995
 51
87.43118299999999
  0
ARC
  5
9E
  8
_________1
 62
     7
 10
77.352547999999985
 20
160.21207899999999
 30
0.0
 40
24.195232000000001
 50
89.975560000000016
 51
92.209069999999997
  0
ARC
  5
9F
  8
_________1
 62
     7
 10
76.912359999999993
 20
173.417777
 30
0.0
 40
10.982599
 50
92.569923000000017
 51
100.753995
  0
ARC
  5
A0
  8
_________1
 62
     7
 10
77.363122000000004
 20
181.60703100000001
 30
0.0
 40
1.6003430000000001
 50
0.009261
 51
90.009231000000014
  0
ARC
  5
A1
  8
_________1
 62
     7
 10
77.424068000000005
 20
181.54626399999989
 30
0.0
 40
1.662237
 50
92.110111999999987
 51
177.896027
  0
ARC
  5
A2
  8
_________1
 62
     7
 10
77.424230000000009
 20
181.668477
 30
0.0
 40
1.662404999999999
 50
182.109352
 51
267.88450899999998
  0
ARC
  5
A3
  8
_________1
 62
     7
 10
77.301693
 20
181.6689979999999
 30
0.0
 40
1.6629179999999999
 50
272.10814299999998
 51
357.87336499999998
  0
LINE
  5
A4
  8
_________1
 62
     7
 10
79.263199999999998
 20
181.607
 30
0.0
 11
78.313000000000002
 21
183.25299999999999
 31
0.0
  0
LINE
  5
A5
  8
_________1
 62
     7
 10
78.313000000000002
 20
183.25299999999999
 30
0.0
 11
76.413399999999996
 21
183.25299999999999
 31
0.0
  0
LINE
  5
A6
  8
_________1
 62
     7
 10
76.413399999999996
 20
183.25299999999999
 30
0.0
 11
75.463200000000001
 21
181.607
 31
0.0
  0
LINE
  5
A7
  8
_________1
 62
     7
 10
75.463200000000001
 20
181.607
 30
0.0
 11
76.413399999999996
 21
179.96199999999999
 31
0.0
  0
LINE
  5
A8
  8
_________1
 62
     7
 10
76.413399999999996
 20
179.96199999999999
 30
0.0
 11
78.313000000000002
 21
179.96199999999999
 31
0.0
  0
LINE
  5
A9
  8
_________1
 62
     7
 10
78.313000000000002
 20
179.96199999999999
 30
0.0
 11
79.263199999999998
 21
181.607
 31
0.0
  0
ARC
  5
AA
  8
_________1
 62
     7
 10
79.576002000000003
 20
175.20611199999999
 30
0.0
 40
0.587054
 50
0.115452
 51
33.208821
  0
ARC
  5
AB
  8
_________1
 62
     7
 10
79.378331000000003
 20
175.090328
 30
0.0
 40
0.8159359999999999
 50
32.409072999999999
 51
55.065172999999987
  0
ARC
  5
AC
  8
_________1
 62
     7
 10
79.12482
 20
174.76177300000001
 30
0.0
 40
1.230615999999999
 50
54.14866
 51
77.938445999999985
  0
ARC
  5
AD
  8
_________1
 62
     7
 10
79.018342000000004
 20
174.41357199999999
 30
0.0
 40
1.593688
 50
76.810679000000007
 51
90.189313999999996
  0
ARC
  5
AE
  8
_________1
 62
     7
 10
79.013710000000003
 20
174.42254
 30
0.0
 40
1.5847119999999999
 50
90.022920999999982
 51
113.964786
  0
ARC
  5
AF
  8
_________1
 62
     7
 10
78.843429
 20
174.85652200000001
 30
0.0
 40
1.1191679999999991
 50
115.023122
 51
133.34682699999999
  0
ARC
  5
B0
  8
_________1
 62
     7
 10
78.585091000000006
 20
175.14468400000001
 30
0.0
 40
0.732354
 50
134.123886
 51
165.413343
  0
ARC
  5
B1
  8
_________1
 62
     7
 10
78.431169999999995
 20
175.207157
 30
0.0
 40
0.568075
 50
167.602011
 51
179.986051
  0
ARC
  5
B2
  8
_________1
 62
     7
 10
78.450147999999999
 20
175.20847800000001
 30
0.0
 40
0.587054
 50
180.11545299999989
 51
213.20886100000001
  0
ARC
  5
B3
  8
_________1
 62
     7
 10
78.647819999999996
 20
175.324262
 30
0.0
 40
0.8159359999999999
 50
212.40909300000001
 51
235.06519299999999
  0
ARC
  5
B4
  8
_________1
 62
     7
 10
78.901330999999985
 20
175.652817
 30
0.0
 40
1.230615999999999
 50
234.14868000000001
 51
257.93846600000001
  0
ARC
  5
B5
  8
_________1
 62
     7
 10
79.007808999999995
 20
176.00101799999999
 30
0.0
 40
1.593688
 50
256.810699
 51
270.18933399999997
  0
ARC
  5
B6
  8
_________1
 62
     7
 10
79.01244100000001
 20
175.992051
 30
0.0
 40
1.5847119999999999
 50
270.022941
 51
293.96480600000001
  0
ARC
  5
B7
  8
_________1
 62
     7
 10
79.182721999999998
 20
175.55806799999999
 30
0.0
 40
1.1191679999999991
 50
295.02314200000001
 51
313.34684600000003
  0
ARC
  5
B8
  8
_________1
 62
     7
 10
79.441059999999993
 20
175.26990599999999
 30
0.0
 40
0.732354
 50
314.12390599999998
 51
345.41336200000001
  0
ARC
  5
B9
  8
_________1
 62
     7
 10
79.594981000000004
 20
175.20743300000001
 30
0.0
 40
0.568075
 50
347.60203000000001
 51
359.98607100000009
  0
ARC
  5
BA
  8
_________1
 62
     7
 10
76.276268999999999
 20
175.20611199999999
 30
0.0
 40
0.587054
 50
0.115452
 51
33.208821
  0
ARC
  5
BB
  8
_________1
 62
     7
 10
76.078597999999985
 20
175.090328
 30
0.0
 40
0.8159359999999999
 50
32.409072999999999
 51
55.065172999999987
  0
ARC
  5
BC
  8
_________1
 62
     7
 10
75.825086999999996
 20
174.76177300000001
 30
0.0
 40
1.230615999999999
 50
54.14866
 51
77.938445999999985
  0
ARC
  5
BD
  8
_________1
 62
     7
 10
75.718607999999989
 20
174.41357199999999
 30
0.0
 40
1.593688
 50
76.810679000000007
 51
90.189313999999996
  0
ARC
  5
BE
  8
_________1
 62
     7
 10
75.713976000000002
 20
174.42254
 30
0.0
 40
1.5847119999999999
 50
90.022920999999982
 51
113.964786
  0
ARC
  5
BF
  8
_________1
 62
     7
 10
75.543695999999997
 20
174.85652200000001
 30
0.0
 40
1.1191679999999991
 50
115.023122
 51
133.34682699999999
  0
ARC
  5
C0
  8
_________1
 62
     7
 10
75.285358000000002
 20
175.14468400000001
 30
0.0
 40
0.732354
 50
134.123886
 51
165.413343
  0
ARC
  5
C1
  8
_________1
 62
     7
 10
75.131437000000005
 20
175.207157
 30
0.0
 40
0.568075
 50
167.602011
 51
179.986051
  0
ARC
  5
C2
  8
_________1
 62
     7
 10
75.150413999999998
 20
175.20847800000001
 30
0.0
 40
0.587054
 50
180.11545299999989
 51
213.20886100000001
  0
ARC
  5
C3
  8
_________1
 62
     7
 10
75.348086999999992
 20
175.324262
 30
0.0
 40
0.8159359999999999
 50
212.40909300000001
 51
235.06519299999999
  0
ARC
  5
C4
  8
_________1
 62
     7
 10
75.601597999999996
 20
175.652817
 30
0.0
 40
1.230615999999999
 50
234.14868000000001
 51
257.93846600000001
  0
ARC
  5
C5
  8
_________1
 62
     7
 10
75.708076000000005
 20
176.00101799999999
 30
0.0
 40
1.593688
 50
256.810699
 51
270.18933399999997
  0
ARC
  5
C6
  8
_________1
 62
     7
 10
75.712707999999992
 20
175.992051
 30
0.0
 40
1.5847119999999999
 50
270.022941
 51
293.96480600000001
  0
ARC
  5
C7
  8
_________1
 62
     7
 10
75.882987999999997
 20
175.55806799999999
 30
0.0
 40
1.1191679999999991
 50
295.02314200000001
 51
313.34684600000003
  0
ARC
  5
C8
  8
_________1
 62
     7
 10
76.141326000000007
 20
175.26990599999999
 30
0.0
 40
0.732354
 50
314.12390599999998
 51
345.41336200000001
  0
ARC
  5
C9
  8
_________1
 62
     7
 10
76.295248000000001
 20
175.20743300000001
 30
0.0
 40
0.568075
 50
347.60203000000001
 51
359.98607100000009
  0
LINE
  5
CA
  8
_________1
 62
     7
 10
75.463200000000001
 20
152.607
 30
0.0
 11
75.262699999999995
 21
152.80699999999999
 31
0.0
  0
LINE
  5
CB
  8
_________1
 62
     7
 10
79.263199999999998
 20
152.607
 30
0.0
 11
79.462999999999994
 21
152.80699999999999
 31
0.0
  0
LINE
  5
CC
  8
_________1
 62
     7
 10
79.462999999999994
 20
150.40700000000001
 30
0.0
 11
79.263199999999998
 21
150.20699999999999
 31
0.0
  0
LINE
  5
CD
  8
_________1
 62
     7
 10
75.262699999999995
 20
150.40700000000001
 30
0.0
 11
75.463200000000001
 21
150.20699999999999
 31
0.0
  0
LINE
  5
CE
  8
_________1
 62
     7
 10
79.462999999999994
 20
150.40700000000001
 30
0.0
 11
75.262699999999995
 21
150.40700000000001
 31
0.0
  0
LINE
  5
CF
  8
_________1
 62
     7
 10
75.463200000000001
 20
152.607
 30
0.0
 11
75.463200000000001
 21
150.20699999999999
 31
0.0
  0
LINE
  5
D0
  8
_________1
 62
     7
 10
79.263199999999998
 20
150.20699999999999
 30
0.0
 11
79.263199999999998
 21
152.607
 31
0.0
  0
LINE
  5
D1
  8
_________1
 62
     7
 10
79.462999999999994
 20
150.40700000000001
 30
0.0
 11
79.462999999999994
 21
153.607
 31
0.0
  0
LINE
  5
D2
  8
_________1
 62
     7
 10
75.262699999999995
 20
153.607
 30
0.0
 11
75.262699999999995
 21
150.40700000000001
 31
0.0
  0
LINE
  5
D3
  8
_________1
 62
     7
 10
79.263199999999998
 20
150.20699999999999
 30
0.0
 11
75.463200000000001
 21
150.20699999999999
 31
0.0
  0
LINE
  5
D4
  8
_________1
 62
     7
 10
79.462999999999994
 20
152.607
 30
0.0
 11
75.262699999999995
 21
152.607
 31
0.0
  0
LINE
  5
D5
  8
_________1
 62
     7
 10
79.963200000000001
 20
153.607
 30
0.0
 11
74.763199999999998
 21
153.607
 31
0.0
  0
LINE
  5
D6
  8
_________1
 62
     7
 10
79.963200000000001
 20
159.40700000000001
 30
0.0
 11
79.763400000000004
 21
159.607
 31
0.0
  0
LINE
  5
D7
  8
_________1
 62
     7
 10
74.763199999999998
 20
159.40700000000001
 30
0.0
 11
74.963000000000008
 21
159.607
 31
0.0
  0
LINE
  5
D8
  8
_________1
 62
     7
 10
79.763400000000004
 20
159.607
 30
0.0
 11
79.763400000000004
 21
163.00700000000001
 31
0.0
  0
LINE
  5
D9
  8
_________1
 62
     7
 10
79.963200000000001
 20
153.607
 30
0.0
 11
79.963200000000001
 21
163.00700000000001
 31
0.0
  0
LINE
  5
DA
  8
_________1
 62
     7
 10
74.963000000000008
 20
159.607
 30
0.0
 11
74.963000000000008
 21
163.00700000000001
 31
0.0
  0
LINE
  5
DB
  8
_________1
 62
     7
 10
74.763199999999998
 20
153.607
 30
0.0
 11
74.763199999999998
 21
163.00700000000001
 31
0.0
  0
LINE
  5
DC
  8
_________1
 62
     7
 10
79.963200000000001
 20
159.607
 30
0.0
 11
74.763199999999998
 21
159.607
 31
0.0
  0
LINE
  5
DD
  8
_________1
 62
     7
 10
80.362899999999996
 20
163.00700000000001
 30
0.0
 11
74.362899999999996
 21
163.00700000000001
 31
0.0
  0
LINE
  5
DE
  8
_________1
 62
     7
 10
80.362899999999996
 20
164.00700000000001
 30
0.0
 11
80.362899999999996
 21
163.00700000000001
 31
0.0
  0
LINE
  5
DF
  8
_________1
 62
     7
 10
77.362899999999996
 20
164.00700000000001
 30
0.0
 11
77.362899999999996
 21
163.00700000000001
 31
0.0
  0
LINE
  5
E0
  8
_________1
 62
     7
 10
74.362899999999996
 20
164.00700000000001
 30
0.0
 11
74.362899999999996
 21
163.00700000000001
 31
0.0
  0
LINE
  5
E1
  8
_________1
 62
     7
 10
72.862899999999996
 20
164.00700000000001
 30
0.0
 11
72.862899999999996
 21
164.20699999999999
 31
0.0
  0
LINE
  5
E2
  8
_________1
 62
     7
 10
81.863600000000005
 20
164.00700000000001
 30
0.0
 11
81.863600000000005
 21
164.20699999999999
 31
0.0
  0
LINE
  5
E3
  8
_________1
 62
     7
 10
81.863600000000005
 20
164.00700000000001
 30
0.0
 11
72.862899999999996
 21
164.00700000000001
 31
0.0
  0
LINE
  5
E4
  8
_________1
 62
     7
 10
79.763400000000004
 20
164.40700000000001
 30
0.0
 11
79.763400000000004
 21
170.40700000000001
 31
0.0
  0
LINE
  5
E5
  8
_________1
 62
     7
 10
79.963200000000001
 20
164.40700000000001
 30
0.0
 11
79.963200000000001
 21
170.40700000000001
 31
0.0
  0
LINE
  5
E6
  8
_________1
 62
     7
 10
74.963000000000008
 20
164.40700000000001
 30
0.0
 11
74.963000000000008
 21
170.40700000000001
 31
0.0
  0
LINE
  5
E7
  8
_________1
 62
     7
 10
74.763199999999998
 20
164.40700000000001
 30
0.0
 11
74.763199999999998
 21
170.40700000000001
 31
0.0
  0
LINE
  5
E8
  8
_________1
 62
     7
 10
81.563199999999995
 20
164.20699999999999
 30
0.0
 11
81.563199999999995
 21
164.40700000000001
 31
0.0
  0
LINE
  5
E9
  8
_________1
 62
     7
 10
73.163300000000007
 20
164.20699999999999
 30
0.0
 11
73.163300000000007
 21
164.40700000000001
 31
0.0
  0
LINE
  5
EA
  8
_________1
 62
     7
 10
81.863600000000005
 20
164.20699999999999
 30
0.0
 11
72.862899999999996
 21
164.20699999999999
 31
0.0
  0
LINE
  5
EB
  8
_________1
 62
     7
 10
81.563199999999995
 20
164.40700000000001
 30
0.0
 11
73.163300000000007
 21
164.40700000000001
 31
0.0
  0
LINE
  5
EC
  8
_________1
 62
     7
 10
79.613200000000006
 20
183.607
 30
0.0
 11
79.613200000000006
 21
183.20699999999999
 31
0.0
  0
LINE
  5
ED
  8
_________1
 62
     7
 10
79.163300000000007
 20
183.607
 30
0.0
 11
79.163300000000007
 21
183.20699999999999
 31
0.0
  0
LINE
  5
EE
  8
_________1
 62
     7
 10
78.713399999999993
 20
183.607
 30
0.0
 11
78.713399999999993
 21
183.20699999999999
 31
0.0
  0
LINE
  5
EF
  8
_________1
 62
     7
 10
78.262699999999995
 20
183.607
 30
0.0
 11
78.262699999999995
 21
183.25299999999999
 31
0.0
  0
LINE
  5
F0
  8
_________1
 62
     7
 10
77.813500000000005
 20
183.607
 30
0.0
 11
77.813500000000005
 21
183.25299999999999
 31
0.0
  0
LINE
  5
F1
  8
_________1
 62
     7
 10
79.863299999999995
 20
184.20699999999999
 30
0.0
 11
77.362899999999996
 21
184.20699999999999
 31
0.0
  0
LINE
  5
F2
  8
_________1
 62
     7
 10
79.863299999999995
 20
184.20699999999999
 30
0.0
 11
79.863299999999995
 21
183.607
 31
0.0
  0
LINE
  5
F3
  8
_________1
 62
     7
 10
80.063100000000006
 20
183.607
 30
0.0
 11
80.063100000000006
 21
183.20699999999999
 31
0.0
  0
LINE
  5
F4
  8
_________1
 62
     7
 10
77.362899999999996
 20
183.607
 30
0.0
 11
80.063100000000006
 21
183.607
 31
0.0
  0
LINE
  5
F5
  8
_________1
 62
     7
 10
78.339200000000005
 20
183.20699999999999
 30
0.0
 11
80.063100000000006
 21
183.20699999999999
 31
0.0
  0
LINE
  5
F6
  8
_________1
 62
     7
 10
78.454999999999998
 20
180.20699999999999
 30
0.0
 11
80.063100000000006
 21
180.20699999999999
 31
0.0
  0
LINE
  5
F7
  8
_________1
 62
     7
 10
77.362899999999996
 20
179.607
 30
0.0
 11
78.763000000000005
 21
179.607
 31
0.0
  0
LINE
  5
F8
  8
_________1
 62
     7
 10
78.463200000000001
 20
179.607
 30
0.0
 11
78.463200000000001
 21
180.20699999999999
 31
0.0
  0
LINE
  5
F9
  8
_________1
 62
     7
 10
79.562899999999999
 20
176.607
 30
0.0
 11
79.163300000000007
 21
176.607
 31
0.0
  0
LINE
  5
FA
  8
_________1
 62
     7
 10
79.963200000000001
 20
176.20699999999999
 30
0.0
 11
79.963200000000001
 21
175.65799999999999
 31
0.0
  0
ARC
  5
FB
  8
_________1
 62
     7
 10
79.547950999999998
 20
176.19191799999999
 30
0.0
 40
0.41557
 50
2.113024999999999
 51
87.936293999999975
  0
LINE
  5
FC
  8
_________1
 62
     7
 10
78.763000000000005
 20
177.00700000000001
 30
0.0
 11
78.763000000000005
 21
179.607
 31
0.0
  0
ARC
  5
FD
  8
_________1
 62
     7
 10
79.178246999999999
 20
177.02251899999999
 30
0.0
 40
0.41557
 50
182.11302800000001
 51
267.936331
  0
LINE
  5
FE
  8
_________1
 62
     7
 10
75.113200000000006
 20
183.607
 30
0.0
 11
75.113200000000006
 21
183.20699999999999
 31
0.0
  0
LINE
  5
FF
  8
_________1
 62
     7
 10
75.563100000000006
 20
183.607
 30
0.0
 11
75.563100000000006
 21
183.20699999999999
 31
0.0
  0
LINE
  5
100
  8
_________1
 62
     7
 10
76.013099999999994
 20
183.607
 30
0.0
 11
76.013099999999994
 21
183.20699999999999
 31
0.0
  0
LINE
  5
101
  8
_________1
 62
     7
 10
76.462999999999994
 20
183.607
 30
0.0
 11
76.462999999999994
 21
183.25299999999999
 31
0.0
  0
LINE
  5
102
  8
_________1
 62
     7
 10
76.912899999999993
 20
183.607
 30
0.0
 11
76.912899999999993
 21
183.25299999999999
 31
0.0
  0
LINE
  5
103
  8
_________1
 62
     7
 10
74.863100000000003
 20
184.20699999999999
 30
0.0
 11
77.362899999999996
 21
184.20699999999999
 31
0.0
  0
LINE
  5
104
  8
_________1
 62
     7
 10
74.863100000000003
 20
184.20699999999999
 30
0.0
 11
74.863100000000003
 21
183.607
 31
0.0
  0
LINE
  5
105
  8
_________1
 62
     7
 10
74.663300000000007
 20
183.607
 30
0.0
 11
74.663300000000007
 21
183.20699999999999
 31
0.0
  0
LINE
  5
106
  8
_________1
 62
     7
 10
77.362899999999996
 20
183.607
 30
0.0
 11
74.663300000000007
 21
183.607
 31
0.0
  0
LINE
  5
107
  8
_________1
 62
     7
 10
76.387200000000007
 20
183.20699999999999
 30
0.0
 11
74.663300000000007
 21
183.20699999999999
 31
0.0
  0
LINE
  5
108
  8
_________1
 62
     7
 10
76.271500000000003
 20
180.20699999999999
 30
0.0
 11
74.663300000000007
 21
180.20699999999999
 31
0.0
  0
LINE
  5
109
  8
_________1
 62
     7
 10
77.362899999999996
 20
179.607
 30
0.0
 11
75.962800000000001
 21
179.607
 31
0.0
  0
LINE
  5
10A
  8
_________1
 62
     7
 10
76.263199999999983
 20
179.607
 30
0.0
 11
76.263199999999983
 21
180.20699999999999
 31
0.0
  0
LINE
  5
10B
  8
_________1
 62
     7
 10
75.163499999999999
 20
176.607
 30
0.0
 11
75.563100000000006
 21
176.607
 31
0.0
  0
LINE
  5
10C
  8
_________1
 62
     7
 10
74.762500000000003
 20
174.75700000000001
 30
0.0
 11
74.762500000000003
 21
173.995
 31
0.0
  0
LINE
  5
10D
  8
_________1
 62
     7
 10
74.763199999999998
 20
176.20699999999999
 30
0.0
 11
74.763199999999998
 21
175.65799999999999
 31
0.0
  0
ARC
  5
10E
  8
_________1
 62
     7
 10
75.178780000000003
 20
176.19160400000001
 30
0.0
 40
0.415896
 50
92.105378000000002
 51
177.84526299999999
  0
LINE
  5
10F
  8
_________1
 62
     7
 10
75.962800000000001
 20
177.00700000000001
 30
0.0
 11
75.962800000000001
 21
179.607
 31
0.0
  0
ARC
  5
110
  8
_________1
 62
     7
 10
75.547822999999994
 20
177.02215100000001
 30
0.0
 40
0.415215
 50
272.11342200000001
 51
357.93596000000002
  0
LINE
  5
111
  8
_________1
 62
     7
 10
75.713300000000004
 20
176.00700000000001
 30
0.0
 11
79.013099999999994
 21
176.00700000000001
 31
0.0
  0
LINE
  5
112
  8
_________1
 62
     7
 10
75.713300000000004
 20
174.40700000000001
 30
0.0
 11
79.013099999999994
 21
174.40700000000001
 31
0.0
  0
LINE
  5
113
  8
_________1
 62
     7
 10
82.507099999999994
 20
171.58799999999999
 30
0.0
 11
82.859200000000001
 21
171.517
 31
0.0
  0
LINE
  5
114
  8
_________1
 62
     7
 10
83.490999999999985
 20
170.85900000000001
 30
0.0
 11
83.563400000000016
 21
170.40700000000001
 31
0.0
  0
ARC
  5
115
  8
_________1
 62
     7
 10
82.682089000000005
 20
170.71455900000001
 30
0.0
 40
0.8218110000000001
 50
10.150099000000001
 51
77.554081000000011
  0
ARC
  5
116
  8
_________1
 62
     7
 10
82.861571999999995
 20
173.19324399999999
 30
0.0
 40
1.643886
 50
190.15625099999991
 51
257.54796900000002
  0
LINE
  5
117
  8
_________1
 62
     7
 10
80.651600000000002
 20
173.40700000000001
 30
0.0
 11
77.362899999999996
 21
173.40700000000001
 31
0.0
  0
ARC
  5
118
  8
_________1
 62
     7
 10
80.634536999999995
 20
172.78688199999999
 30
0.0
 40
0.6204010000000001
 50
10.709185
 51
88.426493000000008
  0
LINE
  5
119
  8
_________1
 62
     7
 10
83.563400000000016
 20
170.40700000000001
 30
0.0
 11
77.362899999999996
 21
170.40700000000001
 31
0.0
  0
LINE
  5
11A
  8
_________1
 62
     7
 10
72.218599999999995
 20
171.58799999999999
 30
0.0
 11
71.867199999999997
 21
171.517
 31
0.0
  0
LINE
  5
11B
  8
_________1
 62
     7
 10
71.235399999999998
 20
170.85900000000001
 30
0.0
 11
71.162999999999997
 21
170.40700000000001
 31
0.0
  0
ARC
  5
11C
  8
_________1
 62
     7
 10
72.043683000000001
 20
170.71517900000001
 30
0.0
 40
0.821067
 50
102.411235
 51
169.884545
  0
ARC
  5
11D
  8
_________1
 62
     7
 10
71.865817000000007
 20
173.19164900000001
 30
0.0
 40
1.641972
 50
282.40748500000001
 51
349.88833499999998
  0
LINE
  5
11E
  8
_________1
 62
     7
 10
74.074799999999996
 20
173.40700000000001
 30
0.0
 11
77.362899999999996
 21
173.40700000000001
 31
0.0
  0
ARC
  5
11F
  8
_________1
 62
     7
 10
74.092041000000009
 20
172.78669300000001
 30
0.0
 40
0.620595
 50
91.587870999999993
 51
169.27641
  0
LINE
  5
120
  8
_________1
 62
     7
 10
71.162999999999997
 20
170.40700000000001
 30
0.0
 11
77.362899999999996
 21
170.40700000000001
 31
0.0
  0
ENDBLK
  5
121
  8
_________1
  0
BLOCK
  8
_________1
  2
AIGNBL0201000A
 70
     0
 10
0.0
 20
0.0
 30
0.0
  3
AIGNBL0201000A
  1

  0
LINE
  5
124
  8
_________1
 62
     7
 10
-23.0776
 20
259.22500000000002
 30
0.0
 11
-21.3093
 21
259.69799999999998
 31
0.0
  0
LINE
  5
125
  8
_________1
 62
     7
 10
-21.3093
 20
259.69799999999998
 30
0.0
 11
-23.0776
 21
260.17200000000003
 31
0.0
  0
LINE
  5
126
  8
_________1
 62
     7
 10
-23.0776
 20
260.17200000000003
 30
0.0
 11
-23.0776
 21
259.22500000000002
 31
0.0
  0
LINE
  5
127
  8
_________1
 62
     7
 10
-3.0775199999999998
 20
259.22500000000002
 30
0.0
 11
-1.3091399999999991
 21
259.69799999999998
 31
0.0
  0
LINE
  5
128
  8
_________1
 62
     7
 10
-1.3091399999999991
 20
259.69799999999998
 30
0.0
 11
-3.0775199999999998
 21
260.17200000000003
 31
0.0
  0
LINE
  5
129
  8
_________1
 62
     7
 10
-3.0775199999999998
 20
260.17200000000003
 30
0.0
 11
-3.0775199999999998
 21
259.22500000000002
 31
0.0
  0
LINE
  5
12A
  8
_________1
 62
     7
 10
-19.540900000000001
 20
260.161
 30
0.0
 11
-21.3093
 21
259.68700000000001
 31
0.0
  0
LINE
  5
12B
  8
_________1
 62
     7
 10
-21.3093
 20
259.68700000000001
 30
0.0
 11
-19.540900000000001
 21
259.21300000000002
 31
0.0
  0
LINE
  5
12C
  8
_________1
 62
     7
 10
-19.540900000000001
 20
259.21300000000002
 30
0.0
 11
-19.540900000000001
 21
260.161
 31
0.0
  0
LINE
  5
12D
  8
_________1
 62
     7
 10
-43.108199999999989
 20
231.97999999999999
 30
0.0
 11
-41.3095
 21
232.31999999999999
 31
0.0
  0
LINE
  5
12E
  8
_________1
 62
     7
 10
-41.3095
 20
232.31999999999999
 30
0.0
 11
-43.037399999999998
 21
232.92500000000001
 31
0.0
  0
LINE
  5
12F
  8
_________1
 62
     7
 10
-43.037399999999998
 20
232.92500000000001
 30
0.0
 11
-43.108199999999989
 21
231.97999999999999
 31
0.0
  0
LINE
  5
130
  8
_________1
 62
     7
 10
-54.555500000000002
 20
244.38900000000001
 30
0.0
 11
-55.119599999999998
 21
246.131
 31
0.0
  0
LINE
  5
131
  8
_________1
 62
     7
 10
-55.119599999999998
 20
246.131
 30
0.0
 11
-55.501899999999999
 21
244.34
 31
0.0
  0
LINE
  5
132
  8
_________1
 62
     7
 10
-55.501899999999999
 20
244.34
 30
0.0
 11
-54.555500000000002
 21
244.38900000000001
 31
0.0
  0
LINE
  5
133
  8
_________1
 62
     7
 10
-39.540999999999997
 20
260.161
 30
0.0
 11
-41.30919999999999
 21
259.68700000000001
 31
0.0
  0
LINE
  5
134
  8
_________1
 62
     7
 10
-41.30919999999999
 20
259.68700000000001
 30
0.0
 11
-39.540999999999997
 21
259.21300000000002
 31
0.0
  0
LINE
  5
135
  8
_________1
 62
     7
 10
-39.540999999999997
 20
259.21300000000002
 30
0.0
 11
-39.540999999999997
 21
260.161
 31
0.0
  0
LINE
  5
136
  8
_________1
 62
     7
 10
-1.3091399999999991
 20
259.69299999999998
 30
0.0
 11
-41.309399999999989
 21
259.69299999999998
 31
0.0
  0
ENDBLK
  5
137
  8
_________1
  0
BLOCK
  8
_________1
  2
AIGNBL0201000B
 70
     0
 10
0.0
 20
0.0
 30
0.0
  3
AIGNBL0201000B
  1

  0
LINE
  5
13A
  8
_________1
 62
     7
 10
51.731200000000001
 20
155.154
 30
0.0
 11
49.963200000000001
 21
154.68100000000001
 31
0.0
  0
LINE
  5
13B
  8
_________1
 62
     7
 10
49.963200000000001
 20
154.68100000000001
 30
0.0
 11
51.731200000000001
 21
154.20699999999999
 31
0.0
  0
LINE
  5
13C
  8
_________1
 62
     7
 10
51.731200000000001
 20
154.20699999999999
 30
0.0
 11
51.731200000000001
 21
155.154
 31
0.0
  0
LINE
  5
13D
  8
_________1
 62
     7
 10
75.594800000000006
 20
154.21799999999999
 30
0.0
 11
77.362899999999996
 21
154.69200000000001
 31
0.0
  0
LINE
  5
13E
  8
_________1
 62
     7
 10
77.362899999999996
 20
154.69200000000001
 30
0.0
 11
75.594800000000006
 21
155.166
 31
0.0
  0
LINE
  5
13F
  8
_________1
 62
     7
 10
75.594800000000006
 20
155.166
 30
0.0
 11
75.594800000000006
 21
154.21799999999999
 31
0.0
  0
INSERT
  5
140
  8
_________1
 62
     7
  2
AIGNBL0202000C
 10
0.0
 20
0.0
 30
0.0
  0
LINE
  5
141
  8
_________1
 62
     7
 10
49.963200000000001
 20
154.68600000000001
 30
0.0
 11
77.362899999999996
 21
154.68600000000001
 31
0.0
  0
ENDBLK
  5
142
  8
_________1
  0
BLOCK
  8
_________1
  2
AIGNBL0201000D
 70
     0
 10
0.0
 20
0.0
 30
0.0
  3
AIGNBL0201000D
  1

  0
LINE
  5
145
  8
_________1
 62
     7
 10
42.753599999999999
 20
176.422
 30
0.0
 11
42.279499999999992
 21
178.191
 31
0.0
  0
LINE
  5
146
  8
_________1
 62
     7
 10
42.279499999999992
 20
178.191
 30
0.0
 11
41.806199999999997
 21
176.422
 31
0.0
  0
LINE
  5
147
  8
_________1
 62
     7
 10
41.806199999999997
 20
176.422
 30
0.0
 11
42.753599999999999
 21
176.422
 31
0.0
  0
LINE
  5
148
  8
_________1
 62
     7
 10
41.8172
 20
172.17599999999999
 30
0.0
 11
42.291200000000003
 21
170.40700000000001
 31
0.0
  0
LINE
  5
149
  8
_________1
 62
     7
 10
42.291200000000003
 20
170.40700000000001
 30
0.0
 11
42.765300000000003
 21
172.17599999999999
 31
0.0
  0
LINE
  5
14A
  8
_________1
 62
     7
 10
42.765300000000003
 20
172.17599999999999
 30
0.0
 11
41.8172
 21
172.17599999999999
 31
0.0
  0
LINE
  5
14B
  8
_________1
 62
     7
 10
42.285699999999999
 20
178.191
 30
0.0
 11
42.285699999999999
 21
170.40700000000001
 31
0.0
  0
ENDBLK
  5
14C
  8
_________1
  0
BLOCK
  8
_________1
  2
AIGNBL0201000E
 70
     0
 10
0.0
 20
0.0
 30
0.0
  3
AIGNBL0201000E
  1

  0
LINE
  5
14F
  8
_________1
 62
     7
 10
36.96540000000001
 20
176.839
 30
0.0
 11
36.491399999999999
 21
178.607
 31
0.0
  0
LINE
  5
150
  8
_________1
 62
     7
 10
36.491399999999999
 20
178.607
 30
0.0
 11
36.018000000000001
 21
176.839
 31
0.0
  0
LINE
  5
151
  8
_________1
 62
     7
 10
36.018000000000001
 20
176.839
 30
0.0
 11
36.96540000000001
 21
176.839
 31
0.0
  0
LINE
  5
152
  8
_________1
 62
     7
 10
36.029000000000003
 20
172.17599999999999
 30
0.0
 11
36.503100000000011
 21
170.40700000000001
 31
0.0
  0
LINE
  5
153
  8
_________1
 62
     7
 10
36.503100000000011
 20
170.40700000000001
 30
0.0
 11
36.9771
 21
172.17599999999999
 31
0.0
  0
LINE
  5
154
  8
_________1
 62
     7
 10
36.9771
 20
172.17599999999999
 30
0.0
 11
36.029000000000003
 21
172.17599999999999
 31
0.0
  0
LINE
  5
155
  8
_________1
 62
     7
 10
36.497599999999998
 20
178.607
 30
0.0
 11
36.497599999999998
 21
170.40700000000001
 31
0.0
  0
ENDBLK
  5
156
  8
_________1
  0
BLOCK
  8
_________1
  2
AIGNBL0201000F
 70
     0
 10
0.0
 20
0.0
 30
0.0
  3
AIGNBL0201000F
  1

  0
LINE
  5
159
  8
_________1
 62
     7
 10
51.6616
 20
172.172
 30
0.0
 11
49.963200000000001
 21
171.488
 31
0.0
  0
LINE
  5
15A
  8
_________1
 62
     7
 10
49.963200000000001
 20
171.488
 30
0.0
 11
51.776000000000003
 21
171.23099999999999
 31
0.0
  0
LINE
  5
15B
  8
_________1
 62
     7
 10
51.776000000000003
 20
171.23099999999999
 30
0.0
 11
51.6616
 21
172.172
 31
0.0
  0
LINE
  5
15C
  8
_________1
 62
     7
 10
46.898400000000002
 20
171.68700000000001
 30
0.0
 11
48.726999999999997
 21
171.595
 31
0.0
  0
LINE
  5
15D
  8
_________1
 62
     7
 10
48.726999999999997
 20
171.595
 30
0.0
 11
47.189799999999998
 21
172.589
 31
0.0
  0
LINE
  5
15E
  8
_________1
 62
     7
 10
47.189799999999998
 20
172.589
 30
0.0
 11
46.898400000000002
 21
171.68700000000001
 31
0.0
  0
ARC
  5
15F
  8
_________1
 62
     7
 10
49.970536000000003
 20
178.771683
 30
0.0
 40
7.2639610000000001
 50
237.81983700000001
 51
296.47144199999991
  0
ENDBLK
  5
160
  8
_________1
  0
BLOCK
  8
_________1
  2
AIGNBL02010010
 70
     0
 10
0.0
 20
0.0
 30
0.0
  3
AIGNBL02010010
  1

  0
LINE
  5
163
  8
_________1
 62
     7
 10
30.2409
 20
104.176
 30
0.0
 11
30.7149
 21
102.408
 31
0.0
  0
LINE
  5
164
  8
_________1
 62
     7
 10
30.7149
 20
102.408
 30
0.0
 11
31.189
 21
104.176
 31
0.0
  0
LINE
  5
165
  8
_________1
 62
     7
 10
31.189
 20
104.176
 30
0.0
 11
30.2409
 21
104.176
 31
0.0
  0
LINE
  5
166
  8
_________1
 62
     7
 10
31.177299999999999
 20
183.03899999999999
 30
0.0
 11
30.703199999999999
 21
184.80699999999999
 31
0.0
  0
LINE
  5
167
  8
_________1
 62
     7
 10
30.703199999999999
 20
184.80699999999999
 30
0.0
 11
30.229900000000001
 21
183.03899999999999
 31
0.0
  0
LINE
  5
168
  8
_________1
 62
     7
 10
30.229900000000001
 20
183.03899999999999
 30
0.0
 11
31.177299999999999
 21
183.03899999999999
 31
0.0
  0
LINE
  5
169
  8
_________1
 62
     7
 10
30.709399999999999
 20
102.408
 30
0.0
 11
30.709399999999999
 21
184.80699999999999
 31
0.0
  0
ENDBLK
  5
16A
  8
_________1
  0
BLOCK
  8
_________1
  2
AIGNBL02010011
 70
     0
 10
0.0
 20
0.0
 30
0.0
  3
AIGNBL02010011
  1

  0
LINE
  5
16D
  8
_________1
 62
     7
 10
-45.177900000000001
 20
135.517
 30
0.0
 11
-43.409500000000001
 21
135.99100000000001
 31
0.0
  0
LINE
  5
16E
  8
_________1
 62
     7
 10
-43.409500000000001
 20
135.99100000000001
 30
0.0
 11
-45.177900000000001
 21
136.465
 31
0.0
  0
LINE
  5
16F
  8
_________1
 62
     7
 10
-45.177900000000001
 20
136.465
 30
0.0
 11
-45.177900000000001
 21
135.517
 31
0.0
  0
LINE
  5
170
  8
_________1
 62
     7
 10
-37.441400000000002
 20
136.465
 30
0.0
 11
-39.209600000000002
 21
135.99100000000001
 31
0.0
  0
LINE
  5
171
  8
_________1
 62
     7
 10
-39.209600000000002
 20
135.99100000000001
 30
0.0
 11
-37.441400000000002
 21
135.517
 31
0.0
  0
LINE
  5
172
  8
_________1
 62
     7
 10
-37.441400000000002
 20
135.517
 30
0.0
 11
-37.441400000000002
 21
136.465
 31
0.0
  0
LINE
  5
173
  8
_________1
 62
     7
 10
-36.116900000000001
 20
135.99100000000001
 30
0.0
 11
-55.32309999999999
 21
135.99100000000001
 31
0.0
  0
ENDBLK
  5
174
  8
_________1
  0
BLOCK
  8
_________1
  2
AIGNBL02010012
 70
     0
 10
0.0
 20
0.0
 30
0.0
  3
AIGNBL02010012
  1

  0
LINE
  5
177
  8
_________1
 62
     7
 10
-60.784100000000002
 20
168.63900000000001
 30
0.0
 11
-61.257800000000003
 21
170.40700000000001
 31
0.0
  0
LINE
  5
178
  8
_________1
 62
     7
 10
-61.257800000000003
 20
170.40700000000001
 30
0.0
 11
-61.731699999999989
 21
168.63900000000001
 31
0.0
  0
LINE
  5
179
  8
_________1
 62
     7
 10
-61.731699999999989
 20
168.63900000000001
 30
0.0
 11
-60.784100000000002
 21
168.63900000000001
 31
0.0
  0
LINE
  5
17A
  8
_________1
 62
     7
 10
-60.784100000000002
 20
182.63900000000001
 30
0.0
 11
-61.257800000000003
 21
184.40700000000001
 31
0.0
  0
LINE
  5
17B
  8
_________1
 62
     7
 10
-61.257800000000003
 20
184.40700000000001
 30
0.0
 11
-61.731699999999989
 21
182.63900000000001
 31
0.0
  0
LINE
  5
17C
  8
_________1
 62
     7
 10
-61.731699999999989
 20
182.63900000000001
 30
0.0
 11
-60.784100000000002
 21
182.63900000000001
 31
0.0
  0
LINE
  5
17D
  8
_________1
 62
     7
 10
-61.719999999999999
 20
172.17599999999999
 30
0.0
 11
-61.246299999999991
 21
170.40700000000001
 31
0.0
  0
LINE
  5
17E
  8
_________1
 62
     7
 10
-61.246299999999991
 20
170.40700000000001
 30
0.0
 11
-60.77239999999999
 21
172.17599999999999
 31
0.0
  0
LINE
  5
17F
  8
_________1
 62
     7
 10
-60.77239999999999
 20
172.17599999999999
 30
0.0
 11
-61.719999999999999
 21
172.17599999999999
 31
0.0
  0
LINE
  5
180
  8
_________1
 62
     7
 10
-61.719999999999999
 20
151.976
 30
0.0
 11
-61.246299999999991
 21
150.20699999999999
 31
0.0
  0
LINE
  5
181
  8
_________1
 62
     7
 10
-61.246299999999991
 20
150.20699999999999
 30
0.0
 11
-60.77239999999999
 21
151.976
 31
0.0
  0
LINE
  5
182
  8
_________1
 62
     7
 10
-60.77239999999999
 20
151.976
 30
0.0
 11
-61.719999999999999
 21
151.976
 31
0.0
  0
LINE
  5
183
  8
_________1
 62
     7
 10
-61.251899999999992
 20
184.40700000000001
 30
0.0
 11
-61.251899999999992
 21
150.20699999999999
 31
0.0
  0
ENDBLK
  5
184
  8
_________1
  0
BLOCK
  8
_________1
  2
AIGNBL02010013
 70
     0
 10
0.0
 20
0.0
 30
0.0
  3
AIGNBL02010013
  1

  0
LINE
  5
187
  8
_________1
 62
     7
 10
-51.405500000000011
 20
168.63900000000001
 30
0.0
 11
-51.879300000000001
 21
170.40700000000001
 31
0.0
  0
LINE
  5
188
  8
_________1
 62
     7
 10
-51.879300000000001
 20
170.40700000000001
 30
0.0
 11
-52.353200000000001
 21
168.63900000000001
 31
0.0
  0
LINE
  5
189
  8
_________1
 62
     7
 10
-52.353200000000001
 20
168.63900000000001
 30
0.0
 11
-51.405500000000011
 21
168.63900000000001
 31
0.0
  0
LINE
  5
18A
  8
_________1
 62
     7
 10
-52.341500000000003
 20
166.17599999999999
 30
0.0
 11
-51.867800000000003
 21
164.40700000000001
 31
0.0
  0
LINE
  5
18B
  8
_________1
 62
     7
 10
-51.867800000000003
 20
164.40700000000001
 30
0.0
 11
-51.393700000000003
 21
166.17599999999999
 31
0.0
  0
LINE
  5
18C
  8
_________1
 62
     7
 10
-51.393700000000003
 20
166.17599999999999
 30
0.0
 11
-52.341500000000003
 21
166.17599999999999
 31
0.0
  0
LINE
  5
18D
  8
_________1
 62
     7
 10
-51.8735
 20
170.40700000000001
 30
0.0
 11
-51.8735
 21
164.40700000000001
 31
0.0
  0
ENDBLK
  5
18E
  8
_________1
  0
BLOCK
  8
_________1
  2
AIGNBL02010014
 70
     0
 10
0.0
 20
0.0
 30
0.0
  3
AIGNBL02010014
  1

  0
LINE
  5
191
  8
_________1
 62
     7
 10
-36.877699999999997
 20
177.15700000000001
 30
0.0
 11
-35.109400000000001
 21
177.631
 31
0.0
  0
LINE
  5
192
  8
_________1
 62
     7
 10
-35.109400000000001
 20
177.631
 30
0.0
 11
-36.877699999999997
 21
178.10499999999999
 31
0.0
  0
LINE
  5
193
  8
_________1
 62
     7
 10
-36.877699999999997
 20
178.10499999999999
 30
0.0
 11
-36.877699999999997
 21
177.15700000000001
 31
0.0
  0
LINE
  5
194
  8
_________1
 62
     7
 10
-45.741
 20
178.09299999999999
 30
0.0
 11
-47.509399999999992
 21
177.62
 31
0.0
  0
LINE
  5
195
  8
_________1
 62
     7
 10
-47.509399999999992
 20
177.62
 30
0.0
 11
-45.741
 21
177.14599999999999
 31
0.0
  0
LINE
  5
196
  8
_________1
 62
     7
 10
-45.741
 20
177.14599999999999
 30
0.0
 11
-45.741
 21
178.09299999999999
 31
0.0
  0
INSERT
  5
197
  8
_________1
 62
     7
  2
AIGNBL02020015
 10
0.0
 20
0.0
 30
0.0
  0
LINE
  5
198
  8
_________1
 62
     7
 10
-44.462899999999998
 20
184.40700000000001
 30
0.0
 11
-61.916499999999999
 21
184.40700000000001
 31
0.0
  0
LINE
  5
199
  8
_________1
 62
     7
 10
-44.330599999999997
 20
150.20699999999999
 30
0.0
 11
-61.916499999999999
 21
150.20699999999999
 31
0.0
  0
LINE
  5
19A
  8
_________1
 62
     7
 10
-48.199100000000001
 20
170.40700000000001
 30
0.0
 11
-61.916499999999999
 21
170.40700000000001
 31
0.0
  0
LINE
  5
19B
  8
_________1
 62
     7
 10
-33.96990000000001
 20
177.625
 30
0.0
 11
-47.509500000000003
 21
177.625
 31
0.0
  0
ENDBLK
  5
19C
  8
_________1
  0
BLOCK
  8
_________1
  2
AIGNBL02010016
 70
     0
 10
0.0
 20
0.0
 30
0.0
  3
AIGNBL02010016
  1

  0
LINE
  5
19F
  8
_________1
 62
     7
 10
-40.477699999999992
 20
166.22200000000001
 30
0.0
 11
-38.709299999999999
 21
166.69499999999999
 31
0.0
  0
LINE
  5
1A0
  8
_________1
 62
     7
 10
-38.709299999999999
 20
166.69499999999999
 30
0.0
 11
-40.477699999999992
 21
167.16900000000001
 31
0.0
  0
LINE
  5
1A1
  8
_________1
 62
     7
 10
-40.477699999999992
 20
167.16900000000001
 30
0.0
 11
-40.477699999999992
 21
166.22200000000001
 31
0.0
  0
LINE
  5
1A2
  8
_________1
 62
     7
 10
-42.141199999999998
 20
167.15799999999999
 30
0.0
 11
-43.90959999999999
 21
166.684
 31
0.0
  0
LINE
  5
1A3
  8
_________1
 62
     7
 10
-43.90959999999999
 20
166.684
 30
0.0
 11
-42.141199999999998
 21
166.21000000000001
 31
0.0
  0
LINE
  5
1A4
  8
_________1
 62
     7
 10
-42.141199999999998
 20
166.21000000000001
 30
0.0
 11
-42.141199999999998
 21
167.15799999999999
 31
0.0
  0
LINE
  5
1A5
  8
_________1
 62
     7
 10
-36.700800000000001
 20
166.69
 30
0.0
 11
-43.90959999999999
 21
166.69
 31
0.0
  0
ENDBLK
  5
1A6
  8
_________1
  0
BLOCK
  8
_________2
  2
AIGNBL03010002
 70
     0
 10
0.0
 20
0.0
 30
0.0
  3
AIGNBL03010002
  1

  0
LINE
  5
1A9
  8
_________2
 62
     7
 10
186.649
 20
51.052199999999999
 30
0.0
 11
184.46299999999999
 21
51.052199999999999
 31
0.0
  0
LINE
  5
1AA
  8
_________2
 62
     7
 10
187.142
 20
51.052199999999999
 30
0.0
 11
186.88900000000001
 21
51.052199999999999
 31
0.0
  0
LINE
  5
1AB
  8
_________2
 62
     7
 10
187.63399999999999
 20
51.052199999999999
 30
0.0
 11
190.559
 21
51.052199999999999
 31
0.0
  0
LINE
  5
1AC
  8
_________2
 62
     7
 10
187.142
 20
51.052199999999999
 30
0.0
 11
187.39400000000001
 21
51.052199999999999
 31
0.0
  0
LINE
  5
1AD
  8
_________2
 62
     7
 10
180.745
 20
51.052199999999999
 30
0.0
 11
178.55799999999999
 21
51.052199999999999
 31
0.0
  0
LINE
  5
1AE
  8
_________2
 62
     7
 10
181.23699999999999
 20
51.052199999999999
 30
0.0
 11
180.98599999999999
 21
51.052199999999999
 31
0.0
  0
LINE
  5
1AF
  8
_________2
 62
     7
 10
181.23699999999999
 20
51.544800000000002
 30
0.0
 11
181.23699999999999
 21
53.7318
 31
0.0
  0
LINE
  5
1B0
  8
_________2
 62
     7
 10
181.23699999999999
 20
51.052199999999999
 30
0.0
 11
181.23699999999999
 21
51.304299999999998
 31
0.0
  0
LINE
  5
1B1
  8
_________2
 62
     7
 10
181.72999999999999
 20
51.052199999999999
 30
0.0
 11
183.917
 21
51.052199999999999
 31
0.0
  0
LINE
  5
1B2
  8
_________2
 62
     7
 10
181.23699999999999
 20
51.052199999999999
 30
0.0
 11
181.489
 21
51.052199999999999
 31
0.0
  0
LINE
  5
1B3
  8
_________2
 62
     7
 10
181.23699999999999
 20
50.560200000000002
 30
0.0
 11
181.23699999999999
 21
48.373199999999997
 31
0.0
  0
LINE
  5
1B4
  8
_________2
 62
     7
 10
181.23699999999999
 20
51.052199999999999
 30
0.0
 11
181.23699999999999
 21
50.800699999999999
 31
0.0
  0
LINE
  5
1B5
  8
_________2
 62
     7
 10
184.94799999999989
 20
49.832599999999999
 30
0.0
 11
190.12599999999989
 21
48.9679
 31
0.0
  0
LINE
  5
1B6
  8
_________2
 62
     7
 10
184.94799999999989
 20
52.271700000000003
 30
0.0
 11
190.12599999999989
 21
53.137099999999997
 31
0.0
  0
LINE
  5
1B7
  8
_________2
 62
     7
 10
190.12599999999989
 20
48.9679
 30
0.0
 11
190.12599999999989
 21
53.137099999999997
 31
0.0
  0
LINE
  5
1B8
  8
_________2
 62
     7
 10
184.94799999999989
 20
49.832599999999999
 30
0.0
 11
184.94799999999989
 21
52.271700000000003
 31
0.0
  0
ARC
  5
1B9
  8
_________2
 62
     7
 10
181.190651
 20
51.004810999999989
 30
0.0
 40
1.2677780000000001
 50
2.1403449999999991
 51
87.892005999999995
  0
ARC
  5
1BA
  8
_________2
 62
     7
 10
181.28420199999999
 20
51.005241999999988
 30
0.0
 40
1.2673579999999991
 50
92.121564999999975
 51
177.87840600000001
  0
ARC
  5
1BB
  8
_________2
 62
     7
 10
181.28381400000001
 20
51.098689
 30
0.0
 40
1.2669559999999991
 50
182.10473099999999
 51
267.89529900000002
  0
ARC
  5
1BC
  8
_________2
 62
     7
 10
181.19038399999999
 20
51.099775000000001
 30
0.0
 40
1.268054
 50
272.11960599999998
 51
357.84804300000002
  0
ARC
  5
1BD
  8
_________2
 62
     7
 10
181.23728399999999
 20
51.05215900000001
 30
0.0
 40
2.0849849999999992
 50
0.00001
 51
89.999980000000008
  0
ARC
  5
1BE
  8
_________2
 62
     7
 10
181.317331
 20
50.972827000000002
 30
0.0
 40
2.1657969999999991
 50
92.118111999999996
 51
177.90079600000001
  0
ARC
  5
1BF
  8
_________2
 62
     7
 10
181.31728799999999
 20
51.132162999999998
 30
0.0
 40
2.1657779999999991
 50
182.11700400000001
 51
267.88302499999998
  0
ARC
  5
1C0
  8
_________2
 62
     7
 10
181.15730300000001
 20
51.132855999999997
 30
0.0
 40
2.166469999999999
 50
272.115725
 51
357.86534699999999
  0
ENDBLK
  5
1C1
  8
_________2
  0
ENDSEC
  0
SECTION
  2
ENTITIES
  0
TEXT
  5
1C2
  8
____
 62
     7
 10
-4.6781275000000004
 20
49.747500000000002
 30
0.0
 40
3.0923400000000001
  1
190
 41
0.5
 72
     1
 11
-3.0031099999999991
 21
49.747500000000002
 31
0.0
  0
TEXT
  5
1C3
  8
____
 62
     7
 10
-33.220100000000009
 20
67.810922500000004
 30
0.0
 40
3.0923400000000001
  1
max.50
 50
90.0
 41
0.5
 72
     1
 11
-33.220100000000009
 21
71.547499999999985
 31
0.0
  0
TEXT
  5
1C4
  8
____
 62
     7
 10
-36.913899999999998
 20
54.639600000000002
 30
0.0
 40
3.0923400000000001
  1
G1 1/4
 41
0.5
  0
TEXT
  5
1C5
  8
____
 62
     7
 10
-23.891359999999999
 20
80.657799999999995
 30
0.0
 40
3.0923400000000001
  1
%%c63
 41
0.5
 72
     1
 11
-21.829799999999999
 21
80.657799999999995
 31
0.0
  0
TEXT
  5
1C6
  8
____
 62
     7
 10
-3.3250500000000001
 20
64.604249999999993
 30
0.0
 40
3.0923400000000001
  1
%%c5
 50
90.0
 41
0.5
 72
     2
 11
-3.3250500000000001
 21
67.181200000000004
 31
0.0
  0
TEXT
  5
1C7
  8
____
 62
     7
 10
68.253979999999984
 20
240.553
 30
0.0
 40
3.0923400000000001
  1
%%c35
 41
0.5
 72
     2
 11
72.377099999999984
 21
240.553
 31
0.0
  0
TEXT
  5
1C8
  8
____
 62
     7
 10
-51.396654999999988
 20
191.642
 30
0.0
 40
3.0923400000000001
  1
76.5
 41
0.5
 72
     1
 11
-49.077399999999997
 21
191.642
 31
0.0
  0
TEXT
  5
1C9
  8
____
 62
     7
 10
54.045841999999993
 20
232.72900000000001
 30
0.0
 40
3.0923400000000001
  1
水栓金具取付穴
 41
0.5
 72
     1
 11
60.333599999999997
 21
232.72900000000001
 31
0.0
  0
TEXT
  5
1CA
  8
____
 62
     7
 10
68.648129999999995
 20
258.22399999999999
 30
0.0
 40
3.0923400000000001
  1
100
 41
0.5
 72
     1
 11
70.194299999999984
 21
258.22399999999999
 31
0.0
  0
TEXT
  5
1CB
  8
____
 62
     7
 10
48.281930000000003
 20
258.22399999999999
 30
0.0
 40
3.0923400000000001
  1
100
 41
0.5
 72
     1
 11
49.828099999999999
 21
258.22399999999999
 31
0.0
  0
TEXT
  5
1CC
  8
____
 62
     7
 10
29.9894
 20
136.0512875
 30
0.0
 40
3.0923400000000001
  1
340
 50
90.0
 41
0.5
 72
     1
 11
29.9894
 21
137.98400000000001
 31
0.0
  0
TEXT
  5
1CD
  8
____
 62
     7
 10
-52.762500000000003
 20
161.86715000000001
 30
0.0
 40
3.0923400000000001
  1
max.45
 50
90.0
 41
0.5
 72
     2
 11
-52.762500000000003
 21
169.59800000000001
 31
0.0
  0
TEXT
  5
1CE
  8
____
 62
     7
 10
-61.917700000000004
 20
158.9126775
 30
0.0
 40
3.0923400000000001
  1
101
 50
90.0
 41
0.5
 72
     1
 11
-61.917700000000004
 21
160.33000000000001
 31
0.0
  0
TEXT
  5
1CF
  8
____
 62
     7
 10
-61.917700000000004
 20
176.29537250000001
 30
0.0
 40
3.0923400000000001
  1
70
 50
90.0
 41
0.5
 72
     1
 11
-61.917700000000004
 21
177.45500000000001
 31
0.0
  0
TEXT
  5
1D0
  8
____
 62
     7
 10
89.531700000000001
 20
176.91852499999999
 30
0.0
 40
3.0923400000000001
  1
78
 50
90.0
 41
0.5
 72
     1
 11
89.531700000000001
 21
178.20699999999999
 31
0.0
  0
TEXT
  5
1D1
  8
____
 62
     7
 10
29.9894
 20
176.319525
 30
0.0
 40
3.0923400000000001
  1
72
 50
90.0
 41
0.5
 72
     1
 11
29.9894
 21
177.608
 31
0.0
  0
TEXT
  5
1D2
  8
____
 62
     7
 10
41.616
 20
173.010525
 30
0.0
 40
3.0923400000000001
  1
39
 50
90.0
 41
0.5
 72
     1
 11
41.616
 21
174.29900000000001
 31
0.0
  0
TEXT
  5
1D3
  8
____
 62
     7
 10
35.827800000000003
 20
173.47622000000001
 30
0.0
 40
3.0923400000000001
  1
41
 50
90.0
 41
0.5
 72
     1
 11
35.827800000000003
 21
174.50700000000001
 31
0.0
  0
TEXT
  5
1D4
  8
____
 62
     7
 10
-36.692599999999999
 20
166.11500000000001
 30
0.0
 40
3.0923400000000001
  1
%%c26
 41
0.5
  0
TEXT
  5
1D5
  8
____
 62
     7
 10
-55.32309999999999
 20
136.691
 30
0.0
 40
3.0923400000000001
  1
NPT 1/2
 41
0.5
  0
TEXT
  5
1D6
  8
____
 62
     7
 10
-33.884799999999998
 20
177.017
 30
0.0
 40
3.0923400000000001
  1
%%c62
 41
0.5
  0
TEXT
  5
1D7
  8
____
 62
     7
 10
53.527500000000003
 20
171.66900000000001
 30
0.0
 40
3.0923400000000001
  1
10%%d
 41
0.5
  0
TEXT
  5
1D8
  8
____
 62
     7
 10
69.583100000000002
 20
125.06999999999999
 30
0.0
 40
3.0923400000000001
  1
%%c5
 41
0.5
  0
TEXT
  5
1D9
  8
____
 62
     7
 10
61.958334999999991
 20
155.30000000000001
 30
0.0
 40
3.0923400000000001
  1
137
 41
0.5
 72
     1
 11
63.762199999999993
 21
155.30000000000001
 31
0.0
  0
TEXT
  5
1DA
  8
____
 62
     7
 10
-12.88297
 20
260.53100000000001
 30
0.0
 40
3.0923400000000001
  1
100
 41
0.5
 72
     1
 11
-11.3368
 21
260.53100000000001
 31
0.0
  0
TEXT
  5
1DB
  8
____
 62
     7
 10
15.8324
 20
244.97399999999999
 30
0.0
 40
3.0923400000000001
  1
閉
 41
0.5
  0
TEXT
  5
1DC
  8
____
 62
     7
 10
-59.325314000000013
 20
244.97399999999999
 30
0.0
 40
3.0923400000000001
  1
閉
 41
0.5
 72
     2
 11
-57.985300000000002
 21
244.97399999999999
 31
0.0
  0
TEXT
  5
1DD
  8
____
 62
     7
 10
-1.928026
 20
228.077
 30
0.0
 40
3.0923400000000001
  1
開
 41
0.5
 72
     1
 11
-1.2064799999999991
 21
228.077
 31
0.0
  0
TEXT
  5
1DE
  8
____
 62
     7
 10
-42.030946
 20
228.077
 30
0.0
 40
3.0923400000000001
  1
開
 41
0.5
 72
     1
 11
-41.309399999999989
 21
228.077
 31
0.0
  0
TEXT
  5
1DF
  8
____
 62
     7
 10
-33.248670000000011
 20
260.53100000000001
 30
0.0
 40
3.0923400000000001
  1
100
 41
0.5
 72
     1
 11
-31.702500000000001
 21
260.53100000000001
 31
0.0
  0
TEXT
  5
1E0
  8
____
 62
     7
 10
-77.847200000000001
 20
27.7056
 30
0.0
 40
3.6545800000000002
  1
※国産洗面器とのセットの場合は、国産の排水ヘッド部を別途準備してください。
 41
0.5
  0
TEXT
  5
1E1
  8
____
 62
     7
 10
-77.847200000000001
 20
23.1374
 30
0.0
 40
3.6545800000000002
  1
※止水栓への接続は、別途フレキ管（2本）と接続アダプター（CET19・2個）が必要になります。
 41
0.5
  0
TEXT
  5
1E2
  8
____
 62
     7
 10
-47.702596
 20
145.54599999999999
 30
0.0
 40
3.0923400000000001
  1
湯側
 41
0.5
 72
     2
 11
-44.404099999999993
 21
145.54599999999999
 31
0.0
  0
TEXT
  5
1E3
  8
____
 62
     7
 10
-2.9899179999999999
 20
145.54599999999999
 30
0.0
 40
3.0923400000000001
  1
水側
 41
0.5
 72
     1
 11
-1.34067
 21
145.54599999999999
 31
0.0
  0
LINE
  5
1E4
  8
_________1
 62
     7
 10
79.962500000000006
 20
185.208
 30
0.0
 11
79.962500000000006
 21
184.40700000000001
 31
0.0
  0
ARC
  5
1E5
  8
_________1
 62
     7
 10
81.795856000000015
 20
182.47869399999999
 30
0.0
 40
2.6610580000000001
 50
133.546155
 51
139.06761700000001
  0
LINE
  5
1E6
  8
_________1
 62
     7
 10
77.362899999999996
 20
185.208
 30
0.0
 11
77.362899999999996
 21
184.40700000000001
 31
0.0
  0
LINE
  5
1E7
  8
_________1
 62
     7
 10
74.763199999999998
 20
185.208
 30
0.0
 11
74.763199999999998
 21
184.40700000000001
 31
0.0
  0
ARC
  5
1E8
  8
_________1
 62
     7
 10
72.721993999999995
 20
182.28034600000001
 30
0.0
 40
2.9480740000000001
 50
41.166865999999999
 51
46.181266000000001
  0
ARC
  5
1E9
  8
_________1
 62
     7
 10
78.884573000000003
 20
184.239384
 30
0.0
 40
1.448963
 50
41.929794999999991
 51
58.176690999999991
  0
ARC
  5
1EA
  8
_________1
 62
     7
 10
78.347493999999983
 20
183.44450599999999
 30
0.0
 40
2.4078430000000002
 50
57.291359999999997
 51
70.027839999999998
  0
ARC
  5
1EB
  8
_________1
 62
     7
 10
77.748297999999991
 20
181.94014000000001
 30
0.0
 40
4.0267010000000001
 50
69.325999999999993
 51
79.457818000000003
  0
ARC
  5
1EC
  8
_________1
 62
     7
 10
77.364058999999997
 20
180.17296099999999
 30
0.0
 40
5.8346049999999998
 50
78.923292000000004
 51
90.011718000000016
  0
ARC
  5
1ED
  8
_________1
 62
     7
 10
75.841155000000001
 20
184.239384
 30
0.0
 40
1.448963
 50
121.823289
 51
138.07018500000001
  0
ARC
  5
1EE
  8
_________1
 62
     7
 10
76.378235000000004
 20
183.44450599999999
 30
0.0
 40
2.4078430000000002
 50
109.97214099999999
 51
122.70862099999999
  0
ARC
  5
1EF
  8
_________1
 62
     7
 10
76.97743100000001
 20
181.94014000000001
 30
0.0
 40
4.0267010000000001
 50
100.542163
 51
110.67398
  0
ARC
  5
1F0
  8
_________1
 62
     7
 10
77.361669999999989
 20
180.17296099999999
 30
0.0
 40
5.8346049999999998
 50
89.988262000000006
 51
101.076688
  0
ARC
  5
1F1
  8
_________1
 62
     7
 10
78.97371600000001
 20
186.96264600000001
 30
0.0
 40
2.740076999999999
 50
280.90935400000001
 51
291.16958099999999
  0
ARC
  5
1F2
  8
_________1
 62
     7
 10
78.983306999999996
 20
182.69336799999999
 30
0.0
 40
2.698458
 50
68.706521999999993
 51
83.848994000000005
  0
ARC
  5
1F3
  8
_________1
 62
     7
 10
78.715568000000005
 20
180.48332099999999
 30
0.0
 40
4.9245570000000001
 50
83.507007000000002
 51
90.611013
  0
ARC
  5
1F4
  8
_________1
 62
     7
 10
78.342795999999993
 20
182.69336799999999
 30
0.0
 40
2.698458
 50
96.150986000000003
 51
111.293458
  0
ARC
  5
1F5
  8
_________1
 62
     7
 10
78.610534999999999
 20
180.48332099999999
 30
0.0
 40
4.9245570000000001
 50
89.388966999999994
 51
96.492973000000006
  0
ARC
  5
1F6
  8
_________1
 62
     7
 10
76.382932999999994
 20
182.69336799999999
 30
0.0
 40
2.698458
 50
68.706521999999993
 51
83.848994000000005
  0
ARC
  5
1F7
  8
_________1
 62
     7
 10
76.115193000000005
 20
180.48332099999999
 30
0.0
 40
4.9245570000000001
 50
83.507007000000002
 51
90.611013
  0
ARC
  5
1F8
  8
_________1
 62
     7
 10
75.756548999999993
 20
186.97259500000001
 30
0.0
 40
2.7507450000000002
 50
248.830533
 51
259.05186099999997
  0
ARC
  5
1F9
  8
_________1
 62
     7
 10
75.739689999999996
 20
182.70849000000001
 30
0.0
 40
2.6831269999999998
 50
96.126905000000008
 51
111.34266599999999
  0
ARC
  5
1FA
  8
_________1
 62
     7
 10
76.01010500000001
 20
180.48498599999999
 30
0.0
 40
4.9228940000000003
 50
89.388109
 51
96.494142000000025
  0
LINE
  5
1FB
  8
_________1
 62
     7
 10
-18.408999999999999
 20
185.208
 30
0.0
 11
-18.408999999999999
 21
184.40700000000001
 31
0.0
  0
LINE
  5
1FC
  8
_________1
 62
     7
 10
-20.209199999999999
 20
185.208
 30
0.0
 11
-20.209199999999999
 21
184.80699999999999
 31
0.0
  0
ARC
  5
1FD
  8
_________1
 62
     7
 10
-16.620462
 20
181.20583199999999
 30
0.0
 40
3.18879
 50
169.53953999999999
 51
179.96720300000001
  0
ARC
  5
1FE
  8
_________1
 62
     7
 10
-14.779407000000001
 20
180.91378599999999
 30
0.0
 40
5.0524899999999988
 50
144.34813199999999
 51
170.07325900000001
  0
ARC
  5
1FF
  8
_________1
 62
     7
 10
-15.591760000000001
 20
181.48351500000001
 30
0.0
 40
4.0603360000000004
 50
133.93485000000001
 51
144.1993919999999
  0
LINE
  5
200
  8
_________1
 62
     7
 10
-22.409300000000002
 20
185.208
 30
0.0
 11
-22.409300000000002
 21
184.80699999999999
 31
0.0
  0
LINE
  5
201
  8
_________1
 62
     7
 10
-24.209
 20
185.208
 30
0.0
 11
-24.209
 21
184.40700000000001
 31
0.0
  0
ARC
  5
202
  8
_________1
 62
     7
 10
-21.057728999999998
 20
183.36679599999999
 30
0.0
 40
2.026953999999999
 50
65.253268999999989
 51
83.054234999999991
  0
ARC
  5
203
  8
_________1
 62
     7
 10
-21.269103999999999
 20
181.79385500000001
 30
0.0
 40
3.613966
 50
82.743352000000016
 51
90.636567000000014
  0
ARC
  5
204
  8
_________1
 62
     7
 10
-26.000391
 20
181.20582400000001
 30
0.0
 40
3.1911320000000001
 50
0.032884
 51
10.449666000000001
  0
ARC
  5
205
  8
_________1
 62
     7
 10
-27.836433
 20
180.91505100000001
 30
0.0
 40
5.0496790000000003
 50
9.9157520000000012
 51
35.642639000000003
  0
ARC
  5
206
  8
_________1
 62
     7
 10
-27.078614000000002
 20
181.44054299999999
 30
0.0
 40
4.1276320000000002
 50
35.844633000000002
 51
45.955415999999992
  0
ARC
  5
207
  8
_________1
 62
     7
 10
-19.434463000000001
 20
184.18111500000001
 30
0.0
 40
1.450963999999999
 50
45.028354999999991
 51
54.702023999999987
  0
ARC
  5
208
  8
_________1
 62
     7
 10
-19.812002
 20
183.665054
 30
0.0
 40
2.0903279999999991
 50
54.429640999999997
 51
64.067544999999996
  0
ARC
  5
209
  8
_________1
 62
     7
 10
-20.275911000000001
 20
182.753638
 30
0.0
 40
3.1129020000000001
 50
63.724725999999997
 51
71.147848999999994
  0
ARC
  5
20A
  8
_________1
 62
     7
 10
-20.835462
 20
181.16403399999999
 30
0.0
 40
4.7980660000000004
 50
70.958105000000003
 51
80.358661999999995
  0
ARC
  5
20B
  8
_________1
 62
     7
 10
-21.304821
 20
178.79623100000001
 30
0.0
 40
7.2113360000000002
 50
79.83291899999999
 51
90.035231000000024
  0
ARC
  5
20C
  8
_________1
 62
     7
 10
-23.121582
 20
184.11839699999999
 30
0.0
 40
1.539118
 50
120.238308
 51
134.95304100000001
  0
ARC
  5
20D
  8
_________1
 62
     7
 10
-22.610218
 20
183.31979200000001
 30
0.0
 40
2.4869020000000002
 50
112.765826
 51
121.15096200000001
  0
ARC
  5
20E
  8
_________1
 62
     7
 10
-22.05133
 20
182.02990600000001
 30
0.0
 40
3.892601
 50
102.81019000000001
 51
113.00434799999999
  0
ARC
  5
20F
  8
_________1
 62
     7
 10
-21.404778
 20
179.49376000000001
 30
0.0
 40
6.5093350000000001
 50
92.855384999999984
 51
103.409971
  0
ARC
  5
210
  8
_________1
 62
     7
 10
-21.301266999999999
 20
178.715091
 30
0.0
 40
7.2924789999999993
 50
90.062763000000004
 51
93.362892999999985
  0
ARC
  5
211
  8
_________1
 62
     7
 10
-21.559664999999999
 20
183.36253099999999
 30
0.0
 40
2.0312959999999989
 50
96.956183999999993
 51
114.724998
  0
ARC
  5
212
  8
_________1
 62
     7
 10
-21.349319000000001
 20
181.79590999999999
 30
0.0
 40
3.6119110000000001
 50
89.364462000000017
 51
97.258588000000017
  0
ARC
  5
213
  8
_________1
 62
     7
 10
-19.145092000000002
 20
185.72492600000001
 30
0.0
 40
1.509145
 50
274.23079899999999
 51
299.19378999999998
  0
ARC
  5
214
  8
_________1
 62
     7
 10
-19.13167
 20
183.92147499999999
 30
0.0
 40
1.4752679999999989
 50
60.668121999999997
 51
81.391595999999993
  0
ARC
  5
215
  8
_________1
 62
     7
 10
-19.277594000000001
 20
182.96413799999999
 30
0.0
 40
2.4436619999999989
 50
81.368484999999993
 51
90.736869999999968
  0
ARC
  5
216
  8
_________1
 62
     7
 10
-19.487894000000001
 20
183.92543499999999
 30
0.0
 40
1.4711549999999991
 50
98.580538000000004
 51
119.361593
  0
ARC
  5
217
  8
_________1
 62
     7
 10
-19.340516999999998
 20
182.96248600000001
 30
0.0
 40
2.4453149999999999
 50
89.261981000000006
 51
98.628690000000006
  0
ARC
  5
218
  8
_________1
 62
     7
 10
-23.129608999999999
 20
183.928788
 30
0.0
 40
1.4677379999999991
 50
60.608557000000012
 51
81.426207000000005
  0
ARC
  5
219
  8
_________1
 62
     7
 10
-23.277625
 20
182.96306999999999
 30
0.0
 40
2.4447320000000001
 50
81.370200999999994
 51
90.738770000000017
  0
ARC
  5
21A
  8
_________1
 62
     7
 10
-23.474634999999999
 20
185.717783
 30
0.0
 40
1.502065999999999
 50
240.73099400000001
 51
265.81547699999999
  0
ARC
  5
21B
  8
_________1
 62
     7
 10
-23.488678
 20
183.92877799999999
 30
0.0
 40
1.4677500000000001
 50
98.574151000000001
 51
119.391424
  0
ARC
  5
21C
  8
_________1
 62
     7
 10
-23.340654000000001
 20
182.96278100000001
 30
0.0
 40
2.4450199999999991
 50
89.261646999999996
 51
98.629236000000006
  0
LINE
  5
21D
  8
_________1
 62
     7
 10
-19.8093
 20
243.53100000000001
 30
0.0
 11
-18.409300000000002
 21
246.131
 31
0.0
  0
LINE
  5
21E
  8
_________1
 62
     7
 10
-19.8093
 20
248.73099999999999
 30
0.0
 11
-18.409300000000002
 21
246.131
 31
0.0
  0
LINE
  5
21F
  8
_________1
 62
     7
 10
-24.209399999999999
 20
246.131
 30
0.0
 11
-22.8093
 21
248.73099999999999
 31
0.0
  0
LINE
  5
220
  8
_________1
 62
     7
 10
-24.209399999999999
 20
246.131
 30
0.0
 11
-22.8093
 21
243.53100000000001
 31
0.0
  0
LINE
  5
221
  8
_________1
 62
     7
 10
-19.8093
 20
243.53100000000001
 30
0.0
 11
-22.8093
 21
243.53100000000001
 31
0.0
  0
LINE
  5
222
  8
_________1
 62
     7
 10
-19.8093
 20
248.73099999999999
 30
0.0
 11
-22.8093
 21
248.73099999999999
 31
0.0
  0
ARC
  5
223
  8
_________1
 62
     7
 10
-1.309146999999999
 20
246.130549
 30
0.0
 40
13.810098999999999
 50
270.00002000000001
 51
359.99999000000003
  0
LINE
  5
224
  8
_________1
 62
     7
 10
0.489551
 20
231.97999999999999
 30
0.0
 11
-1.3091399999999991
 21
232.31999999999999
 31
0.0
  0
LINE
  5
225
  8
_________1
 62
     7
 10
-1.3091399999999991
 20
232.31999999999999
 30
0.0
 11
0.4187540000000001
 21
232.92500000000001
 31
0.0
  0
LINE
  5
226
  8
_________1
 62
     7
 10
0.4187540000000001
 20
232.92500000000001
 30
0.0
 11
0.489551
 21
231.97999999999999
 31
0.0
  0
LINE
  5
227
  8
_________1
 62
     7
 10
11.9366
 20
244.38900000000001
 30
0.0
 11
12.500999999999999
 21
246.131
 31
0.0
  0
LINE
  5
228
  8
_________1
 62
     7
 10
12.500999999999999
 20
246.131
 30
0.0
 11
12.8834
 21
244.34
 31
0.0
  0
LINE
  5
229
  8
_________1
 62
     7
 10
12.8834
 20
244.34
 30
0.0
 11
11.9366
 21
244.38900000000001
 31
0.0
  0
ARC
  5
22A
  8
_________1
 62
     7
 10
-41.309542
 20
246.13054399999999
 30
0.0
 40
13.810095
 50
179.99996999999999
 51
270.00002000000001
  0
ARC
  5
22B
  8
_________1
  6
AIGENLINE001
 62
     7
 10
-31.841716000000002
 20
148.760715
 30
0.0
 40
9.032629
 50
338.33233999999999
 51
359.97792700000002
  0
ARC
  5
22C
  8
_________1
  6
AIGENLINE001
 62
     7
 10
-30.388024000000001
 20
148.26542599999999
 30
0.0
 40
7.4991709999999996
 50
320.77598599999999
 51
337.74828100000002
  0
ARC
  5
22D
  8
_________1
  6
AIGENLINE001
 62
     7
 10
-29.16685
 20
147.34483399999999
 30
0.0
 40
5.9713039999999991
 50
303.25057600000002
 51
320.20937700000002
  0
ARC
  5
22E
  8
_________1
  6
AIGENLINE001
 62
     7
 10
-28.474257000000001
 20
146.381305
 30
0.0
 40
4.7860440000000004
 50
279.04064899999997
 51
302.64124700000002
  0
ARC
  5
22F
  8
_________1
  6
AIGENLINE001
 62
     7
 10
-28.358895
 20
145.97939600000001
 30
0.0
 40
4.3712960000000001
 50
269.99187000000001
 51
278.37511699999999
  0
ARC
  5
230
  8
_________1
  6
AIGENLINE001
 62
     7
 10
-28.351420999999998
 20
146.089348
 30
0.0
 40
4.4812549999999991
 50
238.31939399999999
 51
269.89650699999999
  0
ARC
  5
231
  8
_________1
  6
AIGENLINE001
 62
     7
 10
-27.861747000000001
 20
146.98896500000001
 30
0.0
 40
5.5042710000000001
 50
220.58662699999999
 51
238.89980700000001
  0
ARC
  5
232
  8
_________1
  6
AIGENLINE001
 62
     7
 10
-26.811698
 20
147.97249299999999
 30
0.0
 40
6.9418749999999987
 50
202.87786299999999
 51
221.112844
  0
ARC
  5
233
  8
_________1
  6
AIGENLINE001
 62
     7
 10
-25.412665000000001
 20
148.645825
 30
0.0
 40
8.4929679999999994
 50
182.34667999999999
 51
203.39373399999999
  0
ARC
  5
234
  8
_________1
  6
AIGENLINE001
 62
     7
 10
-24.573513999999999
 20
148.756497
 30
0.0
 40
9.3362580000000008
 50
179.99544800000001
 51
182.81443599999989
  0
ARC
  5
235
  8
_________1
  6
AIGENLINE001
 62
     7
 10
-24.878302000000001
 20
148.754299
 30
0.0
 40
9.0314700000000006
 50
158.33156399999999
 51
179.98135099999999
  0
ARC
  5
236
  8
_________1
  6
AIGENLINE001
 62
     7
 10
-26.329516000000002
 20
149.24915300000001
 30
0.0
 40
7.5004729999999986
 50
140.780911
 51
157.751363
  0
ARC
  5
237
  8
_________1
  6
AIGENLINE001
 62
     7
 10
-27.550630000000002
 20
150.169173
 30
0.0
 40
5.9730119999999998
 50
123.257259
 51
140.211839
  0
ARC
  5
238
  8
_________1
  6
AIGENLINE001
 62
     7
 10
-28.244633
 20
151.13415499999999
 30
0.0
 40
4.7857599999999989
 50
99.042967000000004
 51
122.644975
  0
ARC
  5
239
  8
_________1
  6
AIGENLINE001
 62
     7
 10
-28.360374
 20
151.539928
 30
0.0
 40
4.3671309999999988
 50
89.988731999999999
 51
98.380068999999992
  0
ARC
  5
23A
  8
_________1
  6
AIGENLINE001
 62
     7
 10
-10.778764000000001
 20
148.760177
 30
0.0
 40
9.0303159999999991
 50
180.018685
 51
201.669837
  0
ARC
  5
23B
  8
_________1
  6
AIGENLINE001
 62
     7
 10
-12.230544
 20
148.26503
 30
0.0
 40
7.498685
 50
202.24998500000001
 51
219.223153
  0
ARC
  5
23C
  8
_________1
  6
AIGENLINE001
 62
     7
 10
-13.450965999999999
 20
147.34521699999999
 30
0.0
 40
5.9718939999999989
 50
219.79070999999999
 51
236.747512
  0
ARC
  5
23D
  8
_________1
  6
AIGENLINE001
 62
     7
 10
-14.144017
 20
146.381359
 30
0.0
 40
4.7861079999999996
 50
237.35878099999999
 51
260.95868999999999
  0
ARC
  5
23E
  8
_________1
  6
AIGENLINE001
 62
     7
 10
-14.259444999999999
 20
145.97939600000001
 30
0.0
 40
4.3712960000000001
 50
261.62490300000002
 51
270.00815
  0
ARC
  5
23F
  8
_________1
  6
AIGENLINE001
 62
     7
 10
-14.266921999999999
 20
146.08973700000001
 30
0.0
 40
4.4816440000000002
 50
270.10354000000001
 51
301.679214
  0
ARC
  5
240
  8
_________1
  6
AIGENLINE001
 62
     7
 10
-14.756807
 20
146.989485
 30
0.0
 40
5.5048820000000003
 50
301.10028999999997
 51
319.41172299999999
  0
ARC
  5
241
  8
_________1
  6
AIGENLINE001
 62
     7
 10
-15.806817000000001
 20
147.972767
 30
0.0
 40
6.9422959999999998
 50
318.88720999999998
 51
337.12117000000001
  0
ARC
  5
242
  8
_________1
  6
AIGENLINE001
 62
     7
 10
-17.205584999999999
 20
148.645858
 30
0.0
 40
8.4930520000000005
 50
336.60629
 51
357.65314100000001
  0
ARC
  5
243
  8
_________1
  6
AIGENLINE001
 62
     7
 10
-18.044785000000001
 20
148.75649999999999
 30
0.0
 40
9.3363899999999997
 50
357.18560400000013
 51
0.004512
  0
ARC
  5
244
  8
_________1
  6
AIGENLINE001
 62
     7
 10
-17.739809000000001
 20
148.75429600000001
 30
0.0
 40
9.0314139999999998
 50
0.018648
 51
21.668576000000002
  0
ARC
  5
245
  8
_________1
  6
AIGENLINE001
 62
     7
 10
-16.288278999999999
 20
149.249313
 30
0.0
 40
7.5000619999999989
 50
22.248586
 51
39.220058999999999
  0
ARC
  5
246
  8
_________1
  6
AIGENLINE001
 62
     7
 10
-15.067171999999999
 20
150.16950800000001
 30
0.0
 40
5.9724949999999994
 50
39.788083
 51
56.744411999999997
  0
ARC
  5
247
  8
_________1
  6
AIGENLINE001
 62
     7
 10
-14.373514999999999
 20
151.13428999999999
 30
0.0
 40
4.7856009999999989
 50
57.354984999999999
 51
80.958714999999984
  0
ARC
  5
248
  8
_________1
  6
AIGENLINE001
 62
     7
 10
-14.257963
 20
151.53959599999999
 30
0.0
 40
4.367462999999999
 50
81.620229000000009
 51
90.011281000000025
  0
ARC
  5
249
  8
_________1
 62
     7
 10
-21.834364999999998
 20
181.875753
 30
0.0
 40
3.4735789999999991
 50
4.7689279999999989
 51
10.969327
  0
ARC
  5
24A
  8
_________1
 62
     7
 10
-22.442115999999999
 20
181.79266000000001
 30
0.0
 40
4.0861799999999997
 50
10.491593999999999
 51
16.973417000000001
  0
ARC
  5
24B
  8
_________1
 62
     7
 10
-20.172414
 20
182.480808
 30
0.0
 40
1.714461999999999
 50
17.121029
 51
23.212814999999999
  0
ARC
  5
24C
  8
_________1
 62
     7
 10
-20.263500000000001
 20
183.66093000000001
 30
0.0
 40
1.3513189999999999
 50
20.583024999999999
 51
46.650302000000003
  0
ARC
  5
24D
  8
_________1
 62
     7
 10
-19.813915999999999
 20
184.113665
 30
0.0
 40
0.7136670000000001
 50
47.946805000000012
 51
70.610002000000009
  0
ARC
  5
24E
  8
_________1
 62
     7
 10
-19.711869
 20
184.35582099999999
 30
0.0
 40
0.451645
 50
72.62289100000001
 51
89.679608999999985
  0
ARC
  5
24F
  8
_________1
 62
     7
 10
9.8298740000000002
 20
189.66795300000001
 30
0.0
 40
30.132701999999998
 50
210.34324599999999
 51
213.60433399999999
  0
ARC
  5
250
  8
_________1
 62
     7
 10
-0.9872889999999999
 20
183.24117699999999
 30
0.0
 40
17.550851000000002
 50
202.686836
 51
210.07620600000001
  0
ARC
  5
251
  8
_________1
 62
     7
 10
-3.4974120000000002
 20
182.07836699999999
 30
0.0
 40
14.786826
 50
190.19402299999999
 51
202.28114199999999
  0
ARC
  5
252
  8
_________1
 62
     7
 10
1.7780409999999991
 20
183.14816999999999
 30
0.0
 40
20.168690000000002
 50
184.67232799999999
 51
190.53281100000001
  0
ARC
  5
253
  8
_________1
 62
     7
 10
8.9347380000000012
 20
183.87042099999999
 30
0.0
 40
27.360779000000001
 50
183.574602
 51
184.95898699999989
  0
LINE
  5
254
  8
_________1
 62
     7
 10
-18.596699999999998
 20
183.15700000000001
 30
0.0
 11
-18.9984
 21
184.136
 31
0.0
  0
ARC
  5
255
  8
_________1
 62
     7
 10
-20.784147999999998
 20
181.875753
 30
0.0
 40
3.4735789999999991
 50
169.030653
 51
175.23105200000001
  0
ARC
  5
256
  8
_________1
 62
     7
 10
-20.175319999999999
 20
181.79244399999999
 30
0.0
 40
4.0872769999999994
 50
163.02809099999999
 51
169.50815499999999
  0
ARC
  5
257
  8
_________1
 62
     7
 10
-22.444354000000001
 20
182.4801159999999
 30
0.0
 40
1.716337
 50
156.78887499999999
 51
162.87406300000001
  0
ARC
  5
258
  8
_________1
 62
     7
 10
-22.357147000000001
 20
183.661674
 30
0.0
 40
1.349059999999999
 50
132.956906
 51
159.414661
  0
ARC
  5
259
  8
_________1
 62
     7
 10
-22.811743
 20
184.12479400000001
 30
0.0
 40
0.7005430000000001
 50
108.52772400000001
 51
131.557278
  0
ARC
  5
25A
  8
_________1
 62
     7
 10
-22.906952
 20
184.35808499999999
 30
0.0
 40
0.449379
 50
90.282639000000003
 51
106.46911299999999
  0
LINE
  5
25B
  8
_________1
 62
     7
 10
16.6906
 20
59.494399999999999
 30
0.0
 11
16.6906
 21
48.469999999999999
 31
0.0
  0
LINE
  5
25C
  8
_________1
 62
     7
 10
14.750299999999999
 20
62.517200000000003
 30
0.0
 11
14.750299999999999
 21
62.5227
 31
0.0
  0
LINE
  5
25D
  8
_________1
 62
     7
 10
14.762
 20
61.808199999999999
 30
0.0
 11
14.762
 21
62.416600000000003
 31
0.0
  0
LINE
  5
25E
  8
_________1
 62
     7
 10
13.837999999999999
 20
61.808199999999999
 30
0.0
 11
13.837999999999999
 21
62.416600000000003
 31
0.0
  0
LINE
  5
25F
  8
_________1
 62
     7
 10
14.994899999999999
 20
62.8245
 30
0.0
 11
14.994899999999999
 21
62.416600000000003
 31
0.0
  0
LINE
  5
260
  8
_________1
 62
     7
 10
13.8401
 20
63.049100000000003
 30
0.0
 11
14.769600000000001
 21
63.049100000000003
 31
0.0
  0
ARC
  5
261
  8
_________1
 62
     7
 10
14.76178
 20
62.81597399999999
 30
0.0
 40
0.233247
 50
2.087394999999999
 51
88.088079000000008
  0
LINE
  5
262
  8
_________1
 62
     7
 10
13.614800000000001
 20
62.8245
 30
0.0
 11
13.614800000000001
 21
62.416600000000003
 31
0.0
  0
ARC
  5
263
  8
_________1
 62
     7
 10
13.848483999999999
 20
62.815339000000002
 30
0.0
 40
0.233903
 50
92.06154699999999
 51
177.76293899999999
  0
LINE
  5
264
  8
_________1
 62
     7
 10
13.614800000000001
 20
62.416600000000003
 30
0.0
 11
14.994899999999999
 21
62.416600000000003
 31
0.0
  0
LINE
  5
265
  8
_________1
 62
     7
 10
14.731
 20
61.708899999999993
 30
0.0
 11
14.731
 21
61.710299999999997
 31
0.0
  0
LINE
  5
266
  8
_________1
 62
     7
 10
13.5962
 20
61.808199999999999
 30
0.0
 11
13.399100000000001
 21
61.579399999999993
 31
0.0
  0
LINE
  5
267
  8
_________1
 62
     7
 10
14.9763
 20
61.808199999999999
 30
0.0
 11
15.173299999999999
 21
61.579399999999993
 31
0.0
  0
LINE
  5
268
  8
_________1
 62
     7
 10
15.173299999999999
 20
58.690300000000001
 30
0.0
 11
14.977
 21
58.460900000000002
 31
0.0
  0
LINE
  5
269
  8
_________1
 62
     7
 10
13.401199999999999
 20
58.690300000000001
 30
0.0
 11
13.5982
 21
58.460900000000002
 31
0.0
  0
LINE
  5
26A
  8
_________1
 62
     7
 10
13.5982
 20
58.460900000000002
 30
0.0
 11
14.977
 21
58.460900000000002
 31
0.0
  0
ARC
  5
26B
  8
_________1
 62
     7
 10
14.261010000000001
 20
59.333822999999988
 30
0.0
 40
0.716429
 50
2.0986750000000001
 51
87.901314999999997
  0
ARC
  5
26C
  8
_________1
 62
     7
 10
14.31352
 20
59.334501000000003
 30
0.0
 40
0.715754
 50
92.103666999999987
 51
177.95357100000001
  0
ARC
  5
26D
  8
_________1
 62
     7
 10
14.313858
 20
59.386671999999997
 30
0.0
 40
0.7161310000000001
 50
182.12970799999999
 51
267.87032199999999
  0
ARC
  5
26E
  8
_________1
 62
     7
 10
14.261058
 20
59.38696199999999
 30
0.0
 40
0.7164050000000001
 50
272.09485799999999
 51
357.84788500000002
  0
LINE
  5
26F
  8
_________1
 62
     7
 10
15.173299999999999
 20
58.68549999999999
 30
0.0
 11
15.173299999999999
 21
61.582799999999999
 31
0.0
  0
LINE
  5
270
  8
_________1
 62
     7
 10
13.401199999999999
 20
58.690300000000001
 30
0.0
 11
13.401199999999999
 21
61.581499999999998
 31
0.0
  0
LINE
  5
271
  8
_________1
 62
     7
 10
13.5962
 20
61.808199999999999
 30
0.0
 11
14.9763
 21
61.808199999999999
 31
0.0
  0
LINE
  5
272
  8
_________1
 62
     7
 10
-10.5891
 20
60.137999999999998
 30
0.0
 11
13.401199999999999
 21
60.137999999999998
 31
0.0
  0
LINE
  5
273
  8
_________1
 62
     7
 10
-10.5891
 20
61.137700000000002
 30
0.0
 11
13.401199999999999
 21
61.137700000000002
 31
0.0
  0
LINE
  5
274
  8
_________1
 62
     7
 10
15.173299999999999
 20
60.145499999999991
 30
0.0
 11
16.492799999999999
 21
60.145499999999991
 31
0.0
  0
LINE
  5
275
  8
_________1
 62
     7
 10
15.173299999999999
 20
61.130200000000002
 30
0.0
 11
16.492799999999999
 21
61.130200000000002
 31
0.0
  0
LINE
  5
276
  8
_________1
 62
     7
 10
16.6906
 20
60.341900000000003
 30
0.0
 11
16.492799999999999
 21
60.145499999999991
 31
0.0
  0
LINE
  5
277
  8
_________1
 62
     7
 10
16.492799999999999
 20
61.130200000000002
 30
0.0
 11
16.6906
 21
60.933100000000003
 31
0.0
  0
LINE
  5
278
  8
_________1
 62
     7
 10
16.6906
 20
60.341900000000003
 30
0.0
 11
16.6906
 21
60.933100000000003
 31
0.0
  0
LINE
  5
279
  8
_________1
 62
     7
 10
-27.328600000000002
 20
74.8155
 30
0.0
 11
-15.2903
 21
74.8155
 31
0.0
  0
LINE
  5
27A
  8
_________1
 62
     7
 10
-15.0092
 20
74.533699999999996
 30
0.0
 11
-15.0092
 21
74.418700000000001
 31
0.0
  0
ARC
  5
27B
  8
_________1
 62
     7
 10
-15.301645000000001
 20
74.523095999999995
 30
0.0
 40
0.292669
 50
2.083000999999999
 51
87.776731000000012
  0
ARC
  5
27C
  8
_________1
 62
     7
 10
-27.317855000000002
 20
74.523739000000006
 30
0.0
 40
0.292002
 50
92.101860000000016
 51
178.03836899999999
  0
LINE
  5
27D
  8
_________1
 62
     7
 10
-27.6097
 20
74.418700000000001
 30
0.0
 11
-27.6097
 21
74.533699999999996
 31
0.0
  0
LINE
  5
27E
  8
_________1
 62
     7
 10
-17.454499999999999
 20
68.046599999999998
 30
0.0
 11
-17.370799999999999
 21
68.046599999999998
 31
0.0
  0
LINE
  5
27F
  8
_________1
 62
     7
 10
-22.750299999999999
 20
68.411799999999999
 30
0.0
 11
-22.750299999999999
 21
70.059899999999999
 31
0.0
  0
ARC
  5
280
  8
_________1
 62
     7
 10
-22.371355999999999
 20
68.425595999999999
 30
0.0
 40
0.379245
 50
182.09075300000001
 51
268.01728100000003
  0
LINE
  5
281
  8
_________1
 62
     7
 10
-22.384499999999999
 20
68.046599999999998
 30
0.0
 11
-20.174099999999999
 21
68.046599999999998
 31
0.0
  0
ARC
  5
282
  8
_________1
 62
     7
 10
-20.188265000000001
 20
68.425934999999996
 30
0.0
 40
0.3796219999999999
 50
272.139858
 51
357.86015200000003
  0
ARC
  5
283
  8
_________1
 62
     7
 10
-22.370674000000001
 20
70.046102000000005
 30
0.0
 40
0.379925
 50
92.082016000000024
 51
177.91795400000001
  0
LINE
  5
284
  8
_________1
 62
     7
 10
-22.384499999999999
 20
70.425799999999995
 30
0.0
 11
-20.174099999999999
 21
70.425799999999995
 31
0.0
  0
ARC
  5
285
  8
_________1
 62
     7
 10
-20.188313000000001
 20
70.046396999999999
 30
0.0
 40
0.379646
 50
2.0390609999999998
 51
87.852925999999997
  0
LINE
  5
286
  8
_________1
 62
     7
 10
-17.82
 20
68.411799999999999
 30
0.0
 11
-17.82
 21
70.059899999999999
 31
0.0
  0
ARC
  5
287
  8
_________1
 62
     7
 10
-17.44106
 20
68.425572000000003
 30
0.0
 40
0.379232
 50
182.08713499999999
 51
267.96692200000001
  0
LINE
  5
288
  8
_________1
 62
     7
 10
-19.808900000000001
 20
68.411799999999999
 30
0.0
 11
-19.808900000000001
 21
70.059899999999999
 31
0.0
  0
LINE
  5
289
  8
_________1
 62
     7
 10
-24.787800000000001
 20
68.411799999999999
 30
0.0
 11
-24.787800000000001
 21
70.059899999999999
 31
0.0
  0
LINE
  5
28A
  8
_________1
 62
     7
 10
-25.248100000000001
 20
68.046599999999998
 30
0.0
 11
-25.153700000000001
 21
68.046599999999998
 31
0.0
  0
ARC
  5
28B
  8
_________1
 62
     7
 10
-25.167814
 20
68.426629000000005
 30
0.0
 40
0.380314
 50
272.13250699999998
 51
357.7595
  0
LINE
  5
28C
  8
_________1
 62
     7
 10
-17.454499999999999
 20
70.425799999999995
 30
0.0
 11
-17.370799999999999
 21
70.425799999999995
 31
0.0
  0
ARC
  5
28D
  8
_________1
 62
     7
 10
-17.440311000000001
 20
70.046059
 30
0.0
 40
0.379983
 50
92.14221400000001
 51
177.911732
  0
LINE
  5
28E
  8
_________1
 62
     7
 10
-25.248100000000001
 20
70.425799999999995
 30
0.0
 11
-25.153700000000001
 21
70.425799999999995
 31
0.0
  0
ARC
  5
28F
  8
_________1
 62
     7
 10
-25.167857000000001
 20
70.04571
 30
0.0
 40
0.380332
 50
2.1389409999999991
 51
87.861048999999994
  0
LINE
  5
290
  8
_________1
 62
     7
 10
-25.248100000000001
 20
67.494699999999995
 30
0.0
 11
-25.248100000000001
 21
68.046599999999998
 31
0.0
  0
LINE
  5
291
  8
_________1
 62
     7
 10
-25.248100000000001
 20
72.295100000000005
 30
0.0
 11
-25.418199999999999
 21
72.471500000000006
 31
0.0
  0
LINE
  5
292
  8
_________1
 62
     7
 10
-17.2437
 20
72.471500000000006
 30
0.0
 11
-17.370799999999999
 21
72.295100000000005
 31
0.0
  0
LINE
  5
293
  8
_________1
 62
     7
 10
-17.370799999999999
 20
68.046599999999998
 30
0.0
 11
-17.370799999999999
 21
67.494699999999995
 31
0.0
  0
LINE
  5
294
  8
_________1
 62
     7
 10
-17.370799999999999
 20
72.295100000000005
 30
0.0
 11
-17.370799999999999
 21
70.425799999999995
 31
0.0
  0
LINE
  5
295
  8
_________1
 62
     7
 10
-27.6097
 20
74.418700000000001
 30
0.0
 11
-15.0092
 21
74.418700000000001
 31
0.0
  0
LINE
  5
296
  8
_________1
 62
     7
 10
-10.5891
 20
58.619999999999997
 30
0.0
 11
-10.5891
 21
62.65979999999999
 31
0.0
  0
LINE
  5
297
  8
_________1
 62
     7
 10
-10.870200000000001
 20
58.338200000000001
 30
0.0
 11
-12.7554
 21
58.338200000000001
 31
0.0
  0
ARC
  5
298
  8
_________1
 62
     7
 10
-10.880926000000001
 20
58.630053000000011
 30
0.0
 40
0.292012
 50
272.10373099999998
 51
358.03653800000001
  0
LINE
  5
299
  8
_________1
 62
     7
 10
-10.870200000000001
 20
62.940899999999999
 30
0.0
 11
-12.7554
 21
62.940899999999999
 31
0.0
  0
ARC
  5
29A
  8
_________1
 62
     7
 10
-10.880877
 20
62.649121999999998
 30
0.0
 40
0.291987
 50
2.0943259999999988
 51
87.905664000000016
  0
LINE
  5
29B
  8
_________1
 62
     7
 10
-12.7554
 20
62.940899999999999
 30
0.0
 11
-12.7554
 21
58.338200000000001
 31
0.0
  0
LINE
  5
29C
  8
_________1
 62
     7
 10
-17.174099999999999
 20
58.569699999999997
 30
0.0
 11
-25.4451
 21
58.569699999999997
 31
0.0
  0
LINE
  5
29D
  8
_________1
 62
     7
 10
-15.057399999999999
 20
66.446700000000007
 30
0.0
 11
-27.5625
 21
66.446700000000007
 31
0.0
  0
ARC
  5
29E
  8
_________1
 62
     7
 10
-16.828213999999999
 20
58.364817000000002
 30
0.0
 40
0.4020220000000001
 50
90.684256000000005
 51
149.352452
  0
LINE
  5
29F
  8
_________1
 62
     7
 10
-13.542899999999999
 20
58.520099999999992
 30
0.0
 11
-13.542899999999999
 21
62.754899999999999
 31
0.0
  0
ARC
  5
2A0
  8
_________1
 62
     7
 10
-16.764856999999999
 20
62.917431999999991
 30
0.0
 40
0.4095030000000001
 50
182.11365499999999
 51
267.88637499999999
  0
LINE
  5
2A1
  8
_________1
 62
     7
 10
-13.542899999999999
 20
58.520099999999992
 30
0.0
 11
-13.4444
 21
58.4223
 31
0.0
  0
LINE
  5
2A2
  8
_________1
 62
     7
 10
-13.4444
 20
62.852699999999999
 30
0.0
 11
-13.542899999999999
 21
62.754899999999999
 31
0.0
  0
LINE
  5
2A3
  8
_________1
 62
     7
 10
-16.780000000000001
 20
62.508200000000002
 30
0.0
 11
-13.542899999999999
 21
62.508200000000002
 31
0.0
  0
LINE
  5
2A4
  8
_________1
 62
     7
 10
-13.542899999999999
 20
58.766800000000003
 30
0.0
 11
-16.832999999999998
 21
58.766800000000003
 31
0.0
  0
LINE
  5
2A5
  8
_________1
 62
     7
 10
-12.7554
 20
58.4223
 30
0.0
 11
-13.4444
 21
58.4223
 31
0.0
  0
ARC
  5
2A6
  8
_________1
 62
     7
 10
-15.207542
 20
72.412901000000005
 30
0.0
 40
2.0369739999999998
 50
99.110427000000016
 51
178.35186999999999
  0
ARC
  5
2A7
  8
_________1
 62
     7
 10
-27.454398999999999
 20
72.412883999999991
 30
0.0
 40
2.0369939999999991
 50
1.6485730000000001
 51
80.889089999999996
  0
ARC
  5
2A8
  8
_________1
 62
     7
 10
-26.604185999999999
 20
66.880853000000002
 30
0.0
 40
0.6142340000000001
 50
92.109406000000007
 51
177.823747
  0
ARC
  5
2A9
  8
_________1
 62
     7
 10
-26.619692000000001
 20
66.908458999999993
 30
0.0
 40
0.5983000000000001
 50
180.410054
 51
230.41599299999999
  0
ARC
  5
2AA
  8
_________1
 62
     7
 10
-16.000247999999999
 20
66.907618999999997
 30
0.0
 40
0.598344
 50
309.71524599999998
 51
359.67044499999997
  0
ARC
  5
2AB
  8
_________1
 62
     7
 10
-16.015027
 20
66.881584000000004
 30
0.0
 40
0.613529
 50
2.1103869999999989
 51
87.822707999999992
  0
LINE
  5
2AC
  8
_________1
 62
     7
 10
-17.174099999999999
 20
64.459500000000006
 30
0.0
 11
-17.174099999999999
 21
62.902299999999997
 31
0.0
  0
ARC
  5
2AD
  8
_________1
 62
     7
 10
-26.450832999999999
 20
64.447862000000001
 30
0.0
 40
1.0057819999999991
 50
0.664253
 51
59.282992000000007
  0
ARC
  5
2AE
  8
_________1
 62
     7
 10
-16.169492000000002
 20
64.448097000000004
 30
0.0
 40
1.004654999999999
 50
120.634918
 51
179.348364
  0
LINE
  5
2AF
  8
_________1
 62
     7
 10
-25.4451
 20
58.569699999999997
 30
0.0
 11
-25.4451
 21
64.459500000000006
 31
0.0
  0
LINE
  5
2B0
  8
_________1
 62
     7
 10
-15.057399999999999
 20
66.250299999999996
 30
0.0
 11
-16.6814
 21
65.3125
 31
0.0
  0
LINE
  5
2B1
  8
_________1
 62
     7
 10
-15.057399999999999
 20
66.250299999999996
 30
0.0
 11
-15.057399999999999
 21
66.446700000000007
 31
0.0
  0
LINE
  5
2B2
  8
_________1
 62
     7
 10
-17.370799999999999
 20
57.979300000000002
 30
0.0
 11
-25.199100000000001
 21
57.979300000000002
 31
0.0
  0
LINE
  5
2B3
  8
_________1
 62
     7
 10
-17.420100000000001
 20
57.979300000000002
 30
0.0
 11
-17.420100000000001
 21
58.569699999999997
 31
0.0
  0
LINE
  5
2B4
  8
_________1
 62
     7
 10
-25.199100000000001
 20
57.979300000000002
 30
0.0
 11
-25.199100000000001
 21
58.569699999999997
 31
0.0
  0
LINE
  5
2B5
  8
_________1
 62
     7
 10
-25.248100000000001
 20
56.867199999999997
 30
0.0
 11
-24.981400000000001
 21
56.600499999999997
 31
0.0
  0
LINE
  5
2B6
  8
_________1
 62
     7
 10
-17.370799999999999
 20
56.867199999999997
 30
0.0
 11
-17.637799999999999
 21
56.600499999999997
 31
0.0
  0
LINE
  5
2B7
  8
_________1
 62
     7
 10
-17.370799999999999
 20
57.979300000000002
 30
0.0
 11
-17.370799999999999
 21
56.867199999999997
 31
0.0
  0
LINE
  5
2B8
  8
_________1
 62
     7
 10
-25.248100000000001
 20
56.867199999999997
 30
0.0
 11
-25.248100000000001
 21
57.979300000000002
 31
0.0
  0
LINE
  5
2B9
  8
_________1
 62
     7
 10
-17.637799999999999
 20
56.600499999999997
 30
0.0
 11
-24.981400000000001
 21
56.600499999999997
 31
0.0
  0
LINE
  5
2BA
  8
_________1
 62
     7
 10
-27.5625
 20
66.250299999999996
 30
0.0
 11
-25.937100000000001
 21
65.3125
 31
0.0
  0
LINE
  5
2BB
  8
_________1
 62
     7
 10
-27.5625
 20
66.250299999999996
 30
0.0
 11
-27.5625
 21
66.446700000000007
 31
0.0
  0
LINE
  5
2BC
  8
_________1
 62
     7
 10
-26.626799999999999
 20
67.494699999999995
 30
0.0
 11
-15.9917
 21
67.494699999999995
 31
0.0
  0
LINE
  5
2BD
  8
_________1
 62
     7
 10
-12.7554
 20
62.852699999999999
 30
0.0
 11
-13.4444
 21
62.852699999999999
 31
0.0
  0
INSERT
  5
2BE
  8
_________1
 62
     7
  2
AIGNBL02010002
 10
0.0
 20
0.0
 30
0.0
  0
LINE
  5
2BF
  8
_________1
 62
     7
 10
-11.338699999999999
 20
61.355499999999999
 30
0.0
 11
-12.7554
 21
61.355499999999999
 31
0.0
  0
LINE
  5
2C0
  8
_________1
 62
     7
 10
-11.338699999999999
 20
60.84559999999999
 30
0.0
 11
-12.7554
 21
60.84559999999999
 31
0.0
  0
LINE
  5
2C1
  8
_________1
 62
     7
 10
-11.338699999999999
 20
60.335700000000003
 30
0.0
 11
-12.7554
 21
60.335700000000003
 31
0.0
  0
LINE
  5
2C2
  8
_________1
 62
     7
 10
-11.338699999999999
 20
59.797600000000003
 30
0.0
 11
-12.7554
 21
59.797600000000003
 31
0.0
  0
LINE
  5
2C3
  8
_________1
 62
     7
 10
-11.338699999999999
 20
62.488199999999999
 30
0.0
 11
-12.7554
 21
62.488199999999999
 31
0.0
  0
LINE
  5
2C4
  8
_________1
 62
     7
 10
-11.338699999999999
 20
61.893599999999999
 30
0.0
 11
-12.7554
 21
61.893599999999999
 31
0.0
  0
LINE
  5
2C5
  8
_________1
 62
     7
 10
-11.338699999999999
 20
59.231200000000001
 30
0.0
 11
-12.7554
 21
59.231200000000001
 31
0.0
  0
LINE
  5
2C6
  8
_________1
 62
     7
 10
-11.338699999999999
 20
58.721299999999999
 30
0.0
 11
-12.7554
 21
58.721299999999999
 31
0.0
  0
LINE
  5
2C7
  8
_________1
 62
     7
 10
-11.338699999999999
 20
62.940899999999999
 30
0.0
 11
-11.338699999999999
 21
58.338200000000001
 31
0.0
  0
LINE
  5
2C8
  8
_________1
 62
     7
 10
-14.4194
 20
62.508200000000002
 30
0.0
 11
-14.4194
 21
58.766800000000003
 31
0.0
  0
LINE
  5
2C9
  8
_________1
 62
     7
 10
-26.626799999999999
 20
67.494699999999995
 30
0.0
 11
-32.553100000000001
 21
67.494699999999995
 31
0.0
  0
LINE
  5
2CA
  8
_________1
 62
     7
 10
-27.256900000000002
 20
53.982900000000001
 30
0.0
 11
-37.026600000000002
 21
53.982900000000001
 31
0.0
  0
INSERT
  5
2CB
  8
_________1
 62
     7
  2
AIGNBL02010003
 10
0.0
 20
0.0
 30
0.0
  0
LINE
  5
2CC
  8
_________1
 62
     7
 10
-21.3096
 20
54.345300000000002
 30
0.0
 11
-21.3096
 21
48.4694
 31
0.0
  0
LINE
  5
2CD
  8
_________1
 62
     7
 10
-14.023199999999999
 20
62.279499999999992
 30
0.0
 11
-13.542899999999999
 21
62.279499999999992
 31
0.0
  0
LINE
  5
2CE
  8
_________1
 62
     7
 10
-13.542899999999999
 20
58.99560000000001
 30
0.0
 11
-14.023199999999999
 21
58.99560000000001
 31
0.0
  0
LINE
  5
2CF
  8
_________1
 62
     7
 10
-14.023199999999999
 20
58.99560000000001
 30
0.0
 11
-14.4194
 21
58.766800000000003
 31
0.0
  0
LINE
  5
2D0
  8
_________1
 62
     7
 10
-17.637799999999999
 20
56.600499999999997
 30
0.0
 11
-17.637799999999999
 21
57.979300000000002
 31
0.0
  0
LINE
  5
2D1
  8
_________1
 62
     7
 10
-25.248100000000001
 20
56.867199999999997
 30
0.0
 11
-17.370799999999999
 21
56.867199999999997
 31
0.0
  0
LINE
  5
2D2
  8
_________1
 62
     7
 10
-24.981400000000001
 20
56.600499999999997
 30
0.0
 11
-24.981400000000001
 21
57.979300000000002
 31
0.0
  0
LINE
  5
2D3
  8
_________1
 62
     7
 10
-14.023199999999999
 20
58.766800000000003
 30
0.0
 11
-14.023199999999999
 21
62.508200000000002
 31
0.0
  0
LINE
  5
2D4
  8
_________1
 62
     7
 10
-14.4194
 20
62.508200000000002
 30
0.0
 11
-14.023199999999999
 21
62.279499999999992
 31
0.0
  0
ARC
  5
2D5
  8
_________1
 62
     7
 10
14.946838
 20
62.708801000000001
 30
0.0
 40
0.290857
 50
249.45014800000001
 51
269.82542799999999
  0
ARC
  5
2D6
  8
_________1
 62
     7
 10
14.925484000000001
 20
62.629654000000002
 30
0.0
 40
0.209396
 50
202.30565300000001
 51
247.31890000000001
  0
ARC
  5
2D7
  8
_________1
 62
     7
 10
15.113612
 20
62.715848000000001
 30
0.0
 40
0.416244
 50
177.092209
 51
203.45383100000001
  0
ARC
  5
2D8
  8
_________1
 62
     7
 10
15.173164
 20
62.739395000000002
 30
0.0
 40
0.475266
 50
163.98835500000001
 51
180.29313999999999
  0
ARC
  5
2D9
  8
_________1
 62
     7
 10
14.970466999999999
 20
62.791893999999992
 30
0.0
 40
0.266008
 50
115.561476
 51
162.814795
  0
ARC
  5
2DA
  8
_________1
 62
     7
 10
13.667252
 20
62.696708000000001
 30
0.0
 40
0.279856
 50
273.07888600000001
 51
293.55272500000001
  0
ARC
  5
2DB
  8
_________1
 62
     7
 10
13.688708999999999
 20
62.627254000000001
 30
0.0
 40
0.207771
 50
295.78240599999998
 51
340.77978400000001
  0
ARC
  5
2DC
  8
_________1
 62
     7
 10
13.466435000000001
 20
62.718144999999993
 30
0.0
 40
0.447755
 50
339.16061999999999
 51
2.4087559999999999
  0
ARC
  5
2DD
  8
_________1
 62
     7
 10
13.417450000000001
 20
62.737589999999997
 30
0.0
 40
0.496345
 50
359.92765800000001
 51
15.798493000000001
  0
ARC
  5
2DE
  8
_________1
 62
     7
 10
13.645638999999999
 20
62.797646
 30
0.0
 40
0.260462
 50
16.752948
 51
64.761252999999996
  0
ARC
  5
2DF
  8
_________1
 62
     7
 10
14.162725
 20
62.710262
 30
0.0
 40
0.2923179999999999
 50
249.50213299999999
 51
269.827223
  0
ARC
  5
2E0
  8
_________1
 62
     7
 10
14.140777
 20
62.629207999999991
 30
0.0
 40
0.208856
 50
202.23392200000001
 51
247.35513399999999
  0
ARC
  5
2E1
  8
_________1
 62
     7
 10
14.330318999999999
 20
62.715588000000011
 30
0.0
 40
0.4170720000000001
 50
177.06216800000001
 51
203.365545
  0
ARC
  5
2E2
  8
_________1
 62
     7
 10
14.389315
 20
62.74080699999999
 30
0.0
 40
0.475535
 50
164.09027499999999
 51
180.46309199999999
  0
ARC
  5
2E3
  8
_________1
 62
     7
 10
14.179836
 20
62.793525000000002
 30
0.0
 40
0.259716
 50
100.256134
 51
162.60665
  0
ARC
  5
2E4
  8
_________1
 62
     7
 10
14.452052
 20
62.696672999999997
 30
0.0
 40
0.27982
 50
273.07883799999991
 51
293.55420199999998
  0
ARC
  5
2E5
  8
_________1
 62
     7
 10
14.473667000000001
 20
62.626857999999991
 30
0.0
 40
0.207342
 50
295.78887500000002
 51
340.85444100000001
  0
ARC
  5
2E6
  8
_________1
 62
     7
 10
14.253315000000001
 20
62.716450999999999
 30
0.0
 40
0.445062
 50
339.26196399999998
 51
2.6416459999999988
  0
ARC
  5
2E7
  8
_________1
 62
     7
 10
14.197206
 20
62.737186999999992
 30
0.0
 40
0.500698
 50
359.974422
 51
15.676748999999999
  0
ARC
  5
2E8
  8
_________1
 62
     7
 10
14.422606999999999
 20
62.795814
 30
0.0
 40
0.267877
 50
16.630555999999999
 51
54.385222000000013
  0
ARC
  5
2E9
  8
_________1
 62
     7
 10
14.448394
 20
62.809771999999988
 30
0.0
 40
0.241854
 50
57.427481999999998
 51
80.634493999999989
  0
LINE
  5
2EA
  8
_________1
 62
     7
 10
14.6242
 20
62.416600000000003
 30
0.0
 11
14.6242
 21
61.808199999999999
 31
0.0
  0
LINE
  5
2EB
  8
_________1
 62
     7
 10
13.975099999999999
 20
62.416600000000003
 30
0.0
 11
13.975099999999999
 21
61.808199999999999
 31
0.0
  0
ARC
  5
2EC
  8
_________1
 62
     7
 10
13.896274999999999
 20
59.164425000000001
 30
0.0
 40
0.51059
 50
194.14327900000001
 51
220.08913899999999
  0
ARC
  5
2ED
  8
_________1
 62
     7
 10
14.070544999999999
 20
59.299914000000001
 30
0.0
 40
0.731217
 50
219.41752399999999
 51
243.00277299999999
  0
ARC
  5
2EE
  8
_________1
 62
     7
 10
14.262043
 20
59.633234999999999
 30
0.0
 40
1.1153120000000001
 50
242.010243
 51
270.94082900000012
  0
ARC
  5
2EF
  8
_________1
 62
     7
 10
14.279063000000001
 20
59.712972000000001
 30
0.0
 40
1.1949000000000001
 50
270.06199900000001
 51
298.45742999999999
  0
ARC
  5
2F0
  8
_________1
 62
     7
 10
14.460914000000001
 20
59.331954000000003
 30
0.0
 40
0.77357
 50
300.06327800000003
 51
322.62702400000001
  0
ARC
  5
2F1
  8
_________1
 62
     7
 10
14.662623999999999
 20
59.163035999999991
 30
0.0
 40
0.510875
 50
323.95067799999998
 51
358.52737999999999
  0
ARC
  5
2F2
  8
_________1
 62
     7
 10
14.66743
 20
61.147960999999988
 30
0.0
 40
0.5159620000000001
 50
11.334007
 51
47.139342999999997
  0
ARC
  5
2F3
  8
_________1
 62
     7
 10
14.448167
 20
60.947631999999992
 30
0.0
 40
0.8123199999999998
 50
45.414197999999999
 51
67.818182999999991
  0
ARC
  5
2F4
  8
_________1
 62
     7
 10
14.299683999999999
 20
60.635136000000003
 30
0.0
 40
1.1579120000000001
 50
66.852654999999984
 51
90.513193000000015
  0
ARC
  5
2F5
  8
_________1
 62
     7
 10
14.290024000000001
 20
60.592021000000003
 30
0.0
 40
1.200980999999999
 50
90.033912000000015
 51
116.950107
  0
ARC
  5
2F6
  8
_________1
 62
     7
 10
14.12697
 20
60.956218999999997
 30
0.0
 40
0.802677
 50
118.35742999999999
 51
140.09331
  0
ARC
  5
2F7
  8
_________1
 62
     7
 10
13.932100999999999
 20
61.133330000000001
 30
0.0
 40
0.5396810000000001
 50
141.244686
 51
169.67379399999999
  0
LINE
  5
2F8
  8
_________1
 62
     7
 10
14.188700000000001
 20
58.677199999999999
 30
0.0
 11
14.188700000000001
 21
60.042200000000001
 31
0.0
  0
LINE
  5
2F9
  8
_________1
 62
     7
 10
14.3865
 20
58.677199999999999
 30
0.0
 11
14.3865
 21
60.042200000000001
 31
0.0
  0
LINE
  5
2FA
  8
_________1
 62
     7
 10
16.492799999999999
 20
61.130200000000002
 30
0.0
 11
16.492799999999999
 21
60.145499999999991
 31
0.0
  0
LINE
  5
2FB
  8
_________1
 62
     7
 10
-27.6097
 20
74.976799999999983
 30
0.0
 11
-27.6097
 21
79.935699999999997
 31
0.0
  0
LINE
  5
2FC
  8
_________1
 62
     7
 10
-27.787800000000001
 20
74.8155
 30
0.0
 11
-32.553100000000001
 21
74.8155
 31
0.0
  0
INSERT
  5
2FD
  8
_________1
 62
     7
  2
AIGNBL02010004
 10
0.0
 20
0.0
 30
0.0
  0
INSERT
  5
2FE
  8
_________1
 62
     7
  2
AIGNBL02010005
 10
0.0
 20
0.0
 30
0.0
  0
LINE
  5
2FF
  8
_________1
 62
     7
 10
-15.0092
 20
74.461399999999983
 30
0.0
 11
-15.0092
 21
79.935699999999997
 31
0.0
  0
INSERT
  5
300
  8
_________1
 62
     7
  2
AIGNBL02010006
 10
0.0
 20
0.0
 30
0.0
  0
LINE
  5
301
  8
_________1
  6
AIGENLINE002
 62
     7
 10
15.173299999999999
 20
60.637500000000003
 30
0.0
 11
18.4221
 21
60.637500000000003
 31
0.0
  0
LINE
  5
302
  8
_________1
  6
AIGENLINE001
 62
     7
 10
-21.3096
 20
54.665100000000002
 30
0.0
 11
-21.3096
 21
75.77600000000001
 31
0.0
  0
LINE
  5
303
  8
_________1
  6
AIGENLINE001
 62
     7
 10
-31.195
 20
60.637500000000003
 30
0.0
 11
13.401199999999999
 21
60.637500000000003
 31
0.0
  0
LINE
  5
304
  8
_________1
 62
     7
 10
-25.248100000000001
 20
70.425799999999995
 30
0.0
 11
-25.248100000000001
 21
72.295100000000005
 31
0.0
  0
LINE
  5
305
  8
_________1
  6
AIGENLINE001
 62
     7
 10
14.2845
 20
57.722299999999997
 30
0.0
 11
14.2845
 21
63.949599999999997
 31
0.0
  0
ARC
  5
306
  8
_________1
 62
     7
 10
80.199562000000014
 20
246.26455999999999
 30
0.0
 40
3.636391999999999
 50
272.1176779999999
 51
357.8879720000001
  0
ARC
  5
307
  8
_________1
 62
     7
 10
80.467579000000015
 20
246.26455000000001
 30
0.0
 40
3.636355
 50
182.11190799999989
 51
267.89376200000009
  0
ARC
  5
308
  8
_________1
 62
     7
 10
80.467810999999998
 20
245.996489
 30
0.0
 40
3.636588999999999
 50
92.109762000000003
 51
177.88738799999999
  0
ARC
  5
309
  8
_________1
 62
     7
 10
80.200271000000001
 20
245.99742000000001
 30
0.0
 40
3.6356510000000002
 50
2.0984590000000001
 51
87.893071000000006
  0
ARC
  5
30A
  8
_________1
 62
     7
 10
60.333820999999993
 20
246.130719
 30
0.0
 40
3.500067
 50
269.99720000000002
 51
359.9971700000001
  0
ARC
  5
30B
  8
_________1
 62
     7
 10
60.46729899999999
 20
246.26383799999999
 30
0.0
 40
3.6356429999999991
 50
182.10109299999999
 51
267.89329700000002
  0
ARC
  5
30C
  8
_________1
 62
     7
 10
60.468193999999997
 20
245.99653799999999
 30
0.0
 40
3.636565
 50
92.120288000000002
 51
177.88814199999999
  0
ARC
  5
30D
  8
_________1
 62
     7
 10
60.33373499999999
 20
246.13046
 30
0.0
 40
3.5001540000000002
 50
0.00142
 51
90.001390000000001
  0
ARC
  5
30E
  8
_________1
 62
     7
 10
40.33353799999999
 20
246.130719
 30
0.0
 40
3.500067
 50
269.99720000000002
 51
359.9971700000001
  0
ARC
  5
30F
  8
_________1
 62
     7
 10
40.33353799999999
 20
246.13037299999999
 30
0.0
 40
3.4997220000000002
 50
179.99715
 51
269.99720000000002
  0
ARC
  5
310
  8
_________1
 62
     7
 10
40.333624999999991
 20
246.13080400000001
 30
0.0
 40
3.4998089999999991
 50
90.004230000000007
 51
180.00424000000001
  0
ARC
  5
311
  8
_________1
 62
     7
 10
40.333450999999997
 20
246.13046
 30
0.0
 40
3.5001540000000002
 50
0.00142
 51
90.001390000000001
  0
LINE
  5
312
  8
_________1
 62
     7
 10
60.333599999999997
 20
258.0
 30
0.0
 11
60.333599999999997
 21
252.84100000000001
 31
0.0
  0
LINE
  5
313
  8
_________1
 62
     7
 10
80.3339
 20
258.00200000000001
 30
0.0
 11
80.3339
 21
252.458
 31
0.0
  0
LINE
  5
314
  8
_________1
 62
     7
 10
40.33339999999999
 20
258.00200000000001
 30
0.0
 11
40.33339999999999
 21
252.458
 31
0.0
  0
INSERT
  5
315
  8
_________1
 62
     7
  2
AIGNBL02010007
 10
0.0
 20
0.0
 30
0.0
  0
LINE
  5
316
  8
_________1
  6
AIGENLINE001
 62
     7
 10
80.3339
 20
251.834
 30
0.0
 11
80.3339
 21
240.45500000000001
 31
0.0
  0
LINE
  5
317
  8
_________1
  6
AIGENLINE001
 62
     7
 10
34.408499999999997
 20
246.131
 30
0.0
 11
86.584100000000007
 21
246.131
 31
0.0
  0
INSERT
  5
318
  8
_________1
 62
     7
  2
AIGNBL02010008
 10
0.0
 20
0.0
 30
0.0
  0
LINE
  5
319
  8
_________1
  6
AIGENLINE001
 62
     7
 10
60.333599999999997
 20
252.172
 30
0.0
 11
60.333599999999997
 21
240.089
 31
0.0
  0
LINE
  5
31A
  8
_________1
  6
AIGENLINE001
 62
     7
 10
40.33339999999999
 20
251.834
 30
0.0
 11
40.33339999999999
 21
240.27199999999999
 31
0.0
  0
INSERT
  5
31B
  8
_________1
 62
     7
  2
AIGNBL02010009
 10
0.0
 20
0.0
 30
0.0
  0
ARC
  5
31C
  8
_________1
 62
     7
 10
1.9806900000000001
 20
243.98179300000001
 30
0.0
 40
0.714788
 50
49.326684999999991
 51
55.452415999999999
  0
ARC
  5
31D
  8
_________1
 62
     7
 10
1.093454999999999
 20
242.756429
 30
0.0
 40
2.2274979999999989
 50
54.529369999999993
 51
71.768701000000007
  0
ARC
  5
31E
  8
_________1
 62
     7
 10
1.4096959999999989
 20
243.67139399999999
 30
0.0
 40
1.259604999999999
 50
72.410797000000002
 51
88.579527999999996
  0
ARC
  5
31F
  8
_________1
 62
     7
 10
2.8124489999999991
 20
244.96128899999999
 30
0.0
 40
0.5170640000000001
 50
135.04385600000001
 51
169.90222600000001
  0
ARC
  5
320
  8
_________1
 62
     7
 10
3.0546829999999998
 20
244.91368600000001
 30
0.0
 40
0.7639040000000001
 50
169.572564
 51
180.66848400000001
  0
LINE
  5
321
  8
_________1
 62
     7
 10
2.4465499999999989
 20
245.327
 30
0.0
 11
13.495900000000001
 21
245.036
 31
0.0
  0
LINE
  5
322
  8
_________1
 62
     7
 10
2.4465499999999989
 20
244.524
 30
0.0
 11
13.495900000000001
 21
244.03899999999999
 31
0.0
  0
ARC
  5
323
  8
_________1
 62
     7
 10
13.287907000000001
 20
244.712908
 30
0.0
 40
0.384135
 50
16.995740000000001
 51
57.216686000000003
  0
ARC
  5
324
  8
_________1
 62
     7
 10
13.04067
 20
244.631069
 30
0.0
 40
0.644525
 50
9.502167
 51
17.528919999999999
  0
ARC
  5
325
  8
_________1
 62
     7
 10
12.535624
 20
244.549474
 30
0.0
 40
1.156115
 50
359.06625000000003
 51
9.3584219999999991
  0
ARC
  5
326
  8
_________1
 62
     7
 10
13.045441
 20
245.37135599999999
 30
0.0
 40
0.56167
 50
323.321845
 51
338.56613900000002
  0
ARC
  5
327
  8
_________1
 62
     7
 10
12.489300999999999
 20
245.60713100000001
 30
0.0
 40
1.1656189999999991
 50
337.76784800000001
 51
350.25144
  0
ARC
  5
328
  8
_________1
 62
     7
 10
11.315441999999999
 20
245.85248200000001
 30
0.0
 40
2.3644630000000002
 50
349.20831700000002
 51
353.52102300000013
  0
ARC
  5
329
  8
_________1
 62
     7
 10
10.045586999999999
 20
245.999774
 30
0.0
 40
3.64283
 50
353.47286500000001
 51
356.8500049999999
  0
ARC
  5
32A
  8
_________1
 62
     7
 10
7.9557739999999999
 20
246.11525900000001
 30
0.0
 40
5.7358310000000001
 50
356.84526
 51
0.152711
  0
ARC
  5
32B
  8
_________1
 62
     7
 10
2.7991739999999998
 20
245.618458
 30
0.0
 40
0.457721
 50
202.11361099999999
 51
219.61108100000001
  0
ARC
  5
32C
  8
_________1
 62
     7
 10
3.1576919999999991
 20
245.77578299999999
 30
0.0
 40
0.849159
 50
188.16337799999991
 51
202.841656
  0
ARC
  5
32D
  8
_________1
 62
     7
 10
4.005660999999999
 20
245.92933400000001
 30
0.0
 40
1.710629999999999
 50
184.18391399999999
 51
189.221417
  0
ARC
  5
32E
  8
_________1
 62
     7
 10
6.0669769999999987
 20
246.06886399999999
 30
0.0
 40
3.7766500000000001
 50
179.06414799999999
 51
184.01351500000001
  0
ARC
  5
32F
  8
_________1
 62
     7
 10
2.7917770000000002
 20
244.92475300000001
 30
0.0
 40
0.5290100000000001
 50
214.36459600000001
 51
229.26289800000001
  0
ARC
  5
330
  8
_________1
 62
     7
 10
2.6815120000000001
 20
244.82854699999999
 30
0.0
 40
0.384071
 50
190.25594000000001
 51
211.801535
  0
ARC
  5
331
  8
_________1
 62
     7
 10
2.9943729999999991
 20
244.893923
 30
0.0
 40
0.7036249999999999
 50
179.116387
 51
190.95855499999999
  0
ARC
  5
332
  8
_________1
 62
     7
 10
13.409433
 20
244.22599099999999
 30
0.0
 40
0.205689
 50
294.85917999999998
 51
320.55187100000001
  0
ARC
  5
333
  8
_________1
 62
     7
 10
13.270125999999999
 20
244.352914
 30
0.0
 40
0.394021
 50
319.17065600000001
 51
341.067633
  0
ARC
  5
334
  8
_________1
 62
     7
 10
12.947505
 20
244.48201399999999
 30
0.0
 40
0.7412800000000001
 50
339.71948099999997
 51
355.12119799999999
  0
ARC
  5
335
  8
_________1
 62
     7
 10
12.587927000000001
 20
244.52888100000001
 30
0.0
 40
1.1036600000000001
 50
354.28449899999998
 51
0.090983
  0
LINE
  5
336
  8
_________1
 62
     7
 10
13.691599999999999
 20
246.131
 30
0.0
 11
13.691599999999999
 21
244.53100000000001
 31
0.0
  0
ARC
  5
337
  8
_________1
 62
     7
 10
1.9806900000000001
 20
248.279472
 30
0.0
 40
0.714788
 50
304.54758399999997
 51
310.673315
  0
ARC
  5
338
  8
_________1
 62
     7
 10
1.093454999999999
 20
249.50483600000001
 30
0.0
 40
2.2274979999999989
 50
288.23129899999998
 51
305.47063000000003
  0
ARC
  5
339
  8
_________1
 62
     7
 10
1.4096959999999989
 20
248.58987099999999
 30
0.0
 40
1.259604999999999
 50
271.42047200000007
 51
287.589203
  0
ARC
  5
33A
  8
_________1
 62
     7
 10
2.812476999999999
 20
247.300005
 30
0.0
 40
0.517104
 50
190.10507200000001
 51
224.956209
  0
ARC
  5
33B
  8
_________1
 62
     7
 10
3.053310999999999
 20
247.34741099999999
 30
0.0
 40
0.7625320000000001
 50
179.33062699999999
 51
190.436858
  0
LINE
  5
33C
  8
_________1
 62
     7
 10
2.4465499999999989
 20
246.935
 30
0.0
 11
13.495900000000001
 21
247.22499999999999
 31
0.0
  0
LINE
  5
33D
  8
_________1
 62
     7
 10
2.4465499999999989
 20
247.73699999999999
 30
0.0
 11
13.495900000000001
 21
248.22200000000001
 31
0.0
  0
LINE
  5
33E
  8
_________1
 62
     7
 10
13.691599999999999
 20
244.53100000000001
 30
0.0
 11
13.991300000000001
 21
244.53100000000001
 31
0.0
  0
LINE
  5
33F
  8
_________1
 62
     7
 10
13.991300000000001
 20
244.53
 30
0.0
 11
13.991300000000001
 21
247.72999999999999
 31
0.0
  0
LINE
  5
340
  8
_________1
 62
     7
 10
13.691599999999999
 20
247.72999999999999
 30
0.0
 11
13.991300000000001
 21
247.72999999999999
 31
0.0
  0
ARC
  5
341
  8
_________1
 62
     7
 10
-1.3087999999999991
 20
246.13054600000001
 30
0.0
 40
2.000062999999999
 50
90.0
 51
179.99996999999999
  0
ARC
  5
342
  8
_________1
 62
     7
 10
-1.3089729999999991
 20
246.130718
 30
0.0
 40
1.9998910000000001
 50
359.99507499999999
 51
89.995044999999976
  0
ARC
  5
343
  8
_________1
 62
     7
 10
-1.3088869999999999
 20
246.13046
 30
0.0
 40
1.9998049999999989
 50
270.00248699999997
 51
0.002458
  0
ARC
  5
344
  8
_________1
 62
     7
 10
-1.3088869999999999
 20
246.13063199999999
 30
0.0
 40
1.9999759999999991
 50
180.002477
 51
270.00248699999997
  0
ARC
  5
345
  8
_________1
 62
     7
 10
-1.3087999999999991
 20
246.13054600000001
 30
0.0
 40
2.5001220000000002
 50
90.0
 51
179.99996999999999
  0
ARC
  5
346
  8
_________1
 62
     7
 10
-1.3089729999999991
 20
246.130718
 30
0.0
 40
2.4999500000000001
 50
359.99606199999999
 51
89.996032000000014
  0
ARC
  5
347
  8
_________1
 62
     7
 10
-1.3088869999999999
 20
246.130461
 30
0.0
 40
2.4998640000000001
 50
270.00199400000002
 51
0.001964
  0
ARC
  5
348
  8
_________1
 62
     7
 10
-1.3088869999999999
 20
246.13063199999999
 30
0.0
 40
2.500035
 50
180.00198399999999
 51
270.00199400000002
  0
ARC
  5
349
  8
_________1
 62
     7
 10
13.287881
 20
247.54839999999999
 30
0.0
 40
0.384186
 50
302.78317700000002
 51
342.99312700000002
  0
ARC
  5
34A
  8
_________1
 62
     7
 10
13.040032
 20
247.63033200000001
 30
0.0
 40
0.645187
 50
342.47293999999999
 51
350.48957899999999
  0
ARC
  5
34B
  8
_________1
 62
     7
 10
12.536571
 20
247.711646
 30
0.0
 40
1.1551679999999991
 50
350.637835
 51
0.9331219999999998
  0
ARC
  5
34C
  8
_________1
 62
     7
 10
13.042968999999999
 20
246.88809599999999
 30
0.0
 40
0.564735
 50
20.916460000000001
 51
36.675800000000002
  0
ARC
  5
34D
  8
_________1
 62
     7
 10
12.463889
 20
246.64623399999999
 30
0.0
 40
1.192154999999999
 50
9.5020890000000016
 51
21.838695000000001
  0
ARC
  5
34E
  8
_________1
 62
     7
 10
11.258482000000001
 20
246.40003999999999
 30
0.0
 40
2.4220630000000001
 50
6.2858289999999988
 51
10.538812
  0
ARC
  5
34F
  8
_________1
 62
     7
 10
9.2651769999999996
 20
246.186556
 30
0.0
 40
4.4267620000000001
 50
359.27504399999998
 51
6.2076149999999997
  0
ARC
  5
350
  8
_________1
 62
     7
 10
2.7991739999999998
 20
246.64280600000001
 30
0.0
 40
0.457721
 50
140.38891899999999
 51
157.88638900000001
  0
ARC
  5
351
  8
_________1
 62
     7
 10
3.1575799999999989
 20
246.485525
 30
0.0
 40
0.8490389999999999
 50
157.15811600000001
 51
171.839889
  0
ARC
  5
352
  8
_________1
 62
     7
 10
4.0048629999999994
 20
246.332021
 30
0.0
 40
1.709824999999999
 50
170.777995
 51
175.818589
  0
ARC
  5
353
  8
_________1
 62
     7
 10
6.0690889999999991
 20
246.19227699999999
 30
0.0
 40
3.7787629999999992
 50
175.98749900000001
 51
180.93605600000001
  0
ARC
  5
354
  8
_________1
 62
     7
 10
2.791058
 20
247.337343
 30
0.0
 40
0.5279110000000001
 50
130.73685599999999
 51
145.671616
  0
ARC
  5
355
  8
_________1
 62
     7
 10
2.6819500000000001
 20
247.43252899999999
 30
0.0
 40
0.384509
 50
148.21710100000001
 51
169.75007600000001
  0
ARC
  5
356
  8
_________1
 62
     7
 10
2.994394999999999
 20
247.367188
 30
0.0
 40
0.7036480000000001
 50
169.04150100000001
 51
180.88504900000001
  0
ARC
  5
357
  8
_________1
 62
     7
 10
13.409433
 20
248.03527399999999
 30
0.0
 40
0.205689
 50
39.448129000000002
 51
65.140819999999991
  0
ARC
  5
358
  8
_________1
 62
     7
 10
13.27022
 20
247.90842599999999
 30
0.0
 40
0.393901
 50
18.923497999999999
 51
40.830001999999993
  0
ARC
  5
359
  8
_________1
 62
     7
 10
12.946799
 20
247.7791
 30
0.0
 40
0.741988
 50
4.8775069999999987
 51
20.270997999999999
  0
ARC
  5
35A
  8
_________1
 62
     7
 10
12.587085999999999
 20
247.73223400000001
 30
0.0
 40
1.1045
 50
359.90793100000002
 51
5.7133410000000007
  0
ARC
  5
35B
  8
_________1
 62
     7
 10
-1.3087999999999991
 20
246.13054600000001
 30
0.0
 40
3.000008999999999
 50
90.0
 51
179.99996999999999
  0
ARC
  5
35C
  8
_________1
 62
     7
 10
-1.3088010000000001
 20
246.13054600000001
 30
0.0
 40
3.000008999999999
 50
0.00001
 51
89.999980000000008
  0
ARC
  5
35D
  8
_________1
 62
     7
 10
-1.3088010000000001
 20
246.13054700000001
 30
0.0
 40
3.000008999999999
 50
270.00002000000001
 51
359.99999000000003
  0
ARC
  5
35E
  8
_________1
 62
     7
 10
-1.3088010000000001
 20
246.13054600000001
 30
0.0
 40
3.0000079999999998
 50
179.99996999999999
 51
270.00002000000001
  0
ARC
  5
35F
  8
_________1
 62
     7
 10
-1.3090589999999991
 20
246.13063399999999
 30
0.0
 40
6.2000900000000003
 50
254.030902
 51
344.03087199999999
  0
ARC
  5
360
  8
_________1
 62
     7
 10
-1.130274
 20
246.265252
 30
0.0
 40
6.3801259999999997
 50
181.2098179999999
 51
252.81981099999999
  0
ARC
  5
361
  8
_________1
 62
     7
 10
-1.308799
 20
246.13054500000001
 30
0.0
 40
6.2001790000000003
 50
90.0
 51
179.99996999999999
  0
ARC
  5
362
  8
_________1
 62
     7
 10
-1.4445529999999991
 20
245.95094399999999
 30
0.0
 40
6.3812239999999987
 50
17.143554999999999
 51
88.780996999999985
  0
LINE
  5
363
  8
_________1
  6
AIGENLINE001
 62
     7
 10
-1.3091399999999991
 20
238.80600000000001
 30
0.0
 11
-1.3091399999999991
 21
253.667
 31
0.0
  0
LINE
  5
364
  8
_________1
 62
     7
 10
13.691599999999999
 20
246.131
 30
0.0
 11
13.691599999999999
 21
247.72999999999999
 31
0.0
  0
ARC
  5
365
  8
_________1
 62
     7
 10
-44.609040999999991
 20
243.994564
 30
0.0
 40
0.698691
 50
124.476927
 51
130.743932
  0
ARC
  5
366
  8
_________1
 62
     7
 10
-43.712291999999998
 20
242.75707
 30
0.0
 40
2.2267879999999991
 50
108.22850800000001
 51
125.473381
  0
ARC
  5
367
  8
_________1
 62
     7
 10
-44.028207999999992
 20
243.67139399999999
 30
0.0
 40
1.259604999999999
 50
91.420451999999997
 51
107.589184
  0
ARC
  5
368
  8
_________1
 62
     7
 10
-45.430960999999989
 20
244.96128899999999
 30
0.0
 40
0.5170640000000001
 50
10.097754
 51
44.956123999999988
  0
ARC
  5
369
  8
_________1
 62
     7
 10
-45.674501999999997
 20
244.91357400000001
 30
0.0
 40
0.7652090000000001
 50
359.341026
 51
10.417926
  0
LINE
  5
36A
  8
_________1
 62
     7
 10
-45.065100000000001
 20
245.327
 30
0.0
 11
-56.114400000000003
 21
245.036
 31
0.0
  0
LINE
  5
36B
  8
_________1
 62
     7
 10
-45.065100000000001
 20
244.524
 30
0.0
 11
-56.114400000000003
 21
244.03899999999999
 31
0.0
  0
ARC
  5
36C
  8
_________1
 62
     7
 10
-55.904429
 20
244.71240800000001
 30
0.0
 40
0.385637
 50
122.99159899999999
 51
163.64250000000001
  0
ARC
  5
36D
  8
_________1
 62
     7
 10
-55.643067000000002
 20
244.627633
 30
0.0
 40
0.6603399999999999
 50
162.97129100000001
 51
170.87589199999999
  0
ARC
  5
36E
  8
_________1
 62
     7
 10
-55.132282999999987
 20
244.54822100000001
 30
0.0
 40
1.1772569999999991
 50
171.00189800000001
 51
180.8559909999999
  0
ARC
  5
36F
  8
_________1
 62
     7
 10
-55.657643999999991
 20
245.37386799999999
 30
0.0
 40
0.5682330000000001
 50
200.866488
 51
216.501283
  0
ARC
  5
370
  8
_________1
 62
     7
 10
-55.073937999999998
 20
245.61614900000001
 30
0.0
 40
1.2000959999999989
 50
189.49697399999999
 51
201.74878000000001
  0
ARC
  5
371
  8
_________1
 62
     7
 10
-53.872566999999997
 20
245.860972
 30
0.0
 40
2.425781999999999
 50
186.27222800000001
 51
190.51850300000001
  0
ARC
  5
372
  8
_________1
 62
     7
 10
-51.878697000000003
 20
246.07464200000001
 30
0.0
 40
4.4310629999999991
 50
179.277095
 51
186.20184
  0
ARC
  5
373
  8
_________1
 62
     7
 10
-45.417686000000003
 20
245.618458
 30
0.0
 40
0.457721
 50
320.38893899999999
 51
337.8864089999999
  0
ARC
  5
374
  8
_________1
 62
     7
 10
-45.776009000000002
 20
245.77570700000001
 30
0.0
 40
0.848949
 50
337.157961
 51
351.83978500000012
  0
ARC
  5
375
  8
_________1
 62
     7
 10
-46.621417999999991
 20
245.92907199999999
 30
0.0
 40
1.707864
 50
350.77247299999999
 51
355.81816099999998
  0
ARC
  5
376
  8
_________1
 62
     7
 10
-48.685518999999992
 20
246.06886399999999
 30
0.0
 40
3.7766799999999998
 50
355.98652499999997
 51
0.9358120000000001
  0
ARC
  5
377
  8
_________1
 62
     7
 10
-45.410288999999992
 20
244.92475300000001
 30
0.0
 40
0.5290100000000001
 50
310.737122
 51
325.635424
  0
ARC
  5
378
  8
_________1
 62
     7
 10
-45.300023999999993
 20
244.82854699999999
 30
0.0
 40
0.384071
 50
328.19848500000001
 51
349.74408000000011
  0
ARC
  5
379
  8
_________1
 62
     7
 10
-45.612887000000001
 20
244.893923
 30
0.0
 40
0.703628
 50
349.04148500000002
 51
0.8835740000000001
  0
ARC
  5
37A
  8
_________1
 62
     7
 10
-56.027220999999997
 20
244.22628599999999
 30
0.0
 40
0.206262
 50
218.515612
 51
244.992831
  0
ARC
  5
37B
  8
_________1
 62
     7
 10
-55.881349999999998
 20
244.35641799999999
 30
0.0
 40
0.401584
 50
198.46776600000001
 51
220.08266699999999
  0
ARC
  5
37C
  8
_________1
 62
     7
 10
-55.553631999999993
 20
244.48461599999999
 30
0.0
 40
0.7532449999999999
 50
184.574106
 51
199.820672
  0
ARC
  5
37D
  8
_________1
 62
     7
 10
-55.194209999999998
 20
244.52930799999999
 30
0.0
 40
1.1151990000000001
 50
179.93186600000001
 51
185.39035699999999
  0
LINE
  5
37E
  8
_________1
 62
     7
 10
-56.309399999999989
 20
246.131
 30
0.0
 11
-56.309399999999989
 21
244.53100000000001
 31
0.0
  0
ARC
  5
37F
  8
_________1
 62
     7
 10
-44.609040999999991
 20
248.26670100000001
 30
0.0
 40
0.698691
 50
229.256068
 51
235.52307300000001
  0
ARC
  5
380
  8
_________1
 62
     7
 10
-43.712291999999998
 20
249.50419500000001
 30
0.0
 40
2.2267879999999991
 50
234.52661900000001
 51
251.77149199999999
  0
ARC
  5
381
  8
_________1
 62
     7
 10
-44.028207999999992
 20
248.58987099999999
 30
0.0
 40
1.259604999999999
 50
252.41081600000001
 51
268.57954799999999
  0
ARC
  5
382
  8
_________1
 62
     7
 10
-45.430990000000001
 20
247.300005
 30
0.0
 40
0.517104
 50
315.04381100000001
 51
349.894947
  0
ARC
  5
383
  8
_________1
 62
     7
 10
-45.673127000000001
 20
247.347522
 30
0.0
 40
0.7638350000000002
 50
349.57265999999998
 51
0.659855
  0
ARC
  5
384
  8
_________1
 62
     7
 10
-21.440756
 20
246.20237399999999
 30
0.0
 40
6.5318889999999987
 50
302.76943399999999
 51
359.36993899999999
  0
ARC
  5
385
  8
_________1
 62
     7
 10
-21.309515999999999
 20
246.130459
 30
0.0
 40
6.4002540000000003
 50
0.000781
 51
90.000750999999994
  0
ARC
  5
386
  8
_________1
 62
     7
 10
-21.309426999999999
 20
246.130717
 30
0.0
 40
6.3999949999999988
 50
90.001542000000001
 51
180.001552
  0
ARC
  5
387
  8
_________1
 62
     7
 10
-21.187273000000001
 20
246.197034
 30
0.0
 40
6.5224880000000001
 50
180.58408499999999
 51
237.27503999999999
  0
ARC
  5
388
  8
_________1
 62
     7
 10
-4.7551860000000001
 20
241.026847
 30
0.0
 40
13.923228999999999
 50
158.496363
 51
164.02234999999999
  0
ARC
  5
389
  8
_________1
 62
     7
 10
2.6875249999999991
 20
238.779529
 30
0.0
 40
21.697312
 50
163.727101
 51
168.001037
  0
ARC
  5
38A
  8
_________1
 62
     7
 10
12.869009
 20
236.50066699999999
 30
0.0
 40
32.130303000000012
 50
167.80059199999999
 51
170.92589599999999
  0
ARC
  5
38B
  8
_________1
 62
     7
 10
27.388031000000002
 20
234.09396799999999
 30
0.0
 40
46.847266999999988
 50
170.81978000000001
 51
173.86645300000001
  0
ARC
  5
38C
  8
_________1
 62
     7
 10
49.068311000000001
 20
231.61021299999999
 30
0.0
 40
68.668989999999994
 50
173.738721
 51
176.17522399999999
  0
ARC
  5
38D
  8
_________1
 62
     7
 10
78.646512000000001
 20
229.465744
 30
0.0
 40
98.324500999999998
 50
176.07809700000001
 51
178.15674100000001
  0
ARC
  5
38E
  8
_________1
 62
     7
 10
128.19474199999999
 20
227.668072
 30
0.0
 40
147.905055
 50
178.07809399999999
 51
180.16654
  0
LINE
  5
38F
  8
_________1
 62
     7
 10
-19.709700000000002
 20
227.238
 30
0.0
 11
-19.709700000000002
 21
219.08799999999999
 31
0.0
  0
ARC
  5
390
  8
_________1
 62
     7
 10
-2.5140679999999991
 20
223.14326199999999
 30
0.0
 40
16.295411000000001
 50
179.98938999999999
 51
182.81431499999991
  0
ARC
  5
391
  8
_________1
 62
     7
 10
-8.4381120000000003
 20
222.88363799999999
 30
0.0
 40
10.365812999999999
 50
182.988722
 51
191.45591599999989
  0
ARC
  5
392
  8
_________1
 62
     7
 10
15.887722
 20
227.69891100000001
 30
0.0
 40
35.163581999999998
 50
191.27326199999999
 51
192.32993400000001
  0
LINE
  5
393
  8
_________1
 62
     7
 10
-18.4648
 20
220.19
 30
0.0
 11
-18.387599999999999
 21
219.827
 31
0.0
  0
ARC
  5
394
  8
_________1
 62
     7
 10
-5.0614129999999991
 20
240.00828300000001
 30
0.0
 40
12.713772000000001
 50
154.23500999999999
 51
161.558727
  0
ARC
  5
395
  8
_________1
 62
     7
 10
0.386189
 20
238.061418
 30
0.0
 40
18.497900999999999
 50
161.17576199999999
 51
166.19790499999999
  0
ARC
  5
396
  8
_________1
 62
     7
 10
8.0481449999999999
 20
236.08196599999999
 30
0.0
 40
26.411026
 50
165.99312699999999
 51
170.128468
  0
ARC
  5
397
  8
_________1
 62
     7
 10
20.132020000000001
 20
233.87379300000001
 30
0.0
 40
38.694703000000011
 50
169.974727
 51
174.03230400000001
  0
ARC
  5
398
  8
_________1
 62
     7
 10
40.037258999999999
 20
231.565293
 30
0.0
 40
58.732514999999999
 50
173.81135
 51
176.30001399999989
  0
ARC
  5
399
  8
_________1
 62
     7
 10
70.515384999999995
 20
229.44850700000001
 30
0.0
 40
89.283833000000001
 50
176.20659900000001
 51
178.40768899999989
  0
ARC
  5
39A
  8
_________1
 62
     7
 10
129.16673899999989
 20
227.50164599999999
 30
0.0
 40
147.96697499999999
 50
178.28519
 51
179.42048500000001
  0
ARC
  5
39B
  8
_________1
 62
     7
 10
231.87514200000001
 20
226.20042699999999
 30
0.0
 40
250.68342200000001
 50
179.36051900000001
 51
179.7647879999999
  0
ARC
  5
39C
  8
_________1
 62
     7
 10
711.60322999999994
 20
224.59566100000001
 30
0.0
 40
730.41414699999984
 50
179.79337799999999
 51
180.1137139999999
  0
ARC
  5
39D
  8
_________1
 62
     7
 10
-40.100389999999997
 20
223.14326399999999
 30
0.0
 40
16.291011999999998
 50
357.18493999999998
 51
0.010588
  0
ARC
  5
39E
  8
_________1
 62
     7
 10
-34.176406999999998
 20
222.88308699999999
 30
0.0
 40
10.361447
 50
348.54231700000003
 51
357.01308499999999
  0
ARC
  5
39F
  8
_________1
 62
     7
 10
-58.430146000000001
 20
227.68265
 30
0.0
 40
35.085439999999998
 50
347.669375
 51
348.72840000000002
  0
LINE
  5
3A0
  8
_________1
 62
     7
 10
-24.1541
 20
220.19
 30
0.0
 11
-24.231200000000001
 21
219.827
 31
0.0
  0
ARC
  5
3A1
  8
_________1
 62
     7
 10
-37.564353999999987
 20
240.00551999999999
 30
0.0
 40
12.721196000000001
 50
18.443221999999999
 51
25.762649
  0
ARC
  5
3A2
  8
_________1
 62
     7
 10
-43.006464999999999
 20
238.06094200000001
 30
0.0
 40
18.499393000000001
 50
13.802458
 51
18.824200999999999
  0
ARC
  5
3A3
  8
_________1
 62
     7
 10
-50.681530000000002
 20
236.07889399999999
 30
0.0
 40
26.425865999999999
 50
9.8726739999999982
 51
14.005691000000001
  0
ARC
  5
3A4
  8
_________1
 62
     7
 10
-62.748483999999991
 20
233.87420599999999
 30
0.0
 40
38.692275000000002
 50
5.9674379999999996
 51
10.025268000000001
  0
ARC
  5
3A5
  8
_________1
 62
     7
 10
-82.615697999999995
 20
231.56866600000001
 30
0.0
 40
58.691963999999992
 50
3.6992269999999992
 51
6.1896110000000002
  0
ARC
  5
3A6
  8
_________1
 62
     7
 10
-113.12554
 20
229.44905600000001
 30
0.0
 40
89.275114000000002
 50
1.5920939999999999
 51
3.7933989999999991
  0
ARC
  5
3A7
  8
_________1
 62
     7
 10
-171.647876
 20
227.504132
 30
0.0
 40
147.829238
 50
0.579071
 51
1.7154249999999991
  0
ARC
  5
3A8
  8
_________1
 62
     7
 10
-274.105345
 20
226.20415499999999
 30
0.0
 40
250.29475099999999
 50
0.234704
 51
0.639601
  0
ARC
  5
3A9
  8
_________1
 62
     7
 10
-753.11850400000003
 20
224.595595
 30
0.0
 40
729.31056599999999
 50
359.88613900000001
 51
0.20692
  0
ARC
  5
3AA
  8
_________1
 62
     7
 10
-37.871621000000012
 20
241.023753
 30
0.0
 40
13.931761
 50
15.980822
 51
21.503471999999999
  0
ARC
  5
3AB
  8
_________1
 62
     7
 10
-45.317184999999988
 20
238.77643399999999
 30
0.0
 40
21.708586
 50
12.000969
 51
16.272701999999999
  0
ARC
  5
3AC
  8
_________1
 62
     7
 10
-55.496143999999987
 20
236.49890199999999
 30
0.0
 40
32.138831000000003
 50
9.0748429999999995
 51
12.199322
  0
ARC
  5
3AD
  8
_________1
 62
     7
 10
-70.027210999999994
 20
234.09132700000001
 30
0.0
 40
46.867825999999987
 50
6.1340729999999999
 51
9.1794080000000005
  0
ARC
  5
3AE
  8
_________1
 62
     7
 10
-91.665889000000007
 20
231.61246499999999
 30
0.0
 40
68.647661999999997
 50
3.8240619999999992
 51
6.2613219999999989
  0
ARC
  5
3AF
  8
_________1
 62
     7
 10
-121.218041
 20
229.46886699999999
 30
0.0
 40
98.277124000000015
 50
1.8423069999999999
 51
3.9219520000000001
  0
ARC
  5
3B0
  8
_________1
 62
     7
 10
-170.84876800000001
 20
227.668271
 30
0.0
 40
147.940225
 50
359.83344199999999
 51
1.9213519999999991
  0
INSERT
  5
3B1
  8
_________1
 62
     7
  2
AIGNBL0201000A
 10
0.0
 20
0.0
 30
0.0
  0
LINE
  5
3B2
  8
_________1
 62
     7
 10
-1.3091399999999991
 20
238.35599999999999
 30
0.0
 11
-1.3091399999999991
 21
231.72300000000001
 31
0.0
  0
LINE
  5
3B3
  8
_________1
 62
     7
 10
-41.309399999999989
 20
238.35599999999999
 30
0.0
 11
-41.309399999999989
 21
231.72300000000001
 31
0.0
  0
LINE
  5
3B4
  8
_________1
 62
     7
 10
-1.3091399999999991
 20
259.995
 30
0.0
 11
-1.3091399999999991
 21
254.00299999999999
 31
0.0
  0
LINE
  5
3B5
  8
_________1
 62
     7
 10
-21.3093
 20
259.995
 30
0.0
 11
-21.3093
 21
254.00299999999999
 31
0.0
  0
LINE
  5
3B6
  8
_________1
 62
     7
 10
-41.309399999999989
 20
259.995
 30
0.0
 11
-41.309399999999989
 21
254.00299999999999
 31
0.0
  0
LINE
  5
3B7
  8
_________1
 62
     7
 10
-18.339200000000002
 20
251.477
 30
0.0
 11
-19.363800000000001
 21
249.42500000000001
 31
0.0
  0
LINE
  5
3B8
  8
_________1
  6
AIGENLINE001
 62
     7
 10
-21.3093
 20
253.66499999999999
 30
0.0
 11
-21.3093
 21
215.119
 31
0.0
  0
LINE
  5
3B9
  8
_________1
 62
     7
 10
-24.282599999999999
 20
251.477
 30
0.0
 11
-23.258199999999999
 21
249.42500000000001
 31
0.0
  0
LINE
  5
3BA
  8
_________1
 62
     7
 10
-22.909199999999998
 20
227.238
 30
0.0
 11
-22.909199999999998
 21
219.08799999999999
 31
0.0
  0
LINE
  5
3BB
  8
_________1
 62
     7
 10
-17.709499999999998
 20
246.131
 30
0.0
 11
-19.510899999999999
 21
249.131
 31
0.0
  0
LINE
  5
3BC
  8
_________1
 62
     7
 10
-23.110900000000001
 20
249.131
 30
0.0
 11
-24.909600000000001
 21
246.131
 31
0.0
  0
LINE
  5
3BD
  8
_________1
 62
     7
 10
-23.110900000000001
 20
249.131
 30
0.0
 11
-19.510899999999999
 21
249.131
 31
0.0
  0
ARC
  5
3BE
  8
_________1
 62
     7
 10
-21.196286000000001
 20
219.206309
 30
0.0
 40
3.097850999999999
 50
168.43391800000001
 51
247.37703300000001
  0
ARC
  5
3BF
  8
_________1
 62
     7
 10
-21.309372
 20
219.14641
 30
0.0
 40
3.0001639999999989
 50
248.93069499999999
 51
338.92296499999998
  0
ARC
  5
3C0
  8
_________1
 62
     7
 10
-21.323101000000001
 20
219.148854
 30
0.0
 40
3.0138539999999998
 50
338.97347400000001
 51
359.94857200000001
  0
ARC
  5
3C1
  8
_________1
 62
     7
 10
-21.315318999999999
 20
219.14546200000001
 30
0.0
 40
3.006070999999999
 50
0.013091
 51
13.112304
  0
LINE
  5
3C2
  8
_________1
 62
     7
 10
-45.065100000000001
 20
246.935
 30
0.0
 11
-56.114400000000003
 21
247.22499999999999
 31
0.0
  0
LINE
  5
3C3
  8
_________1
 62
     7
 10
-45.065100000000001
 20
247.73699999999999
 30
0.0
 11
-56.114400000000003
 21
248.22200000000001
 31
0.0
  0
LINE
  5
3C4
  8
_________1
 62
     7
 10
-56.309399999999989
 20
244.53100000000001
 30
0.0
 11
-56.609699999999989
 21
244.53100000000001
 31
0.0
  0
LINE
  5
3C5
  8
_________1
 62
     7
 10
-56.609699999999989
 20
244.53
 30
0.0
 11
-56.609699999999989
 21
247.72999999999999
 31
0.0
  0
LINE
  5
3C6
  8
_________1
 62
     7
 10
-56.309399999999989
 20
247.72999999999999
 30
0.0
 11
-56.609699999999989
 21
247.72999999999999
 31
0.0
  0
ARC
  5
3C7
  8
_________1
 62
     7
 10
-41.309711999999998
 20
246.13054600000001
 30
0.0
 40
2.000062999999999
 50
0.00001
 51
89.999980000000008
  0
ARC
  5
3C8
  8
_________1
 62
     7
 10
-41.309539000000001
 20
246.130718
 30
0.0
 40
1.9998910000000001
 50
90.004935000000003
 51
180.00494499999999
  0
ARC
  5
3C9
  8
_________1
 62
     7
 10
-41.309626000000002
 20
246.13046
 30
0.0
 40
1.9998039999999999
 50
179.99750299999999
 51
269.99755199999998
  0
ARC
  5
3CA
  8
_________1
 62
     7
 10
-41.309626000000002
 20
246.13063299999999
 30
0.0
 40
1.9999769999999999
 50
269.99755199999998
 51
359.997523
  0
ARC
  5
3CB
  8
_________1
 62
     7
 10
-41.309713000000002
 20
246.13054600000001
 30
0.0
 40
2.5001220000000002
 50
0.00001
 51
89.999980000000008
  0
ARC
  5
3CC
  8
_________1
 62
     7
 10
-41.309539000000001
 20
246.130718
 30
0.0
 40
2.4999500000000001
 50
90.003947999999994
 51
180.00395800000001
  0
ARC
  5
3CD
  8
_________1
 62
     7
 10
-41.309626000000002
 20
246.13046
 30
0.0
 40
2.4998629999999991
 50
179.997996
 51
269.99804599999999
  0
ARC
  5
3CE
  8
_________1
 62
     7
 10
-41.309626000000002
 20
246.13063299999999
 30
0.0
 40
2.5000360000000001
 50
269.99804599999999
 51
359.99801600000001
  0
ARC
  5
3CF
  8
_________1
 62
     7
 10
-55.904404000000007
 20
247.54889800000001
 30
0.0
 40
0.385684
 50
196.36836500000001
 51
237.00854100000001
  0
ARC
  5
3D0
  8
_________1
 62
     7
 10
-55.642433999999987
 20
247.63376099999999
 30
0.0
 40
0.660996
 50
189.132012
 51
197.026939
  0
ARC
  5
3D1
  8
_________1
 62
     7
 10
-55.134052000000011
 20
247.71284399999999
 30
0.0
 40
1.175487999999999
 50
179.14136999999999
 51
189.00507400000001
  0
ARC
  5
3D2
  8
_________1
 62
     7
 10
-55.658324999999991
 20
246.88789700000001
 30
0.0
 40
0.5673880000000001
 50
143.49846500000001
 51
159.16439500000001
  0
ARC
  5
3D3
  8
_________1
 62
     7
 10
-55.075691999999997
 20
246.64552
 30
0.0
 40
1.198285
 50
158.24192500000001
 51
170.51232200000001
  0
ARC
  5
3D4
  8
_________1
 62
     7
 10
-53.872566999999997
 20
246.40020699999999
 30
0.0
 40
2.425781999999999
 50
169.48149699999999
 51
173.72777199999999
  0
ARC
  5
3D5
  8
_________1
 62
     7
 10
-51.876816999999988
 20
246.18643700000001
 30
0.0
 40
4.432942999999999
 50
173.79951299999999
 51
180.722433
  0
ARC
  5
3D6
  8
_________1
 62
     7
 10
-45.417686000000003
 20
246.64280600000001
 30
0.0
 40
0.457721
 50
22.113591
 51
39.611060999999999
  0
ARC
  5
3D7
  8
_________1
 62
     7
 10
-45.775896999999993
 20
246.485601
 30
0.0
 40
0.8488299999999998
 50
8.1569479999999999
 51
22.842267
  0
ARC
  5
3D8
  8
_________1
 62
     7
 10
-46.620623999999992
 20
246.33228299999999
 30
0.0
 40
1.707061999999999
 50
4.1793360000000002
 51
9.2281139999999997
  0
ARC
  5
3D9
  8
_________1
 62
     7
 10
-48.687632000000001
 20
246.19227599999999
 30
0.0
 40
3.778792999999999
 50
359.06398300000001
 51
4.0124620000000002
  0
ARC
  5
3DA
  8
_________1
 62
     7
 10
-45.409570000000002
 20
247.337343
 30
0.0
 40
0.5279110000000001
 50
34.328364000000001
 51
49.263124999999988
  0
ARC
  5
3DB
  8
_________1
 62
     7
 10
-45.300462000000003
 20
247.43252899999999
 30
0.0
 40
0.384509
 50
10.249904000000001
 51
31.782879000000001
  0
ARC
  5
3DC
  8
_________1
 62
     7
 10
-45.612909000000002
 20
247.367187
 30
0.0
 40
0.7036500000000001
 50
359.11499099999997
 51
10.958459
  0
ARC
  5
3DD
  8
_________1
 62
     7
 10
-56.027220999999997
 20
248.03497899999999
 30
0.0
 40
0.206262
 50
115.007169
 51
141.484388
  0
ARC
  5
3DE
  8
_________1
 62
     7
 10
-55.880513000000001
 20
247.90439900000001
 30
0.0
 40
0.402513
 50
139.945234
 51
161.51234299999999
  0
ARC
  5
3DF
  8
_________1
 62
     7
 10
-55.552919000000003
 20
247.7765
 30
0.0
 40
0.7539590000000001
 50
160.188579
 51
175.42707300000001
  0
ARC
  5
3E0
  8
_________1
 62
     7
 10
-55.193365
 20
247.731809
 30
0.0
 40
1.116044
 50
174.61167
 51
180.06934099999989
  0
ARC
  5
3E1
  8
_________1
 62
     7
 10
-41.309713000000002
 20
246.13054600000001
 30
0.0
 40
3.000008999999999
 50
0.00001
 51
89.999980000000008
  0
ARC
  5
3E2
  8
_________1
 62
     7
 10
-41.309711999999998
 20
246.13054600000001
 30
0.0
 40
3.000008999999999
 50
90.0
 51
179.99996999999999
  0
ARC
  5
3E3
  8
_________1
 62
     7
 10
-41.309713000000002
 20
246.13054600000001
 30
0.0
 40
3.0000079999999998
 50
179.99996999999999
 51
270.00002000000001
  0
ARC
  5
3E4
  8
_________1
 62
     7
 10
-41.309713000000002
 20
246.13054700000001
 30
0.0
 40
3.000008999999999
 50
270.00002000000001
 51
359.99999000000003
  0
ARC
  5
3E5
  8
_________1
 62
     7
 10
-41.309452999999998
 20
246.13063399999999
 30
0.0
 40
6.2000900000000003
 50
195.96914799999999
 51
285.96911799999998
  0
ARC
  5
3E6
  8
_________1
 62
     7
 10
-41.488428999999996
 20
246.26539600000001
 30
0.0
 40
6.3803199999999993
 50
287.18146400000001
 51
358.78894700000001
  0
ARC
  5
3E7
  8
_________1
 62
     7
 10
-41.309713000000002
 20
246.13054500000001
 30
0.0
 40
6.2001790000000003
 50
0.00001
 51
89.999980000000008
  0
ARC
  5
3E8
  8
_________1
 62
     7
 10
-41.173959000000004
 20
245.95094399999999
 30
0.0
 40
6.3812239999999987
 50
91.218983999999992
 51
162.856425
  0
LINE
  5
3E9
  8
_________1
  6
AIGENLINE001
 62
     7
 10
-41.309399999999989
 20
238.80600000000001
 30
0.0
 11
-41.309399999999989
 21
253.667
 31
0.0
  0
LINE
  5
3EA
  8
_________1
  6
AIGENLINE001
 62
     7
 10
-57.601500000000001
 20
246.131
 30
0.0
 11
15.2881
 21
246.131
 31
0.0
  0
LINE
  5
3EB
  8
_________1
 62
     7
 10
-56.309399999999989
 20
246.131
 30
0.0
 11
-56.309399999999989
 21
247.72999999999999
 31
0.0
  0
ARC
  5
3EC
  8
_________1
 62
     7
 10
1.477495999999999
 20
184.05893599999999
 30
0.0
 40
1.251854
 50
272.978858
 51
310.51933000000002
  0
ARC
  5
3ED
  8
_________1
 62
     7
 10
1.475020999999999
 20
179.149058
 30
0.0
 40
1.2584699999999991
 50
49.589787999999999
 51
89.968333999999984
  0
ARC
  5
3EE
  8
_________1
 62
     7
 10
12.342002000000001
 20
180.35914500000001
 30
0.0
 40
1.3225100000000001
 50
330.81251600000002
 51
347.03127899999998
  0
ARC
  5
3EF
  8
_________1
 62
     7
 10
11.677769
 20
180.53636900000001
 30
0.0
 40
2.0097119999999991
 50
346.35737699999999
 51
355.770782
  0
ARC
  5
3F0
  8
_________1
 62
     7
 10
10.743078000000001
 20
180.62570600000001
 30
0.0
 40
2.9485160000000001
 50
355.37896000000001
 51
0.135235
  0
ARC
  5
3F1
  8
_________1
 62
     7
 10
12.206811
 20
180.90925300000001
 30
0.0
 40
1.466556999999999
 50
7.5529169999999999
 51
28.422494
  0
ARC
  5
3F2
  8
_________1
 62
     7
 10
10.780468000000001
 20
180.67645200000001
 30
0.0
 40
2.9114459999999989
 50
359.13828100000001
 51
8.4050770000000004
  0
ARC
  5
3F3
  8
_________1
 62
     7
 10
12.351227
 20
182.859216
 30
0.0
 40
1.312697
 50
12.902791000000001
 51
29.246279999999999
  0
ARC
  5
3F4
  8
_________1
 62
     7
 10
11.6774
 20
182.678235
 30
0.0
 40
2.010089999999999
 50
4.2323180000000002
 51
13.642429
  0
ARC
  5
3F5
  8
_________1
 62
     7
 10
10.743736
 20
182.58905999999999
 30
0.0
 40
2.9478569999999991
 50
359.86443600000013
 51
4.6215659999999996
  0
ARC
  5
3F6
  8
_________1
 62
     7
 10
12.206886000000001
 20
182.305285
 30
0.0
 40
1.466470999999999
 50
331.57751200000001
 51
352.44994500000001
  0
ARC
  5
3F7
  8
_________1
 62
     7
 10
10.779032000000001
 20
182.53827699999999
 30
0.0
 40
2.9128829999999999
 50
351.59697599999998
 51
0.8617349999999998
  0
ARC
  5
3F8
  8
_________1
 62
     7
 10
-6.5346890000000002
 20
153.974918
 30
0.0
 40
1.1742799999999991
 50
151.69830200000001
 51
179.88489899999999
  0
ARC
  5
3F9
  8
_________1
 62
     7
 10
-7.0829019999999998
 20
154.25198399999999
 30
0.0
 40
0.560466
 50
125.610028
 51
150.06557599999999
  0
ARC
  5
3FA
  8
_________1
 62
     7
 10
-6.6872729999999994
 20
153.97805299999999
 30
0.0
 40
1.0216940000000001
 50
180.04357300000001
 51
203.880955
  0
ARC
  5
3FB
  8
_________1
 62
     7
 10
-7.0103869999999988
 20
153.85324
 30
0.0
 40
0.6759190000000001
 50
205.29503299999999
 51
233.836433
  0
ARC
  5
3FC
  8
_________1
 62
     7
 10
-3.381955
 20
155.90565100000001
 30
0.0
 40
4.3270109999999988
 50
179.98133300000001
 51
185.30189300000001
  0
ARC
  5
3FD
  8
_________1
 62
     7
 10
-5.244866
 20
155.74387300000001
 30
0.0
 40
2.4571469999999991
 50
185.55963700000001
 51
194.105625
  0
ARC
  5
3FE
  8
_________1
 62
     7
 10
-6.2963769999999988
 20
155.489948
 30
0.0
 40
1.3754939999999991
 50
194.521961
 51
205.81160800000001
  0
ARC
  5
3FF
  8
_________1
 62
     7
 10
-6.8197070000000011
 20
155.24529899999999
 30
0.0
 40
0.7978890000000001
 50
206.359049
 51
222.36488900000001
  0
LINE
  5
400
  8
_________1
 62
     7
 10
-7.708969999999999
 20
153.977
 30
0.0
 11
-7.708969999999999
 21
155.90700000000001
 31
0.0
  0
ARC
  5
401
  8
_________1
 62
     7
 10
-6.6823729999999992
 20
153.974918
 30
0.0
 40
1.173289
 50
0.115168
 51
28.327729999999988
  0
ARC
  5
402
  8
_________1
 62
     7
 10
-6.1356539999999988
 20
154.25158099999999
 30
0.0
 40
0.5609850000000001
 50
29.951311
 51
54.386524999999992
  0
ARC
  5
403
  8
_________1
 62
     7
 10
-6.5296839999999987
 20
153.97805199999999
 30
0.0
 40
1.0205969999999991
 50
336.09187100000003
 51
359.95647300000002
  0
ARC
  5
404
  8
_________1
 62
     7
 10
-6.2080640000000002
 20
153.85359199999999
 30
0.0
 40
0.6763360000000001
 50
306.16135300000002
 51
334.688672
  0
ARC
  5
405
  8
_________1
 62
     7
 10
-9.8259939999999997
 20
155.90564599999999
 30
0.0
 40
4.3169079999999989
 50
354.68574699999999
 51
0.018755
  0
ARC
  5
406
  8
_________1
 62
     7
 10
-7.9740219999999988
 20
155.744473
 30
0.0
 40
2.4579930000000001
 50
345.88493999999997
 51
354.42826000000002
  0
ARC
  5
407
  8
_________1
 62
     7
 10
-6.922985999999999
 20
155.49059800000001
 30
0.0
 40
1.3768139999999991
 50
334.18497300000001
 51
345.46438000000001
  0
ARC
  5
408
  8
_________1
 62
     7
 10
-6.3986529999999986
 20
155.245453
 30
0.0
 40
0.7980920000000001
 50
317.63341200000002
 51
333.6358140000001
  0
LINE
  5
409
  8
_________1
 62
     7
 10
-7.4092399999999987
 20
154.708
 30
0.0
 11
-5.80898
 21
154.708
 31
0.0
  0
LINE
  5
40A
  8
_________1
 62
     7
 10
-7.4092399999999987
 20
153.30799999999999
 30
0.0
 11
-5.80898
 21
153.30799999999999
 31
0.0
  0
LINE
  5
40B
  8
_________1
 62
     7
 10
-5.5090899999999996
 20
153.977
 30
0.0
 11
-5.5090899999999996
 21
155.90700000000001
 31
0.0
  0
ARC
  5
40C
  8
_________1
 62
     7
 10
-6.5337839999999989
 20
157.839719
 30
0.0
 40
1.1751849999999999
 50
180.115117
 51
208.29056700000001
  0
ARC
  5
40D
  8
_________1
 62
     7
 10
-7.0847829999999989
 20
157.561306
 30
0.0
 40
0.558277
 50
209.931183
 51
234.46651299999999
  0
ARC
  5
40E
  8
_________1
 62
     7
 10
-6.6872729999999994
 20
157.83658199999999
 30
0.0
 40
1.0216940000000001
 50
156.119045
 51
179.95642699999999
  0
ARC
  5
40F
  8
_________1
 62
     7
 10
-7.0103869999999988
 20
157.96139600000001
 30
0.0
 40
0.6759190000000001
 50
126.163567
 51
154.7049669999999
  0
ARC
  5
410
  8
_________1
 62
     7
 10
-3.381483999999999
 20
155.908467
 30
0.0
 40
4.3274829999999991
 50
174.698396
 51
180.01866100000001
  0
ARC
  5
411
  8
_________1
 62
     7
 10
-5.242894999999999
 20
156.07006799999999
 30
0.0
 40
2.4591279999999989
 50
165.899134
 51
174.44020599999999
  0
ARC
  5
412
  8
_________1
 62
     7
 10
-6.2945219999999988
 20
156.324003
 30
0.0
 40
1.3773580000000001
 50
154.20524499999999
 51
165.48632000000001
  0
ARC
  5
413
  8
_________1
 62
     7
 10
-6.817264999999999
 20
156.56812600000001
 30
0.0
 40
0.800509
 50
137.68885700000001
 51
153.65609599999999
  0
LINE
  5
414
  8
_________1
 62
     7
 10
-7.708969999999999
 20
157.83699999999999
 30
0.0
 11
-7.708969999999999
 21
155.90700000000001
 31
0.0
  0
ARC
  5
415
  8
_________1
 62
     7
 10
-6.6832779999999987
 20
157.839719
 30
0.0
 40
1.174193
 50
331.68340999999998
 51
359.884816
  0
ARC
  5
416
  8
_________1
 62
     7
 10
-6.1337699999999993
 20
157.56170599999999
 30
0.0
 40
0.558792
 50
305.53693399999997
 51
330.05192899999997
  0
ARC
  5
417
  8
_________1
 62
     7
 10
-8.4247880000000013
 20
155.90551500000001
 30
0.0
 40
4.9483199999999989
 50
354.97501799999998
 51
0.017875
  0
ARC
  5
418
  8
_________1
 62
     7
 10
-5.9508390000000002
 20
155.70438799999999
 30
0.0
 40
2.4663169999999992
 50
342.05574900000011
 51
354.59544200000011
  0
ARC
  5
419
  8
_________1
 62
     7
 10
-5.1883280000000003
 20
155.487616
 30
0.0
 40
1.674358
 50
319.81516199999999
 51
341.07374199999998
  0
ARC
  5
41A
  8
_________1
 62
     7
 10
-6.5296839999999987
 20
157.83658299999999
 30
0.0
 40
1.0205969999999991
 50
0.043527
 51
23.90812900000001
  0
ARC
  5
41B
  8
_________1
 62
     7
 10
-6.2080640000000002
 20
157.96104299999999
 30
0.0
 40
0.6763360000000001
 50
25.311328
 51
53.838647000000002
  0
ARC
  5
41C
  8
_________1
 62
     7
 10
-9.8264649999999971
 20
155.90847199999999
 30
0.0
 40
4.3173779999999988
 50
359.98125099999999
 51
5.3139640000000004
  0
ARC
  5
41D
  8
_________1
 62
     7
 10
-7.9759949999999993
 20
156.069468
 30
0.0
 40
2.4599759999999988
 50
5.5718959999999988
 51
14.110298
  0
ARC
  5
41E
  8
_________1
 62
     7
 10
-6.9248419999999991
 20
156.323353
 30
0.0
 40
1.378679999999999
 50
14.527331999999999
 51
25.798172000000001
  0
ARC
  5
41F
  8
_________1
 62
     7
 10
-6.401095999999999
 20
156.567971
 30
0.0
 40
0.800713
 50
26.349039000000008
 51
42.312840999999992
  0
ARC
  5
420
  8
_________1
 62
     7
 10
-8.4268029999999996
 20
155.908601
 30
0.0
 40
4.950334999999999
 50
359.98215900000002
 51
5.0239580000000004
  0
ARC
  5
421
  8
_________1
 62
     7
 10
-5.953587999999999
 20
156.10960499999999
 30
0.0
 40
2.4690739999999991
 50
5.403427999999999
 51
17.934726000000001
  0
ARC
  5
422
  8
_________1
 62
     7
 10
-5.1888829999999997
 20
156.32688999999999
 30
0.0
 40
1.674865
 50
18.918371
 51
40.175979999999988
  0
ARC
  5
423
  8
_________1
 62
     7
 10
-1.470391
 20
181.41205400000001
 30
0.0
 40
2.8098669999999988
 50
190.22887800000001
 51
205.38731799999999
  0
ARC
  5
424
  8
_________1
 62
     7
 10
-0.302841
 20
181.67606699999999
 30
0.0
 40
4.0060880000000001
 50
179.55473000000001
 51
190.97950499999999
  0
ARC
  5
425
  8
_________1
 62
     7
 10
-1.465144
 20
182.0002419999999
 30
0.0
 40
2.8156560000000002
 50
154.61352400000001
 51
170.01110800000001
  0
ARC
  5
426
  8
_________1
 62
     7
 10
-0.289454
 20
181.73753400000001
 30
0.0
 40
4.0194660000000004
 50
169.23002600000001
 51
180.4275439999999
  0
ARC
  5
427
  8
_________1
 62
     7
 10
-1.1594070000000001
 20
181.416606
 30
0.0
 40
2.8225279999999988
 50
334.63240100000002
 51
349.99227100000002
  0
ARC
  5
428
  8
_________1
 62
     7
 10
-2.3285049999999989
 20
181.67720700000001
 30
0.0
 40
4.019480999999999
 50
349.23006600000002
 51
0.4275040000000001
  0
ARC
  5
429
  8
_________1
 62
     7
 10
-2.7216139999999989
 20
179.53032400000001
 30
0.0
 40
4.8019280000000002
 50
97.580763000000005
 51
103.089163
  0
ARC
  5
42A
  8
_________1
 62
     7
 10
-1.9919629999999999
 20
174.586029
 30
0.0
 40
9.7995239999999981
 50
93.701952000000034
 51
97.995911000000007
  0
ARC
  5
42B
  8
_________1
 62
     7
 10
-1.392496999999999
 20
166.48051000000001
 30
0.0
 40
17.926991999999998
 50
89.733588999999995
 51
93.941242999999986
  0
ARC
  5
42C
  8
_________1
 62
     7
 10
0.102915
 20
179.52655200000001
 30
0.0
 40
4.8057339999999993
 50
76.914234999999991
 51
82.419155000000003
  0
ARC
  5
42D
  8
_________1
 62
     7
 10
-0.626394
 20
174.58387400000001
 30
0.0
 40
9.8016810000000003
 50
82.004867000000004
 51
86.298256999999992
  0
ARC
  5
42E
  8
_________1
 62
     7
 10
-1.2258129999999989
 20
166.47891100000001
 30
0.0
 40
17.928591999999998
 50
86.058918000000006
 51
90.266300000000015
  0
ARC
  5
42F
  8
_________1
 62
     7
 10
-1.1594070000000001
 20
181.99813499999999
 30
0.0
 40
2.8225279999999988
 50
10.007728999999999
 51
25.367598999999998
  0
ARC
  5
430
  8
_________1
 62
     7
 10
-2.3285049999999989
 20
181.73753300000001
 30
0.0
 40
4.019480999999999
 50
359.572496
 51
10.769933999999999
  0
LINE
  5
431
  8
_________1
 62
     7
 10
-10.0093
 20
154.607
 30
0.0
 11
-11.109299999999999
 21
154.607
 31
0.0
  0
ARC
  5
432
  8
_________1
 62
     7
 10
-9.8049400000000002
 20
154.70314099999999
 30
0.0
 40
0.10432
 50
92.290856999999974
 51
177.90600599999999
  0
ARC
  5
433
  8
_________1
 62
     7
 10
-10.012740000000001
 20
154.710778
 30
0.0
 40
0.10362
 50
271.91834999999998
 51
357.88408900000002
  0
ARC
  5
434
  8
_________1
 62
     7
 10
-8.6130019999999998
 20
154.70348300000001
 30
0.0
 40
0.103965
 50
1.912261999999999
 51
87.890835999999993
  0
LINE
  5
435
  8
_________1
 62
     7
 10
-7.9091300000000002
 20
154.607
 30
0.0
 11
-8.4090100000000003
 21
154.607
 31
0.0
  0
ARC
  5
436
  8
_________1
 62
     7
 10
-8.4052399999999992
 20
154.711085
 30
0.0
 40
0.103937
 50
182.27866299999999
 51
267.91893800000003
  0
LINE
  5
437
  8
_________1
 62
     7
 10
-9.8091100000000004
 20
154.80699999999999
 30
0.0
 11
-8.6091800000000003
 21
154.80699999999999
 31
0.0
  0
LINE
  5
438
  8
_________1
 62
     7
 10
-10.0093
 20
157.20699999999999
 30
0.0
 11
-11.109299999999999
 21
157.20699999999999
 31
0.0
  0
ARC
  5
439
  8
_________1
 62
     7
 10
-9.8053210000000011
 20
157.111141
 30
0.0
 40
0.103953
 50
182.28664599999999
 51
267.910955
  0
ARC
  5
43A
  8
_________1
 62
     7
 10
-10.012969999999999
 20
157.10365200000001
 30
0.0
 40
0.103833
 50
1.84439
 51
87.958707000000004
  0
ARC
  5
43B
  8
_________1
 62
     7
 10
-8.6126439999999995
 20
157.11081899999999
 30
0.0
 40
0.10362
 50
271.91834999999998
 51
357.88408900000002
  0
LINE
  5
43C
  8
_________1
 62
     7
 10
-7.9091300000000002
 20
157.20699999999999
 30
0.0
 11
-8.4090100000000003
 21
157.20699999999999
 31
0.0
  0
ARC
  5
43D
  8
_________1
 62
     7
 10
-8.4048649999999991
 20
157.10320200000001
 30
0.0
 40
0.104299
 50
92.280220999999997
 51
177.916641
  0
LINE
  5
43E
  8
_________1
 62
     7
 10
-7.708969999999999
 20
154.70699999999999
 30
0.0
 11
-7.9091300000000002
 21
154.70699999999999
 31
0.0
  0
LINE
  5
43F
  8
_________1
 62
     7
 10
-7.708969999999999
 20
157.107
 30
0.0
 11
-7.9091300000000002
 21
157.107
 31
0.0
  0
LINE
  5
440
  8
_________1
 62
     7
 10
-11.109299999999999
 20
154.70699999999999
 30
0.0
 11
-14.4741
 21
154.70699999999999
 31
0.0
  0
LINE
  5
441
  8
_________1
 62
     7
 10
-11.109299999999999
 20
157.107
 30
0.0
 11
-14.4741
 21
157.107
 31
0.0
  0
LINE
  5
442
  8
_________1
 62
     7
 10
-9.8091100000000004
 20
157.00700000000001
 30
0.0
 11
-8.6091800000000003
 21
157.00700000000001
 31
0.0
  0
LINE
  5
443
  8
_________1
 62
     7
 10
-11.109299999999999
 20
157.20699999999999
 30
0.0
 11
-11.109299999999999
 21
154.607
 31
0.0
  0
LINE
  5
444
  8
_________1
 62
     7
 10
-7.9091300000000002
 20
157.20699999999999
 30
0.0
 11
-7.9091300000000002
 21
154.607
 31
0.0
  0
LINE
  5
445
  8
_________1
 62
     7
 10
-7.4092399999999987
 20
157.107
 30
0.0
 11
-5.80898
 21
157.107
 31
0.0
  0
LINE
  5
446
  8
_________1
 62
     7
 10
-7.4092399999999987
 20
158.50700000000001
 30
0.0
 11
-5.80898
 21
158.50700000000001
 31
0.0
  0
LINE
  5
447
  8
_________1
 62
     7
 10
-5.5090899999999996
 20
154.40700000000001
 30
0.0
 11
-3.9091699999999991
 21
154.40700000000001
 31
0.0
  0
LINE
  5
448
  8
_________1
 62
     7
 10
-5.5090899999999996
 20
157.40700000000001
 30
0.0
 11
-3.9091699999999991
 21
157.40700000000001
 31
0.0
  0
LINE
  5
449
  8
_________1
 62
     7
 10
-5.5090899999999996
 20
157.83699999999999
 30
0.0
 11
-5.5090899999999996
 21
155.90700000000001
 31
0.0
  0
LINE
  5
44A
  8
_________1
  6
AIGENLINE001
 62
     7
 10
-41.309399999999989
 20
155.90700000000001
 30
0.0
 11
-1.3091399999999991
 21
155.90700000000001
 31
0.0
  0
LINE
  5
44B
  8
_________1
 62
     7
 10
0.59101
 20
152.607
 30
0.0
 11
0.7909990000000001
 21
152.80699999999999
 31
0.0
  0
LINE
  5
44C
  8
_________1
 62
     7
 10
-3.20913
 20
152.607
 30
0.0
 11
-3.4089399999999999
 21
152.80699999999999
 31
0.0
  0
LINE
  5
44D
  8
_________1
 62
     7
 10
-3.4089399999999999
 20
150.40700000000001
 30
0.0
 11
-3.20913
 21
150.20699999999999
 31
0.0
  0
LINE
  5
44E
  8
_________1
 62
     7
 10
0.7909990000000001
 20
150.40700000000001
 30
0.0
 11
0.59101
 21
150.20699999999999
 31
0.0
  0
LINE
  5
44F
  8
_________1
 62
     7
 10
-3.4089399999999999
 20
150.40700000000001
 30
0.0
 11
0.7909990000000001
 21
150.40700000000001
 31
0.0
  0
LINE
  5
450
  8
_________1
 62
     7
 10
0.59101
 20
152.607
 30
0.0
 11
0.59101
 21
150.20699999999999
 31
0.0
  0
LINE
  5
451
  8
_________1
 62
     7
 10
-3.20913
 20
150.20699999999999
 30
0.0
 11
-3.20913
 21
152.607
 31
0.0
  0
LINE
  5
452
  8
_________1
 62
     7
 10
-3.4089399999999999
 20
150.40700000000001
 30
0.0
 11
-3.4089399999999999
 21
153.607
 31
0.0
  0
LINE
  5
453
  8
_________1
 62
     7
 10
0.7909990000000001
 20
153.607
 30
0.0
 11
0.7909990000000001
 21
150.40700000000001
 31
0.0
  0
LINE
  5
454
  8
_________1
 62
     7
 10
-3.20913
 20
150.20699999999999
 30
0.0
 11
0.59101
 21
150.20699999999999
 31
0.0
  0
LINE
  5
455
  8
_________1
 62
     7
 10
-3.4089399999999999
 20
152.607
 30
0.0
 11
0.7909990000000001
 21
152.607
 31
0.0
  0
LINE
  5
456
  8
_________1
 62
     7
 10
-3.9091699999999991
 20
153.607
 30
0.0
 11
1.2910600000000001
 21
153.607
 31
0.0
  0
LINE
  5
457
  8
_________1
 62
     7
 10
-3.9091699999999991
 20
159.40700000000001
 30
0.0
 11
-3.7091899999999991
 21
159.607
 31
0.0
  0
LINE
  5
458
  8
_________1
 62
     7
 10
1.2910600000000001
 20
159.40700000000001
 30
0.0
 11
1.0908999999999991
 21
159.607
 31
0.0
  0
LINE
  5
459
  8
_________1
 62
     7
 10
-3.7091899999999991
 20
159.607
 30
0.0
 11
-3.7091899999999991
 21
163.00700000000001
 31
0.0
  0
LINE
  5
45A
  8
_________1
 62
     7
 10
-3.9091699999999991
 20
157.40700000000001
 30
0.0
 11
-3.9091699999999991
 21
163.00700000000001
 31
0.0
  0
LINE
  5
45B
  8
_________1
 62
     7
 10
-3.9091699999999991
 20
153.607
 30
0.0
 11
-3.9091699999999991
 21
154.40700000000001
 31
0.0
  0
LINE
  5
45C
  8
_________1
 62
     7
 10
1.0908999999999991
 20
159.607
 30
0.0
 11
1.0908999999999991
 21
163.00700000000001
 31
0.0
  0
LINE
  5
45D
  8
_________1
 62
     7
 10
1.2910600000000001
 20
153.607
 30
0.0
 11
1.2910600000000001
 21
163.00700000000001
 31
0.0
  0
LINE
  5
45E
  8
_________1
 62
     7
 10
-3.9091699999999991
 20
159.607
 30
0.0
 11
1.2910600000000001
 21
159.607
 31
0.0
  0
LINE
  5
45F
  8
_________1
 62
     7
 10
-4.7732099999999988
 20
163.00700000000001
 30
0.0
 11
2.1550899999999991
 21
163.00700000000001
 31
0.0
  0
LINE
  5
460
  8
_________1
 62
     7
 10
-4.7732099999999988
 20
164.00700000000001
 30
0.0
 11
-4.7732099999999988
 21
163.00700000000001
 31
0.0
  0
LINE
  5
461
  8
_________1
 62
     7
 10
-3.0413499999999991
 20
164.00700000000001
 30
0.0
 11
-3.0413499999999991
 21
163.00700000000001
 31
0.0
  0
LINE
  5
462
  8
_________1
 62
     7
 10
0.4230600000000001
 20
164.00700000000001
 30
0.0
 11
0.4230600000000001
 21
163.00700000000001
 31
0.0
  0
LINE
  5
463
  8
_________1
 62
     7
 10
2.1550899999999991
 20
164.00700000000001
 30
0.0
 11
2.1550899999999991
 21
163.00700000000001
 31
0.0
  0
LINE
  5
464
  8
_________1
 62
     7
 10
3.1910400000000001
 20
164.00700000000001
 30
0.0
 11
3.1910400000000001
 21
164.20699999999999
 31
0.0
  0
LINE
  5
465
  8
_________1
 62
     7
 10
-5.8093300000000001
 20
164.00700000000001
 30
0.0
 11
-5.8093300000000001
 21
164.20699999999999
 31
0.0
  0
LINE
  5
466
  8
_________1
 62
     7
 10
-5.8093300000000001
 20
164.00700000000001
 30
0.0
 11
3.1910400000000001
 21
164.00700000000001
 31
0.0
  0
LINE
  5
467
  8
_________1
 62
     7
 10
-3.7091899999999991
 20
164.40700000000001
 30
0.0
 11
-3.7091899999999991
 21
170.40700000000001
 31
0.0
  0
LINE
  5
468
  8
_________1
 62
     7
 10
-3.9091699999999991
 20
164.40700000000001
 30
0.0
 11
-3.9091699999999991
 21
170.40700000000001
 31
0.0
  0
LINE
  5
469
  8
_________1
 62
     7
 10
1.0908999999999991
 20
164.40700000000001
 30
0.0
 11
1.0908999999999991
 21
170.40700000000001
 31
0.0
  0
LINE
  5
46A
  8
_________1
 62
     7
 10
1.2910600000000001
 20
164.40700000000001
 30
0.0
 11
1.2910600000000001
 21
170.40700000000001
 31
0.0
  0
LINE
  5
46B
  8
_________1
 62
     7
 10
-5.5090899999999996
 20
164.20699999999999
 30
0.0
 11
-5.5090899999999996
 21
164.40700000000001
 31
0.0
  0
LINE
  5
46C
  8
_________1
 62
     7
 10
2.8909699999999998
 20
164.20699999999999
 30
0.0
 11
2.8909699999999998
 21
164.40700000000001
 31
0.0
  0
LINE
  5
46D
  8
_________1
 62
     7
 10
-5.8093300000000001
 20
164.20699999999999
 30
0.0
 11
3.1910400000000001
 21
164.20699999999999
 31
0.0
  0
LINE
  5
46E
  8
_________1
 62
     7
 10
-5.5090899999999996
 20
164.40700000000001
 30
0.0
 11
2.8909699999999998
 21
164.40700000000001
 31
0.0
  0
LINE
  5
46F
  8
_________1
 62
     7
 10
-3.5591499999999989
 20
183.607
 30
0.0
 11
-3.5591499999999989
 21
183.20699999999999
 31
0.0
  0
LINE
  5
470
  8
_________1
 62
     7
 10
-3.109049999999999
 20
183.607
 30
0.0
 11
-3.109049999999999
 21
183.20699999999999
 31
0.0
  0
LINE
  5
471
  8
_________1
 62
     7
 10
-2.6591099999999992
 20
183.607
 30
0.0
 11
-2.6591099999999992
 21
183.20699999999999
 31
0.0
  0
LINE
  5
472
  8
_________1
 62
     7
 10
-2.2090099999999988
 20
183.607
 30
0.0
 11
-2.2090099999999988
 21
183.20699999999999
 31
0.0
  0
LINE
  5
473
  8
_________1
 62
     7
 10
-1.7592499999999991
 20
183.607
 30
0.0
 11
-1.7592499999999991
 21
183.20699999999999
 31
0.0
  0
LINE
  5
474
  8
_________1
 62
     7
 10
-3.8090899999999999
 20
184.20699999999999
 30
0.0
 11
-1.3091399999999991
 21
184.20699999999999
 31
0.0
  0
LINE
  5
475
  8
_________1
 62
     7
 10
-3.8090899999999999
 20
184.20699999999999
 30
0.0
 11
-3.8090899999999999
 21
183.607
 31
0.0
  0
LINE
  5
476
  8
_________1
 62
     7
 10
-4.0089100000000002
 20
183.607
 30
0.0
 11
-4.0089100000000002
 21
183.20699999999999
 31
0.0
  0
LINE
  5
477
  8
_________1
 62
     7
 10
-1.3091399999999991
 20
183.607
 30
0.0
 11
-4.0089100000000002
 21
183.607
 31
0.0
  0
LINE
  5
478
  8
_________1
 62
     7
 10
-1.3091399999999991
 20
183.20699999999999
 30
0.0
 11
-4.0089100000000002
 21
183.20699999999999
 31
0.0
  0
LINE
  5
479
  8
_________1
 62
     7
 10
-1.3091399999999991
 20
180.20699999999999
 30
0.0
 11
-4.0089100000000002
 21
180.20699999999999
 31
0.0
  0
LINE
  5
47A
  8
_________1
 62
     7
 10
-1.3091399999999991
 20
179.607
 30
0.0
 11
-2.708899999999999
 21
179.607
 31
0.0
  0
LINE
  5
47B
  8
_________1
 62
     7
 10
-2.4089999999999998
 20
179.607
 30
0.0
 11
-2.4089999999999998
 21
180.20699999999999
 31
0.0
  0
LINE
  5
47C
  8
_________1
 62
     7
 10
-3.5090199999999991
 20
176.607
 30
0.0
 11
-3.109049999999999
 21
176.607
 31
0.0
  0
LINE
  5
47D
  8
_________1
 62
     7
 10
-3.9089999999999989
 20
176.20699999999999
 30
0.0
 11
-3.9089999999999989
 21
175.93600000000001
 31
0.0
  0
ARC
  5
47E
  8
_________1
 62
     7
 10
-3.4937260000000001
 20
176.19194300000001
 30
0.0
 40
0.415558
 50
92.109700000000004
 51
177.89027100000001
  0
LINE
  5
47F
  8
_________1
 62
     7
 10
-2.708899999999999
 20
177.00700000000001
 30
0.0
 11
-2.708899999999999
 21
179.607
 31
0.0
  0
ARC
  5
480
  8
_________1
 62
     7
 10
-3.1241779999999988
 20
177.02250699999999
 30
0.0
 40
0.415564
 50
272.08671600000002
 51
357.88862399999999
  0
LINE
  5
481
  8
_________1
 62
     7
 10
2.2908300000000001
 20
181.607
 30
0.0
 11
13.496600000000001
 21
181.607
 31
0.0
  0
LINE
  5
482
  8
_________1
 62
     7
 10
2.2908300000000001
 20
180.107
 30
0.0
 11
13.496600000000001
 21
179.714
 31
0.0
  0
LINE
  5
483
  8
_________1
 62
     7
 10
13.496600000000001
 20
183.501
 30
0.0
 11
2.2908300000000001
 21
183.107
 31
0.0
  0
LINE
  5
484
  8
_________1
 62
     7
 10
2.2908300000000001
 20
180.107
 30
0.0
 11
2.2908300000000001
 21
183.107
 31
0.0
  0
LINE
  5
485
  8
_________1
 62
     7
 10
13.6158
 20
180.00700000000001
 30
0.0
 11
13.991300000000001
 21
180.00700000000001
 31
0.0
  0
LINE
  5
486
  8
_________1
 62
     7
 10
13.691599999999999
 20
180.6329999999999
 30
0.0
 11
13.691599999999999
 21
182.58199999999999
 31
0.0
  0
LINE
  5
487
  8
_________1
 62
     7
 10
13.991300000000001
 20
180.00700000000001
 30
0.0
 11
13.991300000000001
 21
183.20699999999999
 31
0.0
  0
LINE
  5
488
  8
_________1
 62
     7
 10
13.6158
 20
183.20699999999999
 30
0.0
 11
13.991300000000001
 21
183.20699999999999
 31
0.0
  0
LINE
  5
489
  8
_________1
 62
     7
 10
0.9410339999999999
 20
183.607
 30
0.0
 11
0.9410339999999999
 21
183.20699999999999
 31
0.0
  0
LINE
  5
48A
  8
_________1
 62
     7
 10
0.4909290000000001
 20
183.607
 30
0.0
 11
0.4909290000000001
 21
183.20699999999999
 31
0.0
  0
LINE
  5
48B
  8
_________1
 62
     7
 10
0.0408246
 20
183.607
 30
0.0
 11
0.0408246
 21
183.20699999999999
 31
0.0
  0
LINE
  5
48C
  8
_________1
 62
     7
 10
-0.408935
 20
183.607
 30
0.0
 11
-0.408935
 21
183.20699999999999
 31
0.0
  0
LINE
  5
48D
  8
_________1
 62
     7
 10
-0.8590399999999998
 20
183.607
 30
0.0
 11
-0.8590399999999998
 21
183.20699999999999
 31
0.0
  0
LINE
  5
48E
  8
_________1
 62
     7
 10
1.190979999999999
 20
184.20699999999999
 30
0.0
 11
-1.3091399999999991
 21
184.20699999999999
 31
0.0
  0
LINE
  5
48F
  8
_________1
 62
     7
 10
1.190979999999999
 20
184.20699999999999
 30
0.0
 11
1.190979999999999
 21
183.607
 31
0.0
  0
LINE
  5
490
  8
_________1
 62
     7
 10
1.39097
 20
183.607
 30
0.0
 11
1.39097
 21
183.20699999999999
 31
0.0
  0
LINE
  5
491
  8
_________1
 62
     7
 10
-1.3091399999999991
 20
183.607
 30
0.0
 11
-1.3091399999999991
 21
183.20699999999999
 31
0.0
  0
LINE
  5
492
  8
_________1
 62
     7
 10
-1.3091399999999991
 20
183.607
 30
0.0
 11
1.39097
 21
183.607
 31
0.0
  0
LINE
  5
493
  8
_________1
 62
     7
 10
-1.3091399999999991
 20
183.20699999999999
 30
0.0
 11
1.39097
 21
183.20699999999999
 31
0.0
  0
LINE
  5
494
  8
_________1
 62
     7
 10
-1.3091399999999991
 20
180.20699999999999
 30
0.0
 11
1.39097
 21
180.20699999999999
 31
0.0
  0
LINE
  5
495
  8
_________1
 62
     7
 10
-1.3091399999999991
 20
179.607
 30
0.0
 11
0.0909511
 21
179.607
 31
0.0
  0
LINE
  5
496
  8
_________1
 62
     7
 10
-0.209119
 20
179.607
 30
0.0
 11
-0.209119
 21
180.20699999999999
 31
0.0
  0
LINE
  5
497
  8
_________1
 62
     7
 10
0.8907350000000001
 20
176.607
 30
0.0
 11
0.4909290000000001
 21
176.607
 31
0.0
  0
LINE
  5
498
  8
_________1
 62
     7
 10
1.2910600000000001
 20
176.20699999999999
 30
0.0
 11
1.2910600000000001
 21
175.93600000000001
 31
0.0
  0
ARC
  5
499
  8
_________1
 62
     7
 10
0.8754559999999999
 20
176.19160400000001
 30
0.0
 40
0.415896
 50
2.1547169999999989
 51
87.894602000000006
  0
LINE
  5
49A
  8
_________1
 62
     7
 10
0.0909511
 20
177.00700000000001
 30
0.0
 11
0.0909511
 21
179.607
 31
0.0
  0
ARC
  5
49B
  8
_________1
 62
     7
 10
0.5062270000000001
 20
177.02249499999999
 30
0.0
 40
0.415558
 50
182.10972899999999
 51
267.89030000000002
  0
ARC
  5
49C
  8
_________1
 62
     7
 10
-3.6321879999999989
 20
175.38949299999999
 30
0.0
 40
0.617772
 50
40.775042999999997
 51
89.616465999999988
  0
ARC
  5
49D
  8
_________1
 62
     7
 10
-3.7940230000000001
 20
175.226527
 30
0.0
 40
0.8469429999999999
 50
358.6988520000001
 51
41.973759999999999
  0
ARC
  5
49E
  8
_________1
 62
     7
 10
-3.852665
 20
175.21026699999999
 30
0.0
 40
0.905372
 50
318.903908
 51
359.81195100000002
  0
ARC
  5
49F
  8
_________1
 62
     7
 10
-3.650957
 20
175.06570300000001
 30
0.0
 40
0.658762
 50
271.992457
 51
316.84712400000001
  0
ARC
  5
4A0
  8
_________1
 62
     7
 10
-3.623926
 20
175.02572499999999
 30
0.0
 40
0.6184
 50
220.8017209999999
 51
269.61767700000001
  0
ARC
  5
4A1
  8
_________1
 62
     7
 10
-3.4625940000000002
 20
175.18805399999999
 30
0.0
 40
0.8467780000000001
 50
178.69794099999999
 51
221.98300499999999
  0
ARC
  5
4A2
  8
_________1
 62
     7
 10
-3.403948999999999
 20
175.20432299999999
 30
0.0
 40
0.9052089999999999
 50
138.89483100000001
 51
179.81186600000001
  0
ARC
  5
4A3
  8
_________1
 62
     7
 10
-3.6053029999999988
 20
175.34855400000001
 30
0.0
 40
0.659091
 50
91.978088
 51
136.83407099999999
  0
ARC
  5
4A4
  8
_________1
 62
     7
 10
-6.7678919999999989
 20
173.99536499999999
 30
0.0
 40
2.858717
 50
359.9952990000001
 51
2.9983430000000002
  0
ARC
  5
4A5
  8
_________1
 62
     7
 10
-4.9634769999999993
 20
174.09468699999999
 30
0.0
 40
1.0515879999999991
 50
2.7366739999999998
 51
15.257655
  0
ARC
  5
4A6
  8
_________1
 62
     7
 10
-4.4661289999999996
 20
174.20859200000001
 30
0.0
 40
0.5422020000000001
 50
17.476485999999991
 51
36.664088999999997
  0
ARC
  5
4A7
  8
_________1
 62
     7
 10
5.771958999999999
 20
181.65842699999999
 30
0.0
 40
12.119524999999999
 50
215.35704999999999
 51
216.01401300000001
  0
ARC
  5
4A8
  8
_________1
 62
     7
 10
-4.0738059999999994
 20
173.688061
 30
0.0
 40
0.090641
 50
315.72150900000003
 51
333.00304799999998
  0
ARC
  5
4A9
  8
_________1
 62
     7
 10
-4.3392599999999986
 20
173.83522099999999
 30
0.0
 40
0.394114
 50
331.45853799999998
 51
341.169419
  0
ARC
  5
4AA
  8
_________1
 62
     7
 10
-4.9424739999999989
 20
174.05126999999999
 30
0.0
 40
1.034823
 50
340.62759999999997
 51
356.890151
  0
ARC
  5
4AB
  8
_________1
 62
     7
 10
-3.2295519999999991
 20
173.284066
 30
0.0
 40
0.887997
 50
166.88662400000001
 51
172.03921099999999
  0
ARC
  5
4AC
  8
_________1
 62
     7
 10
-3.8049169999999992
 20
173.4036899999999
 30
0.0
 40
0.300823
 50
132.69679600000001
 51
164.212819
  0
ARC
  5
4AD
  8
_________1
 62
     7
 10
4.149737
 20
173.99536599999999
 30
0.0
 40
2.858679
 50
177.00161700000001
 51
180.004741
  0
ARC
  5
4AE
  8
_________1
 62
     7
 10
2.345359999999999
 20
174.09468699999999
 30
0.0
 40
1.0515879999999991
 50
164.74232499999999
 51
177.263306
  0
ARC
  5
4AF
  8
_________1
 62
     7
 10
1.8480119999999991
 20
174.20859200000001
 30
0.0
 40
0.5422020000000001
 50
143.335891
 51
162.523494
  0
ARC
  5
4B0
  8
_________1
 62
     7
 10
-8.3900759999999988
 20
181.65842699999999
 30
0.0
 40
12.119524999999999
 50
323.98600699999997
 51
324.64296999999999
  0
ARC
  5
4B1
  8
_________1
 62
     7
 10
1.454974999999999
 20
173.68754999999999
 30
0.0
 40
0.089773
 50
206.912802
 51
224.36268100000001
  0
ARC
  5
4B2
  8
_________1
 62
     7
 10
1.7211430000000001
 20
173.83522099999999
 30
0.0
 40
0.394114
 50
198.830601
 51
208.541482
  0
ARC
  5
4B3
  8
_________1
 62
     7
 10
2.324357
 20
174.05126999999999
 30
0.0
 40
1.034823
 50
183.10986899999989
 51
199.37242000000001
  0
ARC
  5
4B4
  8
_________1
 62
     7
 10
0.6232820000000001
 20
173.285743
 30
0.0
 40
0.876032
 50
7.9594500000000004
 51
13.183037000000001
  0
ARC
  5
4B5
  8
_________1
 62
     7
 10
1.185662999999999
 20
173.40309300000001
 30
0.0
 40
0.302033
 50
15.839953
 51
47.221432
  0
ARC
  5
4B6
  8
_________1
 62
     7
 10
1.005978
 20
175.389351
 30
0.0
 40
0.617915
 50
40.78108499999999
 51
89.617009000000024
  0
ARC
  5
4B7
  8
_________1
 62
     7
 10
0.844058
 20
175.226572
 30
0.0
 40
0.847025
 50
358.69591000000003
 51
41.964663999999999
  0
ARC
  5
4B8
  8
_________1
 62
     7
 10
0.7853020000000001
 20
175.21026599999999
 30
0.0
 40
0.9055669999999999
 50
318.91475300000002
 51
359.81205299999999
  0
ARC
  5
4B9
  8
_________1
 62
     7
 10
0.987326
 20
175.065584
 30
0.0
 40
0.6586400000000001
 50
271.98225100000002
 51
316.85124200000001
  0
ARC
  5
4BA
  8
_________1
 62
     7
 10
1.0142340000000001
 20
175.02554799999999
 30
0.0
 40
0.618223
 50
220.794183
 51
269.61762199999998
  0
ARC
  5
4BB
  8
_________1
 62
     7
 10
1.175913999999999
 20
175.18801999999999
 30
0.0
 40
0.8469520000000002
 50
178.695911
 51
221.96929299999999
  0
ARC
  5
4BC
  8
_________1
 62
     7
 10
1.234661
 20
175.20432500000001
 30
0.0
 40
0.905485
 50
138.91019499999999
 51
179.81200999999999
  0
ARC
  5
4BD
  8
_________1
 62
     7
 10
1.0327879999999989
 20
175.34889699999999
 30
0.0
 40
0.6587450000000001
 50
91.972953000000004
 51
136.84680900000001
  0
ARC
  5
4BE
  8
_________1
 62
     7
 10
-1.8724119999999991
 20
175.20611299999999
 30
0.0
 40
0.586886
 50
146.78050200000001
 51
179.88458199999999
  0
ARC
  5
4BF
  8
_________1
 62
     7
 10
-1.6749169999999991
 20
175.09057999999999
 30
0.0
 40
0.8154819999999999
 50
124.92014399999999
 51
147.591668
  0
ARC
  5
4C0
  8
_________1
 62
     7
 10
-1.420949999999999
 20
174.761628
 30
0.0
 40
1.2307479999999991
 50
102.058099
 51
125.848337
  0
ARC
  5
4C1
  8
_________1
 62
     7
 10
-1.314398999999999
 20
174.413329
 30
0.0
 40
1.5939309999999991
 50
89.81111700000001
 51
103.18828499999999
  0
ARC
  5
4C2
  8
_________1
 62
     7
 10
-1.3097799999999991
 20
174.422281
 30
0.0
 40
1.58497
 50
66.037177
 51
89.977025999999995
  0
ARC
  5
4C3
  8
_________1
 62
     7
 10
-1.139530999999999
 20
174.85614799999999
 30
0.0
 40
1.1195440000000001
 50
46.660702000000001
 51
64.980977999999993
  0
ARC
  5
4C4
  8
_________1
 62
     7
 10
-0.8811129999999998
 20
175.144542
 30
0.0
 40
0.7325050000000001
 50
14.595033000000001
 51
45.879840999999992
  0
ARC
  5
4C5
  8
_________1
 62
     7
 10
-0.726391
 20
175.20720600000001
 30
0.0
 40
0.567399
 50
0.008996
 51
12.407906000000001
  0
ARC
  5
4C6
  8
_________1
 62
     7
 10
-0.7458779999999999
 20
175.20847699999999
 30
0.0
 40
0.5868870000000001
 50
326.78054100000008
 51
359.88458200000002
  0
ARC
  5
4C7
  8
_________1
 62
     7
 10
-0.9433719999999999
 20
175.32400999999999
 30
0.0
 40
0.8154819999999999
 50
304.920164
 51
327.59168799999998
  0
ARC
  5
4C8
  8
_________1
 62
     7
 10
-1.197338999999999
 20
175.652962
 30
0.0
 40
1.2307479999999991
 50
282.05811899999998
 51
305.84835700000002
  0
ARC
  5
4C9
  8
_________1
 62
     7
 10
-1.3038899999999991
 20
176.001261
 30
0.0
 40
1.5939309999999991
 50
269.81113699999997
 51
283.18830500000001
  0
ARC
  5
4CA
  8
_________1
 62
     7
 10
-1.308508999999999
 20
175.99230900000001
 30
0.0
 40
1.58497
 50
246.03719700000011
 51
269.97704599999997
  0
ARC
  5
4CB
  8
_________1
 62
     7
 10
-1.478758999999999
 20
175.55844300000001
 30
0.0
 40
1.1195440000000001
 50
226.66072199999999
 51
244.980998
  0
ARC
  5
4CC
  8
_________1
 62
     7
 10
-1.7371759999999989
 20
175.270048
 30
0.0
 40
0.7325050000000001
 50
194.59505300000001
 51
225.87986100000001
  0
ARC
  5
4CD
  8
_________1
 62
     7
 10
-1.891897999999999
 20
175.20738399999999
 30
0.0
 40
0.567399
 50
180.009016
 51
192.407926
  0
LINE
  5
4CE
  8
_________1
 62
     7
 10
1.0101100000000001
 20
176.00700000000001
 30
0.0
 11
-3.6280499999999991
 21
176.00700000000001
 31
0.0
  0
LINE
  5
4CF
  8
_________1
 62
     7
 10
1.0101100000000001
 20
174.40700000000001
 30
0.0
 11
-3.6280499999999991
 21
174.40700000000001
 31
0.0
  0
LINE
  5
4D0
  8
_________1
 62
     7
 10
-6.4533899999999988
 20
171.58799999999999
 30
0.0
 11
-6.8049699999999991
 21
171.517
 31
0.0
  0
LINE
  5
4D1
  8
_________1
 62
     7
 10
-7.436799999999999
 20
170.85900000000001
 30
0.0
 11
-7.5091499999999991
 21
170.40700000000001
 31
0.0
  0
ARC
  5
4D2
  8
_________1
 62
     7
 10
-6.6291869999999991
 20
170.71584100000001
 30
0.0
 40
0.8202729999999998
 50
102.37421500000001
 51
169.92156499999999
  0
ARC
  5
4D3
  8
_________1
 62
     7
 10
-6.8058490000000003
 20
173.19131899999999
 30
0.0
 40
1.641575999999999
 50
282.39825200000001
 51
349.89756799999998
  0
LINE
  5
4D4
  8
_________1
 62
     7
 10
-4.5973399999999991
 20
173.40700000000001
 30
0.0
 11
-1.3091399999999991
 21
173.40700000000001
 31
0.0
  0
ARC
  5
4D5
  8
_________1
 62
     7
 10
-4.5811830000000002
 20
172.787916
 30
0.0
 40
0.619344
 50
91.494588000000007
 51
169.36969400000001
  0
LINE
  5
4D6
  8
_________1
 62
     7
 10
-7.5091499999999991
 20
170.40700000000001
 30
0.0
 11
-1.3091399999999991
 21
170.40700000000001
 31
0.0
  0
LINE
  5
4D7
  8
_________1
 62
     7
 10
3.8351000000000002
 20
171.58799999999999
 30
0.0
 11
4.1868499999999989
 21
171.517
 31
0.0
  0
LINE
  5
4D8
  8
_________1
 62
     7
 10
4.818509999999999
 20
170.85900000000001
 30
0.0
 11
4.8910299999999998
 21
170.40700000000001
 31
0.0
  0
ARC
  5
4D9
  8
_________1
 62
     7
 10
4.0104300000000004
 20
170.71543799999989
 30
0.0
 40
0.820804
 50
10.100398
 51
77.588172
  0
ARC
  5
4DA
  8
_________1
 62
     7
 10
4.1881839999999988
 20
173.19191900000001
 30
0.0
 40
1.6422950000000001
 50
190.119227
 51
257.584993
  0
LINE
  5
4DB
  8
_________1
 62
     7
 10
1.97939
 20
173.40700000000001
 30
0.0
 11
-1.3091399999999991
 21
173.40700000000001
 31
0.0
  0
ARC
  5
4DC
  8
_________1
 62
     7
 10
1.962191999999999
 20
172.78689700000001
 30
0.0
 40
0.6203910000000001
 50
10.707933000000001
 51
88.411299
  0
LINE
  5
4DD
  8
_________1
  6
AIGENLINE001
 62
     7
 10
-1.3091399999999991
 20
149.512
 30
0.0
 11
-1.3091399999999991
 21
185.79900000000001
 31
0.0
  0
LINE
  5
4DE
  8
_________1
 62
     7
 10
4.8910299999999998
 20
170.40700000000001
 30
0.0
 11
-1.3091399999999991
 21
170.40700000000001
 31
0.0
  0
ARC
  5
4DF
  8
_________1
 62
     7
 10
-44.096007999999998
 20
184.05893599999999
 30
0.0
 40
1.251854
 50
229.48069000000001
 51
267.021162
  0
ARC
  5
4E0
  8
_________1
 62
     7
 10
-44.095007999999993
 20
179.153063
 30
0.0
 40
1.2544649999999991
 50
89.964363000000006
 51
130.477475
  0
ARC
  5
4E1
  8
_________1
 62
     7
 10
-54.979444999999998
 20
180.35230899999999
 30
0.0
 40
1.3020529999999999
 50
192.86739499999999
 51
209.34591499999999
  0
ARC
  5
4E2
  8
_________1
 62
     7
 10
-54.296368999999991
 20
180.53535099999999
 30
0.0
 40
2.008910999999999
 50
184.20182299999999
 51
193.618323
  0
ARC
  5
4E3
  8
_________1
 62
     7
 10
-53.343971000000003
 20
180.62578400000001
 30
0.0
 40
2.965444999999999
 50
179.86701199999999
 51
184.59612200000001
  0
ARC
  5
4E4
  8
_________1
 62
     7
 10
-54.843488999999998
 20
180.915008
 30
0.0
 40
1.4472409999999989
 50
151.42256900000001
 51
172.57547700000001
  0
ARC
  5
4E5
  8
_________1
 62
     7
 10
-53.389015999999998
 20
180.676636
 30
0.0
 40
2.9207229999999988
 50
171.62543700000001
 51
180.86260999999999
  0
ARC
  5
4E6
  8
_________1
 62
     7
 10
-54.988407999999993
 20
182.86595500000001
 30
0.0
 40
1.2925189999999991
 50
150.595101
 51
167.19873000000001
  0
ARC
  5
4E7
  8
_________1
 62
     7
 10
-54.296002999999999
 20
182.67925399999999
 30
0.0
 40
2.009285999999999
 50
166.38186999999999
 51
175.795087
  0
ARC
  5
4E8
  8
_________1
 62
     7
 10
-53.344633999999999
 20
182.58898300000001
 30
0.0
 40
2.9647819999999991
 50
175.403355
 51
180.1333149999999
  0
ARC
  5
4E9
  8
_________1
 62
     7
 10
-54.843559999999997
 20
182.299532
 30
0.0
 40
1.4471590000000001
 50
187.42165900000001
 51
208.57742500000001
  0
ARC
  5
4EA
  8
_________1
 62
     7
 10
-53.387574999999991
 20
182.538093
 30
0.0
 40
2.922164
 50
179.13737499999999
 51
188.37251699999999
  0
ARC
  5
4EB
  8
_________1
 62
     7
 10
-36.083823000000002
 20
153.974918
 30
0.0
 40
1.1742799999999991
 50
0.115081
 51
28.301677999999999
  0
ARC
  5
4EC
  8
_________1
 62
     7
 10
-35.535611000000003
 20
154.25198399999999
 30
0.0
 40
0.560466
 50
29.934404000000001
 51
54.389952000000001
  0
ARC
  5
4ED
  8
_________1
 62
     7
 10
-35.931240000000003
 20
153.97805299999999
 30
0.0
 40
1.0216940000000001
 50
336.11906499999998
 51
359.95644700000003
  0
ARC
  5
4EE
  8
_________1
 62
     7
 10
-35.608125999999999
 20
153.85324
 30
0.0
 40
0.6759190000000001
 50
306.16358700000001
 51
334.70498600000002
  0
ARC
  5
4EF
  8
_________1
 62
     7
 10
-39.296936000000002
 20
155.90849499999999
 30
0.0
 40
4.387389999999999
 50
354.73399499999999
 51
359.981246
  0
ARC
  5
4F0
  8
_________1
 62
     7
 10
-37.373651000000002
 20
155.74387300000001
 30
0.0
 40
2.4571469999999991
 50
345.89439500000009
 51
354.440383
  0
ARC
  5
4F1
  8
_________1
 62
     7
 10
-36.322468000000001
 20
155.49004199999999
 30
0.0
 40
1.375834
 50
334.19092000000001
 51
345.47769
  0
ARC
  5
4F2
  8
_________1
 62
     7
 10
-35.798805999999999
 20
155.24529899999999
 30
0.0
 40
0.7978890000000001
 50
317.63513
 51
333.64097099999998
  0
LINE
  5
4F3
  8
_________1
 62
     7
 10
-34.909500000000001
 20
153.977
 30
0.0
 11
-34.909500000000001
 21
155.90700000000001
 31
0.0
  0
ARC
  5
4F4
  8
_________1
 62
     7
 10
-35.936139000000011
 20
153.974918
 30
0.0
 40
1.173289
 50
151.67224999999999
 51
179.88481200000001
  0
ARC
  5
4F5
  8
_________1
 62
     7
 10
-36.483066999999998
 20
154.25177099999999
 30
0.0
 40
0.5607090000000001
 50
125.607359
 51
150.054765
  0
ARC
  5
4F6
  8
_________1
 62
     7
 10
-36.088771000000001
 20
153.97805199999999
 30
0.0
 40
1.020654999999999
 50
180.04354799999999
 51
203.90671800000001
  0
ARC
  5
4F7
  8
_________1
 62
     7
 10
-36.41026500000001
 20
153.853756
 30
0.0
 40
0.6765770000000001
 50
205.31709000000001
 51
233.834352
  0
ARC
  5
4F8
  8
_________1
 62
     7
 10
-32.792549999999999
 20
155.90564499999999
 30
0.0
 40
4.3168759999999997
 50
179.98120499999999
 51
185.31429299999999
  0
ARC
  5
4F9
  8
_________1
 62
     7
 10
-34.644489999999998
 20
155.744473
 30
0.0
 40
2.4579930000000001
 50
185.57176000000001
 51
194.11508000000001
  0
ARC
  5
4FA
  8
_________1
 62
     7
 10
-35.696469999999998
 20
155.49022500000001
 30
0.0
 40
1.375807
 50
194.53046699999999
 51
205.81808000000001
  0
ARC
  5
4FB
  8
_________1
 62
     7
 10
-36.219472000000003
 20
155.24573799999999
 30
0.0
 40
0.79857
 50
206.37006
 51
222.363045
  0
LINE
  5
4FC
  8
_________1
 62
     7
 10
-35.209299999999999
 20
154.708
 30
0.0
 11
-36.8095
 21
154.708
 31
0.0
  0
LINE
  5
4FD
  8
_________1
 62
     7
 10
-35.209299999999999
 20
153.30799999999999
 30
0.0
 11
-36.8095
 21
153.30799999999999
 31
0.0
  0
LINE
  5
4FE
  8
_________1
 62
     7
 10
-37.109400000000001
 20
153.977
 30
0.0
 11
-37.109400000000001
 21
155.90700000000001
 31
0.0
  0
ARC
  5
4FF
  8
_________1
 62
     7
 10
-36.084728000000013
 20
157.839719
 30
0.0
 40
1.1751849999999999
 50
331.709453
 51
359.88490300000001
  0
ARC
  5
500
  8
_________1
 62
     7
 10
-35.533729000000001
 20
157.561306
 30
0.0
 40
0.558277
 50
305.53350699999999
 51
330.06883699999997
  0
ARC
  5
501
  8
_________1
 62
     7
 10
-35.931240000000003
 20
157.83658199999999
 30
0.0
 40
1.0216940000000001
 50
0.043553
 51
23.880935000000001
  0
ARC
  5
502
  8
_________1
 62
     7
 10
-35.608125999999999
 20
157.96139600000001
 30
0.0
 40
0.6759190000000001
 50
25.295014000000009
 51
53.836413
  0
ARC
  5
503
  8
_________1
 62
     7
 10
-39.297417000000003
 20
155.90562299999999
 30
0.0
 40
4.3878719999999989
 50
0.01876
 51
5.2657160000000003
  0
ARC
  5
504
  8
_________1
 62
     7
 10
-37.375622999999997
 20
156.07006799999999
 30
0.0
 40
2.4591279999999989
 50
5.5597739999999991
 51
14.100846000000001
  0
ARC
  5
505
  8
_________1
 62
     7
 10
-36.324323
 20
156.32390899999999
 30
0.0
 40
1.377699
 50
14.514028
 51
25.792228000000009
  0
ARC
  5
506
  8
_________1
 62
     7
 10
-35.801246999999996
 20
156.56812600000001
 30
0.0
 40
0.800509
 50
26.34388400000001
 51
42.311122999999988
  0
LINE
  5
507
  8
_________1
 62
     7
 10
-34.909500000000001
 20
157.83699999999999
 30
0.0
 11
-34.909500000000001
 21
155.90700000000001
 31
0.0
  0
ARC
  5
508
  8
_________1
 62
     7
 10
-35.935234000000001
 20
157.839719
 30
0.0
 40
1.174193
 50
180.11520400000001
 51
208.316609
  0
ARC
  5
509
  8
_________1
 62
     7
 10
-36.484949
 20
157.56151800000001
 30
0.0
 40
0.558519
 50
209.94199399999999
 51
234.46918299999999
  0
ARC
  5
50A
  8
_________1
 62
     7
 10
3.982866
 20
183.47726299999999
 30
0.0
 40
21.998628
 50
196.542967
 51
205.89266499999999
  0
ARC
  5
50B
  8
_________1
 62
     7
 10
-0.381088
 20
182.08282800000001
 30
0.0
 40
17.418524999999999
 50
188.13176100000001
 51
196.23327800000001
  0
ARC
  5
50C
  8
_________1
 62
     7
 10
-4.1374610000000001
 20
181.468503
 30
0.0
 40
13.613239999999999
 50
184.47074499999999
 51
187.80848
  0
LINE
  5
50D
  8
_________1
 62
     7
 10
-17.709299999999999
 20
180.40700000000001
 30
0.0
 11
-18.024000000000001
 21
180.40700000000001
 31
0.0
  0
ARC
  5
50E
  8
_________1
 62
     7
 10
-34.199483000000001
 20
155.905507
 30
0.0
 40
4.9425610000000004
 50
179.98199099999999
 51
185.030777
  0
ARC
  5
50F
  8
_________1
 62
     7
 10
-36.665757999999997
 20
155.704995
 30
0.0
 40
2.4682590000000002
 50
185.41446199999999
 51
197.944478
  0
ARC
  5
510
  8
_________1
 62
     7
 10
-37.428725
 20
155.488237
 30
0.0
 40
1.6758729999999991
 50
198.93095199999999
 51
220.16888900000001
  0
ARC
  5
511
  8
_________1
 62
     7
 10
-36.088771000000001
 20
157.83658299999999
 30
0.0
 40
1.020654999999999
 50
156.09328199999999
 51
179.95645200000001
  0
ARC
  5
512
  8
_________1
 62
     7
 10
-36.41026500000001
 20
157.96087900000001
 30
0.0
 40
0.6765770000000001
 50
126.165648
 51
154.68290999999999
  0
ARC
  5
513
  8
_________1
 62
     7
 10
-32.792079000000001
 20
155.90847400000001
 30
0.0
 40
4.3173459999999988
 50
174.68599699999999
 51
180.018789
  0
ARC
  5
514
  8
_________1
 62
     7
 10
-34.642516999999998
 20
156.069468
 30
0.0
 40
2.4599759999999988
 50
165.88968299999999
 51
174.42808400000001
  0
ARC
  5
515
  8
_________1
 62
     7
 10
-35.694614999999999
 20
156.32372699999999
 30
0.0
 40
1.377670999999999
 50
154.19877600000001
 51
165.47781900000001
  0
ARC
  5
516
  8
_________1
 62
     7
 10
-36.217027000000002
 20
156.56768400000001
 30
0.0
 40
0.8011929999999999
 50
137.69069999999999
 51
153.64509000000001
  0
ARC
  5
517
  8
_________1
 62
     7
 10
-34.197471
 20
155.90860900000001
 30
0.0
 40
4.9445739999999994
 50
174.970247
 51
180.017976
  0
ARC
  5
518
  8
_________1
 62
     7
 10
-36.663006000000003
 20
156.10899800000001
 30
0.0
 40
2.4710190000000001
 50
162.06504699999999
 51
174.586671
  0
ARC
  5
519
  8
_________1
 62
     7
 10
-37.428170000000001
 20
156.326269
 30
0.0
 40
1.6763799999999991
 50
139.839966
 51
161.07693499999999
  0
ARC
  5
51A
  8
_________1
 62
     7
 10
-46.619556000000003
 20
183.484286
 30
0.0
 40
22.018048
 50
334.11156999999997
 51
343.45299799999998
  0
ARC
  5
51B
  8
_________1
 62
     7
 10
-42.232815999999993
 20
182.08187100000001
 30
0.0
 40
17.413827999999999
 50
343.76552299999997
 51
351.86923300000001
  0
ARC
  5
51C
  8
_________1
 62
     7
 10
-38.496845
 20
181.470202
 30
0.0
 40
13.629118999999999
 50
352.19348500000012
 51
355.52733000000001
  0
ARC
  5
51D
  8
_________1
 62
     7
 10
-52.50309699999999
 20
189.70210599999999
 30
0.0
 40
30.197171999999998
 50
326.39916799999997
 51
329.65329200000002
  0
ARC
  5
51E
  8
_________1
 62
     7
 10
-41.63579099999999
 20
183.24344300000001
 30
0.0
 40
17.555938999999999
 50
329.92488600000001
 51
337.31211100000002
  0
ARC
  5
51F
  8
_________1
 62
     7
 10
-39.124271999999998
 20
182.07926499999999
 30
0.0
 40
14.790101999999999
 50
337.72031900000002
 51
349.80474500000003
  0
ARC
  5
520
  8
_________1
 62
     7
 10
-44.397702000000002
 20
183.14837600000001
 30
0.0
 40
20.169851999999999
 50
349.46722899999997
 51
355.32737500000002
  0
ARC
  5
521
  8
_________1
 62
     7
 10
-51.553249999999998
 20
183.87042099999999
 30
0.0
 40
27.360779000000001
 50
355.04103300000003
 51
356.42541699999998
  0
ARC
  5
522
  8
_________1
 62
     7
 10
-19.408942
 20
181.07167999999999
 30
0.0
 40
1.800964
 50
286.10970500000002
 51
294.18164999999999
  0
ARC
  5
523
  8
_________1
 62
     7
 10
-18.922298999999999
 20
179.95603199999999
 30
0.0
 40
0.584015
 50
295.46336600000001
 51
304.67111599999998
  0
ARC
  5
524
  8
_________1
 62
     7
 10
-18.713982999999999
 20
179.66193999999999
 30
0.0
 40
0.223677
 50
303.63950699999998
 51
331.69603499999999
  0
ARC
  5
525
  8
_________1
 62
     7
 10
-18.602060999999999
 20
179.59272799999999
 30
0.0
 40
0.092654
 50
336.56817599999999
 51
359.59179999999998
  0
ARC
  5
526
  8
_________1
 62
     7
 10
-18.607882
 20
179.59128000000001
 30
0.0
 40
0.098476
 50
0.4585050000000001
 51
39.508504000000002
  0
ARC
  5
527
  8
_________1
 62
     7
 10
-18.702777999999999
 20
179.52520200000001
 30
0.0
 40
0.213936
 50
36.992657000000001
 51
50.362439000000009
  0
ARC
  5
528
  8
_________1
 62
     7
 10
-18.826391000000001
 20
179.37735499999999
 30
0.0
 40
0.406649
 50
50.238787000000002
 51
60.358384999999998
  0
ARC
  5
529
  8
_________1
 62
     7
 10
-19.029547000000001
 20
179.02536799999999
 30
0.0
 40
0.813053
 50
60.183075000000002
 51
67.344187000000005
  0
ARC
  5
52A
  8
_________1
 62
     7
 10
-19.300274000000002
 20
178.38265100000001
 30
0.0
 40
1.5104589999999991
 50
67.258249000000006
 51
72.551881000000009
  0
ARC
  5
52B
  8
_________1
 62
     7
 10
-19.652424
 20
177.27495099999999
 30
0.0
 40
2.6727849999999989
 50
72.470156000000003
 51
76.445993000000001
  0
ARC
  5
52C
  8
_________1
 62
     7
 10
-20.046113999999999
 20
175.65551400000001
 30
0.0
 40
4.3393870000000003
 50
76.403854999999993
 51
79.557259000000002
  0
ARC
  5
52D
  8
_________1
 62
     7
 10
-20.596316999999999
 20
172.643361
 30
0.0
 40
7.4013749999999989
 50
79.594969999999975
 51
84.497286999999986
  0
ARC
  5
52E
  8
_________1
 62
     7
 10
-21.231171
 20
166.67277200000001
 30
0.0
 40
13.40546
 50
84.243437999999998
 51
90.335204999999988
  0
ARC
  5
52F
  8
_________1
 62
     7
 10
-21.309342000000001
 20
164.726146
 30
0.0
 40
15.351856
 50
90.000955000000019
 51
94.650225000000006
  0
ARC
  5
530
  8
_________1
 62
     7
 10
-21.754521
 20
170.59833900000001
 30
0.0
 40
9.4629570000000012
 50
94.846171999999996
 51
99.039771999999985
  0
ARC
  5
531
  8
_________1
 62
     7
 10
-22.528410000000001
 20
175.52640299999999
 30
0.0
 40
4.474518999999999
 50
99.168096000000006
 51
105.464189
  0
ARC
  5
532
  8
_________1
 62
     7
 10
-23.314667
 20
178.40472700000001
 30
0.0
 40
1.4907859999999999
 50
105.83596300000001
 51
116.212754
  0
ARC
  5
533
  8
_________1
 62
     7
 10
-23.795539999999999
 20
179.392886
 30
0.0
 40
0.391877
 50
116.95183900000001
 51
137.030822
  0
ARC
  5
534
  8
_________1
 62
     7
 10
-23.993974000000001
 20
179.585283
 30
0.0
 40
0.115672
 50
139.76962399999999
 51
176.63691700000001
  0
ARC
  5
535
  8
_________1
 62
     7
 10
-24.012588000000001
 20
179.5924959999999
 30
0.0
 40
0.09686
 50
180.253207
 51
218.013925
  0
ARC
  5
536
  8
_________1
 62
     7
 10
-23.922066000000001
 20
179.65285299999999
 30
0.0
 40
0.205513
 50
215.72839099999999
 51
229.81288500000011
  0
ARC
  5
537
  8
_________1
 62
     7
 10
-23.794141
 20
179.80361099999999
 30
0.0
 40
0.4032320000000001
 50
229.749662
 51
240.13126900000009
  0
ARC
  5
538
  8
_________1
 62
     7
 10
-23.598875
 20
180.138688
 30
0.0
 40
0.7910500000000001
 50
239.95343500000001
 51
247.13638599999999
  0
ARC
  5
539
  8
_________1
 62
     7
 10
-23.278241000000001
 20
180.899036
 30
0.0
 40
1.616237999999999
 50
247.13576499999999
 51
254.51914400000001
  0
ARC
  5
53A
  8
_________1
 62
     7
 10
-41.159975000000003
 20
181.416606
 30
0.0
 40
2.8225279999999988
 50
334.63240100000002
 51
349.99227100000002
  0
ARC
  5
53B
  8
_________1
 62
     7
 10
-42.329072999999987
 20
181.67720700000001
 30
0.0
 40
4.019480999999999
 50
349.23006600000002
 51
0.4275040000000001
  0
ARC
  5
53C
  8
_________1
 62
     7
 10
-41.159975000000003
 20
181.99813499999999
 30
0.0
 40
2.8225279999999988
 50
10.007728999999999
 51
25.367598999999998
  0
ARC
  5
53D
  8
_________1
 62
     7
 10
-42.329072999999987
 20
181.73753300000001
 30
0.0
 40
4.019480999999999
 50
359.572496
 51
10.769933999999999
  0
ARC
  5
53E
  8
_________1
 62
     7
 10
-41.470959000000001
 20
181.41205400000001
 30
0.0
 40
2.8098669999999988
 50
190.22887800000001
 51
205.38731799999999
  0
ARC
  5
53F
  8
_________1
 62
     7
 10
-40.303407999999997
 20
181.67606699999999
 30
0.0
 40
4.0060880000000001
 50
179.55473000000001
 51
190.97950499999999
  0
ARC
  5
540
  8
_________1
 62
     7
 10
-39.897878000000013
 20
179.52482499999999
 30
0.0
 40
4.8075060000000001
 50
76.914280000000005
 51
82.416472999999996
  0
ARC
  5
541
  8
_________1
 62
     7
 10
-40.626556999999991
 20
174.58578399999999
 30
0.0
 40
9.7997659999999982
 50
82.004311999999999
 51
86.298384999999996
  0
ARC
  5
542
  8
_________1
 62
     7
 10
-41.226110999999989
 20
166.4790909999999
 30
0.0
 40
17.92841099999999
 50
86.058914999999999
 51
90.266063000000003
  0
ARC
  5
543
  8
_________1
 62
     7
 10
-42.721499000000001
 20
179.52686600000001
 30
0.0
 40
4.8054119999999996
 50
97.580338000000012
 51
103.085753
  0
ARC
  5
544
  8
_________1
 62
     7
 10
-41.992114999999998
 20
174.58363
 30
0.0
 40
9.8019219999999994
 50
93.701366000000021
 51
97.994869999999992
  0
ARC
  5
545
  8
_________1
 62
     7
 10
-41.392608000000003
 20
166.47748000000001
 30
0.0
 40
17.930022000000001
 50
89.733992999999998
 51
93.940883999999997
  0
ARC
  5
546
  8
_________1
 62
     7
 10
-41.465575999999999
 20
182.00017800000001
 30
0.0
 40
2.8158059999999998
 50
154.61353
 51
170.010323
  0
ARC
  5
547
  8
_________1
 62
     7
 10
-40.290353000000003
 20
181.7375909999999
 30
0.0
 40
4.0191349999999986
 50
169.22995800000001
 51
180.42839499999999
  0
LINE
  5
548
  8
_________1
 62
     7
 10
80.663300000000007
 20
166.50800000000001
 30
0.0
 11
80.663300000000007
 21
165.40700000000001
 31
0.0
  0
ARC
  5
549
  8
_________1
 62
     7
 10
80.566323999999994
 20
166.71079900000001
 30
0.0
 40
0.103613
 50
182.10929300000001
 51
267.98960799999998
  0
ARC
  5
54A
  8
_________1
 62
     7
 10
80.559717000000006
 20
166.50364999999999
 30
0.0
 40
0.103641
 50
2.1357909999999989
 51
88.356851000000006
  0
ARC
  5
54B
  8
_________1
 62
     7
 10
80.566519
 20
167.90361899999999
 30
0.0
 40
0.103796
 50
92.114307999999994
 51
178.08289300000001
  0
LINE
  5
54C
  8
_________1
 62
     7
 10
80.663300000000007
 20
168.607
 30
0.0
 11
80.663300000000007
 21
168.107
 31
0.0
  0
ARC
  5
54D
  8
_________1
 62
     7
 10
80.558937999999984
 20
168.111729
 30
0.0
 40
0.104452
 50
272.05788200000001
 51
357.449476
  0
LINE
  5
54E
  8
_________1
 62
     7
 10
80.462800000000016
 20
166.70699999999999
 30
0.0
 11
80.462800000000016
 21
167.90700000000001
 31
0.0
  0
LINE
  5
54F
  8
_________1
 62
     7
 10
80.663300000000007
 20
165.40700000000001
 30
0.0
 11
79.963200000000001
 21
165.40700000000001
 31
0.0
  0
LINE
  5
550
  8
_________1
 62
     7
 10
80.663300000000007
 20
168.607
 30
0.0
 11
79.963200000000001
 21
168.607
 31
0.0
  0
LINE
  5
551
  8
_________1
 62
     7
 10
70.963200000000001
 20
170.40700000000001
 30
0.0
 11
70.963200000000001
 21
170.75800000000001
 31
0.0
  0
ARC
  5
552
  8
_________1
 62
     7
 10
72.304684999999992
 20
170.75440399999999
 30
0.0
 40
1.3414749999999991
 50
142.8552
 51
179.84953200000001
  0
ARC
  5
553
  8
_________1
 62
     7
 10
67.345965000000007
 20
174.207999
 30
0.0
 40
4.8626550000000002
 50
350.86372699999998
 51
358.82115599999997
  0
ARC
  5
554
  8
_________1
 62
     7
 10
69.125643999999994
 20
173.97146499999999
 30
0.0
 40
3.0683880000000001
 50
330.672528
 51
349.94777699999997
  0
ARC
  5
555
  8
_________1
 62
     7
 10
66.686274999999995
 20
175.228996
 30
0.0
 40
5.8118869999999996
 50
328.93426499999998
 51
331.64309100000003
  0
ARC
  5
556
  8
_________1
 62
     7
 10
62.685581999999997
 20
177.64164600000001
 30
0.0
 40
10.483763
 50
326.89094899999998
 51
328.9223740000001
  0
ARC
  5
557
  8
_________1
 62
     7
 10
44.524827000000002
 20
189.470403
 30
0.0
 40
32.157076000000004
 50
326.16325699999999
 51
326.91211399999997
  0
LINE
  5
558
  8
_________1
 62
     7
 10
83.763199999999983
 20
170.40700000000001
 30
0.0
 11
83.763199999999983
 21
170.75800000000001
 31
0.0
  0
ARC
  5
559
  8
_________1
 62
     7
 10
82.424392999999995
 20
170.754391
 30
0.0
 40
1.338814999999999
 50
0.151315
 51
37.231780999999998
  0
ARC
  5
55A
  8
_________1
 62
     7
 10
-184.176807
 20
120.409825
 30
0.0
 40
271.21330799999998
 50
11.636172
 51
12.240627999999999
  0
ARC
  5
55B
  8
_________1
 62
     7
 10
84.273002000000005
 20
175.68722199999999
 30
0.0
 40
2.8685999999999989
 50
191.55630300000001
 51
198.29678999999999
  0
ARC
  5
55C
  8
_________1
 62
     7
 10
85.846279999999993
 20
176.18508299999999
 30
0.0
 40
4.5186849999999987
 50
198.027694
 51
204.210295
  0
ARC
  5
55D
  8
_________1
 62
     7
 10
88.291563999999994
 20
177.25053500000001
 30
0.0
 40
7.1858929999999992
 50
203.962827
 51
208.95854700000001
  0
ARC
  5
55E
  8
_________1
 62
     7
 10
92.028154999999984
 20
179.27205699999999
 30
0.0
 40
11.434144
 50
208.75611799999999
 51
212.74620999999999
  0
ARC
  5
55F
  8
_________1
 62
     7
 10
97.311253000000022
 20
182.61189100000001
 30
0.0
 40
17.684270000000001
 50
212.588503
 51
215.693479
  0
ARC
  5
560
  8
_________1
 62
     7
 10
104.077358
 20
187.406071
 30
0.0
 40
25.976576999999999
 50
215.574197
 51
217.578194
  0
LINE
  5
561
  8
_________1
 62
     7
 10
80.362899999999996
 20
180.40700000000001
 30
0.0
 11
80.870699999999999
 21
177.91200000000001
 31
0.0
  0
LINE
  5
562
  8
_________1
 62
     7
 10
80.562700000000007
 20
162.40700000000001
 30
0.0
 11
80.562700000000007
 21
164.00700000000001
 31
0.0
  0
LINE
  5
563
  8
_________1
 62
     7
 10
80.362899999999996
 20
168.607
 30
0.0
 11
80.362899999999996
 21
170.40700000000001
 31
0.0
  0
LINE
  5
564
  8
_________1
 62
     7
 10
80.562700000000007
 20
164.40700000000001
 30
0.0
 11
80.562700000000007
 21
165.40700000000001
 31
0.0
  0
LINE
  5
565
  8
_________1
  6
AIGENLINE001
 62
     7
 10
79.363100000000003
 20
154.03200000000001
 30
0.0
 11
79.363100000000003
 21
171.25899999999999
 31
0.0
  0
LINE
  5
566
  8
_________1
  6
AIGENLINE001
 62
     7
 10
76.162599999999998
 20
153.69900000000001
 30
0.0
 11
76.162599999999998
 21
171.31100000000001
 31
0.0
  0
LINE
  5
567
  8
_________1
 62
     7
 10
77.863100000000003
 20
102.407
 30
0.0
 11
77.863100000000003
 21
150.20699999999999
 31
0.0
  0
LINE
  5
568
  8
_________1
 62
     7
 10
76.8626
 20
102.407
 30
0.0
 11
76.8626
 21
150.20699999999999
 31
0.0
  0
LINE
  5
569
  8
_________1
 62
     7
 10
76.8626
 20
102.408
 30
0.0
 11
77.863100000000003
 21
102.408
 31
0.0
  0
LINE
  5
56A
  8
_________1
 62
     7
 10
72.962800000000001
 20
164.20699999999999
 30
0.0
 11
72.962800000000001
 21
164.40700000000001
 31
0.0
  0
LINE
  5
56B
  8
_________1
 62
     7
 10
72.962800000000001
 20
163.40700000000001
 30
0.0
 11
72.962800000000001
 21
164.00700000000001
 31
0.0
  0
LINE
  5
56C
  8
_________1
 62
     7
 10
72.962800000000001
 20
163.40700000000001
 30
0.0
 11
74.362899999999996
 21
163.40700000000001
 31
0.0
  0
LINE
  5
56D
  8
_________1
 62
     7
 10
80.362899999999996
 20
163.40700000000001
 30
0.0
 11
80.562700000000007
 21
163.40700000000001
 31
0.0
  0
LINE
  5
56E
  8
_________1
 62
     7
 10
72.962800000000001
 20
164.00700000000001
 30
0.0
 11
77.362899999999996
 21
164.00700000000001
 31
0.0
  0
LINE
  5
56F
  8
_________1
 62
     7
 10
77.362899999999996
 20
164.00700000000001
 30
0.0
 11
80.562700000000007
 21
164.00700000000001
 31
0.0
  0
LINE
  5
570
  8
_________1
 62
     7
 10
72.962800000000001
 20
164.40700000000001
 30
0.0
 11
77.362899999999996
 21
164.40700000000001
 31
0.0
  0
LINE
  5
571
  8
_________1
 62
     7
 10
77.362899999999996
 20
164.40700000000001
 30
0.0
 11
80.562700000000007
 21
164.40700000000001
 31
0.0
  0
INSERT
  5
572
  8
_________1
 62
     7
  2
AIGNBL0201000B
 10
0.0
 20
0.0
 30
0.0
  0
LINE
  5
573
  8
_________1
 62
     7
 10
90.705799999999996
 20
172.17599999999999
 30
0.0
 11
90.231800000000007
 21
170.40700000000001
 31
0.0
  0
LINE
  5
574
  8
_________1
 62
     7
 10
90.231800000000007
 20
170.40700000000001
 30
0.0
 11
89.758399999999995
 21
172.17599999999999
 31
0.0
  0
LINE
  5
575
  8
_________1
 62
     7
 10
89.758399999999995
 20
172.17599999999999
 30
0.0
 11
90.705799999999996
 21
172.17599999999999
 31
0.0
  0
LINE
  5
576
  8
_________1
 62
     7
 10
90.577000000000027
 20
186.00800000000001
 30
0.0
 11
81.008799999999994
 21
186.00800000000001
 31
0.0
  0
LINE
  5
577
  8
_________1
 62
     7
 10
90.577000000000027
 20
170.40700000000001
 30
0.0
 11
84.994500000000016
 21
170.40700000000001
 31
0.0
  0
LINE
  5
578
  8
_________1
 62
     7
 10
89.7577
 20
184.239
 30
0.0
 11
90.231800000000007
 21
186.00800000000001
 31
0.0
  0
LINE
  5
579
  8
_________1
 62
     7
 10
90.231800000000007
 20
186.00800000000001
 30
0.0
 11
90.705100000000002
 21
184.239
 31
0.0
  0
LINE
  5
57A
  8
_________1
 62
     7
 10
90.705100000000002
 20
184.239
 30
0.0
 11
89.7577
 21
184.239
 31
0.0
  0
LINE
  5
57B
  8
_________1
 62
     7
 10
90.231800000000007
 20
170.40700000000001
 30
0.0
 11
90.231800000000007
 21
186.00800000000001
 31
0.0
  0
LINE
  5
57C
  8
_________1
 62
     7
 10
31.171099999999999
 20
168.63900000000001
 30
0.0
 11
30.697700000000001
 21
170.40700000000001
 31
0.0
  0
LINE
  5
57D
  8
_________1
 62
     7
 10
30.697700000000001
 20
170.40700000000001
 30
0.0
 11
30.223700000000001
 21
168.63900000000001
 31
0.0
  0
LINE
  5
57E
  8
_________1
 62
     7
 10
30.223700000000001
 20
168.63900000000001
 30
0.0
 11
31.171099999999999
 21
168.63900000000001
 31
0.0
  0
LINE
  5
57F
  8
_________1
 62
     7
 10
30.235399999999998
 20
172.17599999999999
 30
0.0
 11
30.709399999999999
 21
170.40700000000001
 31
0.0
  0
LINE
  5
580
  8
_________1
 62
     7
 10
30.709399999999999
 20
170.40700000000001
 30
0.0
 11
31.1828
 21
172.17599999999999
 31
0.0
  0
LINE
  5
581
  8
_________1
 62
     7
 10
31.1828
 20
172.17599999999999
 30
0.0
 11
30.235399999999998
 21
172.17599999999999
 31
0.0
  0
INSERT
  5
582
  8
_________1
 62
     7
  2
AIGNBL0201000D
 10
0.0
 20
0.0
 30
0.0
  0
INSERT
  5
583
  8
_________1
 62
     7
  2
AIGNBL0201000E
 10
0.0
 20
0.0
 30
0.0
  0
LINE
  5
584
  8
_________1
 62
     7
 10
41.585700000000003
 20
178.191
 30
0.0
 11
50.927100000000003
 21
178.191
 31
0.0
  0
LINE
  5
585
  8
_________1
 62
     7
 10
36.126199999999997
 20
178.607
 30
0.0
 11
48.663699999999992
 21
178.607
 31
0.0
  0
LINE
  5
586
  8
_________1
 62
     7
 10
30.3642
 20
184.80699999999999
 30
0.0
 11
48.826999999999991
 21
184.80699999999999
 31
0.0
  0
LINE
  5
587
  8
_________1
 62
     7
 10
30.3642
 20
170.40700000000001
 30
0.0
 11
70.485699999999994
 21
170.40700000000001
 31
0.0
  0
INSERT
  5
588
  8
_________1
 62
     7
  2
AIGNBL0201000F
 10
0.0
 20
0.0
 30
0.0
  0
LINE
  5
589
  8
_________1
 62
     7
 10
49.963200000000001
 20
153.98099999999999
 30
0.0
 11
49.963200000000001
 21
177.43199999999999
 31
0.0
  0
LINE
  5
58A
  8
_________1
 62
     7
 10
49.7881
 20
177.613
 30
0.0
 11
48.674700000000001
 21
171.30000000000001
 31
0.0
  0
LINE
  5
58B
  8
_________1
 62
     7
 10
74.8035
 20
177.20500000000001
 30
0.0
 11
54.09320000000001
 21
182.755
 31
0.0
  0
LINE
  5
58C
  8
_________1
 62
     7
 10
70.829499999999996
 20
176.00899999999999
 30
0.0
 11
54.8521
 21
180.976
 31
0.0
  0
LINE
  5
58D
  8
_________1
 62
     7
 10
52.894300000000001
 20
179.10599999999999
 30
0.0
 11
53.081699999999998
 21
180.16800000000001
 31
0.0
  0
ARC
  5
58E
  8
_________1
 62
     7
 10
54.109085999999991
 20
177.95352600000001
 30
0.0
 40
3.1126079999999998
 50
76.189064000000002
 51
86.343110999999993
  0
ARC
  5
58F
  8
_________1
 62
     7
 10
54.224131
 20
179.37019900000001
 30
0.0
 40
1.6916580000000001
 50
87.171367000000004
 51
102.605422
  0
ARC
  5
590
  8
_________1
 62
     7
 10
54.102632999999997
 20
180.03948299999999
 30
0.0
 40
1.0123649999999991
 50
104.161564
 51
157.65701100000001
  0
ARC
  5
591
  8
_________1
 62
     7
 10
54.971986000000001
 20
179.66072199999999
 30
0.0
 40
1.960537
 50
157.07717600000001
 51
162.48443399999999
  0
ARC
  5
592
  8
_________1
 62
     7
 10
53.652059999999999
 20
180.06921500000001
 30
0.0
 40
0.578918
 50
161.72257200000001
 51
170.14862199999999
  0
LINE
  5
593
  8
_________1
 62
     7
 10
74.362899999999996
 20
180.40700000000001
 30
0.0
 11
55.8416
 21
184.47399999999999
 31
0.0
  0
LINE
  5
594
  8
_________1
 62
     7
 10
47.379300000000001
 20
180.078
 30
0.0
 11
47.622500000000002
 21
181.43100000000001
 31
0.0
  0
ARC
  5
595
  8
_________1
 62
     7
 10
52.549760999999997
 20
176.168836
 30
0.0
 40
6.7642819999999997
 50
76.810664000000003
 51
83.708849000000001
  0
ARC
  5
596
  8
_________1
 62
     7
 10
52.837006999999993
 20
178.52373399999999
 30
0.0
 40
4.3921749999999991
 50
84.067132000000001
 51
93.813244000000026
  0
ARC
  5
597
  8
_________1
 62
     7
 10
52.758671999999997
 20
180.049091
 30
0.0
 40
2.8650790000000002
 50
94.278829999999985
 51
110.046871
  0
ARC
  5
598
  8
_________1
 62
     7
 10
52.532015999999999
 20
180.790727
 30
0.0
 40
2.0910899999999999
 50
111.17858699999999
 51
151.573331
  0
ARC
  5
599
  8
_________1
 62
     7
 10
53.188025000000003
 20
180.403988
 30
0.0
 40
2.8522389999999991
 50
151.014341
 51
163.50800100000001
  0
ARC
  5
59A
  8
_________1
 62
     7
 10
54.187711999999998
 20
180.069515
 30
0.0
 40
3.9059239999999988
 50
162.96641299999999
 51
168.26116500000001
  0
ARC
  5
59B
  8
_________1
 62
     7
 10
53.210726999999999
 20
173.22039899999999
 30
0.0
 40
11.556997000000001
 50
76.841825999999983
 51
92.628725999999986
  0
ARC
  5
59C
  8
_________1
 62
     7
 10
53.164237
 20
175.90286499999999
 30
0.0
 40
8.8755520000000008
 50
93.123138999999995
 51
105.57035500000001
  0
ARC
  5
59D
  8
_________1
 62
     7
 10
52.569716
 20
178.296674
 30
0.0
 40
6.4103899999999996
 50
106.194659
 51
116.709202
  0
ARC
  5
59E
  8
_________1
 62
     7
 10
51.872005999999999
 20
179.75655800000001
 30
0.0
 40
4.7927960000000001
 50
117.102503
 51
130.17221799999999
  0
ARC
  5
59F
  8
_________1
 62
     7
 10
51.123232999999992
 20
180.69382300000001
 30
0.0
 40
3.593745999999999
 50
130.68996200000001
 51
157.49559600000001
  0
ARC
  5
5A0
  8
_________1
 62
     7
 10
50.895071999999992
 20
180.85008300000001
 30
0.0
 40
3.323639
 50
158.47879499999999
 51
169.93870200000001
  0
ARC
  5
5A1
  8
_________1
 62
     7
 10
70.152753000000004
 20
174.06803500000001
 30
0.0
 40
2.0552259999999989
 50
1.1130569999999991
 51
70.773540999999994
  0
LINE
  5
5A2
  8
_________1
  6
AIGENLINE001
 62
     7
 10
49.8371
 20
177.89099999999999
 30
0.0
 11
50.363500000000002
 21
180.864
 31
0.0
  0
LINE
  5
5A3
  8
_________1
 62
     7
 10
52.894300000000001
 20
179.10599999999999
 30
0.0
 11
47.379300000000001
 21
180.078
 31
0.0
  0
LINE
  5
5A4
  8
_________1
 62
     7
 10
47.599800000000002
 20
179.024
 30
0.0
 11
47.773400000000002
 21
180.00899999999999
 31
0.0
  0
LINE
  5
5A5
  8
_________1
 62
     7
 10
52.327199999999998
 20
178.191
 30
0.0
 11
52.500799999999998
 21
179.17599999999999
 31
0.0
  0
LINE
  5
5A6
  8
_________1
 62
     7
 10
52.327199999999998
 20
178.191
 30
0.0
 11
47.599800000000002
 21
179.024
 31
0.0
  0
LINE
  5
5A7
  8
_________1
 62
     7
 10
77.362899999999996
 20
183.607
 30
0.0
 11
77.362899999999996
 21
184.20699999999999
 31
0.0
  0
LINE
  5
5A8
  8
_________1
 62
     7
 10
74.578500000000005
 20
180.40700000000001
 30
0.0
 11
74.362899999999996
 21
180.40700000000001
 31
0.0
  0
LINE
  5
5A9
  8
_________1
 62
     7
 10
80.362899999999996
 20
180.40700000000001
 30
0.0
 11
80.147199999999998
 21
180.40700000000001
 31
0.0
  0
LINE
  5
5AA
  8
_________1
 62
     7
 10
70.963200000000001
 20
170.40700000000001
 30
0.0
 11
83.763199999999983
 21
170.40700000000001
 31
0.0
  0
LINE
  5
5AB
  8
_________1
 62
     7
 10
-18.5091
 20
166.50800000000001
 30
0.0
 11
-18.5091
 21
165.40799999999999
 31
0.0
  0
ARC
  5
5AC
  8
_________1
 62
     7
 10
-18.605502000000001
 20
166.71149600000001
 30
0.0
 40
0.103795
 50
182.1104
 51
267.98833100000002
  0
ARC
  5
5AD
  8
_________1
 62
     7
 10
-18.613140000000001
 20
166.50369800000001
 30
0.0
 40
0.104145
 50
2.0994380000000001
 51
87.802020999999996
  0
ARC
  5
5AE
  8
_________1
 62
     7
 10
-18.605356
 20
167.90346099999999
 30
0.0
 40
0.103953
 50
92.089044999999999
 51
177.71335400000001
  0
LINE
  5
5AF
  8
_________1
 62
     7
 10
-18.5091
 20
168.608
 30
0.0
 11
-18.5091
 21
168.108
 31
0.0
  0
ARC
  5
5B0
  8
_________1
 62
     7
 10
-18.612971999999999
 20
168.11123900000001
 30
0.0
 40
0.103965
 50
272.10916400000002
 51
358.087738
  0
LINE
  5
5B1
  8
_________1
 62
     7
 10
-18.709199999999999
 20
165.40799999999999
 30
0.0
 11
-18.5091
 21
165.40799999999999
 31
0.0
  0
LINE
  5
5B2
  8
_________1
 62
     7
 10
-20.809000000000001
 20
165.40799999999999
 30
0.0
 11
-19.909199999999998
 21
165.40799999999999
 31
0.0
  0
LINE
  5
5B3
  8
_________1
 62
     7
 10
-18.709199999999999
 20
168.608
 30
0.0
 11
-18.5091
 21
168.608
 31
0.0
  0
LINE
  5
5B4
  8
_________1
 62
     7
 10
-20.809000000000001
 20
168.608
 30
0.0
 11
-19.909199999999998
 21
168.608
 31
0.0
  0
LINE
  5
5B5
  8
_________1
 62
     7
 10
-18.609100000000002
 20
164.40799999999999
 30
0.0
 11
-18.609100000000002
 21
165.40799999999999
 31
0.0
  0
LINE
  5
5B6
  8
_________1
 62
     7
 10
-24.109100000000002
 20
166.50800000000001
 30
0.0
 11
-24.109100000000002
 21
165.40799999999999
 31
0.0
  0
ARC
  5
5B7
  8
_________1
 62
     7
 10
-24.012995
 20
166.71165300000001
 30
0.0
 40
0.103957
 50
272.09504900000002
 51
357.80626000000001
  0
ARC
  5
5B8
  8
_________1
 62
     7
 10
-24.005369999999999
 20
166.50404599999999
 30
0.0
 40
0.103791
 50
92.111643000000001
 51
178.08555899999999
  0
ARC
  5
5B9
  8
_________1
 62
     7
 10
-24.013058999999998
 20
167.90338600000001
 30
0.0
 40
0.10403
 50
2.3262399999999999
 51
87.871320999999995
  0
LINE
  5
5BA
  8
_________1
 62
     7
 10
-24.109100000000002
 20
168.608
 30
0.0
 11
-24.109100000000002
 21
168.108
 31
0.0
  0
ARC
  5
5BB
  8
_________1
 62
     7
 10
-24.004857000000001
 20
168.111569
 30
0.0
 40
0.104315
 50
182.087433
 51
267.61700500000001
  0
LINE
  5
5BC
  8
_________1
 62
     7
 10
-23.909099999999999
 20
165.40799999999999
 30
0.0
 11
-24.109100000000002
 21
165.40799999999999
 31
0.0
  0
LINE
  5
5BD
  8
_________1
 62
     7
 10
-21.809100000000001
 20
165.40799999999999
 30
0.0
 11
-22.709
 21
165.40799999999999
 31
0.0
  0
LINE
  5
5BE
  8
_________1
 62
     7
 10
-23.909099999999999
 20
168.608
 30
0.0
 11
-24.109100000000002
 21
168.608
 31
0.0
  0
LINE
  5
5BF
  8
_________1
 62
     7
 10
-21.809100000000001
 20
168.608
 30
0.0
 11
-22.709
 21
168.608
 31
0.0
  0
LINE
  5
5C0
  8
_________1
 62
     7
 10
-24.0092
 20
164.40799999999999
 30
0.0
 11
-24.0092
 21
165.40799999999999
 31
0.0
  0
INSERT
  5
5C1
  8
_________1
 62
     7
  2
AIGNBL02010010
 10
0.0
 20
0.0
 30
0.0
  0
LINE
  5
5C2
  8
_________1
 62
     7
 10
30.3642
 20
102.408
 30
0.0
 11
75.740200000000002
 21
102.408
 31
0.0
  0
LINE
  5
5C3
  8
_________1
 62
     7
 10
-18.809100000000001
 20
159.00700000000001
 30
0.0
 11
-18.809100000000001
 21
163.40700000000001
 31
0.0
  0
LINE
  5
5C4
  8
_________1
 62
     7
 10
-19.809100000000001
 20
159.00700000000001
 30
0.0
 11
-19.809100000000001
 21
163.40700000000001
 31
0.0
  0
LINE
  5
5C5
  8
_________1
 62
     7
 10
-20.3093
 20
159.00700000000001
 30
0.0
 11
-18.309200000000001
 21
159.00700000000001
 31
0.0
  0
LINE
  5
5C6
  8
_________1
 62
     7
 10
-18.309200000000001
 20
163.40700000000001
 30
0.0
 11
-18.309200000000001
 21
159.00700000000001
 31
0.0
  0
LINE
  5
5C7
  8
_________1
 62
     7
 10
-20.3093
 20
163.40700000000001
 30
0.0
 11
-20.3093
 21
159.00700000000001
 31
0.0
  0
LINE
  5
5C8
  8
_________1
 62
     7
 10
-19.909199999999998
 20
154.40799999999999
 30
0.0
 11
-19.909199999999998
 21
159.00700000000001
 31
0.0
  0
LINE
  5
5C9
  8
_________1
 62
     7
 10
-19.909199999999998
 20
154.40799999999999
 30
0.0
 11
-18.709199999999999
 21
154.40799999999999
 31
0.0
  0
LINE
  5
5CA
  8
_________1
 62
     7
 10
-18.709199999999999
 20
154.40799999999999
 30
0.0
 11
-18.709199999999999
 21
159.00700000000001
 31
0.0
  0
LINE
  5
5CB
  8
_________1
 62
     7
 10
-18.709199999999999
 20
164.40700000000001
 30
0.0
 11
-18.709199999999999
 21
170.40700000000001
 31
0.0
  0
LINE
  5
5CC
  8
_________1
 62
     7
 10
-19.909199999999998
 20
164.40700000000001
 30
0.0
 11
-19.909199999999998
 21
170.40700000000001
 31
0.0
  0
LINE
  5
5CD
  8
_________1
  6
AIGENLINE001
 62
     7
 10
-19.309200000000001
 20
171.26499999999999
 30
0.0
 11
-19.309200000000001
 21
153.4679999999999
 31
0.0
  0
LINE
  5
5CE
  8
_________1
 62
     7
 10
-22.809100000000001
 20
159.00700000000001
 30
0.0
 11
-22.809100000000001
 21
163.40700000000001
 31
0.0
  0
LINE
  5
5CF
  8
_________1
 62
     7
 10
-23.8094
 20
159.00700000000001
 30
0.0
 11
-23.8094
 21
163.40700000000001
 31
0.0
  0
LINE
  5
5D0
  8
_________1
 62
     7
 10
-24.3093
 20
159.00700000000001
 30
0.0
 11
-22.309200000000001
 21
159.00700000000001
 31
0.0
  0
LINE
  5
5D1
  8
_________1
 62
     7
 10
-22.309200000000001
 20
163.40700000000001
 30
0.0
 11
-22.309200000000001
 21
159.00700000000001
 31
0.0
  0
LINE
  5
5D2
  8
_________1
 62
     7
 10
-24.3093
 20
163.40700000000001
 30
0.0
 11
-24.3093
 21
159.00700000000001
 31
0.0
  0
LINE
  5
5D3
  8
_________1
 62
     7
 10
-23.909300000000002
 20
154.40799999999999
 30
0.0
 11
-23.909300000000002
 21
159.00700000000001
 31
0.0
  0
LINE
  5
5D4
  8
_________1
 62
     7
 10
-23.909300000000002
 20
154.40799999999999
 30
0.0
 11
-22.709399999999999
 21
154.40799999999999
 31
0.0
  0
LINE
  5
5D5
  8
_________1
 62
     7
 10
-22.709399999999999
 20
154.40799999999999
 30
0.0
 11
-22.709399999999999
 21
159.00700000000001
 31
0.0
  0
LINE
  5
5D6
  8
_________1
 62
     7
 10
-22.709
 20
164.40700000000001
 30
0.0
 11
-22.709
 21
170.40700000000001
 31
0.0
  0
LINE
  5
5D7
  8
_________1
 62
     7
 10
-23.909099999999999
 20
164.40700000000001
 30
0.0
 11
-23.909099999999999
 21
170.40700000000001
 31
0.0
  0
LINE
  5
5D8
  8
_________1
  6
AIGENLINE001
 62
     7
 10
-23.3093
 20
171.26499999999999
 30
0.0
 11
-23.3093
 21
153.4679999999999
 31
0.0
  0
LINE
  5
5D9
  8
_________1
 62
     7
 10
-20.809000000000001
 20
164.40700000000001
 30
0.0
 11
-20.809000000000001
 21
170.40700000000001
 31
0.0
  0
LINE
  5
5DA
  8
_________1
 62
     7
 10
-21.809100000000001
 20
164.40700000000001
 30
0.0
 11
-21.809100000000001
 21
170.40700000000001
 31
0.0
  0
LINE
  5
5DB
  8
_________1
 62
     7
 10
-21.809100000000001
 20
102.407
 30
0.0
 11
-21.809100000000001
 21
163.40700000000001
 31
0.0
  0
LINE
  5
5DC
  8
_________1
 62
     7
 10
-16.309200000000001
 20
164.40700000000001
 30
0.0
 11
-16.309200000000001
 21
163.40700000000001
 31
0.0
  0
LINE
  5
5DD
  8
_________1
 62
     7
 10
-26.3093
 20
164.40700000000001
 30
0.0
 11
-26.3093
 21
163.40700000000001
 31
0.0
  0
LINE
  5
5DE
  8
_________1
 62
     7
 10
-26.3093
 20
163.40700000000001
 30
0.0
 11
-16.309200000000001
 21
163.40700000000001
 31
0.0
  0
LINE
  5
5DF
  8
_________1
 62
     7
 10
-26.3093
 20
164.00700000000001
 30
0.0
 11
-16.3094
 21
164.00700000000001
 31
0.0
  0
LINE
  5
5E0
  8
_________1
 62
     7
 10
-26.3093
 20
164.40700000000001
 30
0.0
 11
-16.309200000000001
 21
164.40700000000001
 31
0.0
  0
LINE
  5
5E1
  8
_________1
 62
     7
 10
-14.9093
 20
170.40700000000001
 30
0.0
 11
-14.9093
 21
171.7229999999999
 31
0.0
  0
ARC
  5
5E2
  8
_________1
 62
     7
 10
-17.350162999999998
 20
171.718636
 30
0.0
 40
2.4409040000000002
 50
0.092076
 51
31.413964
  0
LINE
  5
5E3
  8
_________1
 62
     7
 10
-18.509399999999999
 20
179.59200000000001
 30
0.0
 11
-18.509399999999999
 21
181.02000000000001
 31
0.0
  0
LINE
  5
5E4
  8
_________1
 62
     7
 10
-27.709299999999999
 20
170.40700000000001
 30
0.0
 11
-27.709299999999999
 21
171.7229999999999
 31
0.0
  0
ARC
  5
5E5
  8
_________1
 62
     7
 10
-25.272012
 20
171.71967000000001
 30
0.0
 40
2.4372400000000001
 50
148.56186600000001
 51
179.93205399999999
  0
LINE
  5
5E6
  8
_________1
 62
     7
 10
-24.109400000000001
 20
179.59200000000001
 30
0.0
 11
-24.109400000000001
 21
181.02000000000001
 31
0.0
  0
LINE
  5
5E7
  8
_________1
 62
     7
 10
-18.909600000000001
 20
179.607
 30
0.0
 11
-18.909600000000001
 21
178.607
 31
0.0
  0
LINE
  5
5E8
  8
_________1
 62
     7
 10
-23.709299999999999
 20
179.607
 30
0.0
 11
-23.709299999999999
 21
178.607
 31
0.0
  0
ARC
  5
5E9
  8
_________1
 62
     7
 10
-18.995918
 20
179.60637199999999
 30
0.0
 40
0.086707
 50
0.5650870000000001
 51
42.997572000000012
  0
ARC
  5
5EA
  8
_________1
 62
     7
 10
-19.094431
 20
179.53125299999999
 30
0.0
 40
0.210343
 50
39.661102
 51
53.962674999999997
  0
ARC
  5
5EB
  8
_________1
 62
     7
 10
-19.236516999999999
 20
179.33935099999999
 30
0.0
 40
0.4491170000000001
 50
53.707832999999987
 51
63.387492000000009
  0
ARC
  5
5EC
  8
_________1
 62
     7
 10
-19.44228
 20
178.93507600000001
 30
0.0
 40
0.9027379999999999
 50
63.205514999999998
 51
69.993391000000003
  0
ARC
  5
5ED
  8
_________1
 62
     7
 10
-19.731407000000001
 20
178.15247500000001
 30
0.0
 40
1.737034999999999
 50
69.863775000000004
 51
74.660443999999998
  0
ARC
  5
5EE
  8
_________1
 62
     7
 10
-20.085802999999999
 20
176.86274900000001
 30
0.0
 40
3.074565999999999
 50
74.649499000000006
 51
78.556355000000011
  0
ARC
  5
5EF
  8
_________1
 62
     7
 10
-20.607333000000001
 20
174.271142
 30
0.0
 40
5.7181269999999991
 50
78.586641999999983
 51
84.307718999999992
  0
ARC
  5
5F0
  8
_________1
 62
     7
 10
-21.232507999999999
 20
168.75875600000001
 30
0.0
 40
11.265592
 50
83.924526999999983
 51
90.390328999999994
  0
ARC
  5
5F1
  8
_________1
 62
     7
 10
-21.311119000000001
 20
167.00276299999999
 30
0.0
 40
13.021323000000001
 50
89.991792000000004
 51
94.918642000000006
  0
ARC
  5
5F2
  8
_________1
 62
     7
 10
-21.762283
 20
172.53321699999989
 30
0.0
 40
7.472592999999998
 50
95.107918999999995
 51
100.04958600000001
  0
ARC
  5
5F3
  8
_________1
 62
     7
 10
-22.515934999999999
 20
176.85293799999999
 30
0.0
 40
3.0876579999999998
 50
100.26679
 51
107.54458200000001
  0
ARC
  5
5F4
  8
_________1
 62
     7
 10
-23.170497999999998
 20
178.94627800000001
 30
0.0
 40
0.8944049999999998
 50
107.987801
 51
121.19296199999999
  0
ARC
  5
5F5
  8
_________1
 62
     7
 10
-23.525137000000001
 20
179.53943200000001
 30
0.0
 40
0.203366
 50
122.27489300000001
 51
150.592556
  0
ARC
  5
5F6
  8
_________1
 62
     7
 10
-23.629684999999998
 20
179.60664399999999
 30
0.0
 40
0.079614
 50
155.79378700000001
 51
179.58079499999999
  0
LINE
  5
5F7
  8
_________1
 62
     7
 10
-24.909199999999998
 20
180.40700000000001
 30
0.0
 11
-24.5945
 21
180.40700000000001
 31
0.0
  0
ARC
  5
5F8
  8
_________1
 62
     7
 10
-18.996262999999999
 20
178.606426
 30
0.0
 40
0.086707
 50
0.5650870000000001
 51
42.997572000000012
  0
ARC
  5
5F9
  8
_________1
 62
     7
 10
-19.09468
 20
178.53144599999999
 30
0.0
 40
0.210181
 50
39.648586999999999
 51
53.959065000000002
  0
ARC
  5
5FA
  8
_________1
 62
     7
 10
-19.237029
 20
178.33914100000001
 30
0.0
 40
0.449436
 50
53.709448000000002
 51
63.381631000000013
  0
ARC
  5
5FB
  8
_________1
 62
     7
 10
-19.442487
 20
177.93549100000001
 30
0.0
 40
0.9023620000000001
 50
63.202120999999998
 51
69.992200999999994
  0
ARC
  5
5FC
  8
_________1
 62
     7
 10
-19.731081
 20
177.15465499999999
 30
0.0
 40
1.7348179999999991
 50
69.859584999999996
 51
74.662048999999996
  0
ARC
  5
5FD
  8
_________1
 62
     7
 10
-20.085982999999999
 20
175.86360400000001
 30
0.0
 40
3.0737610000000002
 50
74.647818999999998
 51
78.555306999999999
  0
ARC
  5
5FE
  8
_________1
 62
     7
 10
-20.607693999999999
 20
173.27079900000001
 30
0.0
 40
5.7185319999999988
 50
78.586683999999991
 51
84.307193999999996
  0
ARC
  5
5FF
  8
_________1
 62
     7
 10
-21.232786000000001
 20
167.75871599999999
 30
0.0
 40
11.265686000000001
 50
83.924531000000002
 51
90.390662000000006
  0
ARC
  5
600
  8
_________1
 62
     7
 10
-21.311464999999998
 20
166.003716
 30
0.0
 40
13.020424
 50
89.991786999999988
 51
94.918811999999988
  0
ARC
  5
601
  8
_________1
 62
     7
 10
-21.762723999999999
 20
171.53510399999999
 30
0.0
 40
7.4707559999999988
 50
95.108148
 51
100.05062100000001
  0
ARC
  5
602
  8
_________1
 62
     7
 10
-22.516304999999999
 20
175.85388900000001
 30
0.0
 40
3.0867559999999998
 50
100.26762600000001
 51
107.546772
  0
ARC
  5
603
  8
_________1
 62
     7
 10
-23.170829000000001
 20
177.946742
 30
0.0
 40
0.893979
 50
107.98854799999999
 51
121.19845599999999
  0
ARC
  5
604
  8
_________1
 62
     7
 10
-23.525293999999999
 20
178.539489
 30
0.0
 40
0.203378
 50
122.28128
 51
150.59515500000001
  0
ARC
  5
605
  8
_________1
 62
     7
 10
-23.629857000000001
 20
178.60669899999999
 30
0.0
 40
0.079614
 50
155.79378700000001
 51
179.58079499999999
  0
ARC
  5
606
  8
_________1
 62
     7
 10
-23.622895
 20
178.608036
 30
0.0
 40
0.086577
 50
180.49910299999999
 51
223.02531400000001
  0
ARC
  5
607
  8
_________1
 62
     7
 10
-23.524135999999999
 20
178.68327400000001
 30
0.0
 40
0.210477
 50
219.65262400000009
 51
233.94595699999999
  0
ARC
  5
608
  8
_________1
 62
     7
 10
-23.382331000000001
 20
178.874607
 30
0.0
 40
0.4486260000000001
 50
233.68611200000001
 51
243.37723500000001
  0
ARC
  5
609
  8
_________1
 62
     7
 10
-23.176856999999998
 20
179.27823100000001
 30
0.0
 40
0.9015359999999999
 50
243.198038
 51
249.99403100000001
  0
ARC
  5
60A
  8
_________1
 62
     7
 10
-22.891242999999999
 20
180.04949300000001
 30
0.0
 40
1.7239779999999989
 50
249.84393600000001
 51
254.676444
  0
ARC
  5
60B
  8
_________1
 62
     7
 10
-22.535495000000001
 20
181.34124499999999
 30
0.0
 40
3.063820999999999
 50
254.644092
 51
258.56411800000001
  0
ARC
  5
60C
  8
_________1
 62
     7
 10
-22.159265000000001
 20
183.16919999999999
 30
0.0
 40
4.9300850000000001
 50
258.490565
 51
261.33801499999998
  0
ARC
  5
60D
  8
_________1
 62
     7
 10
-21.690891000000001
 20
186.283545
 30
0.0
 40
8.0794490000000003
 50
261.38059600000003
 51
266.26853999999997
  0
ARC
  5
60E
  8
_________1
 62
     7
 10
-21.336079999999999
 20
190.78312199999999
 30
0.0
 40
12.592727999999999
 50
265.98997200000002
 51
270.12049000000002
  0
ARC
  5
60F
  8
_________1
 62
     7
 10
-21.307742999999999
 20
191.22238400000001
 30
0.0
 40
13.031961000000001
 50
269.99184400000001
 51
274.91499599999997
  0
ARC
  5
610
  8
_________1
 62
     7
 10
-20.855668999999999
 20
185.67757499999999
 30
0.0
 40
7.4688499999999989
 50
275.10412000000002
 51
280.04811000000001
  0
ARC
  5
611
  8
_________1
 62
     7
 10
-20.103102
 20
181.36254600000001
 30
0.0
 40
3.0887250000000002
 50
280.26775300000003
 51
287.54249399999998
  0
ARC
  5
612
  8
_________1
 62
     7
 10
-19.447855000000001
 20
179.26678699999999
 30
0.0
 40
0.8929579999999999
 50
287.98615000000001
 51
301.21180299999997
  0
ARC
  5
613
  8
_________1
 62
     7
 10
-19.093564000000001
 20
178.67482200000001
 30
0.0
 40
0.203116
 50
302.26929000000001
 51
330.62832300000008
  0
ARC
  5
614
  8
_________1
 62
     7
 10
-18.989270999999999
 20
178.60786399999989
 30
0.0
 40
0.079713
 50
335.809056
 51
359.58158900000001
  0
LINE
  5
615
  8
_________1
 62
     7
 10
-24.021799999999999
 20
183.15700000000001
 30
0.0
 11
-23.620100000000001
 21
184.136
 31
0.0
  0
LINE
  5
616
  8
_________1
 62
     7
 10
-22.909199999999998
 20
184.80699999999999
 30
0.0
 11
-19.709299999999999
 21
184.80699999999999
 31
0.0
  0
LINE
  5
617
  8
_________1
  6
AIGENLINE001
 62
     7
 10
-21.3093
 20
187.81899999999999
 30
0.0
 11
-21.3093
 21
101.282
 31
0.0
  0
LINE
  5
618
  8
_________1
 62
     7
 10
-27.709299999999999
 20
170.40700000000001
 30
0.0
 11
-14.9093
 21
170.40700000000001
 31
0.0
  0
LINE
  5
619
  8
_________1
 62
     7
 10
-43.409500000000001
 20
135.63800000000001
 30
0.0
 11
-43.409500000000001
 21
149.78700000000001
 31
0.0
  0
LINE
  5
61A
  8
_________1
 62
     7
 10
-39.209600000000002
 20
135.63800000000001
 30
0.0
 11
-39.209600000000002
 21
149.78700000000001
 31
0.0
  0
INSERT
  5
61B
  8
_________1
 62
     7
  2
AIGNBL02010011
 10
0.0
 20
0.0
 30
0.0
  0
INSERT
  5
61C
  8
_________1
 62
     7
  2
AIGNBL02010012
 10
0.0
 20
0.0
 30
0.0
  0
INSERT
  5
61D
  8
_________1
 62
     7
  2
AIGNBL02010013
 10
0.0
 20
0.0
 30
0.0
  0
LINE
  5
61E
  8
_________1
 62
     7
 10
-47.509500000000003
 20
177.96700000000001
 30
0.0
 11
-47.509500000000003
 21
171.64699999999999
 31
0.0
  0
LINE
  5
61F
  8
_________1
 62
     7
 10
-56.609699999999989
 20
191.578
 30
0.0
 11
-56.609699999999989
 21
183.768
 31
0.0
  0
LINE
  5
620
  8
_________1
 62
     7
 10
-41.309399999999989
 20
191.46700000000001
 30
0.0
 11
-41.309399999999989
 21
185.79900000000001
 31
0.0
  0
LINE
  5
621
  8
_________1
 62
     7
 10
-35.109400000000001
 20
177.96700000000001
 30
0.0
 11
-35.109400000000001
 21
171.64699999999999
 31
0.0
  0
INSERT
  5
622
  8
_________1
 62
     7
  2
AIGNBL02010014
 10
0.0
 20
0.0
 30
0.0
  0
INSERT
  5
623
  8
_________1
 62
     7
  2
AIGNBL02010016
 10
0.0
 20
0.0
 30
0.0
  0
LINE
  5
624
  8
_________1
 62
     7
 10
-32.609200000000001
 20
154.607
 30
0.0
 11
-31.5092
 21
154.607
 31
0.0
  0
ARC
  5
625
  8
_________1
 62
     7
 10
-32.813572000000001
 20
154.70314099999999
 30
0.0
 40
0.10432
 50
2.0939919999999992
 51
87.709106000000006
  0
ARC
  5
626
  8
_________1
 62
     7
 10
-32.605772000000002
 20
154.710778
 30
0.0
 40
0.10362
 50
182.115914
 51
268.08168699999999
  0
ARC
  5
627
  8
_________1
 62
     7
 10
-34.005513000000001
 20
154.703487
 30
0.0
 40
0.103961
 50
92.107428999999996
 51
178.08943400000001
  0
LINE
  5
628
  8
_________1
 62
     7
 10
-34.709400000000009
 20
154.607
 30
0.0
 11
-34.209499999999998
 21
154.607
 31
0.0
  0
ARC
  5
629
  8
_________1
 62
     7
 10
-34.213104999999999
 20
154.71091699999999
 30
0.0
 40
0.103763
 50
271.99206500000003
 51
357.81037400000002
  0
LINE
  5
62A
  8
_________1
 62
     7
 10
-32.809399999999997
 20
154.80699999999999
 30
0.0
 11
-34.00930000000001
 21
154.80699999999999
 31
0.0
  0
LINE
  5
62B
  8
_________1
 62
     7
 10
-32.609200000000001
 20
157.20699999999999
 30
0.0
 11
-31.5092
 21
157.20699999999999
 31
0.0
  0
ARC
  5
62C
  8
_________1
 62
     7
 10
-32.813136
 20
157.111085
 30
0.0
 40
0.103895
 50
272.05955999999998
 51
357.74287900000007
  0
ARC
  5
62D
  8
_________1
 62
     7
 10
-32.605418
 20
157.10352800000001
 30
0.0
 40
0.103961
 50
92.107428999999996
 51
178.08943400000001
  0
ARC
  5
62E
  8
_________1
 62
     7
 10
-34.005868
 20
157.11081899999999
 30
0.0
 40
0.10362
 50
182.115914
 51
268.08168699999999
  0
LINE
  5
62F
  8
_________1
 62
     7
 10
-34.709400000000009
 20
157.20699999999999
 30
0.0
 11
-34.209499999999998
 21
157.20699999999999
 31
0.0
  0
ARC
  5
630
  8
_________1
 62
     7
 10
-34.213647000000002
 20
157.10320200000001
 30
0.0
 40
0.104299
 50
2.0833560000000002
 51
87.719741999999997
  0
LINE
  5
631
  8
_________1
 62
     7
 10
-34.909500000000001
 20
154.70699999999999
 30
0.0
 11
-34.709400000000009
 21
154.70699999999999
 31
0.0
  0
LINE
  5
632
  8
_________1
 62
     7
 10
-34.909500000000001
 20
157.107
 30
0.0
 11
-34.709400000000009
 21
157.107
 31
0.0
  0
LINE
  5
633
  8
_________1
 62
     7
 10
-31.5092
 20
154.70699999999999
 30
0.0
 11
-28.144400000000001
 21
154.70699999999999
 31
0.0
  0
LINE
  5
634
  8
_________1
 62
     7
 10
-31.5092
 20
157.107
 30
0.0
 11
-28.144400000000001
 21
157.107
 31
0.0
  0
LINE
  5
635
  8
_________1
 62
     7
 10
-32.809399999999997
 20
157.00700000000001
 30
0.0
 11
-34.00930000000001
 21
157.00700000000001
 31
0.0
  0
LINE
  5
636
  8
_________1
 62
     7
 10
-31.5092
 20
157.20699999999999
 30
0.0
 11
-31.5092
 21
154.607
 31
0.0
  0
LINE
  5
637
  8
_________1
 62
     7
 10
-34.709400000000009
 20
157.20699999999999
 30
0.0
 11
-34.709400000000009
 21
154.607
 31
0.0
  0
LINE
  5
638
  8
_________1
 62
     7
 10
-35.209299999999999
 20
157.107
 30
0.0
 11
-36.8095
 21
157.107
 31
0.0
  0
LINE
  5
639
  8
_________1
 62
     7
 10
-35.209299999999999
 20
158.50700000000001
 30
0.0
 11
-36.8095
 21
158.50700000000001
 31
0.0
  0
LINE
  5
63A
  8
_________1
 62
     7
 10
-37.109400000000001
 20
154.40700000000001
 30
0.0
 11
-38.709299999999999
 21
154.40700000000001
 31
0.0
  0
LINE
  5
63B
  8
_________1
 62
     7
 10
-37.109400000000001
 20
157.40700000000001
 30
0.0
 11
-38.709299999999999
 21
157.40700000000001
 31
0.0
  0
LINE
  5
63C
  8
_________1
 62
     7
 10
-37.109400000000001
 20
157.83699999999999
 30
0.0
 11
-37.109400000000001
 21
155.90700000000001
 31
0.0
  0
LINE
  5
63D
  8
_________1
 62
     7
 10
-43.209499999999991
 20
152.607
 30
0.0
 11
-43.409500000000001
 21
152.80699999999999
 31
0.0
  0
LINE
  5
63E
  8
_________1
 62
     7
 10
-39.409399999999998
 20
152.607
 30
0.0
 11
-39.209600000000002
 21
152.80699999999999
 31
0.0
  0
LINE
  5
63F
  8
_________1
 62
     7
 10
-39.209600000000002
 20
150.40700000000001
 30
0.0
 11
-39.409399999999998
 21
150.20699999999999
 31
0.0
  0
LINE
  5
640
  8
_________1
 62
     7
 10
-43.409500000000001
 20
150.40700000000001
 30
0.0
 11
-43.209499999999991
 21
150.20699999999999
 31
0.0
  0
LINE
  5
641
  8
_________1
 62
     7
 10
-39.209600000000002
 20
150.40700000000001
 30
0.0
 11
-43.409500000000001
 21
150.40700000000001
 31
0.0
  0
LINE
  5
642
  8
_________1
 62
     7
 10
-43.209499999999991
 20
152.607
 30
0.0
 11
-43.209499999999991
 21
150.20699999999999
 31
0.0
  0
LINE
  5
643
  8
_________1
 62
     7
 10
-39.409399999999998
 20
150.20699999999999
 30
0.0
 11
-39.409399999999998
 21
152.607
 31
0.0
  0
LINE
  5
644
  8
_________1
 62
     7
 10
-39.209600000000002
 20
150.40700000000001
 30
0.0
 11
-39.209600000000002
 21
153.607
 31
0.0
  0
LINE
  5
645
  8
_________1
 62
     7
 10
-43.409500000000001
 20
153.607
 30
0.0
 11
-43.409500000000001
 21
150.40700000000001
 31
0.0
  0
LINE
  5
646
  8
_________1
 62
     7
 10
-39.409399999999998
 20
150.20699999999999
 30
0.0
 11
-43.209499999999991
 21
150.20699999999999
 31
0.0
  0
LINE
  5
647
  8
_________1
 62
     7
 10
-39.209600000000002
 20
152.607
 30
0.0
 11
-43.409500000000001
 21
152.607
 31
0.0
  0
LINE
  5
648
  8
_________1
 62
     7
 10
-38.709299999999999
 20
153.607
 30
0.0
 11
-43.90959999999999
 21
153.607
 31
0.0
  0
LINE
  5
649
  8
_________1
 62
     7
 10
-38.709299999999999
 20
159.40700000000001
 30
0.0
 11
-38.909300000000002
 21
159.607
 31
0.0
  0
LINE
  5
64A
  8
_________1
 62
     7
 10
-43.90959999999999
 20
159.40700000000001
 30
0.0
 11
-43.709400000000002
 21
159.607
 31
0.0
  0
LINE
  5
64B
  8
_________1
 62
     7
 10
-38.909300000000002
 20
159.607
 30
0.0
 11
-38.909300000000002
 21
163.00700000000001
 31
0.0
  0
LINE
  5
64C
  8
_________1
 62
     7
 10
-38.709299999999999
 20
157.40700000000001
 30
0.0
 11
-38.709299999999999
 21
163.00700000000001
 31
0.0
  0
LINE
  5
64D
  8
_________1
 62
     7
 10
-38.709299999999999
 20
153.607
 30
0.0
 11
-38.709299999999999
 21
154.40700000000001
 31
0.0
  0
LINE
  5
64E
  8
_________1
 62
     7
 10
-43.709400000000002
 20
159.607
 30
0.0
 11
-43.709400000000002
 21
163.00700000000001
 31
0.0
  0
LINE
  5
64F
  8
_________1
 62
     7
 10
-43.90959999999999
 20
153.607
 30
0.0
 11
-43.90959999999999
 21
163.00700000000001
 31
0.0
  0
LINE
  5
650
  8
_________1
 62
     7
 10
-38.709299999999999
 20
159.607
 30
0.0
 11
-43.90959999999999
 21
159.607
 31
0.0
  0
LINE
  5
651
  8
_________1
 62
     7
 10
-37.845300000000002
 20
163.00700000000001
 30
0.0
 11
-44.773600000000002
 21
163.00700000000001
 31
0.0
  0
LINE
  5
652
  8
_________1
 62
     7
 10
-37.845300000000002
 20
164.00700000000001
 30
0.0
 11
-37.845300000000002
 21
163.00700000000001
 31
0.0
  0
LINE
  5
653
  8
_________1
 62
     7
 10
-39.577199999999998
 20
164.00700000000001
 30
0.0
 11
-39.577199999999998
 21
163.00700000000001
 31
0.0
  0
LINE
  5
654
  8
_________1
 62
     7
 10
-43.041600000000003
 20
164.00700000000001
 30
0.0
 11
-43.041600000000003
 21
163.00700000000001
 31
0.0
  0
LINE
  5
655
  8
_________1
 62
     7
 10
-44.773600000000002
 20
164.00700000000001
 30
0.0
 11
-44.773600000000002
 21
163.00700000000001
 31
0.0
  0
LINE
  5
656
  8
_________1
 62
     7
 10
-45.809600000000003
 20
164.00700000000001
 30
0.0
 11
-45.809600000000003
 21
164.20699999999999
 31
0.0
  0
LINE
  5
657
  8
_________1
 62
     7
 10
-36.809199999999997
 20
164.00700000000001
 30
0.0
 11
-36.809199999999997
 21
164.20699999999999
 31
0.0
  0
LINE
  5
658
  8
_________1
 62
     7
 10
-36.809199999999997
 20
164.00700000000001
 30
0.0
 11
-45.809600000000003
 21
164.00700000000001
 31
0.0
  0
LINE
  5
659
  8
_________1
 62
     7
 10
-38.909300000000002
 20
164.40700000000001
 30
0.0
 11
-38.909300000000002
 21
170.40700000000001
 31
0.0
  0
LINE
  5
65A
  8
_________1
 62
     7
 10
-38.709299999999999
 20
164.40700000000001
 30
0.0
 11
-38.709299999999999
 21
170.40700000000001
 31
0.0
  0
LINE
  5
65B
  8
_________1
 62
     7
 10
-43.709400000000002
 20
164.40700000000001
 30
0.0
 11
-43.709400000000002
 21
170.40700000000001
 31
0.0
  0
LINE
  5
65C
  8
_________1
 62
     7
 10
-43.90959999999999
 20
164.40700000000001
 30
0.0
 11
-43.90959999999999
 21
170.40700000000001
 31
0.0
  0
LINE
  5
65D
  8
_________1
 62
     7
 10
-37.109400000000001
 20
164.20699999999999
 30
0.0
 11
-37.109400000000001
 21
164.40700000000001
 31
0.0
  0
LINE
  5
65E
  8
_________1
 62
     7
 10
-45.509500000000003
 20
164.20699999999999
 30
0.0
 11
-45.509500000000003
 21
164.40700000000001
 31
0.0
  0
LINE
  5
65F
  8
_________1
 62
     7
 10
-36.809199999999997
 20
164.20699999999999
 30
0.0
 11
-45.809600000000003
 21
164.20699999999999
 31
0.0
  0
LINE
  5
660
  8
_________1
 62
     7
 10
-46.3048
 20
164.40700000000001
 30
0.0
 11
-52.307899999999989
 21
164.40700000000001
 31
0.0
  0
LINE
  5
661
  8
_________1
 62
     7
 10
-37.109400000000001
 20
164.40700000000001
 30
0.0
 11
-45.509500000000003
 21
164.40700000000001
 31
0.0
  0
LINE
  5
662
  8
_________1
 62
     7
 10
-39.059399999999997
 20
183.607
 30
0.0
 11
-39.059399999999997
 21
183.20699999999999
 31
0.0
  0
LINE
  5
663
  8
_________1
 62
     7
 10
-39.509500000000003
 20
183.607
 30
0.0
 11
-39.509500000000003
 21
183.20699999999999
 31
0.0
  0
LINE
  5
664
  8
_________1
 62
     7
 10
-39.959400000000002
 20
183.607
 30
0.0
 11
-39.959400000000002
 21
183.20699999999999
 31
0.0
  0
LINE
  5
665
  8
_________1
 62
     7
 10
-40.409500000000001
 20
183.607
 30
0.0
 11
-40.409500000000001
 21
183.20699999999999
 31
0.0
  0
LINE
  5
666
  8
_________1
 62
     7
 10
-40.859299999999998
 20
183.607
 30
0.0
 11
-40.859299999999998
 21
183.20699999999999
 31
0.0
  0
LINE
  5
667
  8
_________1
 62
     7
 10
-38.809399999999997
 20
184.20699999999999
 30
0.0
 11
-41.309399999999989
 21
184.20699999999999
 31
0.0
  0
LINE
  5
668
  8
_________1
 62
     7
 10
-38.809399999999997
 20
184.20699999999999
 30
0.0
 11
-38.809399999999997
 21
183.607
 31
0.0
  0
LINE
  5
669
  8
_________1
 62
     7
 10
-38.6096
 20
183.607
 30
0.0
 11
-38.6096
 21
183.20699999999999
 31
0.0
  0
LINE
  5
66A
  8
_________1
 62
     7
 10
-41.309399999999989
 20
183.607
 30
0.0
 11
-38.6096
 21
183.607
 31
0.0
  0
LINE
  5
66B
  8
_________1
 62
     7
 10
-41.309399999999989
 20
183.20699999999999
 30
0.0
 11
-38.6096
 21
183.20699999999999
 31
0.0
  0
LINE
  5
66C
  8
_________1
 62
     7
 10
-41.309399999999989
 20
180.20699999999999
 30
0.0
 11
-38.6096
 21
180.20699999999999
 31
0.0
  0
LINE
  5
66D
  8
_________1
 62
     7
 10
-41.309399999999989
 20
179.607
 30
0.0
 11
-39.909599999999998
 21
179.607
 31
0.0
  0
LINE
  5
66E
  8
_________1
 62
     7
 10
-40.209499999999998
 20
179.607
 30
0.0
 11
-40.209499999999998
 21
180.20699999999999
 31
0.0
  0
LINE
  5
66F
  8
_________1
 62
     7
 10
-39.109499999999997
 20
176.607
 30
0.0
 11
-39.509500000000003
 21
176.607
 31
0.0
  0
LINE
  5
670
  8
_________1
 62
     7
 10
-38.709499999999998
 20
176.20699999999999
 30
0.0
 11
-38.709499999999998
 21
175.93600000000001
 31
0.0
  0
ARC
  5
671
  8
_________1
 62
     7
 10
-39.124786
 20
176.19194200000001
 30
0.0
 40
0.415558
 50
2.109726999999999
 51
87.890263000000004
  0
LINE
  5
672
  8
_________1
 62
     7
 10
-39.909599999999998
 20
177.00700000000001
 30
0.0
 11
-39.909599999999998
 21
179.607
 31
0.0
  0
ARC
  5
673
  8
_________1
 62
     7
 10
-39.494335
 20
177.02250699999999
 30
0.0
 40
0.415564
 50
182.111379
 51
267.913321
  0
LINE
  5
674
  8
_________1
 62
     7
 10
-44.909300000000002
 20
181.607
 30
0.0
 11
-56.114400000000003
 21
181.607
 31
0.0
  0
LINE
  5
675
  8
_________1
 62
     7
 10
-44.909300000000002
 20
180.107
 30
0.0
 11
-56.114400000000003
 21
179.714
 31
0.0
  0
LINE
  5
676
  8
_________1
 62
     7
 10
-56.114400000000003
 20
183.501
 30
0.0
 11
-44.909300000000002
 21
183.107
 31
0.0
  0
LINE
  5
677
  8
_________1
 62
     7
 10
-44.909300000000002
 20
180.107
 30
0.0
 11
-44.909300000000002
 21
183.107
 31
0.0
  0
LINE
  5
678
  8
_________1
 62
     7
 10
-56.234099999999991
 20
180.00700000000001
 30
0.0
 11
-56.609699999999989
 21
180.00700000000001
 31
0.0
  0
LINE
  5
679
  8
_________1
 62
     7
 10
-56.309399999999989
 20
180.6329999999999
 30
0.0
 11
-56.309399999999989
 21
182.58199999999999
 31
0.0
  0
LINE
  5
67A
  8
_________1
 62
     7
 10
-56.609699999999989
 20
180.00700000000001
 30
0.0
 11
-56.609699999999989
 21
183.20699999999999
 31
0.0
  0
LINE
  5
67B
  8
_________1
 62
     7
 10
-56.234099999999991
 20
183.20699999999999
 30
0.0
 11
-56.609699999999989
 21
183.20699999999999
 31
0.0
  0
LINE
  5
67C
  8
_________1
 62
     7
 10
-43.559499999999993
 20
183.607
 30
0.0
 11
-43.559499999999993
 21
183.20699999999999
 31
0.0
  0
LINE
  5
67D
  8
_________1
 62
     7
 10
-43.109400000000001
 20
183.607
 30
0.0
 11
-43.109400000000001
 21
183.20699999999999
 31
0.0
  0
LINE
  5
67E
  8
_________1
 62
     7
 10
-42.659299999999988
 20
183.607
 30
0.0
 11
-42.659299999999988
 21
183.20699999999999
 31
0.0
  0
LINE
  5
67F
  8
_________1
 62
     7
 10
-42.209600000000002
 20
183.607
 30
0.0
 11
-42.209600000000002
 21
183.20699999999999
 31
0.0
  0
LINE
  5
680
  8
_________1
 62
     7
 10
-41.759500000000003
 20
183.607
 30
0.0
 11
-41.759500000000003
 21
183.20699999999999
 31
0.0
  0
LINE
  5
681
  8
_________1
 62
     7
 10
-43.8095
 20
184.20699999999999
 30
0.0
 11
-41.309399999999989
 21
184.20699999999999
 31
0.0
  0
LINE
  5
682
  8
_________1
 62
     7
 10
-43.8095
 20
184.20699999999999
 30
0.0
 11
-43.8095
 21
183.607
 31
0.0
  0
LINE
  5
683
  8
_________1
 62
     7
 10
-44.009500000000003
 20
183.607
 30
0.0
 11
-44.009500000000003
 21
183.20699999999999
 31
0.0
  0
LINE
  5
684
  8
_________1
 62
     7
 10
-41.309399999999989
 20
183.607
 30
0.0
 11
-41.309399999999989
 21
183.20699999999999
 31
0.0
  0
LINE
  5
685
  8
_________1
 62
     7
 10
-41.309399999999989
 20
183.607
 30
0.0
 11
-44.009500000000003
 21
183.607
 31
0.0
  0
LINE
  5
686
  8
_________1
 62
     7
 10
-41.309399999999989
 20
183.20699999999999
 30
0.0
 11
-44.009500000000003
 21
183.20699999999999
 31
0.0
  0
LINE
  5
687
  8
_________1
 62
     7
 10
-41.309399999999989
 20
180.20699999999999
 30
0.0
 11
-44.009500000000003
 21
180.20699999999999
 31
0.0
  0
LINE
  5
688
  8
_________1
 62
     7
 10
-41.309399999999989
 20
179.607
 30
0.0
 11
-42.709499999999998
 21
179.607
 31
0.0
  0
LINE
  5
689
  8
_________1
 62
     7
 10
-42.409399999999998
 20
179.607
 30
0.0
 11
-42.409399999999998
 21
180.20699999999999
 31
0.0
  0
LINE
  5
68A
  8
_________1
 62
     7
 10
-43.5092
 20
176.607
 30
0.0
 11
-43.109400000000001
 21
176.607
 31
0.0
  0
LINE
  5
68B
  8
_________1
 62
     7
 10
-43.90959999999999
 20
176.20699999999999
 30
0.0
 11
-43.90959999999999
 21
175.93600000000001
 31
0.0
  0
ARC
  5
68C
  8
_________1
 62
     7
 10
-43.493968000000002
 20
176.19160400000001
 30
0.0
 40
0.415896
 50
92.105378000000002
 51
177.84526299999999
  0
LINE
  5
68D
  8
_________1
 62
     7
 10
-42.709499999999998
 20
177.00700000000001
 30
0.0
 11
-42.709499999999998
 21
179.607
 31
0.0
  0
ARC
  5
68E
  8
_________1
 62
     7
 10
-43.124738999999991
 20
177.02249499999999
 30
0.0
 40
0.415558
 50
272.109737
 51
357.89027299999998
  0
ARC
  5
68F
  8
_________1
 62
     7
 10
-38.986324000000003
 20
175.38948099999999
 30
0.0
 40
0.617784
 50
90.383510000000001
 51
139.224434
  0
ARC
  5
690
  8
_________1
 62
     7
 10
-38.824334
 20
175.22647499999999
 30
0.0
 40
0.8470979999999999
 50
138.030903
 51
181.29741100000001
  0
ARC
  5
691
  8
_________1
 62
     7
 10
-38.765847999999998
 20
175.21026599999999
 30
0.0
 40
0.9053709999999998
 50
180.18804900000001
 51
221.09613100000001
  0
ARC
  5
692
  8
_________1
 62
     7
 10
-38.967554999999997
 20
175.06570300000001
 30
0.0
 40
0.658762
 50
223.152896
 51
268.007563
  0
ARC
  5
693
  8
_________1
 62
     7
 10
-38.994591
 20
175.02573699999999
 30
0.0
 40
0.618412
 50
270.38283799999999
 51
319.19780400000002
  0
ARC
  5
694
  8
_________1
 62
     7
 10
-39.156097000000003
 20
175.18812
 30
0.0
 40
0.846954
 50
318.02176200000002
 51
1.2972909999999991
  0
ARC
  5
695
  8
_________1
 62
     7
 10
-39.215806999999998
 20
175.20385400000001
 30
0.0
 40
0.906454
 50
0.217482
 51
41.075780999999999
  0
ARC
  5
696
  8
_________1
 62
     7
 10
-39.013209000000003
 20
175.34855400000001
 30
0.0
 40
0.659091
 50
43.16590999999999
 51
88.021891999999994
  0
ARC
  5
697
  8
_________1
 62
     7
 10
-35.917043999999997
 20
173.99700100000001
 30
0.0
 40
2.7922940000000001
 50
176.96385100000001
 51
180.03839099999999
  0
ARC
  5
698
  8
_________1
 62
     7
 10
-37.655597
 20
174.09456
 30
0.0
 40
1.051026999999999
 50
164.72680800000001
 51
177.25491600000001
  0
ARC
  5
699
  8
_________1
 62
     7
 10
-38.151775000000001
 20
174.20826600000001
 30
0.0
 40
0.5428290000000001
 50
143.342118
 51
162.50815
  0
ARC
  5
69A
  8
_________1
 62
     7
 10
-46.876671999999992
 20
180.566092
 30
0.0
 40
10.252837
 50
323.94975699999998
 51
324.72610400000002
  0
ARC
  5
69B
  8
_________1
 62
     7
 10
-38.545077999999997
 20
173.68771100000001
 30
0.0
 40
0.090007
 50
206.95200399999999
 51
224.36028400000001
  0
ARC
  5
69C
  8
_________1
 62
     7
 10
-38.277230000000003
 20
173.83623600000001
 30
0.0
 40
0.396234
 50
198.881091
 51
208.54178300000001
  0
ARC
  5
69D
  8
_________1
 62
     7
 10
-37.676453000000002
 20
174.051627
 30
0.0
 40
1.0344279999999999
 50
183.13083900000001
 51
199.401048
  0
ARC
  5
69E
  8
_________1
 62
     7
 10
-39.415855000000001
 20
173.27863500000001
 30
0.0
 40
0.9153859999999999
 50
8.0642759999999996
 51
13.063022
  0
ARC
  5
69F
  8
_________1
 62
     7
 10
-38.815125999999999
 20
173.40308300000001
 30
0.0
 40
0.302425
 50
15.820812999999999
 51
47.143971000000001
  0
ARC
  5
6A0
  8
_________1
 62
     7
 10
-46.759932999999997
 20
173.99537900000001
 30
0.0
 40
2.8503630000000002
 50
359.99500999999998
 51
3.0068630000000001
  0
ARC
  5
6A1
  8
_________1
 62
     7
 10
-44.963315000000001
 20
174.09456
 30
0.0
 40
1.051026999999999
 50
2.7450649999999999
 51
15.273172000000001
  0
ARC
  5
6A2
  8
_________1
 62
     7
 10
-44.466715999999998
 20
174.20848100000001
 30
0.0
 40
0.542362
 50
17.483497
 51
36.666195000000002
  0
ARC
  5
6A3
  8
_________1
 62
     7
 10
-35.848582
 20
180.48939100000001
 30
0.0
 40
10.121722
 50
215.26709199999999
 51
216.05347800000001
  0
ARC
  5
6A4
  8
_________1
 62
     7
 10
-44.074459999999988
 20
173.688143
 30
0.0
 40
0.09076
 50
315.72270700000001
 51
332.98344600000001
  0
ARC
  5
6A5
  8
_________1
 62
     7
 10
-44.340372999999992
 20
173.83565999999999
 30
0.0
 40
0.394808
 50
331.44075500000002
 51
341.13641100000001
  0
ARC
  5
6A6
  8
_________1
 62
     7
 10
-44.941763999999992
 20
174.05150800000001
 30
0.0
 40
1.033733
 50
340.59239600000001
 51
356.87369000000001
  0
ARC
  5
6A7
  8
_________1
 62
     7
 10
-43.197997999999998
 20
173.27627799999999
 30
0.0
 40
0.9207229999999999
 50
166.86342300000001
 51
171.834597
  0
ARC
  5
6A8
  8
_________1
 62
     7
 10
-43.803018000000002
 20
173.40287499999999
 30
0.0
 40
0.303097
 50
132.93499600000001
 51
164.17430899999999
  0
ARC
  5
6A9
  8
_________1
 62
     7
 10
-43.624490000000002
 20
175.389351
 30
0.0
 40
0.617915
 50
90.382970999999984
 51
139.218895
  0
ARC
  5
6AA
  8
_________1
 62
     7
 10
-43.462570999999997
 20
175.226573
 30
0.0
 40
0.847024
 50
138.03529700000001
 51
181.30412899999999
  0
ARC
  5
6AB
  8
_________1
 62
     7
 10
-43.403813999999997
 20
175.21026499999999
 30
0.0
 40
0.9055659999999999
 50
180.18794700000001
 51
221.085286
  0
ARC
  5
6AC
  8
_________1
 62
     7
 10
-43.605837999999991
 20
175.065584
 30
0.0
 40
0.6586400000000001
 50
223.14877799999999
 51
268.01776899999999
  0
ARC
  5
6AD
  8
_________1
 62
     7
 10
-43.632752000000004
 20
175.02555899999999
 30
0.0
 40
0.6182340000000001
 50
270.38289300000002
 51
319.20534099999998
  0
ARC
  5
6AE
  8
_________1
 62
     7
 10
-43.794425999999987
 20
175.18801999999999
 30
0.0
 40
0.846953
 50
318.03074600000002
 51
1.304049999999999
  0
ARC
  5
6AF
  8
_________1
 62
     7
 10
-43.854418000000003
 20
175.203856
 30
0.0
 40
0.906731
 50
0.217339
 51
41.060417000000001
  0
ARC
  5
6B0
  8
_________1
 62
     7
 10
-43.651299999999992
 20
175.34889699999999
 30
0.0
 40
0.6587450000000001
 50
43.153171999999991
 51
88.027027000000004
  0
ARC
  5
6B1
  8
_________1
 62
     7
 10
-40.747140000000002
 20
175.20580200000001
 30
0.0
 40
0.5879260000000001
 50
0.145529
 51
33.189348000000003
  0
ARC
  5
6B2
  8
_________1
 62
     7
 10
-40.950085999999992
 20
175.085172
 30
0.0
 40
0.823862
 50
32.483884000000003
 51
55.746107999999992
  0
ARC
  5
6B3
  8
_________1
 62
     7
 10
-41.203246999999998
 20
174.75006999999999
 30
0.0
 40
1.243506
 50
54.795306999999987
 51
78.430449999999993
  0
ARC
  5
6B4
  8
_________1
 62
     7
 10
-41.304724999999991
 20
174.40730199999999
 30
0.0
 40
1.599955999999999
 50
77.332010999999994
 51
90.166245999999987
  0
ARC
  5
6B5
  8
_________1
 62
     7
 10
-41.308731999999992
 20
174.422281
 30
0.0
 40
1.58497
 50
90.022953999999984
 51
113.96280299999999
  0
ARC
  5
6B6
  8
_________1
 62
     7
 10
-41.478982000000002
 20
174.85614799999999
 30
0.0
 40
1.1195440000000001
 50
115.019002
 51
133.33927800000001
  0
ARC
  5
6B7
  8
_________1
 62
     7
 10
-41.737369999999999
 20
175.14451399999999
 30
0.0
 40
0.7325460000000001
 50
134.12024700000001
 51
165.40348900000001
  0
ARC
  5
6B8
  8
_________1
 62
     7
 10
-41.891444999999997
 20
175.207157
 30
0.0
 40
0.568075
 50
167.602011
 51
179.986051
  0
ARC
  5
6B9
  8
_________1
 62
     7
 10
-41.872607000000002
 20
175.20847699999999
 30
0.0
 40
0.5869140000000001
 50
180.11542399999999
 51
213.217726
  0
ARC
  5
6BA
  8
_________1
 62
     7
 10
-41.674791999999989
 20
175.32434900000001
 30
0.0
 40
0.815962
 50
212.41508400000001
 51
235.073104
  0
ARC
  5
6BB
  8
_________1
 62
     7
 10
-41.421052999999993
 20
175.65325100000001
 30
0.0
 40
1.231055999999999
 50
234.15481199999999
 51
257.93924500000003
  0
ARC
  5
6BC
  8
_________1
 62
     7
 10
-41.314622
 20
176.001261
 30
0.0
 40
1.5939309999999991
 50
256.81171499999999
 51
270.18888300000009
  0
ARC
  5
6BD
  8
_________1
 62
     7
 10
-41.310003000000002
 20
175.99230900000001
 30
0.0
 40
1.58497
 50
270.02297400000009
 51
293.96282300000001
  0
ARC
  5
6BE
  8
_________1
 62
     7
 10
-41.139713999999991
 20
175.55836400000001
 30
0.0
 40
1.119456
 50
295.01889899999998
 51
313.34039300000001
  0
ARC
  5
6BF
  8
_________1
 62
     7
 10
-40.881177000000001
 20
175.26996399999999
 30
0.0
 40
0.7323300000000002
 50
314.11554699999999
 51
345.40822900000001
  0
ARC
  5
6C0
  8
_________1
 62
     7
 10
-40.726613999999998
 20
175.20738399999999
 30
0.0
 40
0.567399
 50
347.59209399999997
 51
359.99100399999998
  0
LINE
  5
6C1
  8
_________1
 62
     7
 10
-43.628599999999999
 20
176.00700000000001
 30
0.0
 11
-38.990499999999997
 21
176.00700000000001
 31
0.0
  0
LINE
  5
6C2
  8
_________1
 62
     7
 10
-43.628599999999999
 20
174.40700000000001
 30
0.0
 11
-38.990499999999997
 21
174.40700000000001
 31
0.0
  0
LINE
  5
6C3
  8
_________1
 62
     7
 10
-36.165100000000002
 20
171.58799999999999
 30
0.0
 11
-35.813499999999998
 21
171.517
 31
0.0
  0
LINE
  5
6C4
  8
_________1
 62
     7
 10
-35.181699999999999
 20
170.85900000000001
 30
0.0
 11
-35.109400000000001
 21
170.40700000000001
 31
0.0
  0
ARC
  5
6C5
  8
_________1
 62
     7
 10
-35.989992000000001
 20
170.71520000000001
 30
0.0
 40
0.8210409999999999
 50
10.114258
 51
77.589922000000001
  0
ARC
  5
6C6
  8
_________1
 62
     7
 10
-35.812663000000001
 20
173.19131899999999
 30
0.0
 40
1.641575999999999
 50
190.102452
 51
257.60176799999999
  0
LINE
  5
6C7
  8
_________1
 62
     7
 10
-38.0212
 20
173.40700000000001
 30
0.0
 11
-41.309399999999989
 21
173.40700000000001
 31
0.0
  0
ARC
  5
6C8
  8
_________1
 62
     7
 10
-38.037770000000002
 20
172.78739899999999
 30
0.0
 40
0.619872
 50
10.669736
 51
88.46594300000001
  0
LINE
  5
6C9
  8
_________1
 62
     7
 10
-35.109400000000001
 20
170.40700000000001
 30
0.0
 11
-41.309399999999989
 21
170.40700000000001
 31
0.0
  0
LINE
  5
6CA
  8
_________1
 62
     7
 10
-46.453600000000002
 20
171.58799999999999
 30
0.0
 11
-46.805399999999992
 21
171.517
 31
0.0
  0
LINE
  5
6CB
  8
_________1
 62
     7
 10
-47.436999999999991
 20
170.85900000000001
 30
0.0
 11
-47.509500000000003
 21
170.40700000000001
 31
0.0
  0
ARC
  5
6CC
  8
_________1
 62
     7
 10
-46.628941999999988
 20
170.71543799999989
 30
0.0
 40
0.820804
 50
102.41180799999999
 51
169.89958200000001
  0
ARC
  5
6CD
  8
_________1
 62
     7
 10
-46.806696000000002
 20
173.19191900000001
 30
0.0
 40
1.6422950000000001
 50
282.41502700000001
 51
349.88079299999998
  0
LINE
  5
6CE
  8
_________1
 62
     7
 10
-44.597900000000003
 20
173.40700000000001
 30
0.0
 11
-41.309399999999989
 21
173.40700000000001
 31
0.0
  0
ARC
  5
6CF
  8
_________1
 62
     7
 10
-44.58070399999999
 20
172.78689700000001
 30
0.0
 40
0.6203910000000001
 50
91.588681000000022
 51
169.29204799999999
  0
LINE
  5
6D0
  8
_________1
  6
AIGENLINE001
 62
     7
 10
-41.309399999999989
 20
149.512
 30
0.0
 11
-41.309399999999989
 21
185.79900000000001
 31
0.0
  0
LINE
  5
6D1
  8
_________1
 62
     7
 10
-47.509500000000003
 20
170.40700000000001
 30
0.0
 11
-41.309399999999989
 21
170.40700000000001
 31
0.0
  0
LINE
  5
6D2
  8
_________1
 62
     7
 10
-20.809000000000001
 20
102.407
 30
0.0
 11
-20.809000000000001
 21
163.40700000000001
 31
0.0
  0
LINE
  5
6D3
  8
_________1
 62
     7
 10
-21.809100000000001
 20
102.408
 30
0.0
 11
-20.809000000000001
 21
102.408
 31
0.0
  0
LINE
  5
6D4
  8
_________1
  6
AIGENLINE001
 62
     7
 10
-19.809100000000001
 20
148.75700000000001
 30
0.0
 11
-19.809100000000001
 21
171.25700000000001
 31
0.0
  0
LINE
  5
6D5
  8
_________1
  6
AIGENLINE001
 62
     7
 10
-22.809100000000001
 20
148.75700000000001
 30
0.0
 11
-22.809100000000001
 21
171.25700000000001
 31
0.0
  0
LINE
  5
6D6
  8
_________2
 62
     7
 10
244.56100000000001
 20
280.15800000000002
 30
0.0
 11
244.56100000000001
 21
259.15800000000002
 31
0.0
  0
LINE
  5
6D7
  8
_________2
 62
     7
 10
269.87700000000001
 20
280.15800000000002
 30
0.0
 11
269.87700000000001
 21
259.15800000000002
 31
0.0
  0
TEXT
  5
6D8
  8
_________2
 62
     7
 10
278.65833466666658
 20
261.30900000000003
 30
0.0
 40
3.3734599999999988
  1
クロム
 41
0.5
 72
     1
 11
281.58199999999999
 21
261.30900000000003
 31
0.0
  0
TEXT
  5
6D9
  8
_________2
 62
     7
 10
248.8467891666667
 20
261.30900000000003
 30
0.0
 40
3.3734599999999988
  1
HR21260S-CH
 41
0.5
 72
     1
 11
257.42099999999999
 21
261.30900000000003
 31
0.0
  0
LINE
  5
6DA
  8
_________2
 62
     7
 10
244.56100000000001
 20
259.15800000000002
 30
0.0
 11
293.459
 21
259.15800000000002
 31
0.0
  0
TEXT
  5
6DB
  8
_________2
 62
     7
 10
278.77078333333333
 20
268.30900000000003
 30
0.0
 40
3.3734599999999988
  1
ブラス
 41
0.5
 72
     1
 11
281.58199999999999
 21
268.30900000000003
 31
0.0
  0
TEXT
  5
6DC
  8
_________2
 62
     7
 10
279.7828213333334
 20
275.30900000000003
 30
0.0
 40
3.3734599999999988
  1
仕上
 41
0.5
 72
     1
 11
281.58199999999999
 21
275.30900000000003
 31
0.0
  0
TEXT
  5
6DD
  8
_________2
 62
     7
 10
248.8467891666667
 20
268.30900000000003
 30
0.0
 40
3.3734599999999988
  1
HR21260S-PB
 41
0.5
 72
     1
 11
257.42099999999999
 21
268.30900000000003
 31
0.0
  0
TEXT
  5
6DE
  8
_________2
 62
     7
 10
255.62182133333329
 20
275.30900000000003
 30
0.0
 40
3.3734599999999988
  1
品番
 41
0.5
 72
     1
 11
257.42099999999999
 21
275.30900000000003
 31
0.0
  0
LINE
  5
6DF
  8
_________2
 62
     7
 10
244.56100000000001
 20
266.15800000000002
 30
0.0
 11
293.459
 21
266.15800000000002
 31
0.0
  0
LINE
  5
6E0
  8
_________2
 62
     7
 10
244.56100000000001
 20
273.15800000000002
 30
0.0
 11
293.459
 21
273.15800000000002
 31
0.0
  0
TEXT
  5
6E1
  8
_________2
 62
     7
 10
244.56100000000001
 20
253.55799999999999
 30
0.0
 40
3.3734599999999988
  1
注：色番号はカタログを参照ください
 41
0.5
  0
TEXT
  5
6E2
  8
_________2
 62
     7
 10
169.50999999999999
 20
112.446
 30
0.0
 40
3.9357000000000002
  1
※快適にお使いいただくためには、0.2～0.3MPa程度の圧力をおすすめします。
 41
0.5
  0
TEXT
  5
6E3
  8
_________2
 62
     7
 10
169.50999999999999
 20
118.526
 30
0.0
 40
3.9357000000000002
  1
0.5MPa（流動圧）
 41
0.5
  0
TEXT
  5
6E4
  8
_________2
 62
     7
 10
129.49600000000001
 20
126.148
 30
0.0
 40
3.9357000000000002
  1
給水圧力
 41
0.5
  0
TEXT
  5
6E5
  8
_________2
 62
     7
 10
129.49600000000001
 20
133.91
 30
0.0
 40
3.9357000000000002
  1
用途
 41
0.5
  0
TEXT
  5
6E6
  8
_________2
 62
     7
 10
169.50999999999999
 20
133.91
 30
0.0
 40
3.9357000000000002
  1
一般住宅用（屋内用）
 41
0.5
  0
LINE
  5
6E7
  8
_________2
 62
     7
 10
145.64099999999999
 20
131.80199999999999
 30
0.0
 11
145.64099999999999
 21
110.46599999999999
 31
0.0
  0
LINE
  5
6E8
  8
_________2
 62
     7
 10
166.97200000000001
 20
139.565
 30
0.0
 11
166.97200000000001
 21
61.980800000000002
 31
0.0
  0
LINE
  5
6E9
  8
_________2
 62
     7
 10
290.16199999999998
 20
139.565
 30
0.0
 11
126.95699999999999
 21
139.565
 31
0.0
  0
LINE
  5
6EA
  8
_________2
 62
     7
 10
126.95699999999999
 20
139.565
 30
0.0
 11
126.95699999999999
 21
61.980800000000002
 31
0.0
  0
LINE
  5
6EB
  8
_________2
 62
     7
 10
126.95699999999999
 20
61.980800000000002
 30
0.0
 11
290.16199999999998
 21
61.980800000000002
 31
0.0
  0
LINE
  5
6EC
  8
_________2
 62
     7
 10
290.16199999999998
 20
61.980800000000002
 30
0.0
 11
290.16199999999998
 21
139.565
 31
0.0
  0
TEXT
  5
6ED
  8
_________2
 62
     7
 10
147.41499999999999
 20
126.148
 30
0.0
 40
3.9357000000000002
  1
最低必要水圧
 41
0.5
  0
TEXT
  5
6EE
  8
_________2
 62
     7
 10
169.50999999999999
 20
126.148
 30
0.0
 40
3.9357000000000002
  1
0.1MPa（流動圧）
 41
0.5
  0
LINE
  5
6EF
  8
_________2
 62
     7
 10
126.95699999999999
 20
131.80199999999999
 30
0.0
 11
290.16199999999998
 21
131.80199999999999
 31
0.0
  0
TEXT
  5
6F0
  8
_________2
 62
     7
 10
129.49600000000001
 20
104.81100000000001
 30
0.0
 40
3.9357000000000002
  1
使用可能水質
 41
0.5
  0
TEXT
  5
6F1
  8
_________2
 62
     7
 10
169.50999999999999
 20
104.81100000000001
 30
0.0
 40
3.9357000000000002
  1
水道水
 41
0.5
  0
LINE
  5
6F2
  8
_________2
 62
     7
 10
126.95699999999999
 20
110.46599999999999
 30
0.0
 11
290.16199999999998
 21
110.46599999999999
 31
0.0
  0
TEXT
  5
6F3
  8
_________2
 62
     7
 10
147.41499999999999
 20
118.526
 30
0.0
 40
3.9357000000000002
  1
最高水圧
 41
0.5
  0
LINE
  5
6F4
  8
_________2
 62
     7
 10
145.64099999999999
 20
124.04000000000001
 30
0.0
 11
290.16199999999998
 21
124.04000000000001
 31
0.0
  0
TEXT
  5
6F5
  8
_________2
 62
     7
 10
129.49600000000001
 20
97.1892
 30
0.0
 40
3.9357000000000002
  1
使用環境温度
 41
0.5
  0
TEXT
  5
6F6
  8
_________2
 62
     7
 10
129.49600000000001
 20
83.615099999999998
 30
0.0
 40
3.9357000000000002
  1
最高給湯温度
 41
0.5
  0
TEXT
  5
6F7
  8
_________2
 62
     7
 10
129.49600000000001
 20
69.912499999999994
 30
0.0
 40
3.9357000000000002
  1
特記事項
 41
0.5
  0
TEXT
  5
6F8
  8
_________2
 62
     7
 10
169.50999999999999
 20
91.108900000000006
 30
0.0
 40
3.9357000000000002
  1
※寒冷地仕様ではありません、凍結が予想される場合は凍結予防をしてください。
 41
0.5
  0
TEXT
  5
6F9
  8
_________2
 62
     7
 10
169.50999999999999
 20
97.1892
 30
0.0
 40
3.9357000000000002
  1
1～40℃
 41
0.5
  0
LINE
  5
6FA
  8
_________2
 62
     7
 10
126.95699999999999
 20
102.703
 30
0.0
 11
290.16199999999998
 21
102.703
 31
0.0
  0
TEXT
  5
6FB
  8
_________2
 62
     7
 10
169.50999999999999
 20
77.534800000000004
 30
0.0
 40
3.9357000000000002
  1
※安全のため給湯温度は60℃以下でのご使用をおすすめします。
 41
0.5
  0
TEXT
  5
6FC
  8
_________2
 62
     7
 10
169.50999999999999
 20
83.615099999999998
 30
0.0
 40
3.9357000000000002
  1
65℃
 41
0.5
  0
TEXT
  5
6FD
  8
_________2
 62
     7
 10
169.50999999999999
 20
63.8322
 30
0.0
 40
3.9357000000000002
  1
（2）湯水を逆に配管しないでください。
 41
0.5
  0
TEXT
  5
6FE
  8
_________2
 62
     7
 10
169.50999999999999
 20
69.912499999999994
 30
0.0
 40
3.9357000000000002
  1
（1）水圧は湯水ほぼ同圧、且つ湯圧が水圧より高くならないように設定してください。
 41
0.5
  0
LINE
  5
6FF
  8
_________2
 62
     7
 10
126.95699999999999
 20
89.128999999999976
 30
0.0
 11
290.16199999999998
 21
89.128999999999976
 31
0.0
  0
LINE
  5
700
  8
_________2
 62
     7
 10
126.95699999999999
 20
75.554900000000004
 30
0.0
 11
290.16199999999998
 21
75.554900000000004
 31
0.0
  0
TEXT
  5
701
  8
_________2
 62
     7
 10
200.4570586666666
 20
34.465299999999999
 30
0.0
 40
3.6545800000000002
  1
1 ： 5
 41
0.5
 72
     1
 11
203.86799999999999
 21
34.465299999999999
 31
0.0
  0
TEXT
  5
702
  8
_________2
 62
     7
 10
246.570525
 20
30.3553
 30
0.0
 40
3.9357000000000002
  1
図中の表参照
 41
0.5
 72
     1
 11
253.458
 21
30.3553
 31
0.0
  0
TEXT
  5
703
  8
_________2
 62
     7
 10
149.3328003333333
 20
34.850499999999997
 30
0.0
 40
3.6545800000000002
  1
井田
 41
0.5
 72
     1
 11
151.221
 21
34.850499999999997
 31
0.0
  0
TEXT
  5
704
  8
_________2
 62
     7
 10
130.69789066666669
 20
34.850499999999997
 30
0.0
 40
3.6545800000000002
  1
恋塚
 41
0.5
 72
     1
 11
132.64699999999999
 21
34.850499999999997
 31
0.0
  0
TEXT
  5
705
  8
_________2
 62
     7
 10
177.69399999999999
 20
34.465299999999999
 30
0.0
 40
3.6545800000000002
  1
19.03.29
 41
0.5
  0
TEXT
  5
706
  8
_________2
 62
     7
 10
290.64778333333328
 20
12.808299999999999
 30
0.0
 40
3.3734599999999988
  1
A3
 41
0.5
 72
     2
 11
293.459
 21
12.808299999999999
 31
0.0
  0
TEXT
  5
707
  8
_________2
 62
     7
 10
134.495
 20
21.954699999999999
 30
0.0
 40
3.9357000000000002
  1
（社）日本水道協会認証品
 41
0.5
  0
LINE
  5
708
  8
_________2
 62
     7
 10
315.209
 20
148.65899999999999
 30
0.0
 11
293.459
 21
148.65899999999999
 31
0.0
  0
LINE
  5
709
  8
_________2
 62
     7
 10
105.20699999999999
 20
17.156300000000002
 30
0.0
 11
105.20699999999999
 21
0.176045
 31
0.0
  0
LINE
  5
70A
  8
_________2
 62
     7
 10
105.20699999999999
 20
297.178
 30
0.0
 11
105.20699999999999
 21
280.15800000000002
 31
0.0
  0
LINE
  5
70B
  8
_________2
 62
     7
 10
-83.043899999999994
 20
148.65899999999999
 30
0.0
 11
-104.794
 21
148.65899999999999
 31
0.0
  0
INSERT
  5
70C
  8
_________2
 62
     7
  2
AIGNBL03010002
 10
0.0
 20
0.0
 30
0.0
  0
TEXT
  5
70D
  8
_________2
 62
     7
 10
214.51300000000001
 20
22.9269
 30
0.0
 40
3.0923400000000001
  1
図番
 41
0.5
  0
LINE
  5
70E
  8
_________2
 62
     7
 10
213.458
 20
27.156099999999999
 30
0.0
 11
293.459
 21
27.156099999999999
 31
0.0
  0
TEXT
  5
70F
  8
_________2
 62
     7
 10
214.51300000000001
 20
32.926699999999997
 30
0.0
 40
3.0923400000000001
  1
品番
 41
0.5
  0
TEXT
  5
710
  8
_________2
 62
     7
 10
214.51300000000001
 20
53.0655
 30
0.0
 40
3.0923400000000001
  1
名称
 41
0.5
  0
TEXT
  5
711
  8
_________2
 62
     7
 10
201.75325833333329
 20
48.069400000000002
 30
0.0
 40
3.6545800000000002
  1
mm
 41
0.5
 72
     1
 11
203.27600000000001
 21
48.069400000000002
 31
0.0
  0
TEXT
  5
712
  8
_________2
 62
     7
 10
195.55099999999999
 20
53.0655
 30
0.0
 40
3.0923400000000001
  1
単位
 41
0.5
  0
TEXT
  5
713
  8
_________2
 62
     7
 10
195.55099999999999
 20
40.658200000000001
 30
0.0
 40
3.0923400000000001
  1
尺度
 41
0.5
  0
TEXT
  5
714
  8
_________2
 62
     7
 10
246.40653750000001
 20
20.354800000000001
 30
0.0
 40
3.9357000000000002
  1
HR21260S
 41
0.5
 72
     1
 11
253.458
 21
20.354800000000001
 31
0.0
  0
TEXT
  5
715
  8
_________2
 62
     7
 10
219.08699999999999
 20
45.473100000000002
 30
0.0
 40
3.9357000000000002
  1
アストリア　湯水混合水栓
 41
0.5
  0
TEXT
  5
716
  8
_________2
 62
     7
 10
176.501
 20
40.658200000000001
 30
0.0
 40
3.0923400000000001
  1
日付
 41
0.5
  0
TEXT
  5
717
  8
_________2
 62
     7
 10
139.547
 20
40.658200000000001
 30
0.0
 40
3.0923400000000001
  1
検図
 41
0.5
  0
TEXT
  5
718
  8
_________2
 62
     7
 10
127.929
 20
26.4588
 30
0.0
 40
3.0923400000000001
  1
備考
 41
0.5
  0
TEXT
  5
719
  8
_________2
 62
     7
 10
127.929
 20
40.658200000000001
 30
0.0
 40
3.0923400000000001
  1
製図
 41
0.5
  0
TEXT
  5
71A
  8
_________2
 62
     7
 10
133.69596533333331
 20
49.184199999999997
 30
0.0
 40
4.4979399999999989
  1
セラトレーディング株式会社
 41
0.5
 72
     1
 11
151.08799999999999
 21
49.184199999999997
 31
0.0
  0
LINE
  5
71B
  8
_________2
 62
     7
 10
293.459
 20
17.156300000000002
 30
0.0
 11
-83.043899999999994
 21
17.156300000000002
 31
0.0
  0
LINE
  5
71C
  8
_________2
 62
     7
 10
-83.043899999999994
 20
17.156300000000002
 30
0.0
 11
-83.043899999999994
 21
280.15800000000002
 31
0.0
  0
LINE
  5
71D
  8
_________2
 62
     7
 10
-83.043899999999994
 20
280.15800000000002
 30
0.0
 11
293.459
 21
280.15800000000002
 31
0.0
  0
LINE
  5
71E
  8
_________2
 62
     7
 10
293.459
 20
280.15800000000002
 30
0.0
 11
293.459
 21
17.156300000000002
 31
0.0
  0
LINE
  5
71F
  8
_________2
 62
     7
 10
175.458
 20
30.656400000000001
 30
0.0
 11
175.458
 21
57.156199999999998
 31
0.0
  0
LINE
  5
720
  8
_________2
 62
     7
 10
194.458
 20
30.656400000000001
 30
0.0
 11
194.458
 21
57.156199999999998
 31
0.0
  0
LINE
  5
721
  8
_________2
 62
     7
 10
126.95699999999999
 20
17.156300000000002
 30
0.0
 11
126.95699999999999
 21
57.156199999999998
 31
0.0
  0
LINE
  5
722
  8
_________2
 62
     7
 10
213.458
 20
17.156300000000002
 30
0.0
 11
213.458
 21
57.156199999999998
 31
0.0
  0
LINE
  5
723
  8
_________2
 62
     7
 10
138.45699999999999
 20
30.656400000000001
 30
0.0
 11
138.45699999999999
 21
44.65659999999999
 31
0.0
  0
LINE
  5
724
  8
_________2
 62
     7
 10
126.95699999999999
 20
30.656400000000001
 30
0.0
 11
213.458
 21
30.656400000000001
 31
0.0
  0
LINE
  5
725
  8
_________2
 62
     7
 10
126.95699999999999
 20
44.65659999999999
 30
0.0
 11
213.458
 21
44.65659999999999
 31
0.0
  0
LINE
  5
726
  8
_________2
 62
     7
 10
213.458
 20
37.15590000000001
 30
0.0
 11
293.459
 21
37.15590000000001
 31
0.0
  0
LINE
  5
727
  8
_________2
 62
     7
 10
126.95699999999999
 20
57.156199999999998
 30
0.0
 11
293.459
 21
57.156199999999998
 31
0.0
  0
ENDSEC
  0
EOF
