  0
SECTION
  2
HEADER
  9
$ACADVER
  1
AC1009
  9
$LUNITS
 70
2
  9
$LUPREC
 70
4
  9
$LTSCALE
 40
1.0
  9
$EXTMIN
 10
-104.7936
 20
0.176
 30
0
  9
$EXTMAX
 10
315.2069
 20
297.1763
 30
0
  0
ENDSEC
  0
SECTION
  2
TABLES
  0
TABLE
  2
LTYPE
 70
256
  0
LTYPE
  2
AIGENLINE001
 70
64
  3
generate AI->DXF Converter
 72
65
 73
4
 40
5.8561
 49
3.5278
 49
-0.7761
 49
0.7761
 49
-0.7761
  0
LTYPE
  2
AIGENLINE002
 70
64
  3
generate AI->DXF Converter
 72
65
 73
4
 40
10.3001
 49
8
 49
-0.7
 49
0.9
 49
-0.7
  0
ENDTAB
  0
TABLE
  2
LAYER
 70
3
  0
LAYER
  2
LAYER_1
 70
64
 62
7
  6
CONTINUOUS
  0
LAYER
  2
LAYER_2
 70
64
 62
7
  6
CONTINUOUS
  0
LAYER
  2
LAYER_3
 70
64
 62
7
  6
CONTINUOUS
  0
ENDTAB
  0
TABLE
  2
STYLE
 70
6
  0
STYLE
  2
STANDARD
 70
0
 40
0
 50
0
 71
0
 41
0
 42
0
  3
TXT
  4
BIGFONT
  0
ENDTAB
  0
ENDSEC
  0
SECTION
  2
BLOCKS
  0
BLOCK
  8
LAYER_2
  2
AIGNBL02020004
 70
64
 10
0
 20
0
 30
0
  3
AIGNBL02020004
  0
LINE
  8
LAYER_2
 10
-41.3091
 20
191.0278
 11
-56.6093
 21
191.0278
  0
LINE
  8
LAYER_2
 10
-54.8409
 20
191.4958
 11
-56.6093
 21
191.0221
  0
LINE
  8
LAYER_2
 10
-56.6093
 20
191.0221
 11
-54.8409
 21
190.548
  0
LINE
  8
LAYER_2
 10
-54.8409
 20
190.548
 11
-54.8409
 21
191.4958
  0
LINE
  8
LAYER_2
 10
-43.0777
 20
190.5598
 11
-41.3091
 21
191.0336
  0
LINE
  8
LAYER_2
 10
-41.3091
 20
191.0336
 11
-43.0777
 21
191.5075
  0
LINE
  8
LAYER_2
 10
-43.0777
 20
191.5075
 11
-43.0777
 21
190.5598
  0
ENDBLK
  0
BLOCK
  8
LAYER_2
  2
AIGNBL0202000D
 70
64
 10
0
 20
0
 30
0
  3
AIGNBL0202000D
  0
LINE
  8
LAYER_2
 10
69.4721
 20
124.4554
 11
81.3001
 21
124.4554
  0
LINE
  8
LAYER_2
 10
74.6514
 20
123.8705
 11
76.8622
 21
124.463
  0
LINE
  8
LAYER_2
 10
76.8622
 20
124.463
 11
74.6514
 21
125.0549
  0
LINE
  8
LAYER_2
 10
74.6514
 20
125.0549
 11
74.6514
 21
123.8705
  0
LINE
  8
LAYER_2
 10
80.0733
 20
125.0404
 11
77.8626
 21
124.4486
  0
LINE
  8
LAYER_2
 10
77.8626
 20
124.4486
 11
80.0733
 21
123.856
  0
LINE
  8
LAYER_2
 10
80.0733
 20
123.856
 11
80.0733
 21
125.0404
  0
ENDBLK
  0
BLOCK
  8
LAYER_2
  2
AIGNBL02010002
 70
64
 10
0
 20
0
 30
0
  3
AIGNBL02010002
  0
LINE
  8
LAYER_2
 10
-36.7006
 20
166.6889
 11
-43.9093
 21
166.6889
  0
LINE
  8
LAYER_2
 10
-42.1409
 20
167.1569
 11
-43.9093
 21
166.6828
  0
LINE
  8
LAYER_2
 10
-43.9093
 20
166.6828
 11
-42.1409
 21
166.2093
  0
LINE
  8
LAYER_2
 10
-42.1409
 20
166.2093
 11
-42.1409
 21
167.1569
  0
LINE
  8
LAYER_2
 10
-40.4775
 20
166.2208
 11
-38.7091
 21
166.6944
  0
LINE
  8
LAYER_2
 10
-38.7091
 20
166.6944
 11
-40.4775
 21
167.1684
  0
LINE
  8
LAYER_2
 10
-40.4775
 20
167.1684
 11
-40.4775
 21
166.2208
  0
ENDBLK
  0
BLOCK
  8
LAYER_2
  2
AIGNBL02010003
 70
64
 10
0
 20
0
 30
0
  3
AIGNBL02010003
  0
LINE
  8
LAYER_2
 10
-33.9697
 20
177.6241
 11
-47.5093
 21
177.6241
  0
LINE
  8
LAYER_2
 10
-48.1988
 20
170.4063
 11
-61.9161
 21
170.4063
  0
LINE
  8
LAYER_2
 10
-44.3303
 20
150.2063
 11
-61.9161
 21
150.2063
  0
LINE
  8
LAYER_2
 10
-44.4626
 20
184.4061
 11
-61.9161
 21
184.4061
  0
INSERT
  8
LAYER_2
  2
AIGNBL02020004
 10
0
 20
0
 30
0
  0
LINE
  8
LAYER_2
 10
-45.7407
 20
178.0921
 11
-47.5091
 21
177.6185
  0
LINE
  8
LAYER_2
 10
-47.5091
 20
177.6185
 11
-45.7407
 21
177.1446
  0
LINE
  8
LAYER_2
 10
-45.7407
 20
177.1446
 11
-45.7407
 21
178.0921
  0
LINE
  8
LAYER_2
 10
-36.8775
 20
177.1563
 11
-35.1091
 21
177.63
  0
LINE
  8
LAYER_2
 10
-35.1091
 20
177.63
 11
-36.8775
 21
178.1038
  0
LINE
  8
LAYER_2
 10
-36.8775
 20
178.1038
 11
-36.8775
 21
177.1563
  0
ENDBLK
  0
BLOCK
  8
LAYER_2
  2
AIGNBL02010005
 70
64
 10
0
 20
0
 30
0
  3
AIGNBL02010005
  0
LINE
  8
LAYER_2
 10
-51.8732
 20
170.4063
 11
-51.8732
 21
164.4063
  0
LINE
  8
LAYER_2
 10
-52.3412
 20
166.1747
 11
-51.8675
 21
164.4063
  0
LINE
  8
LAYER_2
 10
-51.8675
 20
164.4063
 11
-51.3934
 21
166.1747
  0
LINE
  8
LAYER_2
 10
-51.3934
 20
166.1747
 11
-52.3412
 21
166.1747
  0
LINE
  8
LAYER_2
 10
-51.4051
 20
168.6379
 11
-51.879
 21
170.4063
  0
LINE
  8
LAYER_2
 10
-51.879
 20
170.4063
 11
-52.3529
 21
168.6379
  0
LINE
  8
LAYER_2
 10
-52.3529
 20
168.6379
 11
-51.4051
 21
168.6379
  0
ENDBLK
  0
BLOCK
  8
LAYER_2
  2
AIGNBL02010006
 70
64
 10
0
 20
0
 30
0
  3
AIGNBL02010006
  0
LINE
  8
LAYER_2
 10
-61.2516
 20
184.4061
 11
-61.2516
 21
150.2063
  0
LINE
  8
LAYER_2
 10
-61.7196
 20
151.9747
 11
-61.2459
 21
150.2063
  0
LINE
  8
LAYER_2
 10
-61.2459
 20
150.2063
 11
-60.772
 21
151.9747
  0
LINE
  8
LAYER_2
 10
-60.772
 20
151.9747
 11
-61.7196
 21
151.9747
  0
LINE
  8
LAYER_2
 10
-61.7196
 20
172.1747
 11
-61.2459
 21
170.4063
  0
LINE
  8
LAYER_2
 10
-61.2459
 20
170.4063
 11
-60.772
 21
172.1747
  0
LINE
  8
LAYER_2
 10
-60.772
 20
172.1747
 11
-61.7196
 21
172.1747
  0
LINE
  8
LAYER_2
 10
-60.7837
 20
182.638
 11
-61.2574
 21
184.4061
  0
LINE
  8
LAYER_2
 10
-61.2574
 20
184.4061
 11
-61.7313
 21
182.638
  0
LINE
  8
LAYER_2
 10
-61.7313
 20
182.638
 11
-60.7837
 21
182.638
  0
LINE
  8
LAYER_2
 10
-60.7837
 20
168.6379
 11
-61.2574
 21
170.4063
  0
LINE
  8
LAYER_2
 10
-61.2574
 20
170.4063
 11
-61.7313
 21
168.6379
  0
LINE
  8
LAYER_2
 10
-61.7313
 20
168.6379
 11
-60.7837
 21
168.6379
  0
ENDBLK
  0
BLOCK
  8
LAYER_2
  2
AIGNBL02010007
 70
64
 10
0
 20
0
 30
0
  3
AIGNBL02010007
  0
LINE
  8
LAYER_2
 10
-36.1166
 20
135.99
 11
-52.4206
 21
135.99
  0
LINE
  8
LAYER_2
 10
-37.4411
 20
136.4637
 11
-39.2093
 21
135.99
  0
LINE
  8
LAYER_2
 10
-39.2093
 20
135.99
 11
-37.4411
 21
135.5159
  0
LINE
  8
LAYER_2
 10
-37.4411
 20
135.5159
 11
-37.4411
 21
136.4637
  0
LINE
  8
LAYER_2
 10
-45.1776
 20
135.5159
 11
-43.4092
 21
135.99
  0
LINE
  8
LAYER_2
 10
-43.4092
 20
135.99
 11
-45.1776
 21
136.4637
  0
LINE
  8
LAYER_2
 10
-45.1776
 20
136.4637
 11
-45.1776
 21
135.5159
  0
ENDBLK
  0
BLOCK
  8
LAYER_2
  2
AIGNBL02010008
 70
64
 10
0
 20
0
 30
0
  3
AIGNBL02010008
  0
LINE
  8
LAYER_2
 10
30.7092
 20
102.4075
 11
30.7092
 21
184.8063
  0
LINE
  8
LAYER_2
 10
31.1771
 20
183.0378
 11
30.703
 21
184.8063
  0
LINE
  8
LAYER_2
 10
30.703
 20
184.8063
 11
30.2297
 21
183.0378
  0
LINE
  8
LAYER_2
 10
30.2297
 20
183.0378
 11
31.1771
 21
183.0378
  0
LINE
  8
LAYER_2
 10
30.2407
 20
104.1756
 11
30.7147
 21
102.4075
  0
LINE
  8
LAYER_2
 10
30.7147
 20
102.4075
 11
31.1888
 21
104.1756
  0
LINE
  8
LAYER_2
 10
31.1888
 20
104.1756
 11
30.2407
 21
104.1756
  0
ENDBLK
  0
BLOCK
  8
LAYER_2
  2
AIGNBL02010009
 70
64
 10
0
 20
0
 30
0
  3
AIGNBL02010009
  0
ARC
  8
LAYER_2
 10
49.9703
 20
178.7722
 40
7.2653
 50
237.8264958
 51
296.4651807
  0
LINE
  8
LAYER_2
 10
46.8981
 20
171.6861
 11
48.7267
 21
171.5935
  0
LINE
  8
LAYER_2
 10
48.7267
 20
171.5935
 11
47.1895
 21
172.5879
  0
LINE
  8
LAYER_2
 10
47.1895
 20
172.5879
 11
46.8981
 21
171.6861
  0
LINE
  8
LAYER_2
 10
51.6613
 20
172.1705
 11
49.9629
 21
171.4865
  0
LINE
  8
LAYER_2
 10
49.9629
 20
171.4865
 11
51.7756
 21
171.2297
  0
LINE
  8
LAYER_2
 10
51.7756
 20
171.2297
 11
51.6613
 21
172.1705
  0
ENDBLK
  0
BLOCK
  8
LAYER_2
  2
AIGNBL0201000A
 70
64
 10
0
 20
0
 30
0
  3
AIGNBL0201000A
  0
LINE
  8
LAYER_2
 10
36.4973
 20
178.6062
 11
36.4973
 21
170.4063
  0
LINE
  8
LAYER_2
 10
36.0288
 20
172.1747
 11
36.5029
 21
170.4063
  0
LINE
  8
LAYER_2
 10
36.5029
 20
170.4063
 11
36.9769
 21
172.1747
  0
LINE
  8
LAYER_2
 10
36.9769
 20
172.1747
 11
36.0288
 21
172.1747
  0
LINE
  8
LAYER_2
 10
36.9652
 20
176.8378
 11
36.4912
 21
178.6062
  0
LINE
  8
LAYER_2
 10
36.4912
 20
178.6062
 11
36.0178
 21
176.8378
  0
LINE
  8
LAYER_2
 10
36.0178
 20
176.8378
 11
36.9652
 21
176.8378
  0
ENDBLK
  0
BLOCK
  8
LAYER_2
  2
AIGNBL0201000B
 70
64
 10
0
 20
0
 30
0
  3
AIGNBL0201000B
  0
LINE
  8
LAYER_2
 10
42.2855
 20
178.1895
 11
42.2855
 21
170.4063
  0
LINE
  8
LAYER_2
 10
41.8169
 20
172.1747
 11
42.291
 21
170.4063
  0
LINE
  8
LAYER_2
 10
42.291
 20
170.4063
 11
42.765
 21
172.1747
  0
LINE
  8
LAYER_2
 10
42.765
 20
172.1747
 11
41.8169
 21
172.1747
  0
LINE
  8
LAYER_2
 10
42.7533
 20
176.4211
 11
42.2793
 21
178.1895
  0
LINE
  8
LAYER_2
 10
42.2793
 20
178.1895
 11
41.8059
 21
176.4211
  0
LINE
  8
LAYER_2
 10
41.8059
 20
176.4211
 11
42.7533
 21
176.4211
  0
ENDBLK
  0
BLOCK
  8
LAYER_2
  2
AIGNBL0201000C
 70
64
 10
0
 20
0
 30
0
  3
AIGNBL0201000C
  0
LINE
  8
LAYER_2
 10
49.9629
 20
154.6851
 11
77.3624
 21
154.6851
  0
INSERT
  8
LAYER_2
  2
AIGNBL0202000D
 10
0
 20
0
 30
0
  0
LINE
  8
LAYER_2
 10
75.5943
 20
154.2171
 11
77.3624
 21
154.6911
  0
LINE
  8
LAYER_2
 10
77.3624
 20
154.6911
 11
75.5943
 21
155.1647
  0
LINE
  8
LAYER_2
 10
75.5943
 20
155.1647
 11
75.5943
 21
154.2171
  0
LINE
  8
LAYER_2
 10
51.7309
 20
155.1531
 11
49.9629
 21
154.6796
  0
LINE
  8
LAYER_2
 10
49.9629
 20
154.6796
 11
51.7309
 21
154.2056
  0
LINE
  8
LAYER_2
 10
51.7309
 20
154.2056
 11
51.7309
 21
155.1531
  0
ENDBLK
  0
BLOCK
  8
LAYER_2
  2
AIGNBL0201000E
 70
64
 10
0
 20
0
 30
0
  3
AIGNBL0201000E
  0
LINE
  8
LAYER_2
 10
-1.3091
 20
259.6909
 11
-41.3091
 21
259.6909
  0
LINE
  8
LAYER_2
 10
-39.5407
 20
260.159
 11
-41.3089
 21
259.6853
  0
LINE
  8
LAYER_2
 10
-41.3089
 20
259.6853
 11
-39.5407
 21
259.2112
  0
LINE
  8
LAYER_2
 10
-39.5407
 20
259.2112
 11
-39.5407
 21
260.159
  0
LINE
  8
LAYER_2
 10
-54.5551
 20
244.3875
 11
-55.1193
 21
246.129
  0
LINE
  8
LAYER_2
 10
-55.1193
 20
246.129
 11
-55.5015
 21
244.3386
  0
LINE
  8
LAYER_2
 10
-55.5015
 20
244.3386
 11
-54.5551
 21
244.3875
  0
LINE
  8
LAYER_2
 10
-43.108
 20
231.9783
 11
-41.3093
 21
232.3186
  0
LINE
  8
LAYER_2
 10
-41.3093
 20
232.3186
 11
-43.0372
 21
232.9236
  0
LINE
  8
LAYER_2
 10
-43.0372
 20
232.9236
 11
-43.108
 21
231.9783
  0
LINE
  8
LAYER_2
 10
-19.5407
 20
260.159
 11
-21.3091
 21
259.6853
  0
LINE
  8
LAYER_2
 10
-21.3091
 20
259.6853
 11
-19.5407
 21
259.2112
  0
LINE
  8
LAYER_2
 10
-19.5407
 20
259.2112
 11
-19.5407
 21
260.159
  0
LINE
  8
LAYER_2
 10
-3.0775
 20
259.2229
 11
-1.3091
 21
259.6966
  0
LINE
  8
LAYER_2
 10
-1.3091
 20
259.6966
 11
-3.0775
 21
260.1705
  0
LINE
  8
LAYER_2
 10
-3.0775
 20
260.1705
 11
-3.0775
 21
259.2229
  0
LINE
  8
LAYER_2
 10
-23.0775
 20
259.2229
 11
-21.3091
 21
259.6966
  0
LINE
  8
LAYER_2
 10
-21.3091
 20
259.6966
 11
-23.0775
 21
260.1705
  0
LINE
  8
LAYER_2
 10
-23.0775
 20
260.1705
 11
-23.0775
 21
259.2229
  0
ENDBLK
  0
BLOCK
  8
LAYER_2
  2
AIGNBL0201000F
 70
64
 10
0
 20
0
 30
0
  3
AIGNBL0201000F
  0
LINE
  8
LAYER_2
 10
71.1626
 20
170.4063
 11
77.3624
 21
170.4063
  0
ARC
  8
LAYER_2
 10
74.0744
 20
172.8057
 40
0.6002
 50
89.99643885
 51
170.8548885
  0
LINE
  8
LAYER_2
 10
74.0744
 20
173.4059
 11
77.3624
 21
173.4059
  0
ARC
  8
LAYER_2
 10
71.9026
 20
173.1547
 40
1.5993
 50
281.3826951
 51
350.9186018
  0
ARC
  8
LAYER_2
 10
72.0255
 20
170.7312
 40
0.8007
 50
101.4285964
 51
170.8636398
  0
LINE
  8
LAYER_2
 10
71.2349
 20
170.8583
 11
71.1626
 21
170.4063
  0
LINE
  8
LAYER_2
 10
72.2182
 20
171.5869
 11
71.8668
 21
171.516
  0
LINE
  8
LAYER_2
 10
83.5629
 20
170.4063
 11
77.3624
 21
170.4063
  0
ARC
  8
LAYER_2
 10
80.6511
 20
172.8057
 40
0.6002
 50
9.143640156
 51
89.99548592
  0
LINE
  8
LAYER_2
 10
80.6511
 20
173.4059
 11
77.3624
 21
173.4059
  0
ARC
  8
LAYER_2
 10
82.8234
 20
173.156
 40
1.6007
 50
189.1185696
 51
258.584664
  0
ARC
  8
LAYER_2
 10
82.6999
 20
170.7312
 40
0.8007
 50
9.13441257
 51
78.56429051
  0
LINE
  8
LAYER_2
 10
83.4905
 20
170.8583
 11
83.5629
 21
170.4063
  0
LINE
  8
LAYER_2
 10
82.5066
 20
171.5869
 11
82.8587
 21
171.516
  0
LINE
  8
LAYER_2
 10
75.7128
 20
174.4062
 11
79.0126
 21
174.4062
  0
LINE
  8
LAYER_2
 10
75.7128
 20
176.0061
 11
79.0126
 21
176.0061
  0
ARC
  8
LAYER_2
 10
75.5625
 20
177.0059
 40
0.3998
 50
270.0286161
 51
0.02870836215
  0
LINE
  8
LAYER_2
 10
75.9623
 20
177.0061
 11
75.9623
 21
179.6063
  0
ARC
  8
LAYER_2
 10
75.1628
 20
176.206
 40
0.4001
 50
89.97834741
 51
179.9786968
  0
LINE
  8
LAYER_2
 10
74.7627
 20
176.2061
 11
74.7627
 21
175.657
  0
LINE
  8
LAYER_2
 10
74.762
 20
174.7559
 11
74.762
 21
173.994
  0
LINE
  8
LAYER_2
 10
75.163
 20
176.6061
 11
75.5627
 21
176.6061
  0
LINE
  8
LAYER_2
 10
76.2627
 20
179.6063
 11
76.2627
 21
180.2062
  0
LINE
  8
LAYER_2
 10
77.3624
 20
179.6063
 11
75.9623
 21
179.6063
  0
LINE
  8
LAYER_2
 10
76.271
 20
180.2062
 11
74.6628
 21
180.2062
  0
LINE
  8
LAYER_2
 10
76.3867
 20
183.2062
 11
74.6628
 21
183.2062
  0
LINE
  8
LAYER_2
 10
77.3624
 20
183.6062
 11
74.6628
 21
183.6062
  0
LINE
  8
LAYER_2
 10
74.6628
 20
183.6062
 11
74.6628
 21
183.2062
  0
LINE
  8
LAYER_2
 10
74.8626
 20
184.2063
 11
74.8626
 21
183.6062
  0
LINE
  8
LAYER_2
 10
74.8626
 20
184.2063
 11
77.3624
 21
184.2063
  0
LINE
  8
LAYER_2
 10
76.9124
 20
183.6062
 11
76.9124
 21
183.2515
  0
LINE
  8
LAYER_2
 10
76.4625
 20
183.6062
 11
76.4625
 21
183.2515
  0
LINE
  8
LAYER_2
 10
76.0126
 20
183.6062
 11
76.0126
 21
183.2062
  0
LINE
  8
LAYER_2
 10
75.5627
 20
183.6062
 11
75.5627
 21
183.2062
  0
LINE
  8
LAYER_2
 10
75.1127
 20
183.6062
 11
75.1127
 21
183.2062
  0
ARC
  8
LAYER_2
 10
79.1626
 20
177.0062
 40
0.4001
 50
180.0168976
 51
270.0260582
  0
LINE
  8
LAYER_2
 10
78.7625
 20
177.0061
 11
78.7625
 21
179.6063
  0
ARC
  8
LAYER_2
 10
79.5626
 20
176.206
 40
0.4001
 50
0.01867839632
 51
90.02427732
  0
LINE
  8
LAYER_2
 10
79.9627
 20
176.2061
 11
79.9627
 21
175.657
  0
LINE
  8
LAYER_2
 10
79.5624
 20
176.6061
 11
79.1628
 21
176.6061
  0
LINE
  8
LAYER_2
 10
78.4627
 20
179.6063
 11
78.4627
 21
180.2062
  0
LINE
  8
LAYER_2
 10
77.3624
 20
179.6063
 11
78.7625
 21
179.6063
  0
LINE
  8
LAYER_2
 10
78.4545
 20
180.2062
 11
80.0626
 21
180.2062
  0
LINE
  8
LAYER_2
 10
78.3387
 20
183.2062
 11
80.0626
 21
183.2062
  0
LINE
  8
LAYER_2
 10
77.3624
 20
183.6062
 11
80.0626
 21
183.6062
  0
LINE
  8
LAYER_2
 10
80.0626
 20
183.6062
 11
80.0626
 21
183.2062
  0
LINE
  8
LAYER_2
 10
79.8628
 20
184.2063
 11
79.8628
 21
183.6062
  0
LINE
  8
LAYER_2
 10
79.8628
 20
184.2063
 11
77.3624
 21
184.2063
  0
LINE
  8
LAYER_2
 10
77.813
 20
183.6062
 11
77.813
 21
183.2515
  0
LINE
  8
LAYER_2
 10
78.2622
 20
183.6062
 11
78.2622
 21
183.2515
  0
LINE
  8
LAYER_2
 10
78.7128
 20
183.6062
 11
78.7128
 21
183.2062
  0
LINE
  8
LAYER_2
 10
79.1628
 20
183.6062
 11
79.1628
 21
183.2062
  0
LINE
  8
LAYER_2
 10
79.6127
 20
183.6062
 11
79.6127
 21
183.2062
  0
LINE
  8
LAYER_2
 10
81.5626
 20
164.4063
 11
73.1628
 21
164.4063
  0
LINE
  8
LAYER_2
 10
81.863
 20
164.2062
 11
72.8624
 21
164.2062
  0
LINE
  8
LAYER_2
 10
73.1628
 20
164.2062
 11
73.1628
 21
164.4063
  0
LINE
  8
LAYER_2
 10
81.5626
 20
164.2062
 11
81.5626
 21
164.4063
  0
LINE
  8
LAYER_2
 10
74.7627
 20
164.4063
 11
74.7627
 21
170.4063
  0
LINE
  8
LAYER_2
 10
74.9625
 20
164.4063
 11
74.9625
 21
170.4063
  0
LINE
  8
LAYER_2
 10
79.9627
 20
164.4063
 11
79.9627
 21
170.4063
  0
LINE
  8
LAYER_2
 10
79.7629
 20
164.4063
 11
79.7629
 21
170.4063
  0
LINE
  8
LAYER_2
 10
81.863
 20
164.0062
 11
72.8624
 21
164.0062
  0
LINE
  8
LAYER_2
 10
81.863
 20
164.0062
 11
81.863
 21
164.2062
  0
LINE
  8
LAYER_2
 10
72.8624
 20
164.0062
 11
72.8624
 21
164.2062
  0
LINE
  8
LAYER_2
 10
74.3624
 20
164.0062
 11
74.3624
 21
163.0062
  0
LINE
  8
LAYER_2
 10
77.3624
 20
164.0062
 11
77.3624
 21
163.0062
  0
LINE
  8
LAYER_2
 10
80.3624
 20
164.0062
 11
80.3624
 21
163.0062
  0
LINE
  8
LAYER_2
 10
80.3624
 20
163.0062
 11
74.3624
 21
163.0062
  0
LINE
  8
LAYER_2
 10
79.9627
 20
159.6063
 11
74.7627
 21
159.6063
  0
LINE
  8
LAYER_2
 10
74.7627
 20
153.6063
 11
74.7627
 21
163.0062
  0
LINE
  8
LAYER_2
 10
74.9625
 20
159.6063
 11
74.9625
 21
163.0062
  0
LINE
  8
LAYER_2
 10
79.9627
 20
153.6063
 11
79.9627
 21
163.0062
  0
LINE
  8
LAYER_2
 10
79.7629
 20
159.6063
 11
79.7629
 21
163.0062
  0
LINE
  8
LAYER_2
 10
74.7627
 20
159.4063
 11
74.9625
 21
159.6063
  0
LINE
  8
LAYER_2
 10
79.9627
 20
159.4063
 11
79.7629
 21
159.6063
  0
LINE
  8
LAYER_2
 10
79.9627
 20
153.6063
 11
74.7627
 21
153.6063
  0
LINE
  8
LAYER_2
 10
79.4625
 20
152.6065
 11
75.2622
 21
152.6065
  0
LINE
  8
LAYER_2
 10
79.2627
 20
150.2065
 11
75.4628
 21
150.2065
  0
LINE
  8
LAYER_2
 10
75.2622
 20
153.6063
 11
75.2622
 21
150.406
  0
LINE
  8
LAYER_2
 10
79.4625
 20
150.406
 11
79.4625
 21
153.6063
  0
LINE
  8
LAYER_2
 10
79.2627
 20
150.2065
 11
79.2627
 21
152.6065
  0
LINE
  8
LAYER_2
 10
75.4628
 20
152.6058
 11
75.4628
 21
150.2065
  0
LINE
  8
LAYER_2
 10
79.4625
 20
150.406
 11
75.2622
 21
150.406
  0
LINE
  8
LAYER_2
 10
75.2622
 20
150.406
 11
75.4628
 21
150.2065
  0
LINE
  8
LAYER_2
 10
79.4625
 20
150.406
 11
79.2627
 21
150.2065
  0
LINE
  8
LAYER_2
 10
79.2627
 20
152.6065
 11
79.4625
 21
152.806
  0
LINE
  8
LAYER_2
 10
75.4628
 20
152.6058
 11
75.2622
 21
152.806
  0
ARC
  8
LAYER_2
 10
76.2324
 20
175.1936
 40
0.6305
 50
1.14226217
 51
41.65942673
  0
ARC
  8
LAYER_2
 10
75.8832
 20
174.8716
 40
1.1054
 50
42.09722543
 51
72.72837175
  0
ARC
  8
LAYER_2
 10
75.7161
 20
174.4115
 40
1.5946
 50
71.90350662
 51
90.11978681
  0
ARC
  8
LAYER_2
 10
75.6998
 20
174.4894
 40
1.5168
 50
89.50874371
 51
115.488542
  0
ARC
  8
LAYER_2
 10
75.4416
 20
175.0059
 40
0.9395
 50
114.8269601
 51
147.6505087
  0
ARC
  8
LAYER_2
 10
75.1535
 20
175.2034
 40
0.5906
 50
148.8840784
 51
179.7240221
  0
ARC
  8
LAYER_2
 10
75.1934
 20
175.2188
 40
0.6306
 50
181.140608
 51
221.6533833
  0
ARC
  8
LAYER_2
 10
75.5424
 20
175.5405
 40
1.1053
 50
222.0920717
 51
252.725528
  0
ARC
  8
LAYER_2
 10
75.7095
 20
176.0004
 40
1.5942
 50
251.9008849
 51
270.11968
  0
ARC
  8
LAYER_2
 10
75.7258
 20
175.9231
 40
1.517
 50
269.5079472
 51
295.4875027
  0
ARC
  8
LAYER_2
 10
75.9841
 20
175.4064
 40
0.9395
 50
294.8266024
 51
327.6539449
  0
ARC
  8
LAYER_2
 10
76.272
 20
175.209
 40
0.5908
 50
328.8884603
 51
359.7247152
  0
ARC
  8
LAYER_2
 10
79.5321
 20
175.1936
 40
0.6305
 50
1.142376092
 51
41.6583864
  0
ARC
  8
LAYER_2
 10
79.1829
 20
174.8717
 40
1.1054
 50
42.09579242
 51
72.72628108
  0
ARC
  8
LAYER_2
 10
79.0159
 20
174.4119
 40
1.5942
 50
71.90146074
 51
90.11960293
  0
ARC
  8
LAYER_2
 10
78.9996
 20
174.4891
 40
1.517
 50
89.50818804
 51
115.486284
  0
ARC
  8
LAYER_2
 10
78.7412
 20
175.0058
 40
0.9395
 50
114.8248651
 51
147.6495862
  0
ARC
  8
LAYER_2
 10
78.4532
 20
175.2034
 40
0.5906
 50
148.8835179
 51
179.7240837
  0
ARC
  8
LAYER_2
 10
78.4931
 20
175.2188
 40
0.6306
 50
181.1404941
 51
221.6544236
  0
ARC
  8
LAYER_2
 10
78.8421
 20
175.5406
 40
1.1054
 50
222.0935047
 51
252.7276188
  0
ARC
  8
LAYER_2
 10
79.0093
 20
176.0007
 40
1.5946
 50
251.9029308
 51
270.1198639
  0
ARC
  8
LAYER_2
 10
79.0256
 20
175.9228
 40
1.5167
 50
269.5085029
 51
295.4897608
  0
ARC
  8
LAYER_2
 10
79.2838
 20
175.4064
 40
0.9395
 50
294.8286975
 51
327.6548674
  0
ARC
  8
LAYER_2
 10
79.5717
 20
175.209
 40
0.5908
 50
328.8890207
 51
359.7246537
  0
LINE
  8
LAYER_2
 10
79.2627
 20
181.6062
 11
78.3125
 21
183.2515
  0
LINE
  8
LAYER_2
 10
78.3125
 20
183.2515
 11
76.4129
 21
183.2515
  0
LINE
  8
LAYER_2
 10
76.4129
 20
183.2515
 11
75.4628
 21
181.6062
  0
LINE
  8
LAYER_2
 10
75.4628
 20
181.6062
 11
76.4129
 21
179.9606
  0
LINE
  8
LAYER_2
 10
76.4129
 20
179.9606
 11
78.3125
 21
179.9606
  0
LINE
  8
LAYER_2
 10
78.3125
 20
179.9606
 11
79.2627
 21
181.6062
  0
CIRCLE
  8
LAYER_2
 10
77.3624
 20
181.6062
 40
1.6003
  0
ARC
  8
LAYER_2
 10
77.1002
 20
171.948
 40
12.4608
 50
88.79449866
 51
100.3449628
  0
ARC
  8
LAYER_2
 10
77.6249
 20
171.9455
 40
12.4634
 50
79.65594437
 51
91.20677795
  0
LINE
  8
LAYER_2
 10
77.3624
 20
183.6062
 11
77.3624
 21
183.2515
  0
ARC
  8
LAYER_2
 10
76.9697
 20
181.8081
 40
3.3942
 50
358.2833354
 51
24.32477473
  0
ARC
  8
LAYER_2
 10
76.9691
 20
181.6044
 40
3.3948
 50
335.6774248
 51
1.715933563
  0
ARC
  8
LAYER_2
 10
77.7613
 20
181.8056
 40
3.4004
 50
155.6760906
 51
181.6717213
  0
ARC
  8
LAYER_2
 10
77.7619
 20
181.6069
 40
3.401
 50
178.3290074
 51
204.3217095
  0
LINE
  8
LAYER_2
  6
AIGENLINE001
 10
77.3624
 20
101.3202
 11
77.3624
 21
186.8149
  0
ARC
  8
LAYER_2
 10
74.8906
 20
173.3863
 40
0.329
 50
133.8241285
 51
176.5922303
  0
ARC
  8
LAYER_2
 10
73.9092
 20
174.024
 40
0.8533
 50
332.0223439
 51
357.9838886
  0
LINE
  8
LAYER_2
 10
79.9627
 20
174.7559
 11
79.9627
 21
173.994
  0
ARC
  8
LAYER_2
 10
79.8379
 20
173.3888
 40
0.325
 50
3.011111153
 51
46.26862378
  0
ARC
  8
LAYER_2
 10
80.8144
 20
174.0251
 40
0.8523
 50
182.0943179
 51
208.1014683
  0
ENDBLK
  0
BLOCK
  8
LAYER_2
  2
AIGNBL02010010
 70
64
 10
0
 20
0
 30
0
  3
AIGNBL02010010
  0
LINE
  8
LAYER_2
 10
55.597
 20
250.8656
 11
66.5827
 21
239.8791
  0
LINE
  8
LAYER_2
 10
56.2729
 20
249.5193
 11
57.8583
 21
248.6039
  0
LINE
  8
LAYER_2
 10
57.8583
 20
248.6039
 11
56.9433
 21
250.1894
  0
LINE
  8
LAYER_2
 10
56.9433
 20
250.1894
 11
56.2729
 21
249.5193
  0
LINE
  8
LAYER_2
 10
64.3937
 20
242.7387
 11
62.8082
 21
243.654
  0
LINE
  8
LAYER_2
 10
62.8082
 20
243.654
 11
63.7232
 21
242.0686
  0
LINE
  8
LAYER_2
 10
63.7232
 20
242.0686
 11
64.3937
 21
242.7387
  0
ENDBLK
  0
BLOCK
  8
LAYER_2
  2
AIGNBL02010011
 70
64
 10
0
 20
0
 30
0
  3
AIGNBL02010011
  0
LINE
  8
LAYER_2
 10
40.3331
 20
257.5038
 11
80.3334
 21
257.5038
  0
LINE
  8
LAYER_2
 10
66.5827
 20
239.8791
 11
72.6316
 21
239.8791
  0
LINE
  8
LAYER_2
 10
78.5654
 20
257.0358
 11
80.3334
 21
257.5095
  0
LINE
  8
LAYER_2
 10
80.3334
 20
257.5095
 11
78.5654
 21
257.9836
  0
LINE
  8
LAYER_2
 10
78.5654
 20
257.9836
 11
78.5654
 21
257.0358
  0
LINE
  8
LAYER_2
 10
58.5652
 20
257.0358
 11
60.3333
 21
257.5095
  0
LINE
  8
LAYER_2
 10
60.3333
 20
257.5095
 11
58.5652
 21
257.9836
  0
LINE
  8
LAYER_2
 10
58.5652
 20
257.9836
 11
58.5652
 21
257.0358
  0
LINE
  8
LAYER_2
 10
42.1018
 20
257.9718
 11
40.3331
 21
257.498
  0
LINE
  8
LAYER_2
 10
40.3331
 20
257.498
 11
42.1018
 21
257.0241
  0
LINE
  8
LAYER_2
 10
42.1018
 20
257.0241
 11
42.1018
 21
257.9718
  0
LINE
  8
LAYER_2
 10
62.1013
 20
257.9718
 11
60.3333
 21
257.498
  0
LINE
  8
LAYER_2
 10
60.3333
 20
257.498
 11
62.1013
 21
257.0241
  0
LINE
  8
LAYER_2
 10
62.1013
 20
257.0241
 11
62.1013
 21
257.9718
  0
ENDBLK
  0
BLOCK
  8
LAYER_2
  2
AIGNBL02010012
 70
64
 10
0
 20
0
 30
0
  3
AIGNBL02010012
  0
LINE
  8
LAYER_2
 10
-21.2512
 20
48.8632
 11
16.6904
 21
48.8632
  0
LINE
  8
LAYER_2
 10
14.9183
 20
48.3946
 11
16.6877
 21
48.8687
  0
LINE
  8
LAYER_2
 10
16.6877
 20
48.8687
 11
14.9183
 21
49.3427
  0
LINE
  8
LAYER_2
 10
14.9183
 20
49.3427
 11
14.9183
 21
48.3946
  0
LINE
  8
LAYER_2
 10
-19.5035
 20
49.331
 11
-21.273
 21
48.857
  0
LINE
  8
LAYER_2
 10
-21.273
 20
48.857
 11
-19.5035
 21
48.3829
  0
LINE
  8
LAYER_2
 10
-19.5035
 20
48.3829
 11
-19.5035
 21
49.331
  0
ENDBLK
  0
BLOCK
  8
LAYER_2
  2
AIGNBL02010013
 70
64
 10
0
 20
0
 30
0
  3
AIGNBL02010013
  0
LINE
  8
LAYER_2
 10
-32.1588
 20
74.8151
 11
-32.1588
 21
67.4943
  0
LINE
  8
LAYER_2
 10
-32.6266
 20
69.3594
 11
-32.1526
 21
67.59
  0
LINE
  8
LAYER_2
 10
-32.1526
 20
67.59
 11
-31.6785
 21
69.3594
  0
LINE
  8
LAYER_2
 10
-31.6785
 20
69.3594
 11
-32.6266
 21
69.3594
  0
LINE
  8
LAYER_2
 10
-31.6902
 20
73.0436
 11
-32.1643
 21
74.813
  0
LINE
  8
LAYER_2
 10
-32.1643
 20
74.813
 11
-32.6383
 21
73.0436
  0
LINE
  8
LAYER_2
 10
-32.6383
 20
73.0436
 11
-31.6902
 21
73.0436
  0
ENDBLK
  0
BLOCK
  8
LAYER_2
  2
AIGNBL02010014
 70
64
 10
0
 20
0
 30
0
  3
AIGNBL02010014
  0
LINE
  8
LAYER_2
 10
-15.0091
 20
79.5411
 11
-27.6095
 21
79.5411
  0
LINE
  8
LAYER_2
 10
-25.8377
 20
80.0096
 11
-27.6071
 21
79.5355
  0
LINE
  8
LAYER_2
 10
-27.6071
 20
79.5355
 11
-25.8377
 21
79.0608
  0
LINE
  8
LAYER_2
 10
-25.8377
 20
79.0608
 11
-25.8377
 21
80.0096
  0
LINE
  8
LAYER_2
 10
-16.7809
 20
79.0732
 11
-15.0115
 21
79.5473
  0
LINE
  8
LAYER_2
 10
-15.0115
 20
79.5473
 11
-16.7809
 21
80.0213
  0
LINE
  8
LAYER_2
 10
-16.7809
 20
80.0213
 11
-16.7809
 21
79.0732
  0
ENDBLK
  0
BLOCK
  8
LAYER_2
  2
AIGNBL02010015
 70
64
 10
0
 20
0
 30
0
  3
AIGNBL02010015
  0
LINE
  8
LAYER_2
 10
-25.2479
 20
56.8668
 11
-27.2567
 21
53.9826
  0
LINE
  8
LAYER_2
 10
-25.8732
 20
55.2318
 11
-25.2507
 21
56.9543
  0
LINE
  8
LAYER_2
 10
-25.2507
 20
56.9543
 11
-26.6507
 21
55.7726
  0
LINE
  8
LAYER_2
 10
-26.6507
 20
55.7726
 11
-25.8732
 21
55.2318
  0
ENDBLK
  0
BLOCK
  8
LAYER_2
  2
AIGNBL02010016
 70
64
 10
0
 20
0
 30
0
  3
AIGNBL02010016
  0
LINE
  8
LAYER_2
 10
-2.3356
 20
67.3103
 11
-2.3356
 21
56.7276
  0
LINE
  8
LAYER_2
 10
-2.8041
 20
62.9295
 11
-2.3301
 21
61.1601
  0
LINE
  8
LAYER_2
 10
-2.3301
 20
61.1601
 11
-1.856
 21
62.9295
  0
LINE
  8
LAYER_2
 10
-1.856
 20
62.9295
 11
-2.8041
 21
62.9295
  0
LINE
  8
LAYER_2
 10
-1.8671
 20
58.3096
 11
-2.3411
 21
60.079
  0
LINE
  8
LAYER_2
 10
-2.3411
 20
60.079
 11
-2.8158
 21
58.3096
  0
LINE
  8
LAYER_2
 10
-2.8158
 20
58.3096
 11
-1.8671
 21
58.3096
  0
ENDBLK
  0
BLOCK
  8
LAYER_3
  2
AIGNBL03010002
 70
64
 10
0
 20
0
 30
0
  3
AIGNBL03010002
  0
ARC
  8
LAYER_3
 10
181.2361
 20
51.0518
 40
2.085
 50
359.9990616
 51
90.00093841
  0
ARC
  8
LAYER_3
 10
181.2364
 20
51.0522
 40
2.0846
 50
90.00927268
 51
180.0099666
  0
ARC
  8
LAYER_3
 10
181.2361
 20
51.0519
 40
2.0843
 50
180.0023133
 51
270.0004358
  0
ARC
  8
LAYER_3
 10
181.2365
 20
51.0522
 40
2.0846
 50
269.9893525
 51
359.9886593
  0
ARC
  8
LAYER_3
 10
181.2365
 20
51.0515
 40
1.2199
 50
0.01483428533
 51
90.01804168
  0
ARC
  8
LAYER_3
 10
181.2361
 20
51.0519
 40
1.2195
 50
90.00175626
 51
180.0029419
  0
ARC
  8
LAYER_3
 10
181.2361
 20
51.0518
 40
1.2195
 50
180.0016044
 51
269.9983956
  0
ARC
  8
LAYER_3
 10
181.2365
 20
51.0522
 40
1.2199
 50
269.9818051
 51
359.9806209
  0
LINE
  8
LAYER_3
 10
184.9472
 20
49.8323
 11
184.9472
 21
52.2714
  0
LINE
  8
LAYER_3
 10
190.1252
 20
48.9676
 11
190.1252
 21
53.1368
  0
LINE
  8
LAYER_3
 10
184.9472
 20
52.2714
 11
190.1252
 21
53.1368
  0
LINE
  8
LAYER_3
 10
184.9472
 20
49.8323
 11
190.1252
 21
48.9676
  0
LINE
  8
LAYER_3
 10
181.2361
 20
51.0518
 11
181.2361
 21
50.8004
  0
LINE
  8
LAYER_3
 10
181.2361
 20
50.5599
 11
181.2361
 21
48.3729
  0
LINE
  8
LAYER_3
 10
181.2361
 20
51.0518
 11
181.4883
 21
51.0518
  0
LINE
  8
LAYER_3
 10
181.7288
 20
51.0518
 11
183.9157
 21
51.0518
  0
LINE
  8
LAYER_3
 10
181.2361
 20
51.0518
 11
181.2361
 21
51.304
  0
LINE
  8
LAYER_3
 10
181.2361
 20
51.5445
 11
181.2361
 21
53.7314
  0
LINE
  8
LAYER_3
 10
181.2361
 20
51.0518
 11
180.9846
 21
51.0518
  0
LINE
  8
LAYER_3
 10
180.7442
 20
51.0518
 11
178.5572
 21
51.0518
  0
LINE
  8
LAYER_3
 10
187.1404
 20
51.0518
 11
187.3925
 21
51.0518
  0
LINE
  8
LAYER_3
 10
187.633
 20
51.0518
 11
190.5579
 21
51.0518
  0
LINE
  8
LAYER_3
 10
187.1404
 20
51.0518
 11
186.8882
 21
51.0518
  0
LINE
  8
LAYER_3
 10
186.6477
 20
51.0518
 11
184.4614
 21
51.0518
  0
ENDBLK
  0
ENDSEC
  0
SECTION
  2
ENTITIES
  0
TEXT
  8
LAYER_1
 10
-1.3407
 20
145.5449
 11
-1.3407
 21
145.5449
 40
3.0923
 41
0.5
 72
1
  1
水側
  0
TEXT
  8
LAYER_1
 10
-44.4038
 20
145.5449
 11
-44.4038
 21
145.5449
 40
3.0923
 41
0.5
 72
2
  1
湯側
  0
TEXT
  8
LAYER_1
 10
-77.8468
 20
23.1786
 11
-77.8468
 21
23.1786
 40
3.6546
 41
0.5
  1
※国産洗面器とのセットの場合は、国産の排水ヘッド部を別途準備してください。
  0
TEXT
  8
LAYER_1
 10
-31.7023
 20
260.5298
 11
-31.7023
 21
260.5298
 40
3.0923
 41
0.5
 72
1
  1
100
  0
TEXT
  8
LAYER_1
 10
-41.3091
 20
228.0753
 11
-41.3091
 21
228.0753
 40
3.0923
 41
0.5
 72
1
  1
開
  0
TEXT
  8
LAYER_1
 10
-1.2065
 20
228.0753
 11
-1.2065
 21
228.0753
 40
3.0923
 41
0.5
 72
1
  1
開
  0
TEXT
  8
LAYER_1
 10
-57.9849
 20
244.9721
 11
-57.9849
 21
244.9721
 40
3.0923
 41
0.5
 72
2
  1
閉
  0
TEXT
  8
LAYER_1
 10
15.8323
 20
244.9721
 11
15.8323
 21
244.9721
 40
3.0923
 41
0.5
  1
閉
  0
TEXT
  8
LAYER_1
 10
-11.3368
 20
260.5298
 11
-11.3368
 21
260.5298
 40
3.0923
 41
0.5
 72
1
  1
100
  0
TEXT
  8
LAYER_1
 10
63.7618
 20
155.2985
 11
63.7618
 21
155.2985
 40
3.0923
 41
0.5
 72
1
  1
137
  0
TEXT
  8
LAYER_1
 10
69.5827
 20
125.0694
 11
69.5827
 21
125.0694
 40
3.0923
 41
0.5
  1
%%c5
  0
TEXT
  8
LAYER_1
 10
53.5271
 20
171.6681
 11
53.5271
 21
171.6681
 40
3.0923
 41
0.5
  1
10%%d
  0
TEXT
  8
LAYER_1
 10
-33.8846
 20
177.0159
 11
-33.8846
 21
177.0159
 40
3.0923
 41
0.5
  1
%%c62
  0
TEXT
  8
LAYER_1
 10
-52.4206
 20
136.69
 11
-52.4206
 21
136.69
 40
3.0923
 41
0.5
  1
G 1/2
  0
TEXT
  8
LAYER_1
 10
-36.6923
 20
166.1139
 11
-36.6923
 21
166.1139
 40
3.0923
 41
0.5
  1
%%c26
  0
TEXT
  8
LAYER_1
 10
35.8276
 20
174.5061
 11
35.8276
 21
174.5061
 40
3.0923
 41
0.5
 50
89.99999999
 72
1
  1
41
  0
TEXT
  8
LAYER_1
 10
41.6157
 20
174.2979
 11
41.6157
 21
174.2979
 40
3.0923
 41
0.5
 50
89.99999999
 72
1
  1
39
  0
TEXT
  8
LAYER_1
 10
29.9892
 20
177.6064
 11
29.9892
 21
177.6064
 40
3.0923
 41
0.5
 50
89.99999999
 72
1
  1
72
  0
TEXT
  8
LAYER_1
 10
89.5311
 20
178.2063
 11
89.5311
 21
178.2063
 40
3.0923
 41
0.5
 50
89.99999999
 72
1
  1
78
  0
TEXT
  8
LAYER_1
 10
-61.9173
 20
177.4534
 11
-61.9173
 21
177.4534
 40
3.0923
 41
0.5
 50
89.99999999
 72
1
  1
70
  0
TEXT
  8
LAYER_1
 10
-61.9173
 20
160.3287
 11
-61.9173
 21
160.3287
 40
3.0923
 41
0.5
 50
89.99999999
 72
1
  1
101
  0
TEXT
  8
LAYER_1
 10
-52.7622
 20
169.5967
 11
-52.7622
 21
169.5967
 40
3.0923
 41
0.5
 50
89.99999999
 72
2
  1
max.45
  0
TEXT
  8
LAYER_1
 10
29.9892
 20
137.983
 11
29.9892
 21
137.983
 40
3.0923
 41
0.5
 50
89.99999999
 72
1
  1
340
  0
TEXT
  8
LAYER_1
 10
49.8278
 20
258.2227
 11
49.8278
 21
258.2227
 40
3.0923
 41
0.5
 72
1
  1
100
  0
TEXT
  8
LAYER_1
 10
70.1938
 20
258.2227
 11
70.1938
 21
258.2227
 40
3.0923
 41
0.5
 72
1
  1
100
  0
TEXT
  8
LAYER_1
 10
60.3333
 20
232.7279
 11
60.3333
 21
232.7279
 40
3.0923
 41
0.5
 72
1
  1
水栓金具取付穴
  0
TEXT
  8
LAYER_1
 10
-49.0771
 20
191.6408
 11
-49.0771
 21
191.6408
 40
3.0923
 41
0.5
 72
1
  1
76.5
  0
TEXT
  8
LAYER_1
 10
71.2284
 20
240.5519
 11
71.2284
 21
240.5519
 40
3.0923
 41
0.5
 72
2
  1
%%c35
  0
TEXT
  8
LAYER_1
 10
-3.325
 20
65.9559
 11
-3.325
 21
65.9559
 40
3.0923
 41
0.5
 50
89.99999999
 72
2
  1
%%c5
  0
TEXT
  8
LAYER_1
 10
-22.5952
 20
80.6573
 11
-22.5952
 21
80.6573
 40
3.0923
 41
0.5
 72
1
  1
%%c63
  0
TEXT
  8
LAYER_1
 10
-36.9137
 20
54.6392
 11
-36.9137
 21
54.6392
 40
3.0923
 41
0.5
  1
G1 1/4
  0
TEXT
  8
LAYER_1
 10
-33.2198
 20
71.5471
 11
-33.2198
 21
71.5471
 40
3.0923
 41
0.5
 50
89.99999999
 72
1
  1
max.50
  0
TEXT
  8
LAYER_1
 10
-3.0031
 20
49.7472
 11
-3.0031
 21
49.7472
 40
3.0923
 41
0.5
 72
1
  1
190
  0
LINE
  8
LAYER_2
  6
AIGENLINE001
 10
-22.809
 20
148.7563
 11
-22.809
 21
171.2562
  0
LINE
  8
LAYER_2
  6
AIGENLINE001
 10
-19.809
 20
148.7563
 11
-19.809
 21
171.2562
  0
LINE
  8
LAYER_2
 10
-21.809
 20
102.4075
 11
-20.8089
 21
102.4075
  0
LINE
  8
LAYER_2
 10
-20.8089
 20
102.4068
 11
-20.8089
 21
163.4064
  0
LINE
  8
LAYER_2
 10
-47.5093
 20
170.4063
 11
-41.3091
 21
170.4063
  0
LINE
  8
LAYER_2
  6
AIGENLINE001
 10
-41.3091
 20
149.5115
 11
-41.3091
 21
185.7976
  0
ARC
  8
LAYER_2
 10
-44.5977
 20
172.806
 40
0.5999
 50
89.99229027
 51
170.878132
  0
LINE
  8
LAYER_2
 10
-44.5976
 20
173.4059
 11
-41.3091
 21
173.4059
  0
ARC
  8
LAYER_2
 10
-46.7693
 20
173.1551
 40
1.5997
 50
281.3928507
 51
350.9084462
  0
ARC
  8
LAYER_2
 10
-46.6467
 20
170.7318
 40
0.8
 50
101.4180006
 51
170.9014217
  0
LINE
  8
LAYER_2
 10
-47.4367
 20
170.8583
 11
-47.5093
 21
170.4063
  0
LINE
  8
LAYER_2
 10
-46.4533
 20
171.5869
 11
-46.8051
 21
171.516
  0
LINE
  8
LAYER_2
 10
-35.1091
 20
170.4063
 11
-41.3091
 21
170.4063
  0
ARC
  8
LAYER_2
 10
-38.0206
 20
172.8061
 40
0.5998
 50
9.110126743
 51
90.02899934
  0
LINE
  8
LAYER_2
 10
-38.0209
 20
173.4059
 11
-41.3091
 21
173.4059
  0
ARC
  8
LAYER_2
 10
-35.849
 20
173.1551
 40
1.5997
 50
189.0922599
 51
258.6109737
  0
ARC
  8
LAYER_2
 10
-35.9715
 20
170.7317
 40
0.8001
 50
9.104014588
 51
78.59468849
  0
LINE
  8
LAYER_2
 10
-35.1815
 20
170.8583
 11
-35.1091
 21
170.4063
  0
LINE
  8
LAYER_2
 10
-36.1649
 20
171.5869
 11
-35.8133
 21
171.516
  0
LINE
  8
LAYER_2
 10
-43.6283
 20
174.4062
 11
-38.9902
 21
174.4062
  0
LINE
  8
LAYER_2
 10
-43.6283
 20
176.0061
 11
-38.9902
 21
176.0061
  0
ARC
  8
LAYER_2
 10
-40.7893
 20
175.1936
 40
0.6304
 50
1.143380797
 51
41.66472818
  0
ARC
  8
LAYER_2
 10
-41.1387
 20
174.8714
 40
1.1056
 50
42.10167721
 51
72.72967359
  0
ARC
  8
LAYER_2
 10
-41.3058
 20
174.4113
 40
1.5948
 50
71.90439708
 51
90.11958007
  0
ARC
  8
LAYER_2
 10
-41.3221
 20
174.4889
 40
1.5172
 50
89.50875992
 51
115.4844812
  0
ARC
  8
LAYER_2
 10
-41.5805
 20
175.0057
 40
0.9396
 50
114.8222776
 51
147.6448627
  0
ARC
  8
LAYER_2
 10
-41.8687
 20
175.2034
 40
0.5905
 50
148.8786798
 51
179.7237392
  0
ARC
  8
LAYER_2
 10
-41.8288
 20
175.2188
 40
0.6306
 50
181.1416122
 51
221.6597247
  0
ARC
  8
LAYER_2
 10
-41.4795
 20
175.5408
 40
1.1056
 50
222.0979566
 51
252.7289207
  0
ARC
  8
LAYER_2
 10
-41.3124
 20
176.0009
 40
1.5947
 50
251.9038213
 51
270.1196571
  0
ARC
  8
LAYER_2
 10
-41.2961
 20
175.9233
 40
1.5172
 50
269.5085191
 51
295.4856998
  0
ARC
  8
LAYER_2
 10
-41.0377
 20
175.4066
 40
0.9396
 50
294.8240146
 51
327.6492216
  0
ARC
  8
LAYER_2
 10
-40.7497
 20
175.209
 40
0.5907
 50
328.8836228
 51
359.7243709
  0
ARC
  8
LAYER_2
 10
-43.6214
 20
175.3872
 40
0.619
 50
90.63800571
 51
131.1974932
  0
ARC
  8
LAYER_2
 10
-43.4598
 20
175.2225
 40
0.8494
 50
132.0812221
 51
181.0965816
  0
ARC
  8
LAYER_2
 10
-43.4141
 20
175.2009
 40
0.895
 50
179.6628907
 51
213.0940647
  0
ARC
  8
LAYER_2
 10
-43.6001
 20
175.0772
 40
0.6716
 50
212.9150161
 51
267.5972834
  0
ARC
  8
LAYER_2
 10
-43.6352
 20
175.0253
 40
0.6191
 50
270.6357038
 51
311.1939148
  0
ARC
  8
LAYER_2
 10
-43.7967
 20
175.1899
 40
0.8495
 50
312.0806044
 51
1.100002561
  0
ARC
  8
LAYER_2
 10
-43.8421
 20
175.2115
 40
0.8947
 50
359.663801
 51
33.09982246
  0
ARC
  8
LAYER_2
 10
-43.6564
 20
175.335
 40
0.6717
 50
32.92201193
 51
87.60192622
  0
ARC
  8
LAYER_2
 10
-43.781
 20
173.3872
 40
0.3287
 50
133.9818876
 51
176.7383774
  0
ARC
  8
LAYER_2
 10
-44.761
 20
174.0251
 40
0.8523
 50
331.8985317
 51
357.9056821
  0
ARC
  8
LAYER_2
 10
-44.7466
 20
174.0892
 40
0.8427
 50
353.5129495
 51
41.18606657
  0
ARC
  8
LAYER_2
 10
-38.8366
 20
173.3876
 40
0.3278
 50
3.199585461
 51
46.08014947
  0
ARC
  8
LAYER_2
 10
-37.8574
 20
174.0251
 40
0.8523
 50
182.0943179
 51
208.1014683
  0
ARC
  8
LAYER_2
 10
-37.8718
 20
174.0892
 40
0.8427
 50
138.8139334
 51
186.4870505
  0
ARC
  8
LAYER_2
 10
-38.9832
 20
175.3872
 40
0.6189
 50
90.64434469
 51
131.1994047
  0
ARC
  8
LAYER_2
 10
-38.8216
 20
175.2224
 40
0.8495
 50
132.0755469
 51
181.0893483
  0
ARC
  8
LAYER_2
 10
-38.7762
 20
175.201
 40
0.8948
 50
179.6656293
 51
213.1045094
  0
ARC
  8
LAYER_2
 10
-38.9619
 20
175.0773
 40
0.6717
 50
212.9205776
 51
267.586032
  0
ARC
  8
LAYER_2
 10
-38.9971
 20
175.0255
 40
0.6194
 50
270.6378704
 51
311.1850816
  0
ARC
  8
LAYER_2
 10
-39.1584
 20
175.19
 40
0.8494
 50
312.0674778
 51
1.093727106
  0
ARC
  8
LAYER_2
 10
-39.2035
 20
175.2114
 40
0.8944
 50
359.6658812
 51
33.11413413
  0
ARC
  8
LAYER_2
 10
-39.0183
 20
175.3347
 40
0.672
 50
32.9352856
 51
87.60000524
  0
ARC
  8
LAYER_2
 10
-43.1092
 20
177.0061
 40
0.4
 50
269.9950838
 51
0.00491625586
  0
LINE
  8
LAYER_2
 10
-42.7092
 20
177.0061
 11
-42.7092
 21
179.6063
  0
ARC
  8
LAYER_2
 10
-43.5091
 20
176.2059
 40
0.4002
 50
89.98027399
 51
179.9767702
  0
LINE
  8
LAYER_2
 10
-43.9093
 20
176.2061
 11
-43.9093
 21
175.9346
  0
LINE
  8
LAYER_2
 10
-43.509
 20
176.6061
 11
-43.1092
 21
176.6061
  0
LINE
  8
LAYER_2
 10
-42.4091
 20
179.6063
 11
-42.4091
 21
180.2062
  0
LINE
  8
LAYER_2
 10
-41.3091
 20
179.6063
 11
-42.7092
 21
179.6063
  0
LINE
  8
LAYER_2
 10
-41.3091
 20
180.2062
 11
-44.0092
 21
180.2062
  0
LINE
  8
LAYER_2
 10
-41.3091
 20
183.2062
 11
-44.0092
 21
183.2062
  0
LINE
  8
LAYER_2
 10
-41.3091
 20
183.6062
 11
-44.0092
 21
183.6062
  0
LINE
  8
LAYER_2
 10
-41.3091
 20
183.6062
 11
-41.3091
 21
183.2062
  0
LINE
  8
LAYER_2
 10
-44.0092
 20
183.6062
 11
-44.0092
 21
183.2062
  0
LINE
  8
LAYER_2
 10
-43.8092
 20
184.2063
 11
-43.8092
 21
183.6062
  0
LINE
  8
LAYER_2
 10
-43.8092
 20
184.2063
 11
-41.3091
 21
184.2063
  0
LINE
  8
LAYER_2
 10
-41.7592
 20
183.6062
 11
-41.7592
 21
183.2062
  0
LINE
  8
LAYER_2
 10
-42.2093
 20
183.6062
 11
-42.2093
 21
183.2062
  0
LINE
  8
LAYER_2
 10
-42.6591
 20
183.6062
 11
-42.6591
 21
183.2062
  0
LINE
  8
LAYER_2
 10
-43.1092
 20
183.6062
 11
-43.1092
 21
183.2062
  0
LINE
  8
LAYER_2
 10
-43.5593
 20
183.6062
 11
-43.5593
 21
183.2062
  0
LINE
  8
LAYER_2
 10
-56.2338
 20
183.2062
 11
-56.6093
 21
183.2062
  0
LINE
  8
LAYER_2
 10
-56.6093
 20
180.0061
 11
-56.6093
 21
183.2062
  0
LINE
  8
LAYER_2
 10
-56.309
 20
180.6315
 11
-56.309
 21
182.5809
  0
LINE
  8
LAYER_2
 10
-56.2338
 20
180.0062
 11
-56.6093
 21
180.0062
  0
LINE
  8
LAYER_2
 10
-44.9091
 20
180.1061
 11
-44.9091
 21
183.1061
  0
LINE
  8
LAYER_2
 10
-56.1141
 20
183.4994
 11
-44.9091
 21
183.1061
  0
LINE
  8
LAYER_2
 10
-44.9091
 20
180.1061
 11
-56.1141
 21
179.7131
  0
LINE
  8
LAYER_2
 10
-44.9091
 20
181.6062
 11
-56.1141
 21
181.6062
  0
ARC
  8
LAYER_2
 10
-39.5093
 20
177.0062
 40
0.4001
 50
180.0116735
 51
270.0169672
  0
LINE
  8
LAYER_2
 10
-39.9094
 20
177.0061
 11
-39.9094
 21
179.6063
  0
ARC
  8
LAYER_2
 10
-39.1093
 20
176.2061
 40
0.4
 50
359.9940113
 51
89.99166293
  0
LINE
  8
LAYER_2
 10
-38.7093
 20
176.2061
 11
-38.7093
 21
175.9346
  0
LINE
  8
LAYER_2
 10
-39.1092
 20
176.6061
 11
-39.5092
 21
176.6061
  0
LINE
  8
LAYER_2
 10
-40.2093
 20
179.6063
 11
-40.2093
 21
180.2062
  0
LINE
  8
LAYER_2
 10
-41.3091
 20
179.6063
 11
-39.9094
 21
179.6063
  0
LINE
  8
LAYER_2
 10
-41.3091
 20
180.2062
 11
-38.6093
 21
180.2062
  0
LINE
  8
LAYER_2
 10
-41.3091
 20
183.2062
 11
-38.6093
 21
183.2062
  0
LINE
  8
LAYER_2
 10
-41.3091
 20
183.6062
 11
-38.6093
 21
183.6062
  0
LINE
  8
LAYER_2
 10
-38.6093
 20
183.6062
 11
-38.6093
 21
183.2062
  0
LINE
  8
LAYER_2
 10
-38.8092
 20
184.2063
 11
-38.8092
 21
183.6062
  0
LINE
  8
LAYER_2
 10
-38.8092
 20
184.2063
 11
-41.3091
 21
184.2063
  0
LINE
  8
LAYER_2
 10
-40.859
 20
183.6062
 11
-40.859
 21
183.2062
  0
LINE
  8
LAYER_2
 10
-40.4092
 20
183.6062
 11
-40.4092
 21
183.2062
  0
LINE
  8
LAYER_2
 10
-39.9591
 20
183.6062
 11
-39.9591
 21
183.2062
  0
LINE
  8
LAYER_2
 10
-39.5092
 20
183.6062
 11
-39.5092
 21
183.2062
  0
LINE
  8
LAYER_2
 10
-39.0591
 20
183.6062
 11
-39.0591
 21
183.2062
  0
LINE
  8
LAYER_2
 10
-37.1092
 20
164.4063
 11
-45.5092
 21
164.4063
  0
LINE
  8
LAYER_2
 10
-46.3045
 20
164.4063
 11
-52.3076
 21
164.4063
  0
LINE
  8
LAYER_2
 10
-36.8089
 20
164.2062
 11
-45.8093
 21
164.2062
  0
LINE
  8
LAYER_2
 10
-45.5092
 20
164.2062
 11
-45.5092
 21
164.4063
  0
LINE
  8
LAYER_2
 10
-37.1092
 20
164.2062
 11
-37.1092
 21
164.4063
  0
LINE
  8
LAYER_2
 10
-43.9093
 20
164.4063
 11
-43.9093
 21
170.4063
  0
LINE
  8
LAYER_2
 10
-43.7091
 20
164.4063
 11
-43.7091
 21
170.4063
  0
LINE
  8
LAYER_2
 10
-38.7091
 20
164.4063
 11
-38.7091
 21
170.4063
  0
LINE
  8
LAYER_2
 10
-38.9091
 20
164.4063
 11
-38.9091
 21
170.4063
  0
LINE
  8
LAYER_2
 10
-36.8089
 20
164.0062
 11
-45.8093
 21
164.0062
  0
LINE
  8
LAYER_2
 10
-36.8089
 20
164.0062
 11
-36.8089
 21
164.2062
  0
LINE
  8
LAYER_2
 10
-45.8093
 20
164.0062
 11
-45.8093
 21
164.2062
  0
LINE
  8
LAYER_2
 10
-44.7733
 20
164.0062
 11
-44.7733
 21
163.0062
  0
LINE
  8
LAYER_2
 10
-43.0413
 20
164.0062
 11
-43.0413
 21
163.0062
  0
LINE
  8
LAYER_2
 10
-39.5769
 20
164.0062
 11
-39.5769
 21
163.0062
  0
LINE
  8
LAYER_2
 10
-37.845
 20
164.0062
 11
-37.845
 21
163.0062
  0
LINE
  8
LAYER_2
 10
-37.845
 20
163.0062
 11
-44.7733
 21
163.0062
  0
LINE
  8
LAYER_2
 10
-38.7091
 20
159.6063
 11
-43.9093
 21
159.6063
  0
LINE
  8
LAYER_2
 10
-43.9093
 20
153.6063
 11
-43.9093
 21
163.0062
  0
LINE
  8
LAYER_2
 10
-43.7091
 20
159.6063
 11
-43.7091
 21
163.0062
  0
LINE
  8
LAYER_2
 10
-38.7091
 20
153.6063
 11
-38.7091
 21
154.4062
  0
LINE
  8
LAYER_2
 10
-38.7091
 20
157.4059
 11
-38.7091
 21
163.0062
  0
LINE
  8
LAYER_2
 10
-38.9091
 20
159.6063
 11
-38.9091
 21
163.0062
  0
LINE
  8
LAYER_2
 10
-43.9093
 20
159.4063
 11
-43.7091
 21
159.6063
  0
LINE
  8
LAYER_2
 10
-38.7091
 20
159.4063
 11
-38.9091
 21
159.6063
  0
LINE
  8
LAYER_2
 10
-38.7091
 20
153.6063
 11
-43.9093
 21
153.6063
  0
LINE
  8
LAYER_2
 10
-39.2093
 20
152.6065
 11
-43.4092
 21
152.6065
  0
LINE
  8
LAYER_2
 10
-39.4091
 20
150.2065
 11
-43.2092
 21
150.2065
  0
LINE
  8
LAYER_2
 10
-43.4092
 20
153.6063
 11
-43.4092
 21
150.406
  0
LINE
  8
LAYER_2
 10
-39.2093
 20
150.406
 11
-39.2093
 21
153.6063
  0
LINE
  8
LAYER_2
 10
-39.4091
 20
150.2065
 11
-39.4091
 21
152.6065
  0
LINE
  8
LAYER_2
 10
-43.2092
 20
152.6058
 11
-43.2092
 21
150.2065
  0
LINE
  8
LAYER_2
 10
-39.2093
 20
150.406
 11
-43.4092
 21
150.406
  0
LINE
  8
LAYER_2
 10
-43.4092
 20
150.406
 11
-43.2092
 21
150.2065
  0
LINE
  8
LAYER_2
 10
-39.2093
 20
150.406
 11
-39.4091
 21
150.2065
  0
LINE
  8
LAYER_2
 10
-39.4091
 20
152.6065
 11
-39.2093
 21
152.806
  0
LINE
  8
LAYER_2
 10
-43.2092
 20
152.6058
 11
-43.4092
 21
152.806
  0
LINE
  8
LAYER_2
 10
-37.1092
 20
157.8364
 11
-37.1092
 21
155.9061
  0
LINE
  8
LAYER_2
 10
-37.1092
 20
157.4064
 11
-38.7091
 21
157.4064
  0
LINE
  8
LAYER_2
 10
-37.1092
 20
154.4062
 11
-38.7091
 21
154.4062
  0
LINE
  8
LAYER_2
 10
-35.2091
 20
158.5061
 11
-36.8093
 21
158.5061
  0
LINE
  8
LAYER_2
 10
-35.2091
 20
157.106
 11
-36.8093
 21
157.106
  0
LINE
  8
LAYER_2
 10
-34.7092
 20
157.2064
 11
-34.7092
 21
154.6062
  0
LINE
  8
LAYER_2
 10
-31.509
 20
157.2064
 11
-31.509
 21
154.6062
  0
LINE
  8
LAYER_2
 10
-32.8092
 20
157.0063
 11
-34.0091
 21
157.0063
  0
LINE
  8
LAYER_2
 10
-31.509
 20
157.106
 11
-28.1442
 21
157.106
  0
LINE
  8
LAYER_2
 10
-31.509
 20
154.706
 11
-28.1442
 21
154.706
  0
LINE
  8
LAYER_2
 10
-34.9093
 20
157.106
 11
-34.7092
 21
157.106
  0
LINE
  8
LAYER_2
 10
-34.9093
 20
154.706
 11
-34.7092
 21
154.706
  0
ARC
  8
LAYER_2
 10
-34.2131
 20
157.1025
 40
0.1039
 50
1.904520616
 51
87.92402081
  0
LINE
  8
LAYER_2
 10
-34.7092
 20
157.2064
 11
-34.2093
 21
157.2064
  0
ARC
  8
LAYER_2
 10
-34.0056
 20
157.1099
 40
0.1037
 50
182.1653455
 51
268.0640667
  0
ARC
  8
LAYER_2
 10
-32.6052
 20
157.1025
 40
0.104
 50
92.10002322
 51
178.0714353
  0
ARC
  8
LAYER_2
 10
-32.8129
 20
157.1101
 40
0.1039
 50
272.0296085
 51
357.7409793
  0
LINE
  8
LAYER_2
 10
-32.609
 20
157.2064
 11
-31.509
 21
157.2064
  0
LINE
  8
LAYER_2
 10
-32.8092
 20
154.8064
 11
-34.0091
 21
154.8064
  0
ARC
  8
LAYER_2
 10
-34.2128
 20
154.7099
 40
0.1037
 50
271.9593998
 51
357.868627
  0
LINE
  8
LAYER_2
 10
-34.7092
 20
154.6062
 11
-34.2093
 21
154.6062
  0
ARC
  8
LAYER_2
 10
-34.005
 20
154.7022
 40
0.1043
 50
92.25992222
 51
177.9115363
  0
ARC
  8
LAYER_2
 10
-32.6054
 20
154.7099
 40
0.1038
 50
182.1493744
 51
268.0225989
  0
ARC
  8
LAYER_2
 10
-32.8135
 20
154.702
 40
0.1045
 50
2.182979527
 51
87.6455619
  0
LINE
  8
LAYER_2
 10
-32.609
 20
154.6062
 11
-31.509
 21
154.6062
  0
INSERT
  8
LAYER_2
  2
AIGNBL02010002
 10
0
 20
0
 30
0
  0
INSERT
  8
LAYER_2
  2
AIGNBL02010003
 10
0
 20
0
 30
0
  0
LINE
  8
LAYER_2
 10
-35.1091
 20
177.966
 11
-35.1091
 21
171.6455
  0
LINE
  8
LAYER_2
 10
-41.3091
 20
191.4658
 11
-41.3091
 21
185.7976
  0
LINE
  8
LAYER_2
 10
-56.6093
 20
191.5769
 11
-56.6093
 21
183.7667
  0
LINE
  8
LAYER_2
 10
-47.5093
 20
177.966
 11
-47.5093
 21
171.6455
  0
INSERT
  8
LAYER_2
  2
AIGNBL02010005
 10
0
 20
0
 30
0
  0
INSERT
  8
LAYER_2
  2
AIGNBL02010006
 10
0
 20
0
 30
0
  0
INSERT
  8
LAYER_2
  2
AIGNBL02010007
 10
0
 20
0
 30
0
  0
LINE
  8
LAYER_2
 10
-39.2093
 20
135.6375
 11
-39.2093
 21
149.7864
  0
LINE
  8
LAYER_2
 10
-43.4092
 20
135.6375
 11
-43.4092
 21
149.7864
  0
LINE
  8
LAYER_2
 10
-27.7091
 20
170.4063
 11
-14.9092
 21
170.4063
  0
LINE
  8
LAYER_2
  6
AIGENLINE001
 10
-21.3091
 20
187.8175
 11
-21.3091
 21
101.2817
  0
LINE
  8
LAYER_2
 10
-22.909
 20
184.8063
 11
-19.7092
 21
184.8063
  0
LINE
  8
LAYER_2
 10
-24.0216
 20
183.1554
 11
-23.6199
 21
184.1348
  0
ARC
  8
LAYER_2
 10
-19.168
 20
178.5129
 40
0.2749
 50
19.85217561
 51
85.43431671
  0
ARC
  8
LAYER_2
 10
-20.5938
 20
173.8753
 40
5.1205
 50
73.57720966
 51
87.85638238
  0
ARC
  8
LAYER_2
 10
-21.2121
 20
168.5226
 40
10.5009
 50
85.57728974
 51
90.53158864
  0
ARC
  8
LAYER_2
 10
-21.4252
 20
168.875
 40
10.1487
 50
89.34654538
 51
99.30598451
  0
ARC
  8
LAYER_2
 10
-22.9643
 20
177.6188
 40
1.2754
 50
94.58821457
 51
123.6921993
  0
ARC
  8
LAYER_2
 10
-23.4747
 20
178.5334
 40
0.2456
 50
143.362579
 51
162.7561346
  0
ARC
  8
LAYER_2
 10
-23.4507
 20
178.6994
 40
0.2749
 50
199.8185462
 51
265.4210179
  0
ARC
  8
LAYER_2
 10
-22.0256
 20
183.3337
 40
5.1171
 50
253.5735476
 51
267.8610483
  0
ARC
  8
LAYER_2
 10
-21.4071
 20
188.6904
 40
10.5016
 50
265.5791174
 51
270.5324629
  0
ARC
  8
LAYER_2
 10
-21.1935
 20
188.3406
 40
10.152
 50
269.3451554
 51
279.3023492
  0
ARC
  8
LAYER_2
 10
-19.6542
 20
179.5923
 40
1.2743
 50
274.5806672
 51
303.7124433
  0
ARC
  8
LAYER_2
 10
-19.1441
 20
178.6789
 40
0.2456
 50
323.3803271
 51
342.7891043
  0
LINE
  8
LAYER_2
 10
-24.9091
 20
180.4062
 11
-24.5944
 21
180.4062
  0
ARC
  8
LAYER_2
 10
-19.1677
 20
179.5127
 40
0.2749
 50
19.8561887
 51
85.43237117
  0
ARC
  8
LAYER_2
 10
-20.5938
 20
174.875
 40
5.1207
 50
73.57468816
 51
87.85375972
  0
ARC
  8
LAYER_2
 10
-21.2118
 20
169.526
 40
10.4974
 50
85.57558806
 51
90.5310708
  0
ARC
  8
LAYER_2
 10
-21.4248
 20
169.8765
 40
10.1472
 50
89.34696821
 51
99.30850693
  0
ARC
  8
LAYER_2
 10
-22.9639
 20
178.6184
 40
1.2757
 50
94.59144815
 51
123.6911953
  0
ARC
  8
LAYER_2
 10
-23.4745
 20
179.5333
 40
0.2457
 50
143.3608406
 51
162.7517449
  0
LINE
  8
LAYER_2
 10
-23.7091
 20
179.6061
 11
-23.7091
 21
178.6062
  0
LINE
  8
LAYER_2
 10
-18.9095
 20
179.6061
 11
-18.9095
 21
178.6062
  0
LINE
  8
LAYER_2
 10
-24.1093
 20
179.5909
 11
-24.1093
 21
181.0193
  0
ARC
  8
LAYER_2
 10
-25.2833
 20
171.7218
 40
2.4258
 50
148.4849005
 51
180.006529
  0
LINE
  8
LAYER_2
 10
-27.7091
 20
170.4063
 11
-27.7091
 21
171.7215
  0
LINE
  8
LAYER_2
 10
-18.5093
 20
179.5909
 11
-18.5093
 21
181.0193
  0
ARC
  8
LAYER_2
 10
-17.3347
 20
171.7219
 40
2.4255
 50
359.9913722
 51
31.51719837
  0
LINE
  8
LAYER_2
 10
-14.9092
 20
170.4063
 11
-14.9092
 21
171.7215
  0
LINE
  8
LAYER_2
 10
-26.3091
 20
164.4063
 11
-16.3091
 21
164.4063
  0
LINE
  8
LAYER_2
 10
-26.3091
 20
164.0062
 11
-16.3093
 21
164.0062
  0
LINE
  8
LAYER_2
 10
-26.3091
 20
163.4064
 11
-16.3091
 21
163.4064
  0
LINE
  8
LAYER_2
 10
-26.3091
 20
164.4063
 11
-26.3091
 21
163.4064
  0
LINE
  8
LAYER_2
 10
-16.3091
 20
164.4063
 11
-16.3091
 21
163.4064
  0
LINE
  8
LAYER_2
 10
-21.809
 20
102.4068
 11
-21.809
 21
163.4059
  0
LINE
  8
LAYER_2
 10
-21.809
 20
164.4063
 11
-21.809
 21
170.4063
  0
LINE
  8
LAYER_2
 10
-20.8089
 20
164.4063
 11
-20.8089
 21
170.4063
  0
LINE
  8
LAYER_2
  6
AIGENLINE001
 10
-23.3092
 20
171.2634
 11
-23.3092
 21
153.4669
  0
LINE
  8
LAYER_2
 10
-23.9089
 20
164.4063
 11
-23.9089
 21
170.4063
  0
LINE
  8
LAYER_2
 10
-22.7089
 20
164.4063
 11
-22.7089
 21
170.4063
  0
LINE
  8
LAYER_2
 10
-22.7092
 20
154.4068
 11
-22.7092
 21
159.0061
  0
LINE
  8
LAYER_2
 10
-23.9091
 20
154.4068
 11
-22.7092
 21
154.4068
  0
LINE
  8
LAYER_2
 10
-23.9091
 20
154.4068
 11
-23.9091
 21
159.0061
  0
LINE
  8
LAYER_2
 10
-24.3091
 20
163.4064
 11
-24.3091
 21
159.0061
  0
LINE
  8
LAYER_2
 10
-22.3091
 20
163.4064
 11
-22.3091
 21
159.0061
  0
LINE
  8
LAYER_2
 10
-24.3091
 20
159.0061
 11
-22.3091
 21
159.0061
  0
LINE
  8
LAYER_2
 10
-23.8092
 20
159.0061
 11
-23.8092
 21
163.4064
  0
LINE
  8
LAYER_2
 10
-22.809
 20
159.0061
 11
-22.809
 21
163.4064
  0
LINE
  8
LAYER_2
  6
AIGENLINE001
 10
-19.3091
 20
171.2634
 11
-19.3091
 21
153.4669
  0
LINE
  8
LAYER_2
 10
-19.909
 20
164.4063
 11
-19.909
 21
170.4063
  0
LINE
  8
LAYER_2
 10
-18.7091
 20
164.4063
 11
-18.7091
 21
170.4063
  0
LINE
  8
LAYER_2
 10
-18.7091
 20
154.4068
 11
-18.7091
 21
159.0061
  0
LINE
  8
LAYER_2
 10
-19.909
 20
154.4068
 11
-18.7091
 21
154.4068
  0
LINE
  8
LAYER_2
 10
-19.909
 20
154.4068
 11
-19.909
 21
159.0061
  0
LINE
  8
LAYER_2
 10
-20.3092
 20
163.4064
 11
-20.3092
 21
159.0061
  0
LINE
  8
LAYER_2
 10
-18.3091
 20
163.4064
 11
-18.3091
 21
159.0061
  0
LINE
  8
LAYER_2
 10
-20.3092
 20
159.0061
 11
-18.3091
 21
159.0061
  0
LINE
  8
LAYER_2
 10
-19.809
 20
159.0061
 11
-19.809
 21
163.4064
  0
LINE
  8
LAYER_2
 10
-18.809
 20
159.0061
 11
-18.809
 21
163.4064
  0
LINE
  8
LAYER_2
 10
30.364
 20
102.4075
 11
75.7397
 21
102.4075
  0
INSERT
  8
LAYER_2
  2
AIGNBL02010008
 10
0
 20
0
 30
0
  0
LINE
  8
LAYER_2
 10
-24.009
 20
164.4069
 11
-24.009
 21
165.4068
  0
LINE
  8
LAYER_2
 10
-21.809
 20
168.6066
 11
-22.7089
 21
168.6066
  0
LINE
  8
LAYER_2
 10
-23.9089
 20
168.6066
 11
-24.1089
 21
168.6066
  0
LINE
  8
LAYER_2
 10
-21.809
 20
165.4068
 11
-22.7089
 21
165.4068
  0
LINE
  8
LAYER_2
 10
-23.9089
 20
165.4068
 11
-24.1089
 21
165.4068
  0
ARC
  8
LAYER_2
 10
-24.0048
 20
168.1104
 40
0.1042
 50
182.0184689
 51
267.6954819
  0
LINE
  8
LAYER_2
 10
-24.1089
 20
168.6066
 11
-24.1089
 21
168.1067
  0
ARC
  8
LAYER_2
 10
-24.009
 20
167.9062
 40
0.1001
 50
0.228642844
 51
90.00076937
  0
ARC
  8
LAYER_2
 10
-24.0049
 20
166.5027
 40
0.1041
 50
92.25178201
 51
177.9200193
  0
ARC
  8
LAYER_2
 10
-24.013
 20
166.7108
 40
0.1042
 50
272.2099499
 51
357.6754586
  0
LINE
  8
LAYER_2
 10
-24.1089
 20
166.5065
 11
-24.1089
 21
165.4068
  0
LINE
  8
LAYER_2
 10
-18.609
 20
164.4069
 11
-18.609
 21
165.4068
  0
LINE
  8
LAYER_2
 10
-20.8089
 20
168.6066
 11
-19.909
 21
168.6066
  0
LINE
  8
LAYER_2
 10
-18.7091
 20
168.6066
 11
-18.5089
 21
168.6066
  0
LINE
  8
LAYER_2
 10
-20.8089
 20
165.4068
 11
-19.909
 21
165.4068
  0
LINE
  8
LAYER_2
 10
-18.7091
 20
165.4068
 11
-18.5089
 21
165.4068
  0
ARC
  8
LAYER_2
 10
-18.6132
 20
168.1106
 40
0.1043
 50
272.2900288
 51
357.8814298
  0
LINE
  8
LAYER_2
 10
-18.5089
 20
168.6066
 11
-18.5089
 21
168.1067
  0
ARC
  8
LAYER_2
 10
-18.6054
 20
167.9026
 40
0.1038
 50
91.99949892
 51
177.7710888
  0
ARC
  8
LAYER_2
 10
-18.613
 20
166.5027
 40
0.1041
 50
2.117998729
 51
87.8247913
  0
ARC
  8
LAYER_2
 10
-18.6052
 20
166.7106
 40
0.104
 50
182.2298041
 51
267.8847875
  0
LINE
  8
LAYER_2
 10
-18.5089
 20
166.5065
 11
-18.5089
 21
165.4068
  0
LINE
  8
LAYER_2
 10
70.9628
 20
170.4063
 11
83.7627
 21
170.4063
  0
LINE
  8
LAYER_2
 10
80.3624
 20
180.4062
 11
80.1467
 21
180.4062
  0
LINE
  8
LAYER_2
 10
74.578
 20
180.4062
 11
74.3624
 21
180.4062
  0
LINE
  8
LAYER_2
 10
77.3624
 20
183.6062
 11
77.3624
 21
184.2062
  0
LINE
  8
LAYER_2
 10
52.3269
 20
178.1895
 11
47.5995
 21
179.023
  0
LINE
  8
LAYER_2
 10
52.3269
 20
178.1895
 11
52.5005
 21
179.1744
  0
LINE
  8
LAYER_2
 10
47.5995
 20
179.023
 11
47.7731
 21
180.0078
  0
LINE
  8
LAYER_2
 10
52.8939
 20
179.1048
 11
47.379
 21
180.0772
  0
LINE
  8
LAYER_2
  6
AIGENLINE001
 10
49.8367
 20
177.8897
 11
50.3632
 21
180.863
  0
ARC
  8
LAYER_2
 10
70.2069
 20
174.1065
 40
2.0002
 50
0.01055375472
 51
71.87623872
  0
ARC
  8
LAYER_2
 10
53.2411
 20
173.4443
 40
11.3309
 50
76.73416214
 51
94.52584366
  0
ARC
  8
LAYER_2
 10
53.0553
 20
176.5001
 40
8.2701
 50
94.91319957
 51
105.9587078
  0
ARC
  8
LAYER_2
 10
52.4482
 20
178.6121
 40
6.0726
 50
105.9303508
 51
118.3603148
  0
ARC
  8
LAYER_2
 10
51.6608
 20
180.0677
 40
4.4176
 50
118.3411487
 51
133.2577019
  0
ARC
  8
LAYER_2
 10
50.9783
 20
180.8007
 40
3.4161
 50
133.3451268
 51
165.982704
  0
ARC
  8
LAYER_2
 10
50.9288
 20
180.8393
 40
3.3588
 50
166.418061
 51
169.8784126
  0
ARC
  8
LAYER_2
 10
52.7679
 20
177.4143
 40
5.5011
 50
76.06404977
 51
89.85866715
  0
ARC
  8
LAYER_2
 10
52.7773
 20
179.9508
 40
2.9646
 50
89.91950499
 51
107.7859697
  0
ARC
  8
LAYER_2
 10
52.5287
 20
180.7931
 40
2.0868
 50
108.3503641
 51
151.6190811
  0
ARC
  8
LAYER_2
 10
53.583
 20
180.2319
 40
3.2811
 50
151.74931
 51
168.9110463
  0
LINE
  8
LAYER_2
 10
47.379
 20
180.0772
 11
47.6222
 21
181.4296
  0
LINE
  8
LAYER_2
 10
74.3624
 20
180.4062
 11
55.8412
 21
184.4728
  0
ARC
  8
LAYER_2
 10
54.2295
 20
178.7055
 40
2.3533
 50
74.6656733
 51
95.34853583
  0
ARC
  8
LAYER_2
 10
54.1186
 20
179.9775
 40
1.0765
 50
95.78645212
 51
125.9986356
  0
ARC
  8
LAYER_2
 10
54.1799
 20
179.981
 40
1.1109
 50
128.6626768
 51
166.0085954
  0
LINE
  8
LAYER_2
 10
53.102
 20
180.2496
 11
53.0813
 21
180.1671
  0
LINE
  8
LAYER_2
 10
52.8939
 20
179.1048
 11
53.0813
 21
180.1671
  0
LINE
  8
LAYER_2
 10
70.8291
 20
176.0075
 11
54.8518
 21
180.975
  0
LINE
  8
LAYER_2
 10
74.803
 20
177.2042
 11
54.0928
 21
182.7535
  0
LINE
  8
LAYER_2
 10
49.7878
 20
177.6114
 11
48.6744
 21
171.2986
  0
LINE
  8
LAYER_2
 10
49.9629
 20
153.9796
 11
49.9629
 21
177.4305
  0
INSERT
  8
LAYER_2
  2
AIGNBL02010009
 10
0
 20
0
 30
0
  0
LINE
  8
LAYER_2
 10
30.364
 20
170.4063
 11
70.4853
 21
170.4063
  0
LINE
  8
LAYER_2
 10
30.364
 20
184.8063
 11
48.8267
 21
184.8063
  0
LINE
  8
LAYER_2
 10
36.126
 20
178.6062
 11
48.6634
 21
178.6062
  0
LINE
  8
LAYER_2
 10
41.5854
 20
178.1895
 11
50.9268
 21
178.1895
  0
INSERT
  8
LAYER_2
  2
AIGNBL0201000A
 10
0
 20
0
 30
0
  0
INSERT
  8
LAYER_2
  2
AIGNBL0201000B
 10
0
 20
0
 30
0
  0
LINE
  8
LAYER_2
 10
30.2352
 20
172.1747
 11
30.7092
 21
170.4063
  0
LINE
  8
LAYER_2
 10
30.7092
 20
170.4063
 11
31.1826
 21
172.1747
  0
LINE
  8
LAYER_2
 10
31.1826
 20
172.1747
 11
30.2352
 21
172.1747
  0
LINE
  8
LAYER_2
 10
31.1709
 20
168.6379
 11
30.6975
 21
170.4063
  0
LINE
  8
LAYER_2
 10
30.6975
 20
170.4063
 11
30.2235
 21
168.6379
  0
LINE
  8
LAYER_2
 10
30.2235
 20
168.6379
 11
31.1709
 21
168.6379
  0
LINE
  8
LAYER_2
 10
90.2312
 20
170.4063
 11
90.2312
 21
186.0064
  0
LINE
  8
LAYER_2
 10
89.7571
 20
184.2378
 11
90.2312
 21
186.0064
  0
LINE
  8
LAYER_2
 10
90.2312
 20
186.0064
 11
90.7045
 21
184.2378
  0
LINE
  8
LAYER_2
 10
90.7045
 20
184.2378
 11
89.7571
 21
184.2378
  0
LINE
  8
LAYER_2
 10
90.5764
 20
170.4063
 11
84.9939
 21
170.4063
  0
LINE
  8
LAYER_2
 10
90.5764
 20
186.0064
 11
81.0083
 21
186.0064
  0
LINE
  8
LAYER_2
 10
90.7052
 20
172.1747
 11
90.2312
 21
170.4063
  0
LINE
  8
LAYER_2
 10
90.2312
 20
170.4063
 11
89.7578
 21
172.1747
  0
LINE
  8
LAYER_2
 10
89.7578
 20
172.1747
 11
90.7052
 21
172.1747
  0
INSERT
  8
LAYER_2
  2
AIGNBL0201000C
 10
0
 20
0
 30
0
  0
LINE
  8
LAYER_2
 10
77.3624
 20
164.4063
 11
80.5622
 21
164.4063
  0
LINE
  8
LAYER_2
 10
72.9623
 20
164.4063
 11
77.3624
 21
164.4063
  0
LINE
  8
LAYER_2
 10
77.3624
 20
164.0062
 11
80.5622
 21
164.0062
  0
LINE
  8
LAYER_2
 10
72.9623
 20
164.0062
 11
77.3624
 21
164.0062
  0
LINE
  8
LAYER_2
 10
80.3624
 20
163.4064
 11
80.5622
 21
163.4064
  0
LINE
  8
LAYER_2
 10
72.9623
 20
163.4064
 11
74.3624
 21
163.4064
  0
LINE
  8
LAYER_2
 10
72.9623
 20
163.4064
 11
72.9623
 21
164.0062
  0
LINE
  8
LAYER_2
 10
72.9623
 20
164.2062
 11
72.9623
 21
164.4063
  0
LINE
  8
LAYER_2
 10
76.8622
 20
102.4075
 11
77.8626
 21
102.4075
  0
LINE
  8
LAYER_2
 10
76.8622
 20
102.4068
 11
76.8622
 21
150.2065
  0
LINE
  8
LAYER_2
 10
77.8626
 20
102.4068
 11
77.8626
 21
150.206
  0
LINE
  8
LAYER_2
  6
AIGENLINE001
 10
76.1621
 20
153.6985
 11
76.1621
 21
171.3103
  0
LINE
  8
LAYER_2
  6
AIGENLINE001
 10
79.3626
 20
154.0314
 11
79.3626
 21
171.2579
  0
LINE
  8
LAYER_2
 10
80.5622
 20
164.4063
 11
80.5622
 21
165.4063
  0
LINE
  8
LAYER_2
 10
80.3624
 20
168.6061
 11
80.3624
 21
170.4063
  0
LINE
  8
LAYER_2
 10
80.5622
 20
162.4064
 11
80.5622
 21
164.0062
  0
LINE
  8
LAYER_2
 10
80.3624
 20
180.4062
 11
80.8702
 21
177.9108
  0
LINE
  8
LAYER_2
 10
80.8702
 20
177.9108
 11
81.462
 21
175.1114
  0
ARC
  8
LAYER_2
 10
85.8187
 20
176.1244
 40
4.4729
 50
193.0896767
 51
208.2505423
  0
ARC
  8
LAYER_2
 10
94.0074
 20
180.3817
 40
13.7019
 50
207.7245137
 51
216.3543624
  0
ARC
  8
LAYER_2
 10
100.4715
 20
184.7253
 40
21.4852
 50
215.4647978
 51
217.7781292
  0
ARC
  8
LAYER_2
 10
82.4352
 20
170.757
 40
1.3275
 50
359.9941908
 51
37.39926336
  0
LINE
  8
LAYER_2
 10
83.7627
 20
170.4063
 11
83.7627
 21
170.7569
  0
ARC
  8
LAYER_2
 10
68.3287
 20
174.1317
 40
3.8785
 50
318.5312896
 51
359.6335798
  0
ARC
  8
LAYER_2
 10
72.2935
 20
170.757
 40
1.3307
 50
142.7051868
 51
180.0033902
  0
LINE
  8
LAYER_2
 10
70.9628
 20
170.4063
 11
70.9628
 21
170.7569
  0
LINE
  8
LAYER_2
 10
80.6628
 20
168.6061
 11
79.9627
 21
168.6061
  0
LINE
  8
LAYER_2
 10
80.6628
 20
165.4063
 11
79.9627
 21
165.4063
  0
LINE
  8
LAYER_2
 10
80.4623
 20
166.7059
 11
80.4623
 21
167.906
  0
ARC
  8
LAYER_2
 10
80.5586
 20
168.1105
 40
0.1042
 50
271.9515601
 51
357.5335537
  0
LINE
  8
LAYER_2
 10
80.6628
 20
168.6061
 11
80.6628
 21
168.106
  0
ARC
  8
LAYER_2
 10
80.5661
 20
167.9025
 40
0.1039
 50
92.16971715
 51
178.0592367
  0
ARC
  8
LAYER_2
 10
80.5585
 20
166.5019
 40
0.1044
 50
2.544378639
 51
87.97050756
  0
ARC
  8
LAYER_2
 10
80.566
 20
166.7099
 40
0.1037
 50
182.1933277
 51
267.9214935
  0
LINE
  8
LAYER_2
 10
80.6628
 20
166.5065
 11
80.6628
 21
165.4063
  0
ARC
  8
LAYER_2
 10
-40.9138
 20
181.8074
 40
3.3968
 50
155.6811961
 51
181.7033469
  0
ARC
  8
LAYER_2
 10
-41.9321
 20
174.8991
 40
9.4946
 50
90.92154852
 51
101.4024512
  0
ARC
  8
LAYER_2
 10
-41.3977
 20
167.3657
 40
17.0406
 50
89.70225163
 51
92.3111381
  0
ARC
  8
LAYER_2
 10
-40.6859
 20
174.9023
 40
9.4914
 50
78.59567286
 51
89.07900393
  0
ARC
  8
LAYER_2
 10
-41.2205
 20
167.368
 40
17.0383
 50
87.6886894
 51
90.29788603
  0
ARC
  8
LAYER_2
 10
-40.9132
 20
181.6052
 40
3.3974
 50
178.2973833
 51
204.3166047
  0
ARC
  8
LAYER_2
 10
-41.7058
 20
181.8074
 40
3.3978
 50
358.2973201
 51
24.31079002
  0
ARC
  8
LAYER_2
 10
-41.7064
 20
181.6052
 40
3.3984
 50
335.6914086
 51
1.70194976
  0
ARC
  8
LAYER_2
 10
-18.937
 20
179.8291
 40
0.4896
 50
273.2700668
 51
330.8900078
  0
ARC
  8
LAYER_2
 10
-18.7794
 20
179.504
 40
0.2838
 50
17.82584008
 51
82.58788628
  0
ARC
  8
LAYER_2
 10
-20.255
 20
175.1588
 40
4.8675
 50
71.90020081
 51
86.69930685
  0
ARC
  8
LAYER_2
 10
-21.2974
 20
165.1483
 40
14.9286
 50
84.91715125
 51
90.04651462
  0
ARC
  8
LAYER_2
 10
-21.4219
 20
167.732
 40
12.3454
 50
89.47833561
 51
98.4743515
  0
ARC
  8
LAYER_2
 10
-23.0386
 20
177.8209
 40
2.1314
 50
95.45440607
 51
117.4512543
  0
ARC
  8
LAYER_2
 10
-23.9654
 20
179.5791
 40
0.1443
 50
112.7066526
 51
175.3241207
  0
ARC
  8
LAYER_2
 10
-23.841
 20
179.6765
 40
0.2816
 50
197.6914711
 51
262.2301196
  0
ARC
  8
LAYER_2
 10
-23.4759
 20
180.3135
 40
1.0009
 50
246.2450769
 51
256.5031384
  0
ARC
  8
LAYER_2
 10
-46.4933
 20
185.9371
 40
23.1095
 50
325.9262621
 51
332.651509
  0
ARC
  8
LAYER_2
 10
-39.2331
 20
182.1081
 40
14.9018
 50
332.9041975
 51
349.1508773
  0
ARC
  8
LAYER_2
 10
-45.9148
 20
183.3791
 40
21.7034
 50
349.1754814
 51
356.7888919
  0
ARC
  8
LAYER_2
 10
-46.5465
 20
183.4804
 40
21.9513
 50
334.035149
 51
340.7509875
  0
ARC
  8
LAYER_2
 10
-43.3817
 20
182.3857
 40
18.6025
 50
340.7206809
 51
348.1552553
  0
ARC
  8
LAYER_2
 10
-39.4072
 20
181.566
 40
14.5444
 50
348.1018016
 51
355.4262894
  0
ARC
  8
LAYER_2
 10
-36.2491
 20
156.0112
 40
2.8946
 50
162.7640458
 51
182.0811432
  0
ARC
  8
LAYER_2
 10
-37.4458
 20
156.3354
 40
1.6562
 50
139.7081772
 51
161.2063586
  0
ARC
  8
LAYER_2
 10
-34.4766
 20
156.0011
 40
2.6343
 50
162.2387215
 51
182.0663903
  0
ARC
  8
LAYER_2
 10
-36.2018
 20
156.549
 40
0.8242
 50
137.4813997
 51
161.9251168
  0
ARC
  8
LAYER_2
 10
-36.2657
 20
157.8607
 40
0.8438
 50
130.1042866
 51
181.6488544
  0
ARC
  8
LAYER_2
 10
-36.2515
 20
155.8009
 40
2.8922
 50
177.9154214
 51
197.2435781
  0
ARC
  8
LAYER_2
 10
-37.445
 20
155.4778
 40
1.6572
 50
198.8080522
 51
220.2893807
  0
LINE
  8
LAYER_2
 10
-17.7092
 20
180.4062
 11
-18.0239
 21
180.4062
  0
ARC
  8
LAYER_2
 10
3.9311
 20
183.4818
 40
21.9545
 50
199.2499883
 51
205.9648711
  0
ARC
  8
LAYER_2
 10
0.764
 20
182.3862
 40
18.6033
 50
191.846034
 51
199.2803436
  0
ARC
  8
LAYER_2
 10
-3.2135
 20
181.5658
 40
14.542
 50
184.5738797
 51
191.8995696
  0
ARC
  8
LAYER_2
 10
-35.9489
 20
157.8362
 40
1.1603
 50
179.9922845
 51
209.1826918
  0
ARC
  8
LAYER_2
 10
-36.5434
 20
157.5057
 40
0.4801
 50
209.3386289
 51
236.370729
  0
LINE
  8
LAYER_2
 10
-34.9093
 20
157.8364
 11
-34.9093
 21
155.9061
  0
ARC
  8
LAYER_2
 10
-37.5419
 20
156.0014
 40
2.6343
 50
357.9261363
 51
17.75328412
  0
ARC
  8
LAYER_2
 10
-35.8161
 20
156.5492
 40
0.8237
 50
18.07053084
 51
42.52964178
  0
ARC
  8
LAYER_2
 10
-35.7525
 20
157.8609
 40
0.8436
 50
358.3369323
 51
49.89567325
  0
ARC
  8
LAYER_2
 10
-36.0695
 20
157.836
 40
1.1602
 50
330.8293501
 51
0.01924993444
  0
ARC
  8
LAYER_2
 10
-35.4748
 20
157.5056
 40
0.4798
 50
303.6167587
 51
330.6647848
  0
LINE
  8
LAYER_2
 10
-37.1092
 20
153.9763
 11
-37.1092
 21
155.9061
  0
LINE
  8
LAYER_2
 10
-35.2091
 20
153.3066
 11
-36.8093
 21
153.3066
  0
LINE
  8
LAYER_2
 10
-35.2091
 20
154.7067
 11
-36.8093
 21
154.7067
  0
ARC
  8
LAYER_2
 10
-34.4785
 20
155.811
 40
2.6325
 50
177.9289018
 51
197.7680222
  0
ARC
  8
LAYER_2
 10
-36.2042
 20
155.2626
 40
0.8217
 50
198.0800069
 51
222.5768138
  0
ARC
  8
LAYER_2
 10
-36.2658
 20
153.952
 40
0.8437
 50
178.347178
 51
229.8996811
  0
ARC
  8
LAYER_2
 10
-35.9495
 20
153.9763
 40
1.1597
 50
150.8106539
 51
180.0006134
  0
ARC
  8
LAYER_2
 10
-36.5413
 20
154.3054
 40
0.4826
 50
123.7360722
 51
150.6512372
  0
LINE
  8
LAYER_2
 10
-34.9093
 20
153.9763
 11
-34.9093
 21
155.9061
  0
ARC
  8
LAYER_2
 10
-37.54
 20
155.8106
 40
2.6325
 50
342.2399765
 51
2.078569191
  0
ARC
  8
LAYER_2
 10
-35.8137
 20
155.2624
 40
0.8212
 50
317.4121408
 51
341.9243453
  0
ARC
  8
LAYER_2
 10
-35.7524
 20
153.9518
 40
0.8434
 50
310.1003611
 51
1.667033394
  0
ARC
  8
LAYER_2
 10
-36.069
 20
153.9765
 40
1.1597
 50
359.9878416
 51
29.17730456
  0
ARC
  8
LAYER_2
 10
-35.4769
 20
154.3055
 40
0.4823
 50
29.34533231
 51
56.27645564
  0
ARC
  8
LAYER_2
 10
-54.6617
 20
182.3665
 40
1.6394
 50
181.8421041
 51
207.6300813
  0
ARC
  8
LAYER_2
 10
-53.5797
 20
182.537
 40
2.7296
 50
179.0790802
 51
184.6911091
  0
ARC
  8
LAYER_2
 10
-54.5267
 20
182.6826
 40
1.7852
 50
152.7728732
 51
183.2669028
  0
ARC
  8
LAYER_2
 10
-54.6609
 20
180.8457
 40
1.6402
 50
152.3761896
 51
178.1534455
  0
ARC
  8
LAYER_2
 10
-53.5801
 20
180.6753
 40
2.7292
 50
175.3086325
 51
180.9205334
  0
ARC
  8
LAYER_2
 10
-54.5276
 20
180.5297
 40
1.7843
 50
176.7284724
 51
207.2342851
  0
ARC
  8
LAYER_2
 10
-44.0915
 20
179.1432
 40
1.2632
 50
90.10898986
 51
130.336169
  0
ARC
  8
LAYER_2
 10
-44.0919
 20
184.0675
 40
1.2617
 50
229.6347451
 51
266.8707281
  0
LINE
  8
LAYER_2
 10
4.891
 20
170.4063
 11
-1.3091
 21
170.4063
  0
LINE
  8
LAYER_2
  6
AIGENLINE001
 10
-1.3091
 20
149.5115
 11
-1.3091
 21
185.7976
  0
ARC
  8
LAYER_2
 10
1.9794
 20
172.806
 40
0.5999
 50
9.117356455
 51
90.00267106
  0
LINE
  8
LAYER_2
 10
1.9794
 20
173.4059
 11
-1.3091
 21
173.4059
  0
ARC
  8
LAYER_2
 10
4.151
 20
173.1551
 40
1.5997
 50
189.0929961
 51
258.6102375
  0
ARC
  8
LAYER_2
 10
4.0285
 20
170.7318
 40
0.8001
 50
9.100679474
 51
78.58896157
  0
LINE
  8
LAYER_2
 10
4.8185
 20
170.8583
 11
4.891
 21
170.4063
  0
LINE
  8
LAYER_2
 10
3.8351
 20
171.5869
 11
4.1868
 21
171.516
  0
LINE
  8
LAYER_2
 10
-7.5091
 20
170.4063
 11
-1.3091
 21
170.4063
  0
ARC
  8
LAYER_2
 10
-4.5977
 20
172.8061
 40
0.5998
 50
89.96399817
 51
170.8873292
  0
LINE
  8
LAYER_2
 10
-4.5973
 20
173.4059
 11
-1.3091
 21
173.4059
  0
ARC
  8
LAYER_2
 10
-6.7693
 20
173.1551
 40
1.5997
 50
281.3895882
 51
350.9071782
  0
ARC
  8
LAYER_2
 10
-6.6468
 20
170.7317
 40
0.8001
 50
101.3986966
 51
170.8935396
  0
LINE
  8
LAYER_2
 10
-7.4368
 20
170.8583
 11
-7.5091
 21
170.4063
  0
LINE
  8
LAYER_2
 10
-6.4534
 20
171.5869
 11
-6.8049
 21
171.516
  0
LINE
  8
LAYER_2
 10
1.0101
 20
174.4062
 11
-3.628
 21
174.4062
  0
LINE
  8
LAYER_2
 10
1.0101
 20
176.0061
 11
-3.628
 21
176.0061
  0
ARC
  8
LAYER_2
 10
-1.829
 20
175.1936
 40
0.6304
 50
138.3299708
 51
178.8555004
  0
ARC
  8
LAYER_2
 10
-1.4795
 20
174.8712
 40
1.1058
 50
107.2690248
 51
137.8938717
  0
ARC
  8
LAYER_2
 10
-1.3124
 20
174.4112
 40
1.5949
 50
89.88062661
 51
108.0947125
  0
ARC
  8
LAYER_2
 10
-1.2961
 20
174.489
 40
1.5172
 50
64.5150641
 51
90.49011252
  0
ARC
  8
LAYER_2
 10
-1.0378
 20
175.0056
 40
0.9398
 50
32.35893795
 51
65.17821505
  0
ARC
  8
LAYER_2
 10
-0.7495
 20
175.2033
 40
0.5905
 50
0.2766669563
 51
31.1255976
  0
ARC
  8
LAYER_2
 10
-0.7894
 20
175.2188
 40
0.6305
 50
318.3360147
 51
358.8571556
  0
ARC
  8
LAYER_2
 10
-1.1388
 20
175.5409
 40
1.1057
 50
287.2718677
 51
317.8990249
  0
ARC
  8
LAYER_2
 10
-1.3058
 20
176.0007
 40
1.5945
 50
269.8807336
 51
288.0973338
  0
ARC
  8
LAYER_2
 10
-1.3221
 20
175.9235
 40
1.5174
 50
244.5161029
 51
270.4909091
  0
ARC
  8
LAYER_2
 10
-1.5805
 20
175.4067
 40
0.9397
 50
212.3555013
 51
245.1785726
  0
ARC
  8
LAYER_2
 10
-1.8687
 20
175.209
 40
0.5906
 50
180.2759735
 51
211.1212145
  0
ARC
  8
LAYER_2
 10
1.0032
 20
175.3872
 40
0.6189
 50
48.80155092
 51
89.35882527
  0
ARC
  8
LAYER_2
 10
0.8416
 20
175.2224
 40
0.8495
 50
358.9070351
 51
47.92161558
  0
ARC
  8
LAYER_2
 10
0.796
 20
175.201
 40
0.8949
 50
326.9007128
 51
0.3357400454
  0
ARC
  8
LAYER_2
 10
0.9819
 20
175.0773
 40
0.6717
 50
272.4083421
 51
327.0822033
  0
ARC
  8
LAYER_2
 10
1.017
 20
175.0253
 40
0.6191
 50
228.8060852
 51
269.3642962
  0
ARC
  8
LAYER_2
 10
1.1785
 20
175.1899
 40
0.8495
 50
178.8999974
 51
227.9193956
  0
ARC
  8
LAYER_2
 10
1.2239
 20
175.2115
 40
0.8947
 50
146.9001775
 51
180.3361991
  0
ARC
  8
LAYER_2
 10
1.0382
 20
175.335
 40
0.6717
 50
92.39807376
 51
147.077988
  0
ARC
  8
LAYER_2
 10
1.1639
 20
173.3875
 40
0.3275
 50
3.21869732
 51
46.14794365
  0
ARC
  8
LAYER_2
 10
2.1431
 20
174.0248
 40
0.8526
 50
182.0719702
 51
208.066116
  0
ARC
  8
LAYER_2
 10
2.1278
 20
174.0894
 40
0.8422
 50
138.7988242
 51
186.5021596
  0
ARC
  8
LAYER_2
 10
-3.783
 20
173.388
 40
0.3265
 50
133.7790008
 51
176.8543582
  0
ARC
  8
LAYER_2
 10
-4.7612
 20
174.0248
 40
0.8526
 50
331.9338841
 51
357.9280299
  0
ARC
  8
LAYER_2
 10
-4.7463
 20
174.0893
 40
0.8425
 50
353.5017681
 51
41.18118797
  0
ARC
  8
LAYER_2
 10
-3.635
 20
175.3874
 40
0.6188
 50
48.79522018
 51
89.35356699
  0
ARC
  8
LAYER_2
 10
-3.7967
 20
175.2223
 40
0.8496
 50
358.9111304
 51
47.92072628
  0
ARC
  8
LAYER_2
 10
-3.8422
 20
175.201
 40
0.8949
 50
326.8974238
 51
0.3340408541
  0
ARC
  8
LAYER_2
 10
-3.6563
 20
175.0772
 40
0.6716
 50
272.4186372
 51
327.0832795
  0
ARC
  8
LAYER_2
 10
-3.6211
 20
175.0255
 40
0.6194
 50
228.8149185
 51
269.3621297
  0
ARC
  8
LAYER_2
 10
-3.4598
 20
175.19
 40
0.8494
 50
178.9062728
 51
227.9325222
  0
ARC
  8
LAYER_2
 10
-3.4147
 20
175.2114
 40
0.8944
 50
146.8858658
 51
180.3341188
  0
ARC
  8
LAYER_2
 10
-3.5999
 20
175.3347
 40
0.672
 50
92.39999474
 51
147.0647144
  0
ARC
  8
LAYER_2
 10
0.4909
 20
177.0061
 40
0.4
 50
179.9996203
 51
270.0003797
  0
LINE
  8
LAYER_2
 10
0.0909
 20
177.0061
 11
0.0909
 21
179.6063
  0
ARC
  8
LAYER_2
 10
0.8909
 20
176.2059
 40
0.4002
 50
0.02584949448
 51
90.03141763
  0
LINE
  8
LAYER_2
 10
1.2911
 20
176.2061
 11
1.2911
 21
175.9346
  0
LINE
  8
LAYER_2
 10
0.8907
 20
176.6061
 11
0.4909
 21
176.6061
  0
LINE
  8
LAYER_2
 10
-0.2091
 20
179.6063
 11
-0.2091
 21
180.2062
  0
LINE
  8
LAYER_2
 10
-1.3091
 20
179.6063
 11
0.0909
 21
179.6063
  0
LINE
  8
LAYER_2
 10
-1.3091
 20
180.2062
 11
1.391
 21
180.2062
  0
LINE
  8
LAYER_2
 10
-1.3091
 20
183.2062
 11
1.391
 21
183.2062
  0
LINE
  8
LAYER_2
 10
-1.3091
 20
183.6062
 11
1.391
 21
183.6062
  0
LINE
  8
LAYER_2
 10
-1.3091
 20
183.6062
 11
-1.3091
 21
183.2062
  0
LINE
  8
LAYER_2
 10
1.391
 20
183.6062
 11
1.391
 21
183.2062
  0
LINE
  8
LAYER_2
 10
1.191
 20
184.2063
 11
1.191
 21
183.6062
  0
LINE
  8
LAYER_2
 10
1.191
 20
184.2063
 11
-1.3091
 21
184.2063
  0
LINE
  8
LAYER_2
 10
-0.859
 20
183.6062
 11
-0.859
 21
183.2062
  0
LINE
  8
LAYER_2
 10
-0.4089
 20
183.6062
 11
-0.4089
 21
183.2062
  0
LINE
  8
LAYER_2
 10
0.0408
 20
183.6062
 11
0.0408
 21
183.2062
  0
LINE
  8
LAYER_2
 10
0.4909
 20
183.6062
 11
0.4909
 21
183.2062
  0
LINE
  8
LAYER_2
 10
0.941
 20
183.6062
 11
0.941
 21
183.2062
  0
LINE
  8
LAYER_2
 10
13.6157
 20
183.2062
 11
13.9912
 21
183.2062
  0
LINE
  8
LAYER_2
 10
13.9912
 20
180.0061
 11
13.9912
 21
183.2062
  0
LINE
  8
LAYER_2
 10
13.6915
 20
180.6315
 11
13.6915
 21
182.5809
  0
LINE
  8
LAYER_2
 10
13.6157
 20
180.0062
 11
13.9912
 21
180.0062
  0
LINE
  8
LAYER_2
 10
2.2908
 20
180.1061
 11
2.2908
 21
183.1061
  0
LINE
  8
LAYER_2
 10
13.4965
 20
183.4994
 11
2.2908
 21
183.1061
  0
LINE
  8
LAYER_2
 10
2.2908
 20
180.1061
 11
13.4965
 21
179.7131
  0
LINE
  8
LAYER_2
 10
2.2908
 20
181.6062
 11
13.4965
 21
181.6062
  0
ARC
  8
LAYER_2
 10
-3.1089
 20
177.0061
 40
0.4
 50
269.992818
 51
359.9928599
  0
LINE
  8
LAYER_2
 10
-2.7089
 20
177.0061
 11
-2.7089
 21
179.6063
  0
ARC
  8
LAYER_2
 10
-3.509
 20
176.2061
 40
0.4
 50
89.99854814
 51
180.0014519
  0
LINE
  8
LAYER_2
 10
-3.909
 20
176.2061
 11
-3.909
 21
175.9346
  0
LINE
  8
LAYER_2
 10
-3.509
 20
176.6061
 11
-3.109
 21
176.6061
  0
LINE
  8
LAYER_2
 10
-2.409
 20
179.6063
 11
-2.409
 21
180.2062
  0
LINE
  8
LAYER_2
 10
-1.3091
 20
179.6063
 11
-2.7089
 21
179.6063
  0
LINE
  8
LAYER_2
 10
-1.3091
 20
180.2062
 11
-4.0089
 21
180.2062
  0
LINE
  8
LAYER_2
 10
-1.3091
 20
183.2062
 11
-4.0089
 21
183.2062
  0
LINE
  8
LAYER_2
 10
-1.3091
 20
183.6062
 11
-4.0089
 21
183.6062
  0
LINE
  8
LAYER_2
 10
-4.0089
 20
183.6062
 11
-4.0089
 21
183.2062
  0
LINE
  8
LAYER_2
 10
-3.8091
 20
184.2063
 11
-3.8091
 21
183.6062
  0
LINE
  8
LAYER_2
 10
-3.8091
 20
184.2063
 11
-1.3091
 21
184.2063
  0
LINE
  8
LAYER_2
 10
-1.7592
 20
183.6062
 11
-1.7592
 21
183.2062
  0
LINE
  8
LAYER_2
 10
-2.209
 20
183.6062
 11
-2.209
 21
183.2062
  0
LINE
  8
LAYER_2
 10
-2.6591
 20
183.6062
 11
-2.6591
 21
183.2062
  0
LINE
  8
LAYER_2
 10
-3.109
 20
183.6062
 11
-3.109
 21
183.2062
  0
LINE
  8
LAYER_2
 10
-3.5591
 20
183.6062
 11
-3.5591
 21
183.2062
  0
LINE
  8
LAYER_2
 10
-5.509
 20
164.4063
 11
2.8909
 21
164.4063
  0
LINE
  8
LAYER_2
 10
-5.8093
 20
164.2062
 11
3.191
 21
164.2062
  0
LINE
  8
LAYER_2
 10
2.8909
 20
164.2062
 11
2.8909
 21
164.4063
  0
LINE
  8
LAYER_2
 10
-5.509
 20
164.2062
 11
-5.509
 21
164.4063
  0
LINE
  8
LAYER_2
 10
1.2911
 20
164.4063
 11
1.2911
 21
170.4063
  0
LINE
  8
LAYER_2
 10
1.0909
 20
164.4063
 11
1.0909
 21
170.4063
  0
LINE
  8
LAYER_2
 10
-3.9092
 20
164.4063
 11
-3.9092
 21
170.4063
  0
LINE
  8
LAYER_2
 10
-3.7092
 20
164.4063
 11
-3.7092
 21
170.4063
  0
LINE
  8
LAYER_2
 10
-5.8093
 20
164.0062
 11
3.191
 21
164.0062
  0
LINE
  8
LAYER_2
 10
-5.8093
 20
164.0062
 11
-5.8093
 21
164.2062
  0
LINE
  8
LAYER_2
 10
3.191
 20
164.0062
 11
3.191
 21
164.2062
  0
LINE
  8
LAYER_2
 10
2.1551
 20
164.0062
 11
2.1551
 21
163.0062
  0
LINE
  8
LAYER_2
 10
0.4231
 20
164.0062
 11
0.4231
 21
163.0062
  0
LINE
  8
LAYER_2
 10
-3.0413
 20
164.0062
 11
-3.0413
 21
163.0062
  0
LINE
  8
LAYER_2
 10
-4.7732
 20
164.0062
 11
-4.7732
 21
163.0062
  0
LINE
  8
LAYER_2
 10
-4.7732
 20
163.0062
 11
2.1551
 21
163.0062
  0
LINE
  8
LAYER_2
 10
-3.9092
 20
159.6063
 11
1.2911
 21
159.6063
  0
LINE
  8
LAYER_2
 10
1.2911
 20
153.6063
 11
1.2911
 21
163.0062
  0
LINE
  8
LAYER_2
 10
1.0909
 20
159.6063
 11
1.0909
 21
163.0062
  0
LINE
  8
LAYER_2
 10
-3.9092
 20
153.6063
 11
-3.9092
 21
154.4062
  0
LINE
  8
LAYER_2
 10
-3.9092
 20
157.4059
 11
-3.9092
 21
163.0062
  0
LINE
  8
LAYER_2
 10
-3.7092
 20
159.6063
 11
-3.7092
 21
163.0062
  0
LINE
  8
LAYER_2
 10
1.2911
 20
159.4063
 11
1.0909
 21
159.6063
  0
LINE
  8
LAYER_2
 10
-3.9092
 20
159.4063
 11
-3.7092
 21
159.6063
  0
LINE
  8
LAYER_2
 10
-3.9092
 20
153.6063
 11
1.2911
 21
153.6063
  0
LINE
  8
LAYER_2
 10
-3.4089
 20
152.6065
 11
0.791
 21
152.6065
  0
LINE
  8
LAYER_2
 10
-3.2091
 20
150.2065
 11
0.591
 21
150.2065
  0
LINE
  8
LAYER_2
 10
0.791
 20
153.6063
 11
0.791
 21
150.406
  0
LINE
  8
LAYER_2
 10
-3.4089
 20
150.406
 11
-3.4089
 21
153.6063
  0
LINE
  8
LAYER_2
 10
-3.2091
 20
150.2065
 11
-3.2091
 21
152.6065
  0
LINE
  8
LAYER_2
 10
0.591
 20
152.6058
 11
0.591
 21
150.2065
  0
LINE
  8
LAYER_2
 10
-3.4089
 20
150.406
 11
0.791
 21
150.406
  0
LINE
  8
LAYER_2
 10
0.791
 20
150.406
 11
0.591
 21
150.2065
  0
LINE
  8
LAYER_2
 10
-3.4089
 20
150.406
 11
-3.2091
 21
150.2065
  0
LINE
  8
LAYER_2
 10
-3.2091
 20
152.6065
 11
-3.4089
 21
152.806
  0
LINE
  8
LAYER_2
 10
0.591
 20
152.6058
 11
0.791
 21
152.806
  0
LINE
  8
LAYER_2
  6
AIGENLINE001
 10
-41.3091
 20
155.9061
 11
-1.3091
 21
155.9061
  0
LINE
  8
LAYER_2
 10
-5.509
 20
157.8364
 11
-5.509
 21
155.9061
  0
LINE
  8
LAYER_2
 10
-5.509
 20
157.4064
 11
-3.9092
 21
157.4064
  0
LINE
  8
LAYER_2
 10
-5.509
 20
154.4062
 11
-3.9092
 21
154.4062
  0
LINE
  8
LAYER_2
 10
-7.4092
 20
158.5061
 11
-5.8089
 21
158.5061
  0
LINE
  8
LAYER_2
 10
-7.4092
 20
157.106
 11
-5.8089
 21
157.106
  0
LINE
  8
LAYER_2
 10
-7.9091
 20
157.2064
 11
-7.9091
 21
154.6062
  0
LINE
  8
LAYER_2
 10
-11.1092
 20
157.2064
 11
-11.1092
 21
154.6062
  0
LINE
  8
LAYER_2
 10
-9.8091
 20
157.0063
 11
-8.6091
 21
157.0063
  0
LINE
  8
LAYER_2
 10
-11.1092
 20
157.106
 11
-14.474
 21
157.106
  0
LINE
  8
LAYER_2
 10
-11.1092
 20
154.706
 11
-14.474
 21
154.706
  0
LINE
  8
LAYER_2
 10
-7.7089
 20
157.106
 11
-7.9091
 21
157.106
  0
LINE
  8
LAYER_2
 10
-7.7089
 20
154.706
 11
-7.9091
 21
154.706
  0
ARC
  8
LAYER_2
 10
-8.4052
 20
157.1026
 40
0.1039
 50
92.11519069
 51
178.1135346
  0
LINE
  8
LAYER_2
 10
-7.9091
 20
157.2064
 11
-8.409
 21
157.2064
  0
ARC
  8
LAYER_2
 10
-8.6127
 20
157.11
 40
0.1037
 50
271.9680306
 51
357.8025572
  0
ARC
  8
LAYER_2
 10
-10.013
 20
157.1025
 40
0.104
 50
1.92856469
 51
87.89997673
  0
ARC
  8
LAYER_2
 10
-9.8054
 20
157.11
 40
0.1038
 50
182.2174763
 51
267.9546692
  0
LINE
  8
LAYER_2
 10
-10.0092
 20
157.2064
 11
-11.1092
 21
157.2064
  0
LINE
  8
LAYER_2
 10
-9.8091
 20
154.8064
 11
-8.6091
 21
154.8064
  0
ARC
  8
LAYER_2
 10
-8.4054
 20
154.7098
 40
0.1037
 50
182.1199055
 51
267.9948008
  0
LINE
  8
LAYER_2
 10
-7.9091
 20
154.6062
 11
-8.409
 21
154.6062
  0
ARC
  8
LAYER_2
 10
-8.6133
 20
154.7021
 40
0.1043
 50
2.118570179
 51
87.70997125
  0
ARC
  8
LAYER_2
 10
-10.0128
 20
154.7099
 40
0.1038
 50
271.9774012
 51
357.8506257
  0
ARC
  8
LAYER_2
 10
-9.8048
 20
154.7021
 40
0.1044
 50
92.3616765
 51
177.8670488
  0
LINE
  8
LAYER_2
 10
-10.0092
 20
154.6062
 11
-11.1092
 21
154.6062
  0
ARC
  8
LAYER_2
 10
-1.7044
 20
181.8074
 40
3.3968
 50
358.2966531
 51
24.31880385
  0
ARC
  8
LAYER_2
 10
-0.686
 20
174.8998
 40
9.4939
 50
78.59712042
 51
89.07827036
  0
ARC
  8
LAYER_2
 10
-1.2204
 20
167.3673
 40
17.039
 50
87.68870179
 51
90.2981314
  0
ARC
  8
LAYER_2
 10
-1.9323
 20
174.9014
 40
9.4923
 50
90.92145341
 51
101.4038175
  0
ARC
  8
LAYER_2
 10
-1.3978
 20
167.3685
 40
17.0378
 50
89.70179972
 51
92.31138444
  0
ARC
  8
LAYER_2
 10
-1.705
 20
181.6052
 40
3.3974
 50
335.6833954
 51
1.70261664
  0
ARC
  8
LAYER_2
 10
-0.9135
 20
181.8074
 40
3.3968
 50
155.6811961
 51
181.7033469
  0
ARC
  8
LAYER_2
 10
-0.9129
 20
181.6052
 40
3.3974
 50
178.2973833
 51
204.3166047
  0
ARC
  8
LAYER_2
 10
-6.3687
 20
156.0113
 40
2.8943
 50
357.9162549
 51
17.23597935
  0
ARC
  8
LAYER_2
 10
-5.1715
 20
156.3356
 40
1.6553
 50
18.79631471
 51
40.3088401
  0
ARC
  8
LAYER_2
 10
-8.1416
 20
156.0011
 40
2.6343
 50
357.9336097
 51
17.76127844
  0
ARC
  8
LAYER_2
 10
-6.4164
 20
156.549
 40
0.8242
 50
18.07488322
 51
42.51860031
  0
ARC
  8
LAYER_2
 10
-6.3525
 20
157.8607
 40
0.8438
 50
358.3511457
 51
49.89571337
  0
ARC
  8
LAYER_2
 10
-6.3663
 20
155.8008
 40
2.8918
 50
342.7563971
 51
2.087180893
  0
ARC
  8
LAYER_2
 10
-5.1723
 20
155.4776
 40
1.6563
 50
319.6936023
 51
341.1892718
  0
ARC
  8
LAYER_2
 10
-6.6693
 20
157.8362
 40
1.1603
 50
330.8173082
 51
0.007715411778
  0
ARC
  8
LAYER_2
 10
-6.0748
 20
157.5057
 40
0.4801
 50
303.629271
 51
330.6613711
  0
LINE
  8
LAYER_2
 10
-7.7089
 20
157.8364
 11
-7.7089
 21
155.9061
  0
ARC
  8
LAYER_2
 10
-5.0754
 20
156.0014
 40
2.6352
 50
162.2522727
 51
182.072804
  0
ARC
  8
LAYER_2
 10
-6.802
 20
156.5492
 40
0.8238
 50
137.4816003
 51
161.9363916
  0
ARC
  8
LAYER_2
 10
-6.8655
 20
157.8609
 40
0.8438
 50
130.119543
 51
181.6621065
  0
ARC
  8
LAYER_2
 10
-6.5483
 20
157.836
 40
1.1606
 50
179.9819605
 51
209.1623967
  0
ARC
  8
LAYER_2
 10
-7.1435
 20
157.5055
 40
0.4798
 50
209.3241439
 51
236.370777
  0
LINE
  8
LAYER_2
 10
-5.509
 20
153.9763
 11
-5.509
 21
155.9061
  0
LINE
  8
LAYER_2
 10
-7.4092
 20
153.3066
 11
-5.8089
 21
153.3066
  0
LINE
  8
LAYER_2
 10
-7.4092
 20
154.7067
 11
-5.8089
 21
154.7067
  0
ARC
  8
LAYER_2
 10
-8.1397
 20
155.811
 40
2.6325
 50
342.2319778
 51
2.071098181
  0
ARC
  8
LAYER_2
 10
-6.414
 20
155.2626
 40
0.8217
 50
317.4231863
 51
341.9199931
  0
ARC
  8
LAYER_2
 10
-6.3524
 20
153.952
 40
0.8437
 50
310.100319
 51
1.652821989
  0
ARC
  8
LAYER_2
 10
-6.6687
 20
153.9763
 40
1.1597
 50
359.9993866
 51
29.1893461
  0
ARC
  8
LAYER_2
 10
-6.0769
 20
154.3054
 40
0.4826
 50
29.34876275
 51
56.2639278
  0
LINE
  8
LAYER_2
 10
-7.7089
 20
153.9763
 11
-7.7089
 21
155.9061
  0
ARC
  8
LAYER_2
 10
-5.0773
 20
155.8106
 40
2.6333
 50
177.9224918
 51
197.7544649
  0
ARC
  8
LAYER_2
 10
-6.8044
 20
155.2624
 40
0.8213
 50
198.0687248
 51
222.5766132
  0
ARC
  8
LAYER_2
 10
-6.8656
 20
153.9518
 40
0.8436
 50
178.3339282
 51
229.8844223
  0
ARC
  8
LAYER_2
 10
-6.5489
 20
153.9765
 40
1.16
 50
150.8309504
 51
180.0109492
  0
ARC
  8
LAYER_2
 10
-7.1414
 20
154.3057
 40
0.4823
 50
123.7360249
 51
150.6657197
  0
ARC
  8
LAYER_2
 10
12.037
 20
182.3685
 40
1.6466
 50
332.4233669
 51
358.0971887
  0
ARC
  8
LAYER_2
 10
10.9693
 20
182.5373
 40
2.7225
 50
355.2903962
 51
0.9170984318
  0
ARC
  8
LAYER_2
 10
11.9031
 20
182.6812
 40
1.7912
 50
356.7906801
 51
27.18148194
  0
ARC
  8
LAYER_2
 10
12.0362
 20
180.8437
 40
1.6474
 50
1.907259178
 51
27.57036418
  0
ARC
  8
LAYER_2
 10
10.9697
 20
180.6751
 40
2.7221
 50
359.0832903
 51
4.709863566
  0
ARC
  8
LAYER_2
 10
11.904
 20
180.5311
 40
1.7903
 50
332.8113647
 51
3.213938508
  0
ARC
  8
LAYER_2
 10
1.473
 20
179.1428
 40
1.2636
 50
49.67148824
 51
89.87879288
  0
ARC
  8
LAYER_2
 10
1.4739
 20
184.0668
 40
1.2611
 50
273.123647
 51
310.3761505
  0
LINE
  8
LAYER_2
 10
-56.309
 20
246.129
 11
-56.309
 21
247.7289
  0
LINE
  8
LAYER_2
  6
AIGENLINE001
 10
-57.6011
 20
246.129
 11
15.2879
 21
246.129
  0
LINE
  8
LAYER_2
  6
AIGENLINE001
 10
-41.3091
 20
238.8045
 11
-41.3091
 21
253.6653
  0
ARC
  8
LAYER_2
 10
-41.3094
 20
246.129
 40
6.2001
 50
0.0003419080476
 51
90.00058218
  0
ARC
  8
LAYER_2
 10
-41.3094
 20
246.1291
 40
6.2
 50
90.00094659
 51
164.0748528
  0
ARC
  8
LAYER_2
 10
-41.3092
 20
246.1291
 40
6.2001
 50
195.9697219
 51
285.9693059
  0
ARC
  8
LAYER_2
 10
-41.3093
 20
246.129
 40
6.2
 50
285.9703513
 51
0.0003441818439
  0
CIRCLE
  8
LAYER_2
 10
-41.3095
 20
246.129
 40
3
  0
ARC
  8
LAYER_2
 10
-55.896
 20
247.889
 40
0.3966
 50
123.3567206
 51
174.7730245
  0
ARC
  8
LAYER_2
 10
-55.5429
 20
247.7575
 40
0.7666
 50
167.3698473
 51
182.1401869
  0
ARC
  8
LAYER_2
 10
-45.3478
 20
247.3978
 40
0.4408
 50
354.3971943
 51
50.05868628
  0
ARC
  8
LAYER_2
 10
-45.7757
 20
246.449
 40
0.8601
 50
358.5657102
 51
34.25358902
  0
ARC
  8
LAYER_2
 10
-47.1047
 20
246.2284
 40
2.1978
 50
357.4088716
 51
5.197505924
  0
ARC
  8
LAYER_2
 10
-55.076
 20
246.598
 40
1.2122
 50
148.9188082
 51
178.8893186
  0
ARC
  8
LAYER_2
 10
-53.1366
 20
246.2398
 40
3.1744
 50
173.0927551
 51
181.9995398
  0
ARC
  8
LAYER_2
 10
-55.8826
 20
247.568
 40
0.4148
 50
184.1868938
 51
236.0759049
  0
ARC
  8
LAYER_2
 10
-55.5207
 20
247.6852
 40
0.7895
 50
176.8286063
 51
190.7668618
  0
CIRCLE
  8
LAYER_2
 10
-41.3095
 20
246.129
 40
2.5001
  0
CIRCLE
  8
LAYER_2
 10
-41.3095
 20
246.129
 40
2.0001
  0
LINE
  8
LAYER_2
 10
-56.309
 20
247.7289
 11
-56.6093
 21
247.7289
  0
LINE
  8
LAYER_2
 10
-56.6093
 20
244.5289
 11
-56.6093
 21
247.7289
  0
LINE
  8
LAYER_2
 10
-56.309
 20
244.5291
 11
-56.6093
 21
244.5291
  0
LINE
  8
LAYER_2
 10
-45.0648
 20
247.7358
 11
-56.1141
 21
248.2203
  0
LINE
  8
LAYER_2
 10
-45.0648
 20
246.9331
 11
-56.1141
 21
247.2238
  0
ARC
  8
LAYER_2
 10
-21.327
 20
219.1426
 40
3.0179
 50
0.04210144098
 51
13.08858477
  0
ARC
  8
LAYER_2
 10
-21.195
 20
219.2055
 40
3.0989
 50
168.4494902
 51
247.3612362
  0
ARC
  8
LAYER_2
 10
-21.3092
 20
219.145
 40
3.0001
 50
248.9303093
 51
338.9241884
  0
ARC
  8
LAYER_2
 10
-21.3087
 20
219.1449
 40
2.9996
 50
338.9217648
 51
359.9986738
  0
LINE
  8
LAYER_2
 10
-23.1107
 20
249.129
 11
-19.5108
 21
249.129
  0
LINE
  8
LAYER_2
 10
-23.1107
 20
249.129
 11
-24.9094
 21
246.129
  0
LINE
  8
LAYER_2
 10
-17.7093
 20
246.129
 11
-19.5108
 21
249.129
  0
LINE
  8
LAYER_2
 10
-22.909
 20
227.2368
 11
-22.909
 21
219.0869
  0
LINE
  8
LAYER_2
 10
-24.2824
 20
251.4749
 11
-23.258
 21
249.4235
  0
LINE
  8
LAYER_2
  6
AIGENLINE001
 10
-21.3091
 20
253.6638
 11
-21.3091
 21
215.1178
  0
LINE
  8
LAYER_2
 10
-18.3391
 20
251.4749
 11
-19.3637
 21
249.4235
  0
LINE
  8
LAYER_2
 10
-41.3091
 20
259.9938
 11
-41.3091
 21
254.001
  0
LINE
  8
LAYER_2
 10
-21.3091
 20
259.9938
 11
-21.3091
 21
254.001
  0
LINE
  8
LAYER_2
 10
-1.3091
 20
259.9938
 11
-1.3091
 21
254.001
  0
LINE
  8
LAYER_2
 10
-41.3091
 20
238.3543
 11
-41.3091
 21
231.7213
  0
LINE
  8
LAYER_2
 10
-1.3091
 20
238.3543
 11
-1.3091
 21
231.7213
  0
INSERT
  8
LAYER_2
  2
AIGNBL0201000E
 10
0
 20
0
 30
0
  0
ARC
  8
LAYER_2
 10
-40.3132
 20
240.1782
 40
16.5133
 50
13.72019754
 51
21.1225692
  0
ARC
  8
LAYER_2
 10
-55.0304
 20
236.5367
 40
31.6743
 50
8.313542267
 51
13.8052114
  0
ARC
  8
LAYER_2
 10
-81.4041
 20
232.6087
 40
58.3388
 50
4.321054748
 51
8.385544286
  0
ARC
  8
LAYER_2
 10
-126.6615
 20
229.114
 40
103.7309
 50
1.247278059
 51
4.362409084
  0
ARC
  8
LAYER_2
 10
-203.8539
 20
227.2855
 40
180.9449
 50
359.9845926
 51
1.294075733
  0
ARC
  8
LAYER_2
 10
-38.626
 20
239.5646
 40
13.8685
 50
17.5980603
 51
25.49092573
  0
ARC
  8
LAYER_2
 10
-46.8266
 20
236.9649
 40
22.4714
 50
10.9872218
 51
17.59471304
  0
ARC
  8
LAYER_2
 10
-62.0212
 20
233.9703
 40
37.9582
 50
6.202471978
 51
11.05330757
  0
ARC
  8
LAYER_2
 10
-91.3425
 20
230.7664
 40
67.454
 50
2.457233919
 51
6.217059744
  0
ARC
  8
LAYER_2
 10
-180.7777
 20
227.0179
 40
156.9677
 50
359.8618019
 51
2.424630529
  0
ARC
  8
LAYER_2
 10
-391.1831
 20
224.7631
 40
367.3775
 50
359.7476228
 51
0.2926061252
  0
ARC
  8
LAYER_2
 10
-35.1538
 20
223.0023
 40
11.3455
 50
351.0209653
 51
0.7203694472
  0
ARC
  8
LAYER_2
 10
-38.0578
 20
223.3489
 40
14.2685
 50
345.7058089
 51
351.4660942
  0
ARC
  8
LAYER_2
 10
-3.9926
 20
239.5646
 40
13.8685
 50
154.5090742
 51
162.4019397
  0
ARC
  8
LAYER_2
 10
4.208
 20
236.9649
 40
22.4714
 50
162.4052869
 51
169.0127782
  0
ARC
  8
LAYER_2
 10
19.4026
 20
233.9703
 40
37.9582
 50
168.9466924
 51
173.797528
  0
ARC
  8
LAYER_2
 10
48.7239
 20
230.7664
 40
67.454
 50
173.7829402
 51
177.5427661
  0
ARC
  8
LAYER_2
 10
138.1591
 20
227.0179
 40
156.9677
 50
177.5753694
 51
180.1381981
  0
ARC
  8
LAYER_2
 10
348.5645
 20
224.7631
 40
367.3774
 50
179.7073938
 51
180.2523772
  0
ARC
  8
LAYER_2
 10
-7.4648
 20
223.0023
 40
11.3455
 50
179.2796305
 51
188.9790348
  0
ARC
  8
LAYER_2
 10
-4.5608
 20
223.3489
 40
14.2685
 50
188.5339058
 51
194.2941911
  0
LINE
  8
LAYER_2
 10
-19.7096
 20
227.2368
 11
-19.7096
 21
219.0869
  0
ARC
  8
LAYER_2
 10
-2.3029
 20
240.1779
 40
16.5158
 50
158.8795472
 51
166.2807592
  0
ARC
  8
LAYER_2
 10
12.4168
 20
236.536
 40
31.6792
 50
166.1957451
 51
171.6865438
  0
ARC
  8
LAYER_2
 10
38.7933
 20
232.6076
 40
58.3467
 50
171.614548
 51
175.6784934
  0
ARC
  8
LAYER_2
 10
84.0469
 20
229.1128
 40
103.735
 50
175.6371314
 51
178.7521427
  0
ARC
  8
LAYER_2
 10
161.1508
 20
227.2854
 40
180.8604
 50
178.7052884
 51
180.0153833
  0
ARC
  8
LAYER_2
 10
-21.4415
 20
246.2013
 40
6.5326
 50
302.7735022
 51
359.3661884
  0
ARC
  8
LAYER_2
 10
-21.3094
 20
246.1289
 40
6.4002
 50
0.0007999667199
 51
90.00099046
  0
ARC
  8
LAYER_2
 10
-21.3093
 20
246.1292
 40
6.3999
 50
90.00195388
 51
180.0016272
  0
ARC
  8
LAYER_2
 10
-21.1949
 20
246.1912
 40
6.5146
 50
180.5467553
 51
237.3117642
  0
ARC
  8
LAYER_2
 10
-45.4683
 20
247.3217
 40
0.5601
 50
316.0776046
 51
3.392104179
  0
ARC
  8
LAYER_2
 10
-43.745
 20
249.4347
 40
2.1513
 50
232.1576651
 51
253.1604491
  0
ARC
  8
LAYER_2
 10
-44.0579
 20
248.3868
 40
1.0577
 50
252.9414895
 51
269.931496
  0
LINE
  8
LAYER_2
 10
-56.309
 20
246.129
 11
-56.309
 21
244.5291
  0
ARC
  8
LAYER_2
 10
-55.896
 20
244.3691
 40
0.3966
 50
185.2321879
 51
236.644634
  0
ARC
  8
LAYER_2
 10
-55.5432
 20
244.5005
 40
0.7664
 50
177.861305
 51
192.6319384
  0
ARC
  8
LAYER_2
 10
-45.3474
 20
244.8602
 40
0.4404
 50
309.9162226
 51
5.606822922
  0
ARC
  8
LAYER_2
 10
-45.7752
 20
245.8091
 40
0.8596
 50
325.736336
 51
1.436735317
  0
ARC
  8
LAYER_2
 10
-47.1038
 20
246.0297
 40
2.197
 50
354.8016351
 51
2.591325454
  0
ARC
  8
LAYER_2
 10
-55.0762
 20
245.66
 40
1.2119
 50
181.1079036
 51
211.0844421
  0
ARC
  8
LAYER_2
 10
-53.1365
 20
246.0183
 40
3.1745
 50
178.001836
 51
186.9067717
  0
ARC
  8
LAYER_2
 10
-55.8829
 20
244.6902
 40
0.4145
 50
123.9038568
 51
175.8315156
  0
ARC
  8
LAYER_2
 10
-55.5202
 20
244.5728
 40
0.79
 50
169.2353723
 51
183.1735757
  0
LINE
  8
LAYER_2
 10
-45.0648
 20
244.5224
 11
-56.1141
 21
244.0378
  0
LINE
  8
LAYER_2
 10
-45.0648
 20
245.3251
 11
-56.1141
 21
245.0343
  0
ARC
  8
LAYER_2
 10
-45.4684
 20
244.9365
 40
0.5603
 50
356.5941016
 51
43.91853811
  0
ARC
  8
LAYER_2
 10
-43.745
 20
242.8235
 40
2.1513
 50
106.8395509
 51
127.8423349
  0
ARC
  8
LAYER_2
 10
-44.0579
 20
243.8714
 40
1.0577
 50
90.06850396
 51
107.0585105
  0
LINE
  8
LAYER_2
 10
13.6915
 20
246.129
 11
13.6915
 21
247.7289
  0
LINE
  8
LAYER_2
  6
AIGENLINE001
 10
-1.3091
 20
238.8045
 11
-1.3091
 21
253.6653
  0
ARC
  8
LAYER_2
 10
-1.3088
 20
246.129
 40
6.2001
 50
90.00000948
 51
179.9999905
  0
ARC
  8
LAYER_2
 10
-1.3089
 20
246.1292
 40
6.1999
 50
15.92505307
 51
89.99914745
  0
ARC
  8
LAYER_2
 10
-1.3091
 20
246.1291
 40
6.2
 50
254.0308448
 51
344.0307616
  0
ARC
  8
LAYER_2
 10
-1.309
 20
246.1289
 40
6.1999
 50
179.9994929
 51
254.0298116
  0
CIRCLE
  8
LAYER_2
 10
-1.3088
 20
246.129
 40
3
  0
ARC
  8
LAYER_2
 10
13.2795
 20
247.8891
 40
0.3956
 50
5.235759702
 51
56.85808705
  0
ARC
  8
LAYER_2
 10
12.9276
 20
247.7577
 40
0.7644
 50
357.8429703
 51
12.65646529
  0
ARC
  8
LAYER_2
 10
2.7298
 20
247.3977
 40
0.4411
 50
129.9585362
 51
185.5855832
  0
ARC
  8
LAYER_2
 10
3.1581
 20
246.4488
 40
0.8607
 50
145.7626337
 51
181.4229186
  0
ARC
  8
LAYER_2
 10
4.4867
 20
246.2282
 40
2.1981
 50
174.7985242
 51
182.5861711
  0
ARC
  8
LAYER_2
 10
12.4655
 20
246.5987
 40
1.2051
 50
1.083994317
 51
31.24466522
  0
ARC
  8
LAYER_2
 10
10.5294
 20
246.2401
 40
3.164
 50
357.9882859
 51
6.924280395
  0
ARC
  8
LAYER_2
 10
13.2686
 20
247.566
 40
0.4108
 50
303.5835508
 51
355.3223847
  0
ARC
  8
LAYER_2
 10
12.9164
 20
247.6836
 40
0.7764
 50
348.778794
 51
3.345069524
  0
CIRCLE
  8
LAYER_2
 10
-1.3088
 20
246.129
 40
2.5001
  0
CIRCLE
  8
LAYER_2
 10
-1.3088
 20
246.129
 40
2
  0
LINE
  8
LAYER_2
 10
13.6915
 20
247.7289
 11
13.9912
 21
247.7289
  0
LINE
  8
LAYER_2
 10
13.9912
 20
244.5289
 11
13.9912
 21
247.7289
  0
LINE
  8
LAYER_2
 10
13.6915
 20
244.5291
 11
13.9912
 21
244.5291
  0
LINE
  8
LAYER_2
 10
2.4465
 20
247.7358
 11
13.4958
 21
248.2203
  0
LINE
  8
LAYER_2
 10
2.4465
 20
246.9331
 11
13.4958
 21
247.2238
  0
ARC
  8
LAYER_2
 10
2.85
 20
247.3217
 40
0.5601
 50
176.6078958
 51
223.9223955
  0
ARC
  8
LAYER_2
 10
1.1274
 20
249.4333
 40
2.1498
 50
286.8345291
 51
307.8509699
  0
ARC
  8
LAYER_2
 10
1.4396
 20
248.3872
 40
1.0581
 50
270.068452
 51
287.0556235
  0
LINE
  8
LAYER_2
 10
13.6915
 20
246.129
 11
13.6915
 21
244.5291
  0
ARC
  8
LAYER_2
 10
13.2795
 20
244.369
 40
0.3956
 50
303.1405576
 51
354.759015
  0
ARC
  8
LAYER_2
 10
12.9279
 20
244.5004
 40
0.7642
 50
347.3417475
 51
2.155536432
  0
ARC
  8
LAYER_2
 10
2.7293
 20
244.8603
 40
0.4406
 50
174.4104031
 51
230.0665514
  0
ARC
  8
LAYER_2
 10
3.1576
 20
245.8092
 40
0.8602
 50
178.5746379
 51
214.2474384
  0
ARC
  8
LAYER_2
 10
4.4858
 20
246.0298
 40
2.1973
 50
177.4136332
 51
185.2023357
  0
ARC
  8
LAYER_2
 10
12.4657
 20
245.6593
 40
1.2049
 50
328.752074
 51
358.9187922
  0
ARC
  8
LAYER_2
 10
10.5293
 20
246.018
 40
3.1641
 50
353.0761947
 51
2.010335492
  0
ARC
  8
LAYER_2
 10
13.2689
 20
244.6923
 40
0.4105
 50
4.659145406
 51
56.43720405
  0
ARC
  8
LAYER_2
 10
12.9159
 20
244.5745
 40
0.7769
 50
356.6525639
 51
11.21901545
  0
LINE
  8
LAYER_2
 10
2.4465
 20
244.5224
 11
13.4958
 21
244.0378
  0
LINE
  8
LAYER_2
 10
2.4465
 20
245.3251
 11
13.4958
 21
245.0343
  0
ARC
  8
LAYER_2
 10
2.8501
 20
244.9365
 40
0.5603
 50
136.0814618
 51
183.4058984
  0
ARC
  8
LAYER_2
 10
1.1274
 20
242.8249
 40
2.1498
 50
52.1490301
 51
73.16547089
  0
ARC
  8
LAYER_2
 10
1.4396
 20
243.871
 40
1.0581
 50
72.94437653
 51
89.93154798
  0
INSERT
  8
LAYER_2
  2
AIGNBL0201000F
 10
0
 20
0
 30
0
  0
LINE
  8
LAYER_2
  6
AIGENLINE001
 10
40.3331
 20
251.832
 11
40.3331
 21
240.2708
  0
LINE
  8
LAYER_2
  6
AIGENLINE001
 10
60.3333
 20
252.1703
 11
60.3333
 21
240.0877
  0
INSERT
  8
LAYER_2
  2
AIGNBL02010010
 10
0
 20
0
 30
0
  0
LINE
  8
LAYER_2
  6
AIGENLINE001
 10
34.4083
 20
246.129
 11
86.5835
 21
246.129
  0
LINE
  8
LAYER_2
  6
AIGENLINE001
 10
80.3334
 20
251.832
 11
80.3334
 21
240.4537
  0
INSERT
  8
LAYER_2
  2
AIGNBL02010011
 10
0
 20
0
 30
0
  0
LINE
  8
LAYER_2
 10
40.3331
 20
258.0004
 11
40.3331
 21
252.4561
  0
LINE
  8
LAYER_2
 10
80.3334
 20
258.0004
 11
80.3334
 21
252.4561
  0
LINE
  8
LAYER_2
 10
60.3333
 20
257.9987
 11
60.3333
 21
252.8394
  0
CIRCLE
  8
LAYER_2
 10
40.3331
 20
246.129
 40
3.5
  0
CIRCLE
  8
LAYER_2
 10
60.3333
 20
246.129
 40
3.5
  0
CIRCLE
  8
LAYER_2
 10
80.3334
 20
246.129
 40
3.4997
  0
LINE
  8
LAYER_2
  6
AIGENLINE001
 10
14.2844
 20
57.7219
 11
14.2844
 21
63.9492
  0
LINE
  8
LAYER_2
 10
-25.2479
 20
70.4253
 11
-25.2479
 21
72.2946
  0
LINE
  8
LAYER_2
  6
AIGENLINE001
 10
-31.1948
 20
60.6371
 11
13.4011
 21
60.6371
  0
LINE
  8
LAYER_2
  6
AIGENLINE001
 10
-21.3095
 20
54.6647
 11
-21.3095
 21
75.7756
  0
LINE
  8
LAYER_2
  6
AIGENLINE002
 10
15.1732
 20
60.6371
 11
18.4219
 21
60.6371
  0
INSERT
  8
LAYER_2
  2
AIGNBL02010012
 10
0
 20
0
 30
0
  0
LINE
  8
LAYER_2
 10
-15.0091
 20
74.4609
 11
-15.0091
 21
79.9352
  0
INSERT
  8
LAYER_2
  2
AIGNBL02010013
 10
0
 20
0
 30
0
  0
INSERT
  8
LAYER_2
  2
AIGNBL02010014
 10
0
 20
0
 30
0
  0
LINE
  8
LAYER_2
 10
-27.7876
 20
74.8151
 11
-32.5529
 21
74.8151
  0
LINE
  8
LAYER_2
 10
-27.6095
 20
74.9763
 11
-27.6095
 21
79.9352
  0
LINE
  8
LAYER_2
 10
16.4927
 20
61.1298
 11
16.4927
 21
60.1452
  0
LINE
  8
LAYER_2
 10
14.3864
 20
58.6769
 11
14.3864
 21
60.0418
  0
LINE
  8
LAYER_2
 10
14.1886
 20
58.6769
 11
14.1886
 21
60.0418
  0
ARC
  8
LAYER_2
 10
14.609
 20
61.1177
 40
0.5793
 50
13.10498844
 51
54.68858932
  0
ARC
  8
LAYER_2
 10
14.3102
 20
60.7
 40
1.0928
 50
54.56087552
 51
91.10221825
  0
ARC
  8
LAYER_2
 10
14.276
 20
60.6535
 40
1.1391
 50
89.33781451
 51
119.0915692
  0
ARC
  8
LAYER_2
 10
14.0211
 20
61.0875
 40
0.6361
 50
118.0299006
 51
167.0796158
  0
ARC
  8
LAYER_2
 10
13.9799
 20
59.2065
 40
0.6025
 50
196.1106095
 51
237.0283853
  0
ARC
  8
LAYER_2
 10
14.2653
 20
59.6344
 40
1.1168
 50
236.6934705
 51
270.7702988
  0
ARC
  8
LAYER_2
 10
14.293
 20
59.6573
 40
1.1397
 50
269.3613767
 51
299.1608722
  0
ARC
  8
LAYER_2
 10
14.5615
 20
59.2053
 40
0.6143
 50
297.8408702
 51
354.7924069
  0
LINE
  8
LAYER_2
 10
13.975
 20
62.4162
 11
13.975
 21
61.8078
  0
LINE
  8
LAYER_2
 10
14.6241
 20
62.4162
 11
14.6241
 21
61.8078
  0
ARC
  8
LAYER_2
 10
14.4643
 20
62.6364
 40
0.2195
 50
270.6984376
 51
340.9236264
  0
ARC
  8
LAYER_2
 10
14.3744
 20
62.6976
 40
0.3258
 50
335.9258576
 51
6.88303877
  0
ARC
  8
LAYER_2
 10
14.4059
 20
62.7662
 40
0.2934
 50
354.2019345
 51
73.81274569
  0
ARC
  8
LAYER_2
 10
14.1512
 20
62.6403
 40
0.223
 50
203.948664
 51
272.7233201
  0
ARC
  8
LAYER_2
 10
14.2225
 20
62.6958
 40
0.3115
 50
172.4664809
 51
207.9561785
  0
ARC
  8
LAYER_2
 10
14.2056
 20
62.7645
 40
0.2932
 50
104.2299809
 51
185.4588984
  0
ARC
  8
LAYER_2
 10
13.6794
 20
62.6368
 40
0.2199
 50
270.7223862
 51
340.8543327
  0
ARC
  8
LAYER_2
 10
13.5886
 20
62.6987
 40
0.3273
 50
335.8217341
 51
6.642539801
  0
ARC
  8
LAYER_2
 10
13.6127
 20
62.7668
 40
0.3025
 50
354.2742692
 51
61.59132638
  0
ARC
  8
LAYER_2
 10
14.9356
 20
62.6405
 40
0.2233
 50
203.9871924
 51
272.6368776
  0
ARC
  8
LAYER_2
 10
15.007
 20
62.6961
 40
0.3118
 50
172.5422749
 51
207.9994941
  0
ARC
  8
LAYER_2
 10
14.9999
 20
62.7646
 40
0.3034
 50
118.4047324
 51
185.2930955
  0
LINE
  8
LAYER_2
 10
-14.4193
 20
62.5078
 11
-14.0231
 21
62.2791
  0
LINE
  8
LAYER_2
 10
-14.0231
 20
58.7664
 11
-14.0231
 21
62.5078
  0
LINE
  8
LAYER_2
 10
-24.9813
 20
56.6002
 11
-24.9813
 21
57.9789
  0
LINE
  8
LAYER_2
 10
-25.2479
 20
56.8668
 11
-17.3707
 21
56.8668
  0
LINE
  8
LAYER_2
 10
-17.6377
 20
56.6002
 11
-17.6377
 21
57.9789
  0
LINE
  8
LAYER_2
 10
-14.0231
 20
58.9952
 11
-14.4193
 21
58.7664
  0
LINE
  8
LAYER_2
 10
-13.5429
 20
58.9952
 11
-14.0231
 21
58.9952
  0
LINE
  8
LAYER_2
 10
-14.0231
 20
62.2791
 11
-13.5429
 21
62.2791
  0
LINE
  8
LAYER_2
 10
-21.3095
 20
54.345
 11
-21.3095
 21
48.4691
  0
INSERT
  8
LAYER_2
  2
AIGNBL02010015
 10
0
 20
0
 30
0
  0
LINE
  8
LAYER_2
 10
-27.2567
 20
53.9826
 11
-37.0263
 21
53.9826
  0
LINE
  8
LAYER_2
 10
-26.6266
 20
67.4943
 11
-32.5529
 21
67.4943
  0
LINE
  8
LAYER_2
 10
-14.4193
 20
62.5078
 11
-14.4193
 21
58.7664
  0
LINE
  8
LAYER_2
 10
-11.3387
 20
62.9405
 11
-11.3387
 21
58.3379
  0
LINE
  8
LAYER_2
 10
-11.3387
 20
58.721
 11
-12.7553
 21
58.721
  0
LINE
  8
LAYER_2
 10
-11.3387
 20
59.2308
 11
-12.7553
 21
59.2308
  0
LINE
  8
LAYER_2
 10
-11.3387
 20
61.8932
 11
-12.7553
 21
61.8932
  0
LINE
  8
LAYER_2
 10
-11.3387
 20
62.4878
 11
-12.7553
 21
62.4878
  0
LINE
  8
LAYER_2
 10
-11.3387
 20
59.7972
 11
-12.7553
 21
59.7972
  0
LINE
  8
LAYER_2
 10
-11.3387
 20
60.3353
 11
-12.7553
 21
60.3353
  0
LINE
  8
LAYER_2
 10
-11.3387
 20
60.8452
 11
-12.7553
 21
60.8452
  0
LINE
  8
LAYER_2
 10
-11.3387
 20
61.3551
 11
-12.7553
 21
61.3551
  0
INSERT
  8
LAYER_2
  2
AIGNBL02010016
 10
0
 20
0
 30
0
  0
LINE
  8
LAYER_2
 10
-12.7553
 20
62.8523
 11
-13.4443
 21
62.8523
  0
LINE
  8
LAYER_2
 10
-26.6266
 20
67.4943
 11
-15.9916
 21
67.4943
  0
LINE
  8
LAYER_2
 10
-27.5623
 20
66.2499
 11
-27.5623
 21
66.4463
  0
LINE
  8
LAYER_2
 10
-27.5623
 20
66.2499
 11
-25.9369
 21
65.3121
  0
LINE
  8
LAYER_2
 10
-17.6377
 20
56.6002
 11
-24.9813
 21
56.6002
  0
LINE
  8
LAYER_2
 10
-25.2479
 20
56.8668
 11
-25.2479
 21
57.9789
  0
LINE
  8
LAYER_2
 10
-17.3707
 20
57.9789
 11
-17.3707
 21
56.8668
  0
LINE
  8
LAYER_2
 10
-17.3707
 20
56.8668
 11
-17.6377
 21
56.6002
  0
LINE
  8
LAYER_2
 10
-25.2479
 20
56.8668
 11
-24.9813
 21
56.6002
  0
LINE
  8
LAYER_2
 10
-25.199
 20
57.9789
 11
-25.199
 21
58.5694
  0
LINE
  8
LAYER_2
 10
-17.42
 20
57.9789
 11
-17.42
 21
58.5694
  0
LINE
  8
LAYER_2
 10
-17.3707
 20
57.9789
 11
-25.199
 21
57.9789
  0
LINE
  8
LAYER_2
 10
-15.0573
 20
66.2499
 11
-15.0573
 21
66.4463
  0
LINE
  8
LAYER_2
 10
-15.0573
 20
66.2499
 11
-16.6813
 21
65.3121
  0
LINE
  8
LAYER_2
 10
-25.4449
 20
58.5694
 11
-25.4449
 21
64.4591
  0
ARC
  8
LAYER_2
 10
-16.1704
 20
64.4482
 40
1.0037
 50
120.5995028
 51
179.3783114
  0
ARC
  8
LAYER_2
 10
-26.4496
 20
64.448
 40
1.0048
 50
0.6346592629
 51
59.31698895
  0
LINE
  8
LAYER_2
 10
-17.174
 20
64.4591
 11
-17.174
 21
62.9019
  0
ARC
  8
LAYER_2
 10
-15.9926
 20
66.9035
 40
0.5908
 50
0.0225154319
 51
89.8998217
  0
ARC
  8
LAYER_2
 10
-15.9981
 20
66.9062
 40
0.5963
 50
309.6259559
 51
359.759358
  0
ARC
  8
LAYER_2
 10
-26.6045
 20
66.881
 40
0.6137
 50
92.0615736
 51
177.8802482
  0
ARC
  8
LAYER_2
 10
-26.6205
 20
66.9075
 40
0.5973
 50
180.3653907
 51
230.454139
  0
ARC
  8
LAYER_2
 10
-27.4523
 20
72.4141
 40
2.035
 50
1.601197254
 51
80.93621171
  0
ARC
  8
LAYER_2
 10
-15.2095
 20
72.4142
 40
2.0349
 50
99.06253102
 51
178.40006
  0
LINE
  8
LAYER_2
 10
-12.7553
 20
58.4219
 11
-13.4443
 21
58.4219
  0
LINE
  8
LAYER_2
 10
-13.5429
 20
58.7664
 11
-16.8329
 21
58.7664
  0
LINE
  8
LAYER_2
 10
-16.7798
 20
62.5078
 11
-13.5429
 21
62.5078
  0
LINE
  8
LAYER_2
 10
-13.4443
 20
62.8523
 11
-13.5429
 21
62.7545
  0
LINE
  8
LAYER_2
 10
-13.5429
 20
58.5198
 11
-13.4443
 21
58.4219
  0
ARC
  8
LAYER_2
 10
-16.7799
 20
62.9019
 40
0.3941
 50
180.00687
 51
270.0076666
  0
LINE
  8
LAYER_2
 10
-13.5429
 20
58.5198
 11
-13.5429
 21
62.7545
  0
ARC
  8
LAYER_2
 10
-16.8278
 20
58.3638
 40
0.4026
 50
90.72381966
 51
149.2927638
  0
LINE
  8
LAYER_2
 10
-15.0573
 20
66.4463
 11
-27.5623
 21
66.4463
  0
LINE
  8
LAYER_2
 10
-17.174
 20
58.5694
 11
-25.4449
 21
58.5694
  0
LINE
  8
LAYER_2
 10
-12.7553
 20
62.9405
 11
-12.7553
 21
58.3379
  0
ARC
  8
LAYER_2
 10
-10.8701
 20
62.6594
 40
0.2811
 50
0.004294476677
 51
89.99570551
  0
LINE
  8
LAYER_2
 10
-10.8701
 20
62.9405
 11
-12.7553
 21
62.9405
  0
ARC
  8
LAYER_2
 10
-10.8815
 20
58.6304
 40
0.2927
 50
272.2298345
 51
357.9126669
  0
LINE
  8
LAYER_2
 10
-10.8701
 20
58.3379
 11
-12.7553
 21
58.3379
  0
LINE
  8
LAYER_2
 10
-10.589
 20
58.6197
 11
-10.589
 21
62.6594
  0
LINE
  8
LAYER_2
 10
-27.6095
 20
74.4182
 11
-15.0091
 21
74.4182
  0
LINE
  8
LAYER_2
 10
-17.3707
 20
72.2946
 11
-17.3707
 21
70.4253
  0
LINE
  8
LAYER_2
 10
-17.3707
 20
68.0461
 11
-17.3707
 21
67.4943
  0
LINE
  8
LAYER_2
 10
-17.2436
 20
72.471
 11
-17.3707
 21
72.2946
  0
LINE
  8
LAYER_2
 10
-25.2479
 20
72.2946
 11
-25.4181
 21
72.471
  0
LINE
  8
LAYER_2
 10
-25.2479
 20
67.4943
 11
-25.2479
 21
68.0461
  0
ARC
  8
LAYER_2
 10
-25.1535
 20
70.0594
 40
0.3659
 50
0.01068780293
 51
90.00497319
  0
LINE
  8
LAYER_2
 10
-25.2479
 20
70.4253
 11
-25.1535
 21
70.4253
  0
ARC
  8
LAYER_2
 10
-17.4542
 20
70.0596
 40
0.3657
 50
90.02357934
 51
180.0234294
  0
LINE
  8
LAYER_2
 10
-17.4544
 20
70.4253
 11
-17.3707
 21
70.4253
  0
ARC
  8
LAYER_2
 10
-25.1674
 20
68.426
 40
0.3801
 50
272.1001663
 51
357.7901167
  0
LINE
  8
LAYER_2
 10
-25.2479
 20
68.0461
 11
-25.1535
 21
68.0461
  0
LINE
  8
LAYER_2
 10
-24.7876
 20
68.4113
 11
-24.7876
 21
70.0595
  0
LINE
  8
LAYER_2
 10
-19.8088
 20
68.4113
 11
-19.8088
 21
70.0595
  0
ARC
  8
LAYER_2
 10
-17.4545
 20
68.4115
 40
0.3654
 50
180.0246064
 51
270.0224409
  0
LINE
  8
LAYER_2
 10
-17.8199
 20
68.4113
 11
-17.8199
 21
70.0595
  0
ARC
  8
LAYER_2
 10
-22.3844
 20
70.0595
 40
0.3658
 50
89.99002389
 51
179.9943151
  0
LINE
  8
LAYER_2
 10
-22.3843
 20
70.4253
 11
-20.1739
 21
70.4253
  0
ARC
  8
LAYER_2
 10
-20.1881
 20
70.046
 40
0.3796
 50
2.036829927
 51
87.85342308
  0
ARC
  8
LAYER_2
 10
-22.3706
 20
68.4257
 40
0.3798
 50
182.1713464
 51
267.9383706
  0
LINE
  8
LAYER_2
 10
-22.3843
 20
68.0461
 11
-20.1739
 21
68.0461
  0
ARC
  8
LAYER_2
 10
-20.174
 20
68.4113
 40
0.3652
 50
270.0145303
 51
0.001160766154
  0
LINE
  8
LAYER_2
 10
-22.7502
 20
68.4113
 11
-22.7502
 21
70.0595
  0
LINE
  8
LAYER_2
 10
-17.4544
 20
68.0461
 11
-17.3707
 21
68.0461
  0
LINE
  8
LAYER_2
 10
-27.6095
 20
74.4182
 11
-27.6095
 21
74.5333
  0
ARC
  8
LAYER_2
 10
-27.3176
 20
74.5232
 40
0.2921
 50
92.12337046
 51
178.0191309
  0
ARC
  8
LAYER_2
 10
-15.3015
 20
74.5228
 40
0.2926
 50
2.064314481
 51
87.79318409
  0
LINE
  8
LAYER_2
 10
-15.0091
 20
74.5333
 11
-15.0091
 21
74.4182
  0
LINE
  8
LAYER_2
 10
-27.3284
 20
74.8151
 11
-15.2902
 21
74.8151
  0
LINE
  8
LAYER_2
 10
16.6904
 20
60.3415
 11
16.6904
 21
60.9327
  0
LINE
  8
LAYER_2
 10
16.4927
 20
61.1298
 11
16.6904
 21
60.9327
  0
LINE
  8
LAYER_2
 10
16.6904
 20
60.3415
 11
16.4927
 21
60.1452
  0
LINE
  8
LAYER_2
 10
15.1732
 20
61.1298
 11
16.4927
 21
61.1298
  0
LINE
  8
LAYER_2
 10
15.1732
 20
60.1452
 11
16.4927
 21
60.1452
  0
LINE
  8
LAYER_2
 10
-10.589
 20
61.1373
 11
13.4011
 21
61.1373
  0
LINE
  8
LAYER_2
 10
-10.589
 20
60.1376
 11
13.4011
 21
60.1376
  0
LINE
  8
LAYER_2
 10
13.5961
 20
61.8078
 11
14.9762
 21
61.8078
  0
LINE
  8
LAYER_2
 10
13.4011
 20
58.6899
 11
13.4011
 21
61.5811
  0
LINE
  8
LAYER_2
 10
15.1732
 20
58.6851
 11
15.1732
 21
61.5825
  0
ARC
  8
LAYER_2
 10
14.2872
 20
59.3597
 40
0.6897
 50
0.002496509199
 51
90.00581022
  0
ARC
  8
LAYER_2
 10
14.3132
 20
59.3343
 40
0.7155
 50
92.09012922
 51
177.9680517
  0
ARC
  8
LAYER_2
 10
14.2872
 20
59.3597
 40
0.6891
 50
179.9975007
 51
269.9941841
  0
ARC
  8
LAYER_2
 10
14.2875
 20
59.36
 40
0.6894
 50
269.968646
 51
359.9731815
  0
LINE
  8
LAYER_2
 10
13.5981
 20
58.4605
 11
14.9769
 21
58.4605
  0
LINE
  8
LAYER_2
 10
13.4011
 20
58.6899
 11
13.5981
 21
58.4605
  0
LINE
  8
LAYER_2
 10
15.1732
 20
58.6899
 11
14.9769
 21
58.4605
  0
LINE
  8
LAYER_2
 10
14.9762
 20
61.8078
 11
15.1732
 21
61.579
  0
LINE
  8
LAYER_2
 10
13.5961
 20
61.8078
 11
13.399
 21
61.579
  0
LINE
  8
LAYER_2
 10
14.7309
 20
61.7086
 11
14.7309
 21
61.7099
  0
LINE
  8
LAYER_2
 10
13.6147
 20
62.4162
 11
14.9948
 21
62.4162
  0
ARC
  8
LAYER_2
 10
13.8482
 20
62.8152
 40
0.2337
 50
92.0068137
 51
177.8148933
  0
LINE
  8
LAYER_2
 10
13.6147
 20
62.8241
 11
13.6147
 21
62.4162
  0
ARC
  8
LAYER_2
 10
14.7611
 20
62.815
 40
0.2339
 50
2.235127221
 51
87.94316578
  0
LINE
  8
LAYER_2
 10
13.84
 20
63.0487
 11
14.7695
 21
63.0487
  0
LINE
  8
LAYER_2
 10
14.9948
 20
62.8241
 11
14.9948
 21
62.4162
  0
LINE
  8
LAYER_2
 10
13.8379
 20
61.8078
 11
13.8379
 21
62.4162
  0
LINE
  8
LAYER_2
 10
14.7619
 20
61.8078
 11
14.7619
 21
62.4162
  0
LINE
  8
LAYER_2
 10
14.7502
 20
62.5168
 11
14.7502
 21
62.5223
  0
LINE
  8
LAYER_2
 10
16.6904
 20
59.494
 11
16.6904
 21
48.4697
  0
ARC
  8
LAYER_2
 10
-22.3761
 20
183.6733
 40
1.3266
 50
132.7293443
 51
159.6445009
  0
ARC
  8
LAYER_2
 10
-22.8827
 20
184.2404
 40
0.5665
 50
92.66499366
 51
134.0087702
  0
ARC
  8
LAYER_2
 10
-20.5739
 20
181.856
 40
3.6845
 50
159.3486976
 51
175.2135824
  0
LINE
  8
LAYER_2
 10
-18.5966
 20
183.1554
 11
-18.9983
 21
184.1348
  0
ARC
  8
LAYER_2
 10
3.8784
 20
185.9387
 40
23.1133
 50
207.3482264
 51
214.072322
  0
ARC
  8
LAYER_2
 10
-2.6353
 20
182.4498
 40
15.7251
 50
182.4308198
 51
206.9598849
  0
ARC
  8
LAYER_2
 10
7.0048
 20
183.735
 40
25.4261
 50
183.5436566
 51
184.4032539
  0
ARC
  8
LAYER_2
 10
-20.2421
 20
183.6733
 40
1.3266
 50
20.35549903
 51
47.27065569
  0
ARC
  8
LAYER_2
 10
-19.7355
 20
184.2404
 40
0.5665
 50
45.99122977
 51
87.33500632
  0
ARC
  8
LAYER_2
 10
-22.048
 20
181.8551
 40
3.6882
 50
4.794528723
 51
20.64319126
  0
ARC
  8
LAYER_2
  6
AIGENLINE001
 10
-10.8286
 20
148.744
 40
8.9804
 50
179.9215017
 51
200.1069809
  0
ARC
  8
LAYER_2
  6
AIGENLINE001
 10
-12.3291
 20
148.2229
 40
7.3923
 50
200.3125461
 51
222.3858837
  0
ARC
  8
LAYER_2
  6
AIGENLINE001
 10
-13.8263
 20
146.9281
 40
5.4138
 50
222.9460865
 51
248.8672227
  0
ARC
  8
LAYER_2
  6
AIGENLINE001
 10
-14.2524
 20
146.0349
 40
4.4277
 50
249.8429526
 51
269.9181845
  0
ARC
  8
LAYER_2
  6
AIGENLINE001
 10
-14.2694
 20
146.0835
 40
4.4763
 50
270.1368603
 51
299.0144537
  0
ARC
  8
LAYER_2
  6
AIGENLINE001
 10
-14.6794
 20
146.8676
 40
5.361
 50
298.7820485
 51
312.6734284
  0
ARC
  8
LAYER_2
  6
AIGENLINE001
 10
-15.353
 20
147.599
 40
6.3552
 50
312.6692481
 51
324.9509968
  0
ARC
  8
LAYER_2
  6
AIGENLINE001
 10
-16.4769
 20
148.3686
 40
7.7173
 50
325.0648988
 51
346.9823755
  0
ARC
  8
LAYER_2
  6
AIGENLINE001
 10
-17.7506
 20
148.7399
 40
9.0422
 50
346.5080614
 51
0.1038554798
  0
ARC
  8
LAYER_2
  6
AIGENLINE001
 10
-17.6902
 20
148.7686
 40
8.9818
 50
359.9216237
 51
20.10511694
  0
ARC
  8
LAYER_2
  6
AIGENLINE001
 10
-16.1896
 20
149.2897
 40
7.3936
 50
20.31035411
 51
42.38156329
  0
ARC
  8
LAYER_2
  6
AIGENLINE001
 10
-14.6914
 20
150.5852
 40
5.4139
 50
42.94178672
 51
68.86368182
  0
ARC
  8
LAYER_2
  6
AIGENLINE001
 10
-14.265
 20
151.4789
 40
4.4272
 50
69.84001784
 51
89.91810231
  0
ARC
  8
LAYER_2
  6
AIGENLINE001
 10
-31.7892
 20
148.744
 40
8.9802
 50
339.8924363
 51
0.0784696627
  0
ARC
  8
LAYER_2
  6
AIGENLINE001
 10
-30.289
 20
148.223
 40
7.3924
 50
317.6137947
 51
339.6869294
  0
ARC
  8
LAYER_2
  6
AIGENLINE001
 10
-28.7918
 20
146.9282
 40
5.4139
 50
291.1331518
 51
317.0537021
  0
ARC
  8
LAYER_2
  6
AIGENLINE001
 10
-28.3656
 20
146.0348
 40
4.4276
 50
270.0819454
 51
290.1573789
  0
ARC
  8
LAYER_2
  6
AIGENLINE001
 10
-28.3486
 20
146.0834
 40
4.4762
 50
240.9851094
 51
269.8630317
  0
ARC
  8
LAYER_2
  6
AIGENLINE001
 10
-27.9384
 20
146.8677
 40
5.3611
 50
227.3266899
 51
241.2177647
  0
ARC
  8
LAYER_2
  6
AIGENLINE001
 10
-27.2648
 20
147.5991
 40
6.3554
 50
215.0494063
 51
227.3308879
  0
ARC
  8
LAYER_2
  6
AIGENLINE001
 10
-26.141
 20
148.3687
 40
7.7174
 50
193.0181401
 51
214.9355295
  0
ARC
  8
LAYER_2
  6
AIGENLINE001
 10
-24.8676
 20
148.7399
 40
9.042
 50
179.8961737
 51
193.492365
  0
ARC
  8
LAYER_2
  6
AIGENLINE001
 10
-24.928
 20
148.7686
 40
8.9816
 50
159.8943002
 51
180.0783477
  0
ARC
  8
LAYER_2
  6
AIGENLINE001
 10
-26.4283
 20
149.2896
 40
7.3937
 50
137.6181151
 51
159.6891213
  0
ARC
  8
LAYER_2
  6
AIGENLINE001
 10
-27.9265
 20
150.5851
 40
5.414
 50
111.1366927
 51
137.0580019
  0
ARC
  8
LAYER_2
  6
AIGENLINE001
 10
-28.353
 20
151.479
 40
4.4271
 50
90.08202749
 51
110.1603136
  0
ARC
  8
LAYER_2
 10
-41.3093
 20
246.129
 40
13.81
 50
180.000005
 51
269.9999951
  0
LINE
  8
LAYER_2
 10
11.9366
 20
244.3875
 11
12.5009
 21
246.129
  0
LINE
  8
LAYER_2
 10
12.5009
 20
246.129
 11
12.8833
 21
244.3386
  0
LINE
  8
LAYER_2
 10
12.8833
 20
244.3386
 11
11.9366
 21
244.3875
  0
LINE
  8
LAYER_2
 10
0.4895
 20
231.9783
 11
-1.3091
 21
232.3186
  0
LINE
  8
LAYER_2
 10
-1.3091
 20
232.3186
 11
0.4187
 21
232.9236
  0
LINE
  8
LAYER_2
 10
0.4187
 20
232.9236
 11
0.4895
 21
231.9783
  0
ARC
  8
LAYER_2
 10
-1.3091
 20
246.129
 40
13.81
 50
270.0000321
 51
359.9999679
  0
LINE
  8
LAYER_2
 10
-19.8091
 20
248.729
 11
-22.8091
 21
248.729
  0
LINE
  8
LAYER_2
 10
-19.8091
 20
243.529
 11
-22.8091
 21
243.529
  0
LINE
  8
LAYER_2
 10
-24.2092
 20
246.129
 11
-22.8091
 21
243.529
  0
LINE
  8
LAYER_2
 10
-24.2092
 20
246.129
 11
-22.8091
 21
248.729
  0
LINE
  8
LAYER_2
 10
-19.8091
 20
248.729
 11
-18.4092
 21
246.129
  0
LINE
  8
LAYER_2
 10
-19.8091
 20
243.529
 11
-18.4092
 21
246.129
  0
ARC
  8
LAYER_2
 10
-23.4154
 20
183.7611
 40
1.6487
 50
86.29863253
 51
118.7643765
  0
ARC
  8
LAYER_2
 10
-23.4792
 20
185.7004
 40
1.4856
 50
240.5855897
 51
265.9503006
  0
ARC
  8
LAYER_2
 10
-23.2026
 20
183.7607
 40
1.6491
 50
61.2397701
 51
93.69991791
  0
ARC
  8
LAYER_2
 10
-19.415
 20
183.7583
 40
1.6515
 50
86.31492975
 51
118.7372942
  0
ARC
  8
LAYER_2
 10
-19.2029
 20
183.7583
 40
1.6515
 50
61.26338647
 51
93.67899809
  0
ARC
  8
LAYER_2
 10
-19.1385
 20
185.702
 40
1.487
 50
274.0461118
 51
299.3843488
  0
ARC
  8
LAYER_2
 10
-21.4476
 20
183.0429
 40
2.3676
 50
86.64757225
 51
113.9621207
  0
ARC
  8
LAYER_2
 10
-22.8168
 20
183.7261
 40
2.0319
 50
111.1698742
 51
133.2397763
  0
ARC
  8
LAYER_2
 10
-21.7049
 20
180.9646
 40
5.0088
 50
97.18092295
 51
111.6224268
  0
ARC
  8
LAYER_2
 10
-21.2995
 20
178.6091
 40
7.3973
 50
90.07444019
 51
98.01607516
  0
ARC
  8
LAYER_2
 10
-19.8012
 20
183.7253
 40
2.0328
 50
46.77022586
 51
68.83587269
  0
ARC
  8
LAYER_2
 10
-20.9135
 20
180.9621
 40
5.0114
 50
68.38280872
 51
82.81974881
  0
ARC
  8
LAYER_2
 10
-21.3187
 20
178.6081
 40
7.3983
 50
81.98448559
 51
89.92530145
  0
ARC
  8
LAYER_2
 10
-26.8475
 20
181.6397
 40
3.8232
 50
35.43849788
 51
46.35534565
  0
ARC
  8
LAYER_2
 10
-26.8304
 20
181.1313
 40
4.022
 50
1.072003919
 51
17.04648857
  0
ARC
  8
LAYER_2
 10
-27.9959
 20
180.8416
 40
5.2216
 50
16.33573739
 51
35.26660091
  0
ARC
  8
LAYER_2
 10
-21.1703
 20
183.045
 40
2.3655
 50
66.02537042
 51
93.36493663
  0
LINE
  8
LAYER_2
 10
-24.2088
 20
185.2064
 11
-24.2088
 21
184.4063
  0
LINE
  8
LAYER_2
 10
-22.4091
 20
185.2064
 11
-22.4091
 21
184.8063
  0
ARC
  8
LAYER_2
 10
-15.7823
 20
181.6479
 40
3.8089
 50
133.5975766
 51
144.5410725
  0
ARC
  8
LAYER_2
 10
-15.7889
 20
181.1311
 40
4.0209
 50
162.9403044
 51
178.9249964
  0
ARC
  8
LAYER_2
 10
-14.6181
 20
180.8397
 40
5.2261
 50
144.7286106
 51
163.6521827
  0
LINE
  8
LAYER_2
 10
-20.2091
 20
185.2064
 11
-20.2091
 21
184.8063
  0
LINE
  8
LAYER_2
 10
-18.4089
 20
185.2064
 11
-18.4089
 21
184.4063
  0
ARC
  8
LAYER_2
 10
75.8928
 20
182.1856
 40
3.2253
 50
86.98866074
 51
110.51029
  0
ARC
  8
LAYER_2
 10
75.7029
 20
186.7879
 40
2.5604
 50
248.4560539
 51
259.437932
  0
ARC
  8
LAYER_2
 10
76.2311
 20
182.1783
 40
3.2325
 50
69.5147248
 51
92.99559977
  0
ARC
  8
LAYER_2
 10
78.4936
 20
182.1787
 40
3.2321
 50
87.00302895
 51
110.4866464
  0
ARC
  8
LAYER_2
 10
78.8316
 20
182.1793
 40
3.2315
 50
69.5111547
 51
92.99784542
  0
ARC
  8
LAYER_2
 10
79.0149
 20
186.816
 40
2.5893
 50
280.6126377
 51
291.4709013
  0
ARC
  8
LAYER_2
 10
76.0871
 20
183.9506
 40
1.8251
 50
113.0495834
 51
136.5241727
  0
ARC
  8
LAYER_2
 10
77.0417
 20
181.7885
 40
4.1885
 50
97.85597501
 51
113.4844985
  0
ARC
  8
LAYER_2
 10
77.3707
 20
180.0595
 40
5.9469
 50
90.07954156
 51
98.71903118
  0
ARC
  8
LAYER_2
 10
78.6377
 20
183.9506
 40
1.8251
 50
43.47582729
 51
66.95041655
  0
ARC
  8
LAYER_2
 10
77.6831
 20
181.7885
 40
4.1885
 50
66.51550149
 51
82.14402497
  0
ARC
  8
LAYER_2
 10
77.3541
 20
180.0595
 40
5.9469
 50
81.28096879
 51
89.92045842
  0
LINE
  8
LAYER_2
 10
74.9408
 20
184.2198
 11
74.7627
 21
184.4063
  0
LINE
  8
LAYER_2
 10
74.7627
 20
185.2064
 11
74.7627
 21
184.4063
  0
LINE
  8
LAYER_2
 10
77.3624
 20
185.2064
 11
77.3624
 21
184.4063
  0
LINE
  8
LAYER_2
 10
79.785
 20
184.221
 11
79.9621
 21
184.4063
  0
LINE
  8
LAYER_2
 10
79.9621
 20
185.2064
 11
79.9621
 21
184.4063
  0
LINE
  8
LAYER_3
 10
126.9566
 20
57.1559
 11
293.4567
 21
57.1559
  0
LINE
  8
LAYER_3
 10
213.4567
 20
37.1557
 11
293.4567
 21
37.1557
  0
LINE
  8
LAYER_3
 10
126.9566
 20
44.6564
 11
213.4567
 21
44.6564
  0
LINE
  8
LAYER_3
 10
126.9566
 20
30.6562
 11
213.4567
 21
30.6562
  0
LINE
  8
LAYER_3
 10
138.4563
 20
30.6562
 11
138.4563
 21
44.6564
  0
LINE
  8
LAYER_3
 10
213.4567
 20
17.1562
 11
213.4567
 21
57.1559
  0
LINE
  8
LAYER_3
 10
126.9566
 20
17.1562
 11
126.9566
 21
57.1559
  0
LINE
  8
LAYER_3
 10
194.4563
 20
30.6562
 11
194.4563
 21
57.1559
  0
LINE
  8
LAYER_3
 10
175.4566
 20
30.6562
 11
175.4566
 21
57.1559
  0
LINE
  8
LAYER_3
 10
293.4567
 20
17.1562
 11
-83.0433
 21
17.1562
  0
LINE
  8
LAYER_3
 10
-83.0433
 20
17.1562
 11
-83.0433
 21
280.1562
  0
LINE
  8
LAYER_3
 10
-83.0433
 20
280.1562
 11
293.4567
 21
280.1562
  0
LINE
  8
LAYER_3
 10
293.4567
 20
280.1562
 11
293.4567
 21
17.1562
  0
TEXT
  8
LAYER_3
 10
153.4949
 20
49.1839
 11
153.4949
 21
49.1839
 40
4.4979
 41
0.5
 72
1
  1
セラトレーディング株式会社
  0
TEXT
  8
LAYER_3
 10
127.9281
 20
40.658
 11
127.9281
 21
40.658
 40
3.0923
 41
0.5
  1
製図
  0
TEXT
  8
LAYER_3
 10
127.9281
 20
26.4587
 11
127.9281
 21
26.4587
 40
3.0923
 41
0.5
  1
備考
  0
TEXT
  8
LAYER_3
 10
139.5463
 20
40.658
 11
139.5463
 21
40.658
 40
3.0923
 41
0.5
  1
検図
  0
TEXT
  8
LAYER_3
 10
176.4998
 20
40.658
 11
176.4998
 21
40.658
 40
3.0923
 41
0.5
  1
日付
  0
TEXT
  8
LAYER_3
 10
219.0853
 20
45.4728
 11
219.0853
 21
45.4728
 40
3.9357
 41
0.5
  1
アストリア　湯水混合水栓
  0
TEXT
  8
LAYER_3
 10
253.4564
 20
20.3547
 11
253.4564
 21
20.3547
 40
3.9357
 41
0.5
 72
1
  1
HR21260Y
  0
TEXT
  8
LAYER_3
 10
195.5498
 20
40.658
 11
195.5498
 21
40.658
 40
3.0923
 41
0.5
  1
尺度
  0
TEXT
  8
LAYER_3
 10
195.5498
 20
53.0652
 11
195.5498
 21
53.0652
 40
3.0923
 41
0.5
  1
単位
  0
TEXT
  8
LAYER_3
 10
203.2744
 20
48.0691
 11
203.2744
 21
48.0691
 40
3.6546
 41
0.5
 72
1
  1
mm
  0
TEXT
  8
LAYER_3
 10
214.5116
 20
53.0652
 11
214.5116
 21
53.0652
 40
3.0923
 41
0.5
  1
名称
  0
TEXT
  8
LAYER_3
 10
214.5116
 20
32.9265
 11
214.5116
 21
32.9265
 40
3.0923
 41
0.5
  1
品番
  0
LINE
  8
LAYER_3
 10
213.4567
 20
27.156
 11
293.4567
 21
27.156
  0
TEXT
  8
LAYER_3
 10
214.5116
 20
22.9268
 11
214.5116
 21
22.9268
 40
3.0923
 41
0.5
  1
図番
  0
INSERT
  8
LAYER_3
  2
AIGNBL03010002
 10
0
 20
0
 30
0
  0
LINE
  8
LAYER_3
 10
-83.0433
 20
148.6576
 11
-104.7936
 21
148.6576
  0
LINE
  8
LAYER_3
 10
105.2067
 20
297.1763
 11
105.2067
 21
280.1562
  0
LINE
  8
LAYER_3
 10
105.2067
 20
17.1562
 11
105.2067
 21
0.176
  0
LINE
  8
LAYER_3
 10
315.2069
 20
148.6576
 11
293.4567
 21
148.6576
  0
TEXT
  8
LAYER_3
 10
134.4938
 20
21.9546
 11
134.4938
 21
21.9546
 40
3.9357
 41
0.5
  1
（社）日本水道協会認証品
  0
TEXT
  8
LAYER_3
 10
293.4567
 20
12.8082
 11
293.4567
 21
12.8082
 40
3.3734
 41
0.5
 72
2
  1
A3
  0
TEXT
  8
LAYER_3
 10
177.6925
 20
34.4651
 11
177.6925
 21
34.4651
 40
3.6546
 41
0.5
  1
23.06.26
  0
TEXT
  8
LAYER_3
 10
132.6465
 20
34.8502
 11
132.6465
 21
34.8502
 40
3.6546
 41
0.5
 72
1
  1
木場
  0
TEXT
  8
LAYER_3
 10
151.2204
 20
34.8502
 11
151.2204
 21
34.8502
 40
3.6546
 41
0.5
 72
1
  1
井田
  0
TEXT
  8
LAYER_3
 10
253.4564
 20
30.3551
 11
253.4564
 21
30.3551
 40
3.9357
 41
0.5
 72
1
  1
図中の表参照
  0
TEXT
  8
LAYER_3
 10
203.8663
 20
34.4651
 11
203.8663
 21
34.4651
 40
3.6546
 41
0.5
 72
1
  1
1 ： 5
  0
LINE
  8
LAYER_3
 10
126.9566
 20
75.5544
 11
290.1597
 21
75.5544
  0
LINE
  8
LAYER_3
 10
126.9566
 20
89.1284
 11
290.1597
 21
89.1284
  0
TEXT
  8
LAYER_3
 10
169.5094
 20
69.912
 11
169.5094
 21
69.912
 40
3.9357
 41
0.5
  1
（1）水圧は湯水ほぼ同圧、且つ湯圧が水圧より高くならないように設定してください。
  0
TEXT
  8
LAYER_3
 10
169.5094
 20
63.8318
 11
169.5094
 21
63.8318
 40
3.9357
 41
0.5
  1
（2）湯水を逆に配管しないでください。
  0
TEXT
  8
LAYER_3
 10
169.5094
 20
83.6145
 11
169.5094
 21
83.6145
 40
3.9357
 41
0.5
  1
65℃
  0
TEXT
  8
LAYER_3
 10
169.5094
 20
77.5343
 11
169.5094
 21
77.5343
 40
3.9357
 41
0.5
  1
※安全のため給湯温度は60℃以下でのご使用をおすすめします。
  0
LINE
  8
LAYER_3
 10
126.9566
 20
102.7024
 11
290.1597
 21
102.7024
  0
TEXT
  8
LAYER_3
 10
169.5094
 20
97.1886
 11
169.5094
 21
97.1886
 40
3.9357
 41
0.5
  1
1～40℃
  0
TEXT
  8
LAYER_3
 10
169.5094
 20
91.1083
 11
169.5094
 21
91.1083
 40
3.9357
 41
0.5
  1
※寒冷地仕様ではありません、凍結が予想される場合は凍結予防をしてください。
  0
TEXT
  8
LAYER_3
 10
129.4953
 20
69.912
 11
129.4953
 21
69.912
 40
3.9357
 41
0.5
  1
特記事項
  0
TEXT
  8
LAYER_3
 10
129.4953
 20
83.6145
 11
129.4953
 21
83.6145
 40
3.9357
 41
0.5
  1
最高給湯温度
  0
TEXT
  8
LAYER_3
 10
129.4953
 20
97.1886
 11
129.4953
 21
97.1886
 40
3.9357
 41
0.5
  1
使用環境温度
  0
LINE
  8
LAYER_3
 10
145.6397
 20
124.0389
 11
290.1597
 21
124.0389
  0
TEXT
  8
LAYER_3
 10
147.4139
 20
118.5251
 11
147.4139
 21
118.5251
 40
3.9357
 41
0.5
  1
最高水圧
  0
LINE
  8
LAYER_3
 10
126.9566
 20
110.4649
 11
290.1597
 21
110.4649
  0
TEXT
  8
LAYER_3
 10
169.5094
 20
104.8105
 11
169.5094
 21
104.8105
 40
3.9357
 41
0.5
  1
水道水
  0
TEXT
  8
LAYER_3
 10
129.4953
 20
104.8105
 11
129.4953
 21
104.8105
 40
3.9357
 41
0.5
  1
使用可能水質
  0
LINE
  8
LAYER_3
 10
126.9566
 20
131.8014
 11
290.1597
 21
131.8014
  0
TEXT
  8
LAYER_3
 10
169.5094
 20
126.147
 11
169.5094
 21
126.147
 40
3.9357
 41
0.5
  1
0.1MPa（流動圧）
  0
TEXT
  8
LAYER_3
 10
147.4139
 20
126.147
 11
147.4139
 21
126.147
 40
3.9357
 41
0.5
  1
最低必要水圧
  0
LINE
  8
LAYER_3
 10
290.1597
 20
139.5639
 11
126.9566
 21
139.5639
  0
LINE
  8
LAYER_3
 10
126.9566
 20
139.5639
 11
126.9566
 21
61.9804
  0
LINE
  8
LAYER_3
 10
126.9566
 20
61.9804
 11
290.1597
 21
61.9804
  0
LINE
  8
LAYER_3
 10
290.1597
 20
61.9804
 11
290.1597
 21
139.5639
  0
LINE
  8
LAYER_3
 10
166.9707
 20
139.5639
 11
166.9707
 21
61.9804
  0
LINE
  8
LAYER_3
 10
145.6397
 20
131.8014
 11
145.6397
 21
110.4649
  0
TEXT
  8
LAYER_3
 10
169.5094
 20
133.9095
 11
169.5094
 21
133.9095
 40
3.9357
 41
0.5
  1
一般住宅用（屋内用）
  0
TEXT
  8
LAYER_3
 10
129.4953
 20
133.9095
 11
129.4953
 21
133.9095
 40
3.9357
 41
0.5
  1
用途
  0
TEXT
  8
LAYER_3
 10
129.4953
 20
126.147
 11
129.4953
 21
126.147
 40
3.9357
 41
0.5
  1
給水圧力
  0
TEXT
  8
LAYER_3
 10
169.5094
 20
118.5251
 11
169.5094
 21
118.5251
 40
3.9357
 41
0.5
  1
0.5MPa（流動圧）
  0
TEXT
  8
LAYER_3
 10
169.5094
 20
112.4448
 11
169.5094
 21
112.4448
 40
3.9357
 41
0.5
  1
※快適にお使いいただくためには、0.2～0.3MPa程度の圧力をおすすめします。
  0
TEXT
  8
LAYER_3
 10
244.5597
 20
253.5561
 11
244.5597
 21
253.5561
 40
3.3734
 41
0.5
  1
注：色番号はカタログを参照ください
  0
LINE
  8
LAYER_3
 10
244.5597
 20
273.1563
 11
293.4567
 21
273.1563
  0
LINE
  8
LAYER_3
 10
244.5597
 20
266.1564
 11
293.4567
 21
266.1564
  0
TEXT
  8
LAYER_3
 10
257.4196
 20
275.3071
 11
257.4196
 21
275.3071
 40
3.3734
 41
0.5
 72
1
  1
品番
  0
TEXT
  8
LAYER_3
 10
257.4196
 20
268.3071
 11
257.4196
 21
268.3071
 40
3.3734
 41
0.5
 72
1
  1
HR21260Y-PB
  0
TEXT
  8
LAYER_3
 10
281.5804
 20
275.3071
 11
281.5804
 21
275.3071
 40
3.3734
 41
0.5
 72
1
  1
仕上
  0
TEXT
  8
LAYER_3
 10
282.4403
 20
268.307
 11
282.4403
 21
268.307
 40
3.3734
 41
0.5
 72
1
  1
ブラス
  0
LINE
  8
LAYER_3
 10
244.5597
 20
259.1564
 11
293.4567
 21
259.1564
  0
TEXT
  8
LAYER_3
 10
257.4196
 20
261.3072
 11
257.4196
 21
261.3072
 40
3.3734
 41
0.5
 72
1
  1
HR21260Y-CH
  0
TEXT
  8
LAYER_3
 10
282.3328
 20
261.307
 11
282.3328
 21
261.307
 40
3.3734
 41
0.5
 72
1
  1
クロム
  0
LINE
  8
LAYER_3
 10
269.875
 20
280.1562
 11
269.875
 21
259.1564
  0
LINE
  8
LAYER_3
 10
244.5597
 20
280.1562
 11
244.5597
 21
259.1564
  0
ENDSEC
  0
EOF
