  0
SECTION
  2
HEADER
  9
$ACADVER
  1
AC1009
  9
$LUNITS
 70
2
  9
$LUPREC
 70
4
  9
$LTSCALE
 40
1.0
  9
$EXTMIN
 10
-104.7936
 20
0.176
 30
0
  9
$EXTMAX
 10
315.2069
 20
297.1763
 30
0
  0
ENDSEC
  0
SECTION
  2
TABLES
  0
TABLE
  2
LTYPE
 70
256
  0
LTYPE
  2
AIGENLINE001
 70
64
  3
generate AI->DXF Converter
 72
65
 73
4
 40
5.8561
 49
3.5278
 49
-0.7761
 49
0.7761
 49
-0.7761
  0
LTYPE
  2
AIGENLINE002
 70
64
  3
generate AI->DXF Converter
 72
65
 73
4
 40
10.3001
 49
8
 49
-0.7
 49
0.9
 49
-0.7
  0
LTYPE
  2
AIGENLINE003
 70
64
  3
generate AI->DXF Converter
 72
65
 73
4
 40
9.4368
 49
4.9389
 49
-1.4993
 49
1.4993
 49
-1.4993
  0
ENDTAB
  0
TABLE
  2
LAYER
 70
3
  0
LAYER
  2
LAYER_1
 70
64
 62
7
  6
CONTINUOUS
  0
LAYER
  2
LAYER_2
 70
64
 62
7
  6
CONTINUOUS
  0
LAYER
  2
LAYER_3
 70
64
 62
7
  6
CONTINUOUS
  0
ENDTAB
  0
TABLE
  2
STYLE
 70
6
  0
STYLE
  2
STANDARD
 70
0
 40
0
 50
0
 71
0
 41
0
 42
0
  3
TXT
  4
BIGFONT
  0
ENDTAB
  0
ENDSEC
  0
SECTION
  2
BLOCKS
  0
BLOCK
  8
LAYER_2
  2
AIGNBL02020003
 70
64
 10
0
 20
0
 30
0
  3
AIGNBL02020003
  0
LINE
  8
LAYER_2
 10
59.0143
 20
265.5438
 11
39.0686
 21
265.5438
  0
LINE
  8
LAYER_2
 10
41.279
 20
266.136
 11
39.0686
 21
265.5438
  0
LINE
  8
LAYER_2
 10
39.0686
 20
265.5438
 11
41.279
 21
264.9513
  0
LINE
  8
LAYER_2
 10
41.279
 20
264.9513
 11
41.279
 21
266.136
  0
LINE
  8
LAYER_2
 10
56.8308
 20
264.9589
 11
59.0412
 21
265.5511
  0
LINE
  8
LAYER_2
 10
59.0412
 20
265.5511
 11
56.8308
 21
266.1433
  0
LINE
  8
LAYER_2
 10
56.8308
 20
266.1433
 11
56.8308
 21
264.9589
  0
ENDBLK
  0
BLOCK
  8
LAYER_2
  2
AIGNBL02020005
 70
64
 10
0
 20
0
 30
0
  3
AIGNBL02020005
  0
LINE
  8
LAYER_2
 10
79.0145
 20
265.5438
 11
59.0688
 21
265.5438
  0
LINE
  8
LAYER_2
 10
61.2522
 20
266.1288
 11
59.0419
 21
265.5366
  0
LINE
  8
LAYER_2
 10
59.0419
 20
265.5366
 11
61.2522
 21
264.944
  0
LINE
  8
LAYER_2
 10
61.2522
 20
264.944
 11
61.2522
 21
266.1288
  0
LINE
  8
LAYER_2
 10
76.831
 20
264.9589
 11
79.0413
 21
265.5511
  0
LINE
  8
LAYER_2
 10
79.0413
 20
265.5511
 11
76.831
 21
266.1433
  0
LINE
  8
LAYER_2
 10
76.831
 20
266.1433
 11
76.831
 21
264.9589
  0
ENDBLK
  0
BLOCK
  8
LAYER_2
  2
AIGNBL02020007
 70
64
 10
0
 20
0
 30
0
  3
AIGNBL02020007
  0
LINE
  8
LAYER_2
 10
41.516
 20
251.7674
 11
45.8339
 21
247.4495
  0
LINE
  8
LAYER_2
 10
45.8339
 20
247.4495
 11
52.2072
 21
247.4495
  0
LINE
  8
LAYER_2
 10
43.4976
 20
250.6233
 11
41.516
 21
251.7674
  0
LINE
  8
LAYER_2
 10
41.516
 20
251.7674
 11
42.6598
 21
249.7854
  0
LINE
  8
LAYER_2
 10
42.6598
 20
249.7854
 11
43.4976
 21
250.6233
  0
ENDBLK
  0
BLOCK
  8
LAYER_2
  2
AIGNBL02020009
 70
64
 10
0
 20
0
 30
0
  3
AIGNBL02020009
  0
LINE
  8
LAYER_2
 10
36.5661
 20
256.7173
 11
33.2874
 21
259.9958
  0
LINE
  8
LAYER_2
 10
34.5845
 20
257.8614
 11
36.5661
 21
256.7173
  0
LINE
  8
LAYER_2
 10
36.5661
 20
256.7173
 11
35.4216
 21
258.6989
  0
LINE
  8
LAYER_2
 10
35.4216
 20
258.6989
 11
34.5845
 21
257.8614
  0
ENDBLK
  0
BLOCK
  8
LAYER_2
  2
AIGNBL0202000B
 70
64
 10
0
 20
0
 30
0
  3
AIGNBL0202000B
  0
LINE
  8
LAYER_2
 10
61.5154
 20
251.7674
 11
65.8334
 21
247.4495
  0
LINE
  8
LAYER_2
 10
65.8334
 20
247.4495
 11
72.2066
 21
247.4495
  0
LINE
  8
LAYER_2
 10
63.4971
 20
250.6233
 11
61.5154
 21
251.7674
  0
LINE
  8
LAYER_2
 10
61.5154
 20
251.7674
 11
62.6592
 21
249.7854
  0
LINE
  8
LAYER_2
 10
62.6592
 20
249.7854
 11
63.4971
 21
250.6233
  0
ENDBLK
  0
BLOCK
  8
LAYER_2
  2
AIGNBL0202000D
 70
64
 10
0
 20
0
 30
0
  3
AIGNBL0202000D
  0
LINE
  8
LAYER_2
 10
56.5656
 20
256.7173
 11
53.2868
 21
259.9958
  0
LINE
  8
LAYER_2
 10
54.5839
 20
257.8614
 11
56.5656
 21
256.7173
  0
LINE
  8
LAYER_2
 10
56.5656
 20
256.7173
 11
55.4211
 21
258.6989
  0
LINE
  8
LAYER_2
 10
55.4211
 20
258.6989
 11
54.5839
 21
257.8614
  0
ENDBLK
  0
BLOCK
  8
LAYER_2
  2
AIGNBL0202000F
 70
64
 10
0
 20
0
 30
0
  3
AIGNBL0202000F
  0
LINE
  8
LAYER_2
 10
81.5149
 20
251.7674
 11
85.8328
 21
247.4495
  0
LINE
  8
LAYER_2
 10
85.8328
 20
247.4495
 11
92.2061
 21
247.4495
  0
LINE
  8
LAYER_2
 10
83.4965
 20
250.6233
 11
81.5149
 21
251.7674
  0
LINE
  8
LAYER_2
 10
81.5149
 20
251.7674
 11
82.6587
 21
249.7854
  0
LINE
  8
LAYER_2
 10
82.6587
 20
249.7854
 11
83.4965
 21
250.6233
  0
ENDBLK
  0
BLOCK
  8
LAYER_2
  2
AIGNBL02020011
 70
64
 10
0
 20
0
 30
0
  3
AIGNBL02020011
  0
LINE
  8
LAYER_2
 10
76.565
 20
256.7173
 11
73.2863
 21
259.9958
  0
LINE
  8
LAYER_2
 10
74.5834
 20
257.8614
 11
76.565
 21
256.7173
  0
LINE
  8
LAYER_2
 10
76.565
 20
256.7173
 11
75.4205
 21
258.6989
  0
LINE
  8
LAYER_2
 10
75.4205
 20
258.6989
 11
74.5834
 21
257.8614
  0
ENDBLK
  0
BLOCK
  8
LAYER_2
  2
AIGNBL02020013
 70
64
 10
0
 20
0
 30
0
  3
AIGNBL02020013
  0
LINE
  8
LAYER_2
 10
-36.554
 20
179.3176
 11
-48.9881
 21
179.3176
  0
LINE
  8
LAYER_2
 10
-46.8311
 20
179.8953
 11
-49.0414
 21
179.3033
  0
LINE
  8
LAYER_2
 10
-49.0414
 20
179.3033
 11
-46.8311
 21
178.7107
  0
LINE
  8
LAYER_2
 10
-46.8311
 20
178.7107
 11
-46.8311
 21
179.8953
  0
LINE
  8
LAYER_2
 10
-38.7647
 20
178.7253
 11
-36.554
 21
179.3176
  0
LINE
  8
LAYER_2
 10
-36.554
 20
179.3176
 11
-38.7647
 21
179.91
  0
LINE
  8
LAYER_2
 10
-38.7647
 20
179.91
 11
-38.7647
 21
178.7253
  0
ENDBLK
  0
BLOCK
  8
LAYER_2
  2
AIGNBL02020015
 70
64
 10
0
 20
0
 30
0
  3
AIGNBL02020015
  0
LINE
  8
LAYER_2
 10
-16.5546
 20
179.3176
 11
-28.8563
 21
179.3176
  0
LINE
  8
LAYER_2
 10
-26.6721
 20
179.9026
 11
-28.8825
 21
179.3105
  0
LINE
  8
LAYER_2
 10
-28.8825
 20
179.3105
 11
-26.6721
 21
178.718
  0
LINE
  8
LAYER_2
 10
-26.6721
 20
178.718
 11
-26.6721
 21
179.9026
  0
LINE
  8
LAYER_2
 10
-18.738
 20
178.7326
 11
-16.5277
 21
179.3248
  0
LINE
  8
LAYER_2
 10
-16.5277
 20
179.3248
 11
-18.738
 21
179.9172
  0
LINE
  8
LAYER_2
 10
-18.738
 20
179.9172
 11
-18.738
 21
178.7326
  0
ENDBLK
  0
BLOCK
  8
LAYER_2
  2
AIGNBL02020017
 70
64
 10
0
 20
0
 30
0
  3
AIGNBL02020017
  0
LINE
  8
LAYER_2
 10
-11.3614
 20
87.091
 11
-11.9536
 21
84.8806
  0
LINE
  8
LAYER_2
 10
-11.9536
 20
84.8806
 11
-12.5458
 21
87.091
  0
LINE
  8
LAYER_2
 10
-12.5458
 20
87.091
 11
-11.3614
 21
87.091
  0
LINE
  8
LAYER_2
 10
-12.5458
 20
155.6432
 11
-11.9536
 21
157.8536
  0
LINE
  8
LAYER_2
 10
-11.9536
 20
157.8536
 11
-11.3614
 21
155.6432
  0
LINE
  8
LAYER_2
 10
-11.3614
 20
155.6432
 11
-12.5458
 21
155.6432
  0
ENDBLK
  0
BLOCK
  8
LAYER_2
  2
AIGNBL02020019
 70
64
 10
0
 20
0
 30
0
  3
AIGNBL02020019
  0
LINE
  8
LAYER_2
 10
68.4732
 20
204.3346
 11
70.6835
 21
203.7424
  0
LINE
  8
LAYER_2
 10
70.6835
 20
203.7424
 11
68.4732
 21
203.1499
  0
LINE
  8
LAYER_2
 10
68.4732
 20
203.1499
 11
68.4732
 21
204.3346
  0
LINE
  8
LAYER_2
 10
43.8945
 20
203.1643
 11
41.6841
 21
203.7569
  0
LINE
  8
LAYER_2
 10
41.6841
 20
203.7569
 11
43.8945
 21
204.3491
  0
LINE
  8
LAYER_2
 10
43.8945
 20
204.3491
 11
43.8945
 21
203.1643
  0
ENDBLK
  0
BLOCK
  8
LAYER_2
  2
AIGNBL02020021
 70
64
 10
0
 20
0
 30
0
  3
AIGNBL02020021
  0
LINE
  8
LAYER_2
 10
-40.4904
 20
214.1714
 11
-42.7008
 21
214.7636
  0
LINE
  8
LAYER_2
 10
-42.7008
 20
214.7636
 11
-40.4904
 21
215.3562
  0
LINE
  8
LAYER_2
 10
-40.4904
 20
215.3562
 11
-40.4904
 21
214.1714
  0
LINE
  8
LAYER_2
 10
-24.9385
 20
215.3486
 11
-22.7282
 21
214.7564
  0
LINE
  8
LAYER_2
 10
-22.7282
 20
214.7564
 11
-24.9385
 21
214.1642
  0
LINE
  8
LAYER_2
 10
-24.9385
 20
214.1642
 11
-24.9385
 21
215.3486
  0
ENDBLK
  0
BLOCK
  8
LAYER_2
  2
AIGNBL02020023
 70
64
 10
0
 20
0
 30
0
  3
AIGNBL02020023
  0
LINE
  8
LAYER_2
 10
-22.755
 20
214.7636
 11
-42.7008
 21
214.7636
  0
LINE
  8
LAYER_2
 10
-2.7549
 20
214.7636
 11
-22.7006
 21
214.7636
  0
LINE
  8
LAYER_2
 10
-20.5171
 20
214.1787
 11
-22.7275
 21
214.7709
  0
LINE
  8
LAYER_2
 10
-22.7275
 20
214.7709
 11
-20.5171
 21
215.3634
  0
LINE
  8
LAYER_2
 10
-20.5171
 20
215.3634
 11
-20.5171
 21
214.1787
  0
LINE
  8
LAYER_2
 10
-4.9384
 20
215.3486
 11
-2.728
 21
214.7564
  0
LINE
  8
LAYER_2
 10
-2.728
 20
214.7564
 11
-4.9384
 21
214.1642
  0
LINE
  8
LAYER_2
 10
-4.9384
 20
214.1642
 11
-4.9384
 21
215.3486
  0
ENDBLK
  0
BLOCK
  8
LAYER_2
  2
AIGNBL0202002E
 70
64
 10
0
 20
0
 30
0
  3
AIGNBL0202002E
  0
LINE
  8
LAYER_2
 10
-55.1286
 20
151.8805
 11
-55.1286
 21
157.8267
  0
LINE
  8
LAYER_2
 10
-55.728
 20
160.064
 11
-55.1358
 21
157.8536
  0
LINE
  8
LAYER_2
 10
-55.1358
 20
157.8536
 11
-54.5436
 21
160.064
  0
LINE
  8
LAYER_2
 10
-54.5436
 20
160.064
 11
-55.728
 21
160.064
  0
ENDBLK
  0
BLOCK
  8
LAYER_2
  2
AIGNBL02020030
 70
64
 10
0
 20
0
 30
0
  3
AIGNBL02020030
  0
LINE
  8
LAYER_2
 10
-61.3284
 20
138.6537
 11
-61.3284
 21
157.8267
  0
LINE
  8
LAYER_2
 10
-60.7434
 20
155.6432
 11
-61.336
 21
157.8536
  0
LINE
  8
LAYER_2
 10
-61.336
 20
157.8536
 11
-61.9282
 21
155.6432
  0
LINE
  8
LAYER_2
 10
-61.9282
 20
155.6432
 11
-60.7434
 21
155.6432
  0
LINE
  8
LAYER_2
 10
-61.9133
 20
140.8641
 11
-61.3215
 21
138.6537
  0
LINE
  8
LAYER_2
 10
-61.3215
 20
138.6537
 11
-60.7289
 21
140.8641
  0
LINE
  8
LAYER_2
 10
-60.7289
 20
140.8641
 11
-61.9133
 21
140.8641
  0
ENDBLK
  0
BLOCK
  8
LAYER_2
  2
AIGNBL02020036
 70
64
 10
0
 20
0
 30
0
  3
AIGNBL02020036
  0
LINE
  8
LAYER_2
 10
-44.8006
 20
126.4033
 11
-40.654
 21
126.4033
  0
LINE
  8
LAYER_2
 10
-47.0109
 20
126.9959
 11
-44.8006
 21
126.4033
  0
LINE
  8
LAYER_2
 10
-44.8006
 20
126.4033
 11
-47.0109
 21
125.8111
  0
LINE
  8
LAYER_2
 10
-47.0109
 20
125.8111
 11
-47.0109
 21
126.9959
  0
LINE
  8
LAYER_2
 10
-38.4436
 20
125.8107
 11
-40.654
 21
126.4033
  0
LINE
  8
LAYER_2
 10
-40.654
 20
126.4033
 11
-38.4436
 21
126.9955
  0
LINE
  8
LAYER_2
 10
-38.4436
 20
126.9955
 11
-38.4436
 21
125.8107
  0
ENDBLK
  0
BLOCK
  8
LAYER_2
  2
AIGNBL02010002
 70
64
 10
0
 20
0
 30
0
  3
AIGNBL02010002
  0
INSERT
  8
LAYER_2
  2
AIGNBL02020003
 10
0
 20
0
 30
0
  0
ENDBLK
  0
BLOCK
  8
LAYER_2
  2
AIGNBL02010004
 70
64
 10
0
 20
0
 30
0
  3
AIGNBL02010004
  0
INSERT
  8
LAYER_2
  2
AIGNBL02020005
 10
0
 20
0
 30
0
  0
ENDBLK
  0
BLOCK
  8
LAYER_2
  2
AIGNBL02010006
 70
64
 10
0
 20
0
 30
0
  3
AIGNBL02010006
  0
INSERT
  8
LAYER_2
  2
AIGNBL02020007
 10
0
 20
0
 30
0
  0
ENDBLK
  0
BLOCK
  8
LAYER_2
  2
AIGNBL02010008
 70
64
 10
0
 20
0
 30
0
  3
AIGNBL02010008
  0
INSERT
  8
LAYER_2
  2
AIGNBL02020009
 10
0
 20
0
 30
0
  0
ENDBLK
  0
BLOCK
  8
LAYER_2
  2
AIGNBL0201000A
 70
64
 10
0
 20
0
 30
0
  3
AIGNBL0201000A
  0
INSERT
  8
LAYER_2
  2
AIGNBL0202000B
 10
0
 20
0
 30
0
  0
ENDBLK
  0
BLOCK
  8
LAYER_2
  2
AIGNBL0201000C
 70
64
 10
0
 20
0
 30
0
  3
AIGNBL0201000C
  0
INSERT
  8
LAYER_2
  2
AIGNBL0202000D
 10
0
 20
0
 30
0
  0
ENDBLK
  0
BLOCK
  8
LAYER_2
  2
AIGNBL0201000E
 70
64
 10
0
 20
0
 30
0
  3
AIGNBL0201000E
  0
INSERT
  8
LAYER_2
  2
AIGNBL0202000F
 10
0
 20
0
 30
0
  0
ENDBLK
  0
BLOCK
  8
LAYER_2
  2
AIGNBL02010010
 70
64
 10
0
 20
0
 30
0
  3
AIGNBL02010010
  0
INSERT
  8
LAYER_2
  2
AIGNBL02020011
 10
0
 20
0
 30
0
  0
ENDBLK
  0
BLOCK
  8
LAYER_2
  2
AIGNBL02010012
 70
64
 10
0
 20
0
 30
0
  3
AIGNBL02010012
  0
INSERT
  8
LAYER_2
  2
AIGNBL02020013
 10
0
 20
0
 30
0
  0
ENDBLK
  0
BLOCK
  8
LAYER_2
  2
AIGNBL02010014
 70
64
 10
0
 20
0
 30
0
  3
AIGNBL02010014
  0
INSERT
  8
LAYER_2
  2
AIGNBL02020015
 10
0
 20
0
 30
0
  0
ENDBLK
  0
BLOCK
  8
LAYER_2
  2
AIGNBL02010016
 70
64
 10
0
 20
0
 30
0
  3
AIGNBL02010016
  0
INSERT
  8
LAYER_2
  2
AIGNBL02020017
 10
0
 20
0
 30
0
  0
ENDBLK
  0
BLOCK
  8
LAYER_2
  2
AIGNBL02010018
 70
64
 10
0
 20
0
 30
0
  3
AIGNBL02010018
  0
INSERT
  8
LAYER_2
  2
AIGNBL02020019
 10
0
 20
0
 30
0
  0
ENDBLK
  0
BLOCK
  8
LAYER_2
  2
AIGNBL0201001A
 70
64
 10
0
 20
0
 30
0
  3
AIGNBL0201001A
  0
LINE
  8
LAYER_2
 10
32.6841
 20
157.8536
 11
63.2835
 21
157.8536
  0
ENDBLK
  0
BLOCK
  8
LAYER_2
  2
AIGNBL0201001B
 70
64
 10
0
 20
0
 30
0
  3
AIGNBL0201001B
  0
LINE
  8
LAYER_2
 10
55.357
 20
199.8536
 11
85.9112
 21
199.8536
  0
ENDBLK
  0
BLOCK
  8
LAYER_2
  2
AIGNBL0201001C
 70
64
 10
0
 20
0
 30
0
  3
AIGNBL0201001C
  0
LINE
  8
LAYER_2
 10
33.2987
 20
183.6427
 11
33.8913
 21
185.8534
  0
LINE
  8
LAYER_2
 10
33.8913
 20
185.8534
 11
34.4839
 21
183.6427
  0
LINE
  8
LAYER_2
 10
34.4839
 20
183.6427
 11
33.2987
 21
183.6427
  0
LINE
  8
LAYER_2
 10
34.4687
 20
160.0647
 11
33.8768
 21
157.8536
  0
LINE
  8
LAYER_2
 10
33.8768
 20
157.8536
 11
33.2843
 21
160.0647
  0
LINE
  8
LAYER_2
 10
33.2843
 20
160.0647
 11
34.4687
 21
160.0647
  0
ENDBLK
  0
BLOCK
  8
LAYER_2
  2
AIGNBL0201001D
 70
64
 10
0
 20
0
 30
0
  3
AIGNBL0201001D
  0
LINE
  8
LAYER_2
 10
49.8848
 20
183.2893
 11
50.4773
 21
185.5
  0
LINE
  8
LAYER_2
 10
50.4773
 20
185.5
 11
51.0699
 21
183.2893
  0
LINE
  8
LAYER_2
 10
51.0699
 20
183.2893
 11
49.8848
 21
183.2893
  0
LINE
  8
LAYER_2
 10
51.0548
 20
160.0647
 11
50.4629
 21
157.8536
  0
LINE
  8
LAYER_2
 10
50.4629
 20
157.8536
 11
49.8703
 21
160.0647
  0
LINE
  8
LAYER_2
 10
49.8703
 20
160.0647
 11
51.0548
 21
160.0647
  0
ENDBLK
  0
BLOCK
  8
LAYER_2
  2
AIGNBL0201001E
 70
64
 10
0
 20
0
 30
0
  3
AIGNBL0201001E
  0
LINE
  8
LAYER_2
 10
77.9014
 20
157.8536
 11
85.7589
 21
157.8536
  0
ENDBLK
  0
BLOCK
  8
LAYER_2
  2
AIGNBL0201001F
 70
64
 10
0
 20
0
 30
0
  3
AIGNBL0201001F
  0
LINE
  8
LAYER_2
 10
84.3929
 20
197.6429
 11
84.9855
 21
199.8536
  0
LINE
  8
LAYER_2
 10
84.9855
 20
199.8536
 11
85.5781
 21
197.6429
  0
LINE
  8
LAYER_2
 10
85.5781
 20
197.6429
 11
84.3929
 21
197.6429
  0
LINE
  8
LAYER_2
 10
85.5629
 20
160.0647
 11
84.971
 21
157.8536
  0
LINE
  8
LAYER_2
 10
84.971
 20
157.8536
 11
84.3785
 21
160.0647
  0
LINE
  8
LAYER_2
 10
84.3785
 20
160.0647
 11
85.5629
 21
160.0647
  0
ENDBLK
  0
BLOCK
  8
LAYER_2
  2
AIGNBL02010020
 70
64
 10
0
 20
0
 30
0
  3
AIGNBL02010020
  0
INSERT
  8
LAYER_2
  2
AIGNBL02020021
 10
0
 20
0
 30
0
  0
ENDBLK
  0
BLOCK
  8
LAYER_2
  2
AIGNBL02010022
 70
64
 10
0
 20
0
 30
0
  3
AIGNBL02010022
  0
INSERT
  8
LAYER_2
  2
AIGNBL02020023
 10
0
 20
0
 30
0
  0
ENDBLK
  0
BLOCK
  8
LAYER_2
  2
AIGNBL02010024
 70
64
 10
0
 20
0
 30
0
  3
AIGNBL02010024
  0
LINE
  8
LAYER_2
 10
-22.6668
 20
41.1389
 11
15.2749
 21
41.1389
  0
LINE
  8
LAYER_2
 10
13.5028
 20
40.6704
 11
15.2722
 21
41.1444
  0
LINE
  8
LAYER_2
 10
15.2722
 20
41.1444
 11
13.5028
 21
41.6185
  0
LINE
  8
LAYER_2
 10
13.5028
 20
41.6185
 11
13.5028
 21
40.6704
  0
LINE
  8
LAYER_2
 10
-20.9191
 20
41.6068
 11
-22.6886
 21
41.1327
  0
LINE
  8
LAYER_2
 10
-22.6886
 20
41.1327
 11
-20.9191
 21
40.6587
  0
LINE
  8
LAYER_2
 10
-20.9191
 20
40.6587
 11
-20.9191
 21
41.6068
  0
ENDBLK
  0
BLOCK
  8
LAYER_2
  2
AIGNBL02010025
 70
64
 10
0
 20
0
 30
0
  3
AIGNBL02010025
  0
LINE
  8
LAYER_2
 10
-33.5768
 20
67.0905
 11
-33.5768
 21
59.77
  0
LINE
  8
LAYER_2
 10
-34.0446
 20
61.6348
 11
-33.5705
 21
59.8654
  0
LINE
  8
LAYER_2
 10
-33.5705
 20
59.8654
 11
-33.0965
 21
61.6348
  0
LINE
  8
LAYER_2
 10
-33.0965
 20
61.6348
 11
-34.0446
 21
61.6348
  0
LINE
  8
LAYER_2
 10
-33.1082
 20
65.319
 11
-33.5823
 21
67.0884
  0
LINE
  8
LAYER_2
 10
-33.5823
 20
67.0884
 11
-34.0563
 21
65.319
  0
LINE
  8
LAYER_2
 10
-34.0563
 20
65.319
 11
-33.1082
 21
65.319
  0
ENDBLK
  0
BLOCK
  8
LAYER_2
  2
AIGNBL02010026
 70
64
 10
0
 20
0
 30
0
  3
AIGNBL02010026
  0
LINE
  8
LAYER_2
 10
-16.4274
 20
72.2158
 11
-29.0275
 21
72.2158
  0
LINE
  8
LAYER_2
 10
-27.256
 20
72.6843
 11
-29.0251
 21
72.2102
  0
LINE
  8
LAYER_2
 10
-29.0251
 20
72.2102
 11
-27.256
 21
71.7355
  0
LINE
  8
LAYER_2
 10
-27.256
 20
71.7355
 11
-27.256
 21
72.6843
  0
LINE
  8
LAYER_2
 10
-18.1992
 20
71.7476
 11
-16.4298
 21
72.2216
  0
LINE
  8
LAYER_2
 10
-16.4298
 20
72.2216
 11
-18.1992
 21
72.6956
  0
LINE
  8
LAYER_2
 10
-18.1992
 20
72.6956
 11
-18.1992
 21
71.7476
  0
ENDBLK
  0
BLOCK
  8
LAYER_2
  2
AIGNBL02010027
 70
64
 10
0
 20
0
 30
0
  3
AIGNBL02010027
  0
LINE
  8
LAYER_2
 10
-26.6663
 20
49.1426
 11
-28.6747
 21
46.258
  0
LINE
  8
LAYER_2
 10
-27.2912
 20
47.5072
 11
-26.669
 21
49.2301
  0
LINE
  8
LAYER_2
 10
-26.669
 20
49.2301
 11
-28.0687
 21
48.0484
  0
LINE
  8
LAYER_2
 10
-28.0687
 20
48.0484
 11
-27.2912
 21
47.5072
  0
ENDBLK
  0
BLOCK
  8
LAYER_2
  2
AIGNBL02010028
 70
64
 10
0
 20
0
 30
0
  3
AIGNBL02010028
  0
LINE
  8
LAYER_2
 10
-3.7539
 20
59.586
 11
-3.7539
 21
49.0031
  0
LINE
  8
LAYER_2
 10
-4.2225
 20
55.2049
 11
-3.7484
 21
53.4355
  0
LINE
  8
LAYER_2
 10
-3.7484
 20
53.4355
 11
-3.2744
 21
55.2049
  0
LINE
  8
LAYER_2
 10
-3.2744
 20
55.2049
 11
-4.2225
 21
55.2049
  0
LINE
  8
LAYER_2
 10
-3.2854
 20
50.585
 11
-3.7594
 21
52.3544
  0
LINE
  8
LAYER_2
 10
-3.7594
 20
52.3544
 11
-4.2342
 21
50.585
  0
LINE
  8
LAYER_2
 10
-4.2342
 20
50.585
 11
-3.2854
 21
50.585
  0
ENDBLK
  0
BLOCK
  8
LAYER_2
  2
AIGNBL02010029
 70
64
 10
0
 20
0
 30
0
  3
AIGNBL02010029
  0
LINE
  8
LAYER_2
 10
8.4946
 20
153.3973
 11
-0.1008
 21
153.3973
  0
LINE
  8
LAYER_2
 10
2.0834
 20
153.9823
 11
-0.1273
 21
153.3901
  0
LINE
  8
LAYER_2
 10
-0.1273
 20
153.3901
 11
2.0834
 21
152.7976
  0
LINE
  8
LAYER_2
 10
2.0834
 20
152.7976
 11
2.0834
 21
153.9823
  0
ENDBLK
  0
BLOCK
  8
LAYER_2
  2
AIGNBL0201002A
 70
64
 10
0
 20
0
 30
0
  3
AIGNBL0201002A
  0
LINE
  8
LAYER_2
 10
-5.3552
 20
153.3973
 11
-8.6913
 21
153.3973
  0
LINE
  8
LAYER_2
 10
-7.5387
 20
152.8124
 11
-5.328
 21
153.4046
  0
LINE
  8
LAYER_2
 10
-5.328
 20
153.4046
 11
-7.5387
 21
153.9971
  0
LINE
  8
LAYER_2
 10
-7.5387
 20
153.9971
 11
-7.5387
 21
152.8124
  0
ENDBLK
  0
BLOCK
  8
LAYER_2
  2
AIGNBL0201002B
 70
64
 10
0
 20
0
 30
0
  3
AIGNBL0201002B
  0
LINE
  8
LAYER_2
 10
-14.6239
 20
101.9655
 11
-22.201
 21
101.9655
  0
LINE
  8
LAYER_2
 10
-20.0169
 20
102.5505
 11
-22.2276
 21
101.9583
  0
LINE
  8
LAYER_2
 10
-22.2276
 20
101.9583
 11
-20.0169
 21
101.3657
  0
LINE
  8
LAYER_2
 10
-20.0169
 20
101.3657
 11
-20.0169
 21
102.5505
  0
ENDBLK
  0
BLOCK
  8
LAYER_2
  2
AIGNBL0201002C
 70
64
 10
0
 20
0
 30
0
  3
AIGNBL0201002C
  0
LINE
  8
LAYER_2
 10
-23.2553
 20
101.9655
 11
-28.8046
 21
101.9655
  0
LINE
  8
LAYER_2
 10
-25.4388
 20
101.3805
 11
-23.2277
 21
101.9727
  0
LINE
  8
LAYER_2
 10
-23.2277
 20
101.9727
 11
-25.4388
 21
102.5653
  0
LINE
  8
LAYER_2
 10
-25.4388
 20
102.5653
 11
-25.4388
 21
101.3805
  0
ENDBLK
  0
BLOCK
  8
LAYER_2
  2
AIGNBL0201002D
 70
64
 10
0
 20
0
 30
0
  3
AIGNBL0201002D
  0
INSERT
  8
LAYER_2
  2
AIGNBL0202002E
 10
0
 20
0
 30
0
  0
ENDBLK
  0
BLOCK
  8
LAYER_2
  2
AIGNBL0201002F
 70
64
 10
0
 20
0
 30
0
  3
AIGNBL0201002F
  0
INSERT
  8
LAYER_2
  2
AIGNBL02020030
 10
0
 20
0
 30
0
  0
ENDBLK
  0
BLOCK
  8
LAYER_2
  2
AIGNBL02010031
 70
64
 10
0
 20
0
 30
0
  3
AIGNBL02010031
  0
LINE
  8
LAYER_2
 10
-31.2823
 20
157.8536
 11
-31.2823
 21
152.4537
  0
ENDBLK
  0
BLOCK
  8
LAYER_2
  2
AIGNBL02010032
 70
64
 10
0
 20
0
 30
0
  3
AIGNBL02010032
  0
LINE
  8
LAYER_2
 10
-55.1282
 20
151.8267
 11
-55.1282
 21
147.6706
  0
LINE
  8
LAYER_2
 10
-40.654
 20
126.4033
 11
-36.1449
 21
126.4033
  0
LINE
  8
LAYER_2
 10
-54.2411
 20
126.4033
 11
-44.8006
 21
126.4033
  0
LINE
  8
LAYER_2
 10
-55.7132
 20
149.6432
 11
-55.1214
 21
151.8536
  0
LINE
  8
LAYER_2
 10
-55.1214
 20
151.8536
 11
-54.5288
 21
149.6432
  0
LINE
  8
LAYER_2
 10
-54.5288
 20
149.6432
 11
-55.7132
 21
149.6432
  0
ENDBLK
  0
BLOCK
  8
LAYER_2
  2
AIGNBL02010033
 70
64
 10
0
 20
0
 30
0
  3
AIGNBL02010033
  0
LINE
  8
LAYER_2
 10
-31.8742
 20
155.6432
 11
-31.2823
 21
157.8536
  0
LINE
  8
LAYER_2
 10
-31.2823
 20
157.8536
 11
-30.6898
 21
155.6432
  0
LINE
  8
LAYER_2
 10
-30.6898
 20
155.6432
 11
-31.8742
 21
155.6432
  0
ENDBLK
  0
BLOCK
  8
LAYER_2
  2
AIGNBL02010034
 70
64
 10
0
 20
0
 30
0
  3
AIGNBL02010034
  0
LINE
  8
LAYER_2
 10
-30.6973
 20
154.6376
 11
-31.2899
 21
152.4265
  0
LINE
  8
LAYER_2
 10
-31.2899
 20
152.4265
 11
-31.8825
 21
154.6376
  0
LINE
  8
LAYER_2
 10
-31.8825
 20
154.6376
 11
-30.6973
 21
154.6376
  0
ENDBLK
  0
BLOCK
  8
LAYER_2
  2
AIGNBL02010035
 70
64
 10
0
 20
0
 30
0
  3
AIGNBL02010035
  0
INSERT
  8
LAYER_2
  2
AIGNBL02020036
 10
0
 20
0
 30
0
  0
ENDBLK
  0
BLOCK
  8
LAYER_2
  2
AIGNBL02010037
 70
64
 10
0
 20
0
 30
0
  3
AIGNBL02010037
  0
ARC
  8
LAYER_2
 10
72.8551
 20
173.223
 40
0.4901
 50
0.01798240409
 51
90.01709305
  0
LINE
  8
LAYER_2
 10
73.3452
 20
173.0943
 11
73.3452
 21
173.2232
  0
LINE
  8
LAYER_2
 10
72.855
 20
173.7131
 11
70.6839
 21
173.7131
  0
LINE
  8
LAYER_2
 10
73.4861
 20
173.0943
 11
70.6839
 21
173.0943
  0
LINE
  8
LAYER_2
 10
73.4861
 20
172.5094
 11
73.4861
 21
173.0943
  0
LINE
  8
LAYER_2
 10
73.4861
 20
172.5094
 11
70.6839
 21
172.5094
  0
LINE
  8
LAYER_2
 10
73.4861
 20
172.5094
 11
73.6574
 21
171.8756
  0
LINE
  8
LAYER_2
 10
73.1475
 20
172.5094
 11
73.1475
 21
173.0943
  0
LINE
  8
LAYER_2
 10
72.97
 20
172.5094
 11
72.97
 21
173.0943
  0
LINE
  8
LAYER_2
 10
72.7771
 20
172.5094
 11
72.7771
 21
173.0943
  0
LINE
  8
LAYER_2
 10
72.3555
 20
172.5094
 11
72.3555
 21
173.0943
  0
LINE
  8
LAYER_2
 10
72.5642
 20
172.5094
 11
72.5642
 21
173.0943
  0
LINE
  8
LAYER_2
 10
73.2935
 20
172.5094
 11
73.2935
 21
173.0943
  0
LINE
  8
LAYER_2
 10
73.3931
 20
172.5094
 11
73.3931
 21
173.0943
  0
LINE
  8
LAYER_2
 10
72.1253
 20
172.5094
 11
72.1253
 21
173.0943
  0
LINE
  8
LAYER_2
 10
71.8821
 20
172.5094
 11
71.8821
 21
173.0943
  0
LINE
  8
LAYER_2
 10
71.5858
 20
172.5094
 11
71.5858
 21
173.0943
  0
LINE
  8
LAYER_2
 10
71.2968
 20
172.5094
 11
71.2968
 21
173.0943
  0
LINE
  8
LAYER_2
 10
71.007
 20
172.5094
 11
71.007
 21
173.0943
  0
CIRCLE
  8
LAYER_2
 10
70.6839
 20
170.8829
 40
0.7896
  0
CIRCLE
  8
LAYER_2
 10
70.6839
 20
170.8829
 40
1.3503
  0
LINE
  8
LAYER_2
 10
71.7836
 20
167.9653
 11
71.7836
 21
167.5536
  0
ARC
  8
LAYER_2
 10
72.722
 20
168.6247
 40
0.7503
 50
90.00107888
 51
179.9989211
  0
LINE
  8
LAYER_2
 10
72.722
 20
169.375
 11
70.6839
 21
169.375
  0
LINE
  8
LAYER_2
 10
71.9717
 20
168.6247
 11
71.9717
 21
168.1534
  0
LINE
  8
LAYER_2
 10
71.9717
 20
168.1534
 11
70.6839
 21
168.1534
  0
LINE
  8
LAYER_2
 10
72.0836
 20
167.5536
 11
70.6839
 21
167.5536
  0
LINE
  8
LAYER_2
 10
71.9717
 20
168.1534
 11
71.7836
 21
167.9653
  0
LINE
  8
LAYER_2
 10
71.7836
 20
167.9653
 11
70.6839
 21
167.9653
  0
LINE
  8
LAYER_2
 10
75.2204
 20
172.0095
 11
75.2204
 21
170.8829
  0
ARC
  8
LAYER_2
 10
76.5721
 20
170.8831
 40
1.3502
 50
53.48276368
 51
143.4844049
  0
ARC
  8
LAYER_2
 10
76.5834
 20
170.8951
 40
1.3338
 50
33.41627263
 51
53.56154602
  0
ARC
  8
LAYER_2
 10
76.5718
 20
170.8827
 40
1.3499
 50
236.4308598
 51
326.4385519
  0
ARC
  8
LAYER_2
 10
76.5748
 20
170.8853
 40
1.3537
 50
216.5292461
 51
236.3870002
  0
ARC
  8
LAYER_2
 10
70.7028
 20
170.883
 40
7.0337
 50
353.9030865
 51
6.096913548
  0
LINE
  8
LAYER_2
 10
75.4874
 20
171.6865
 11
75.4874
 21
170.0795
  0
ARC
  8
LAYER_2
 10
74.3746
 20
172.7089
 40
1.0994
 50
230.2474761
 51
320.2947858
  0
LINE
  8
LAYER_2
 10
73.6715
 20
171.8636
 11
73.6577
 21
171.8756
  0
ARC
  8
LAYER_2
 10
75.6395
 20
170.8833
 40
2.0011
 50
154.3165201
 51
180.0127377
  0
ARC
  8
LAYER_2
 10
75.6384
 20
170.8833
 40
2
 50
180.0120936
 51
205.7826365
  0
LINE
  8
LAYER_2
 10
75.2204
 20
170.8829
 11
75.2204
 21
169.7564
  0
ARC
  8
LAYER_2
 10
74.3663
 20
169.0092
 40
1.1348
 50
41.18339347
 51
117.7769832
  0
ARC
  8
LAYER_2
 10
73.4374
 20
169.7751
 40
0.4001
 50
269.9779582
 51
359.9790861
  0
LINE
  8
LAYER_2
 10
73.4372
 20
169.375
 11
72.722
 21
169.375
  0
LINE
  8
LAYER_2
 10
73.8375
 20
169.775
 11
73.8375
 21
170.0134
  0
LINE
  8
LAYER_2
 10
75.2204
 20
172.0095
 11
75.4874
 21
171.6865
  0
LINE
  8
LAYER_2
 10
75.4874
 20
170.0795
 11
75.2204
 21
169.7564
  0
ARC
  8
LAYER_2
 10
72.8811
 20
165.5309
 40
0.7771
 50
197.8064168
 51
269.7997927
  0
ARC
  8
LAYER_2
 10
73.2221
 20
165.651
 40
1.1385
 50
179.8696886
 51
198.3165651
  0
LINE
  8
LAYER_2
 10
72.5063
 20
164.7538
 11
70.6839
 21
164.7538
  0
LINE
  8
LAYER_2
 10
70.6839
 20
164.7538
 11
68.8614
 21
164.7538
  0
LINE
  8
LAYER_2
 10
72.0836
 20
167.5536
 11
72.0836
 21
165.6536
  0
ARC
  8
LAYER_2
 10
72.9203
 20
164.3902
 40
0.3639
 50
2.147300248
 51
87.91814323
  0
LINE
  8
LAYER_2
 10
73.2839
 20
164.4038
 11
73.2839
 21
164.2535
  0
LINE
  8
LAYER_2
 10
73.4841
 20
161.6487
 11
73.4841
 21
161.0541
  0
LINE
  8
LAYER_2
 10
72.9335
 20
164.7538
 11
72.8784
 21
164.7538
  0
ARC
  8
LAYER_2
 10
73.1934
 20
161.6355
 40
0.291
 50
2.607291894
 51
43.20866498
  0
LINE
  8
LAYER_2
 10
73.2656
 20
164.2535
 11
70.6839
 21
164.2535
  0
LINE
  8
LAYER_2
 10
73.2656
 20
162.4542
 11
70.6839
 21
162.4542
  0
LINE
  8
LAYER_2
 10
73.2656
 20
161.7541
 11
70.6839
 21
161.7541
  0
LINE
  8
LAYER_2
 10
70.6839
 20
164.2535
 11
68.1021
 21
164.2535
  0
LINE
  8
LAYER_2
 10
73.4841
 20
161.0541
 11
70.6839
 21
161.0534
  0
LINE
  8
LAYER_2
 10
70.6839
 20
161.0534
 11
67.883
 21
161.0534
  0
ARC
  8
LAYER_2
 10
70.9011
 20
168.7464
 40
5.3116
 50
69.23769152
 51
92.34327296
  0
ARC
  8
LAYER_2
 10
68.5123
 20
173.223
 40
0.4901
 50
89.98500466
 51
179.9799198
  0
LINE
  8
LAYER_2
 10
68.0222
 20
173.0943
 11
68.0222
 21
173.2232
  0
LINE
  8
LAYER_2
 10
68.5124
 20
173.7131
 11
70.6839
 21
173.7131
  0
LINE
  8
LAYER_2
 10
67.8816
 20
173.0943
 11
70.6839
 21
173.0943
  0
LINE
  8
LAYER_2
 10
67.8816
 20
172.5094
 11
67.8816
 21
173.0943
  0
LINE
  8
LAYER_2
 10
67.8816
 20
172.5094
 11
70.6839
 21
172.5094
  0
LINE
  8
LAYER_2
 10
67.8816
 20
172.5094
 11
67.7101
 21
171.8756
  0
LINE
  8
LAYER_2
 10
68.2206
 20
172.5094
 11
68.2206
 21
173.0943
  0
LINE
  8
LAYER_2
 10
68.3974
 20
172.5094
 11
68.3974
 21
173.0943
  0
LINE
  8
LAYER_2
 10
68.5899
 20
172.5094
 11
68.5899
 21
173.0943
  0
LINE
  8
LAYER_2
 10
69.012
 20
172.5094
 11
69.012
 21
173.0943
  0
LINE
  8
LAYER_2
 10
68.8036
 20
172.5094
 11
68.8036
 21
173.0943
  0
LINE
  8
LAYER_2
 10
68.0739
 20
172.5094
 11
68.0739
 21
173.0943
  0
LINE
  8
LAYER_2
 10
67.974
 20
172.5094
 11
67.974
 21
173.0943
  0
LINE
  8
LAYER_2
 10
69.2424
 20
172.5094
 11
69.2424
 21
173.0943
  0
LINE
  8
LAYER_2
 10
69.4857
 20
172.5094
 11
69.4857
 21
173.0943
  0
LINE
  8
LAYER_2
 10
69.7816
 20
172.5094
 11
69.7816
 21
173.0943
  0
LINE
  8
LAYER_2
 10
70.0707
 20
172.5094
 11
70.0707
 21
173.0943
  0
LINE
  8
LAYER_2
 10
70.3607
 20
172.5094
 11
70.3607
 21
173.0943
  0
LINE
  8
LAYER_2
 10
70.6839
 20
172.5094
 11
70.6839
 21
173.0943
  0
ARC
  8
LAYER_2
 10
71.3939
 20
163.3348
 40
0.4999
 50
2.116553076
 51
47.25628636
  0
ARC
  8
LAYER_2
 10
70.9234
 20
162.8269
 40
1.1923
 50
47.21821687
 51
76.17650346
  0
ARC
  8
LAYER_2
 10
70.6879
 20
162.0582
 40
1.9955
 50
74.88242621
 51
90.11417061
  0
ARC
  8
LAYER_2
 10
70.6641
 20
162.2034
 40
1.8504
 50
89.38656104
 51
112.3682305
  0
ARC
  8
LAYER_2
 10
70.2841
 20
163.0714
 40
0.9033
 50
111.0331559
 51
144.6434712
  0
ARC
  8
LAYER_2
 10
69.9149
 20
163.3505
 40
0.441
 50
146.4636823
 51
179.6412563
  0
ARC
  8
LAYER_2
 10
69.9728
 20
163.3718
 40
0.4992
 50
182.1225207
 51
227.29154
  0
ARC
  8
LAYER_2
 10
70.4438
 20
163.8808
 40
1.1926
 50
227.2506961
 51
256.1984122
  0
ARC
  8
LAYER_2
 10
70.6799
 20
164.6524
 40
1.9989
 50
254.9026833
 51
270.1148085
  0
ARC
  8
LAYER_2
 10
70.7036
 20
164.5045
 40
1.851
 50
269.3887979
 51
292.3535806
  0
ARC
  8
LAYER_2
 10
71.0837
 20
163.6358
 40
0.9033
 50
291.0143933
 51
324.6107307
  0
ARC
  8
LAYER_2
 10
71.4534
 20
163.3561
 40
0.4401
 50
326.4295069
 51
359.6392409
  0
LINE
  8
LAYER_2
 10
69.5839
 20
167.9653
 11
69.5839
 21
167.5536
  0
ARC
  8
LAYER_2
 10
68.6458
 20
168.6247
 40
0.7503
 50
0.002859043681
 51
89.99714094
  0
LINE
  8
LAYER_2
 10
68.6458
 20
169.375
 11
70.6839
 21
169.375
  0
LINE
  8
LAYER_2
 10
69.3961
 20
168.6247
 11
69.3961
 21
168.1534
  0
LINE
  8
LAYER_2
 10
69.3961
 20
168.1534
 11
70.6839
 21
168.1534
  0
LINE
  8
LAYER_2
 10
69.2838
 20
167.5536
 11
70.6839
 21
167.5536
  0
LINE
  8
LAYER_2
 10
69.3961
 20
168.1534
 11
69.5839
 21
167.9653
  0
LINE
  8
LAYER_2
 10
69.5839
 20
167.9653
 11
70.6839
 21
167.9653
  0
LINE
  8
LAYER_2
 10
66.1467
 20
172.0095
 11
66.1467
 21
170.8829
  0
ARC
  8
LAYER_2
 10
64.7956
 20
170.8833
 40
1.35
 50
36.50811828
 51
126.5247131
  0
ARC
  8
LAYER_2
 10
64.7941
 20
170.8839
 40
1.3487
 50
126.4884211
 51
146.4269421
  0
ARC
  8
LAYER_2
 10
64.7955
 20
170.883
 40
1.3503
 50
213.5675154
 51
303.5678317
  0
ARC
  8
LAYER_2
 10
64.7863
 20
170.8927
 40
1.3635
 50
303.6645864
 51
323.3853589
  0
ARC
  8
LAYER_2
 10
70.6643
 20
170.883
 40
7.0337
 50
173.9030718
 51
186.0969282
  0
LINE
  8
LAYER_2
 10
65.8807
 20
171.6865
 11
65.8807
 21
170.0795
  0
ARC
  8
LAYER_2
 10
66.9928
 20
172.7097
 40
1.1002
 50
219.7328437
 51
309.7269244
  0
LINE
  8
LAYER_2
 10
67.6959
 20
171.8636
 11
67.7101
 21
171.8756
  0
ARC
  8
LAYER_2
 10
65.7327
 20
170.8827
 40
1.9967
 50
0.006642698036
 51
25.76451633
  0
ARC
  8
LAYER_2
 10
65.7294
 20
170.8835
 40
2
 50
334.21077
 51
359.9819778
  0
LINE
  8
LAYER_2
 10
66.1467
 20
170.8829
 11
66.1467
 21
169.7564
  0
ARC
  8
LAYER_2
 10
66.9929
 20
169.0529
 40
1.1004
 50
60.76953676
 51
140.2611656
  0
ARC
  8
LAYER_2
 10
67.9302
 20
169.775
 40
0.4
 50
180.0020058
 51
269.9979943
  0
LINE
  8
LAYER_2
 10
67.9302
 20
169.375
 11
68.6458
 21
169.375
  0
LINE
  8
LAYER_2
 10
67.5302
 20
169.775
 11
67.5302
 21
170.0134
  0
LINE
  8
LAYER_2
 10
66.1467
 20
172.0095
 11
65.8807
 21
171.6865
  0
LINE
  8
LAYER_2
 10
65.8807
 20
170.0795
 11
66.1467
 21
169.7564
  0
ARC
  8
LAYER_2
 10
68.4866
 20
165.5304
 40
0.7767
 50
270.2061381
 51
342.2156927
  0
ARC
  8
LAYER_2
 10
68.1449
 20
165.651
 40
1.1389
 50
341.6902114
 51
0.1302485082
  0
LINE
  8
LAYER_2
 10
69.2838
 20
167.5536
 11
69.2838
 21
165.6536
  0
ARC
  8
LAYER_2
 10
68.4473
 20
164.3907
 40
0.3634
 50
92.11861254
 51
177.9305191
  0
LINE
  8
LAYER_2
 10
68.0842
 20
164.4038
 11
68.0842
 21
164.2535
  0
LINE
  8
LAYER_2
 10
68.4339
 20
164.7538
 11
68.4894
 21
164.7538
  0
ARC
  8
LAYER_2
 10
72.6836
 20
163.3312
 40
1.1005
 50
1.171225535
 51
56.93906394
  0
ARC
  8
LAYER_2
 10
72.737
 20
163.3503
 40
1.0469
 50
311.6816334
 51
0.1836778062
  0
LINE
  8
LAYER_2
 10
68.1021
 20
162.4542
 11
70.6839
 21
162.4542
  0
LINE
  8
LAYER_2
 10
68.1021
 20
161.7541
 11
70.6839
 21
161.7541
  0
ARC
  8
LAYER_2
 10
73.8576
 20
162.1851
 40
0.572
 50
137.9163797
 51
217.7755842
  0
ARC
  8
LAYER_2
 10
70.4666
 20
168.7467
 40
5.3114
 50
87.65517298
 51
110.7630005
  0
LINE
  8
LAYER_2
 10
73.5419
 20
164.0234
 11
73.2608
 21
164.0537
  0
ARC
  8
LAYER_2
 10
73.2497
 20
162.8282
 40
1.2255
 50
89.48090802
 51
118.0795959
  0
ARC
  8
LAYER_2
 10
73.0227
 20
163.2349
 40
0.7599
 50
117.4082483
 51
153.8478553
  0
ARC
  8
LAYER_2
 10
72.8167
 20
163.3528
 40
0.5233
 50
155.4988476
 51
179.9454938
  0
ARC
  8
LAYER_2
 10
72.8643
 20
163.3647
 40
0.571
 50
181.1431732
 51
222.8809048
  0
ARC
  8
LAYER_2
 10
73.1567
 20
163.6459
 40
0.9767
 50
223.2939649
 51
255.8031283
  0
ARC
  8
LAYER_2
 10
73.2604
 20
163.9726
 40
1.319
 50
254.9168762
 51
270.015721
  0
LINE
  8
LAYER_2
 10
73.2608
 20
162.6536
 11
73.5447
 21
162.684
  0
LINE
  8
LAYER_2
 10
67.8837
 20
161.6487
 11
67.8837
 21
161.0541
  0
ARC
  8
LAYER_2
 10
68.1753
 20
161.6356
 40
0.2919
 50
136.9751112
 51
177.4181875
  0
ARC
  8
LAYER_2
 10
68.6818
 20
163.3323
 40
1.0981
 50
122.9752074
 51
178.8853126
  0
ARC
  8
LAYER_2
 10
68.6296
 20
163.3498
 40
1.0456
 50
179.7857181
 51
228.3489707
  0
ARC
  8
LAYER_2
 10
67.5088
 20
162.1853
 40
0.5729
 50
322.2652335
 51
41.98042479
  0
LINE
  8
LAYER_2
 10
67.8255
 20
164.0234
 11
68.1063
 21
164.0537
  0
ARC
  8
LAYER_2
 10
68.1175
 20
162.8267
 40
1.227
 50
61.9377958
 51
90.5252141
  0
ARC
  8
LAYER_2
 10
68.3452
 20
163.2349
 40
0.7598
 50
26.15236247
 51
62.60580276
  0
ARC
  8
LAYER_2
 10
68.551
 20
163.3528
 40
0.5233
 50
0.05435288496
 51
24.49891113
  0
ARC
  8
LAYER_2
 10
68.5035
 20
163.3647
 40
0.5709
 50
317.1159288
 51
358.8592028
  0
ARC
  8
LAYER_2
 10
68.211
 20
163.6461
 40
0.9768
 50
284.180341
 51
316.6977283
  0
ARC
  8
LAYER_2
 10
68.1067
 20
163.9753
 40
1.3217
 50
269.9838398
 51
285.0678413
  0
LINE
  8
LAYER_2
 10
68.1063
 20
162.6536
 11
67.8231
 21
162.684
  0
LINE
  8
LAYER_2
 10
76.8844
 20
157.8536
 11
70.6846
 21
157.8536
  0
LINE
  8
LAYER_2
 10
74.2895
 20
159.4535
 11
70.6846
 21
159.4535
  0
LINE
  8
LAYER_2
 10
73.7783
 20
161.0541
 11
70.6846
 21
161.0541
  0
LINE
  8
LAYER_2
 10
64.4834
 20
157.8536
 11
70.6835
 21
157.8536
  0
LINE
  8
LAYER_2
 10
67.0786
 20
159.4535
 11
70.6835
 21
159.4535
  0
LINE
  8
LAYER_2
 10
67.5895
 20
161.0541
 11
70.6835
 21
161.0541
  0
ARC
  8
LAYER_2
 10
73.778
 20
160.409
 40
0.6451
 50
3.692314216
 51
89.97270388
  0
ARC
  8
LAYER_2
 10
75.9625
 20
158.1993
 40
0.8555
 50
9.137079012
 51
78.60197645
  0
LINE
  8
LAYER_2
 10
76.8072
 20
158.3352
 11
76.8844
 21
157.8536
  0
ARC
  8
LAYER_2
 10
76.0934
 20
160.7844
 40
1.7045
 50
191.2865879
 51
258.6019084
  0
LINE
  8
LAYER_2
 10
75.7565
 20
159.1135
 11
76.1316
 21
159.038
  0
ARC
  8
LAYER_2
 10
67.5897
 20
160.4094
 40
0.6447
 50
90.01342384
 51
176.3482213
  0
ARC
  8
LAYER_2
 10
65.4053
 20
158.1993
 40
0.8555
 50
101.3980521
 51
170.8628924
  0
LINE
  8
LAYER_2
 10
64.5606
 20
158.3352
 11
64.4834
 21
157.8536
  0
ARC
  8
LAYER_2
 10
65.274
 20
160.7852
 40
1.7054
 50
281.4066284
 51
348.6919984
  0
LINE
  8
LAYER_2
 10
65.6113
 20
159.1135
 11
65.2362
 21
159.038
  0
ENDBLK
  0
BLOCK
  8
LAYER_2
  2
AIGNBL02010038
 70
64
 10
0
 20
0
 30
0
  3
AIGNBL02010038
  0
LINE
  8
LAYER_2
 10
73.2843
 20
151.8536
 11
73.2843
 21
157.8536
  0
LINE
  8
LAYER_2
 10
73.0844
 20
151.8536
 11
73.0844
 21
157.8536
  0
LINE
  8
LAYER_2
 10
75.0843
 20
151.8536
 11
70.6842
 21
151.8536
  0
LINE
  8
LAYER_2
 10
75.0843
 20
151.6538
 11
70.6842
 21
151.6538
  0
LINE
  8
LAYER_2
 10
75.0843
 20
151.454
 11
70.6842
 21
151.454
  0
LINE
  8
LAYER_2
 10
75.0843
 20
151.454
 11
75.0843
 21
151.8536
  0
LINE
  8
LAYER_2
 10
73.801
 20
150.4535
 11
70.6842
 21
150.4535
  0
LINE
  8
LAYER_2
 10
73.801
 20
150.4535
 11
73.801
 21
151.454
  0
LINE
  8
LAYER_2
 10
67.5661
 20
150.4535
 11
67.5661
 21
151.454
  0
LINE
  8
LAYER_2
 10
70.6835
 20
150.4535
 11
70.6835
 21
151.454
  0
LINE
  8
LAYER_2
 10
72.4843
 20
147.0539
 11
70.6842
 21
147.0539
  0
LINE
  8
LAYER_2
 10
73.2843
 20
147.0539
 11
70.6842
 21
147.0539
  0
LINE
  8
LAYER_2
 10
73.2843
 20
147.0539
 11
73.2843
 21
150.4535
  0
LINE
  8
LAYER_2
 10
73.0844
 20
147.2537
 11
73.0844
 21
150.4535
  0
LINE
  8
LAYER_2
 10
73.2843
 20
147.2537
 11
70.6839
 21
147.2537
  0
LINE
  8
LAYER_2
 10
73.2843
 20
140.6539
 11
70.6842
 21
140.6539
  0
LINE
  8
LAYER_2
 10
72.7844
 20
138.8539
 11
72.7844
 21
140.6539
  0
LINE
  8
LAYER_2
 10
72.5846
 20
138.6537
 11
72.5846
 21
140.6539
  0
LINE
  8
LAYER_2
 10
73.2843
 20
140.6539
 11
73.2843
 21
147.0539
  0
LINE
  8
LAYER_2
 10
73.2843
 20
147.0539
 11
73.0844
 21
147.2537
  0
LINE
  8
LAYER_2
 10
72.7844
 20
138.8539
 11
70.6842
 21
138.8539
  0
LINE
  8
LAYER_2
 10
72.5846
 20
138.6537
 11
70.6839
 21
138.6537
  0
LINE
  8
LAYER_2
 10
72.5846
 20
138.6537
 11
72.7844
 21
138.8539
  0
LINE
  8
LAYER_2
 10
68.0835
 20
151.8536
 11
68.0835
 21
157.8536
  0
LINE
  8
LAYER_2
 10
68.2833
 20
151.8536
 11
68.2833
 21
157.8536
  0
LINE
  8
LAYER_2
 10
66.2835
 20
151.8536
 11
70.6835
 21
151.8536
  0
LINE
  8
LAYER_2
 10
66.2835
 20
151.6538
 11
70.6835
 21
151.6538
  0
LINE
  8
LAYER_2
 10
66.2835
 20
151.454
 11
70.6835
 21
151.454
  0
LINE
  8
LAYER_2
 10
66.2835
 20
151.454
 11
66.2835
 21
151.8536
  0
LINE
  8
LAYER_2
 10
67.5661
 20
150.4535
 11
70.6835
 21
150.4535
  0
LINE
  8
LAYER_2
 10
68.8835
 20
147.0539
 11
70.6835
 21
147.0539
  0
LINE
  8
LAYER_2
 10
68.0835
 20
147.0539
 11
70.6835
 21
147.0539
  0
LINE
  8
LAYER_2
 10
68.0835
 20
147.0539
 11
68.0835
 21
150.4535
  0
LINE
  8
LAYER_2
 10
68.2833
 20
147.2537
 11
68.2833
 21
150.4535
  0
LINE
  8
LAYER_2
 10
68.0835
 20
147.2537
 11
70.6839
 21
147.2537
  0
LINE
  8
LAYER_2
 10
68.0835
 20
140.6539
 11
70.6835
 21
140.6539
  0
LINE
  8
LAYER_2
 10
68.5834
 20
138.8539
 11
68.5834
 21
140.6539
  0
LINE
  8
LAYER_2
 10
68.7836
 20
138.6537
 11
68.7836
 21
140.6539
  0
LINE
  8
LAYER_2
 10
68.0835
 20
140.6539
 11
68.0835
 21
147.0539
  0
LINE
  8
LAYER_2
 10
68.0835
 20
147.0539
 11
68.2833
 21
147.2537
  0
LINE
  8
LAYER_2
 10
68.5834
 20
138.8539
 11
70.6835
 21
138.8539
  0
LINE
  8
LAYER_2
 10
68.7836
 20
138.6537
 11
70.6839
 21
138.6537
  0
LINE
  8
LAYER_2
 10
68.7836
 20
138.6537
 11
68.5834
 21
138.8539
  0
ENDBLK
  0
BLOCK
  8
LAYER_3
  2
AIGNBL03010002
 70
64
 10
0
 20
0
 30
0
  3
AIGNBL03010002
  0
ARC
  8
LAYER_3
 10
181.2361
 20
51.0518
 40
2.085
 50
359.9990616
 51
90.00093841
  0
ARC
  8
LAYER_3
 10
181.2364
 20
51.0522
 40
2.0846
 50
90.00927268
 51
180.0099666
  0
ARC
  8
LAYER_3
 10
181.2361
 20
51.0519
 40
2.0843
 50
180.0023133
 51
270.0004358
  0
ARC
  8
LAYER_3
 10
181.2365
 20
51.0522
 40
2.0846
 50
269.9893525
 51
359.9886593
  0
ARC
  8
LAYER_3
 10
181.2365
 20
51.0515
 40
1.2199
 50
0.01483428533
 51
90.01804168
  0
ARC
  8
LAYER_3
 10
181.2361
 20
51.0519
 40
1.2195
 50
90.00175626
 51
180.0029419
  0
ARC
  8
LAYER_3
 10
181.2361
 20
51.0518
 40
1.2195
 50
180.0016044
 51
269.9983956
  0
ARC
  8
LAYER_3
 10
181.2365
 20
51.0522
 40
1.2199
 50
269.9818051
 51
359.9806209
  0
LINE
  8
LAYER_3
 10
184.9472
 20
49.8323
 11
184.9472
 21
52.2714
  0
LINE
  8
LAYER_3
 10
190.1252
 20
48.9676
 11
190.1252
 21
53.1368
  0
LINE
  8
LAYER_3
 10
184.9472
 20
52.2714
 11
190.1252
 21
53.1368
  0
LINE
  8
LAYER_3
 10
184.9472
 20
49.8323
 11
190.1252
 21
48.9676
  0
LINE
  8
LAYER_3
 10
181.2361
 20
51.0518
 11
181.2361
 21
50.8004
  0
LINE
  8
LAYER_3
 10
181.2361
 20
50.5599
 11
181.2361
 21
48.3729
  0
LINE
  8
LAYER_3
 10
181.2361
 20
51.0518
 11
181.4883
 21
51.0518
  0
LINE
  8
LAYER_3
 10
181.7288
 20
51.0518
 11
183.9157
 21
51.0518
  0
LINE
  8
LAYER_3
 10
181.2361
 20
51.0518
 11
181.2361
 21
51.304
  0
LINE
  8
LAYER_3
 10
181.2361
 20
51.5445
 11
181.2361
 21
53.7314
  0
LINE
  8
LAYER_3
 10
181.2361
 20
51.0518
 11
180.9846
 21
51.0518
  0
LINE
  8
LAYER_3
 10
180.7442
 20
51.0518
 11
178.5572
 21
51.0518
  0
LINE
  8
LAYER_3
 10
187.1404
 20
51.0518
 11
187.3925
 21
51.0518
  0
LINE
  8
LAYER_3
 10
187.633
 20
51.0518
 11
190.5579
 21
51.0518
  0
LINE
  8
LAYER_3
 10
187.1404
 20
51.0518
 11
186.8882
 21
51.0518
  0
LINE
  8
LAYER_3
 10
186.6477
 20
51.0518
 11
184.4614
 21
51.0518
  0
ENDBLK
  0
ENDSEC
  0
SECTION
  2
ENTITIES
  0
TEXT
  8
LAYER_1
 10
-2.7027
 20
134.0218
 11
-2.7027
 21
134.0218
 40
3.0923
 41
0.5
 72
1
  1
水側
  0
TEXT
  8
LAYER_1
 10
-45.5211
 20
134.0218
 11
-45.5211
 21
134.0218
 40
3.0923
 41
0.5
 72
2
  1
湯側
  0
TEXT
  8
LAYER_1
 10
-77.8468
 20
23.1786
 11
-77.8468
 21
23.1786
 40
3.6546
 41
0.5
  1
※国産洗面器とのセットの場合は、国産の排水ヘッド部を別途準備してください。
  0
TEXT
  8
LAYER_1
 10
59.2699
 20
236.8482
 11
59.2699
 21
236.8482
 40
3.0923
 41
0.5
 72
1
  1
水栓金具取付穴
  0
TEXT
  8
LAYER_1
 10
-10.1532
 20
231.2793
 11
-10.1532
 21
231.2793
 40
3.0923
 41
0.5
 72
1
  1
スパウト
  0
TEXT
  8
LAYER_1
 10
-11.9116
 20
226.6226
 11
-11.9116
 21
226.6226
 40
3.0923
 41
0.5
 72
1
  1
回転360%%d
  0
TEXT
  8
LAYER_1
 10
49.0415
 20
266.1898
 11
49.0415
 21
266.1898
 40
3.0923
 41
0.5
 72
1
  1
100
  0
TEXT
  8
LAYER_1
 10
51.0589
 20
248.1495
 11
51.0589
 21
248.1495
 40
3.0923
 41
0.5
 72
2
  1
%%c35
  0
TEXT
  8
LAYER_1
 10
71.0584
 20
248.1495
 11
71.0584
 21
248.1495
 40
3.0923
 41
0.5
 72
2
  1
%%c35
  0
TEXT
  8
LAYER_1
 10
91.0578
 20
248.1495
 11
91.0578
 21
248.1495
 40
3.0923
 41
0.5
 72
2
  1
%%c35
  0
TEXT
  8
LAYER_1
 10
69.0416
 20
266.2439
 11
69.0416
 21
266.2439
 40
3.0923
 41
0.5
 72
1
  1
100
  0
TEXT
  8
LAYER_1
 10
-43.5362
 20
180.0176
 11
-43.5362
 21
180.0176
 40
3.0923
 41
0.5
 72
1
  1
%%c62
  0
TEXT
  8
LAYER_1
 10
-10.1425
 20
180.0176
 11
-10.1425
 21
180.0176
 40
3.0923
 41
0.5
 72
2
  1
%%c62
  0
TEXT
  8
LAYER_1
 10
-12.6537
 20
121.3535
 11
-12.6537
 21
121.3535
 40
3.0923
 41
0.5
 50
89.99999999
 72
1
  1
365
  0
TEXT
  8
LAYER_1
 10
56.1707
 20
204.9424
 11
56.1707
 21
204.9424
 40
3.0923
 41
0.5
 72
1
  1
145
  0
TEXT
  8
LAYER_1
 10
32.691
 20
171.826
 11
32.691
 21
171.826
 40
3.0923
 41
0.5
 50
89.99999999
 72
1
  1
140
  0
TEXT
  8
LAYER_1
 10
49.7773
 20
171.6495
 11
49.7773
 21
171.6495
 40
3.0923
 41
0.5
 50
89.99999999
 72
1
  1
138
  0
TEXT
  8
LAYER_1
 10
83.9851
 20
178.6461
 11
83.9851
 21
178.6461
 40
3.0923
 41
0.5
 50
89.99999999
 72
1
  1
210
  0
TEXT
  8
LAYER_1
 10
40.8283
 20
168.502
 11
40.8283
 21
168.502
 40
3.0923
 41
0.5
 72
1
  1
12%%d
  0
TEXT
  8
LAYER_1
 10
-32.7279
 20
215.9091
 11
-32.7279
 21
215.9091
 40
3.0923
 41
0.5
 72
1
  1
100
  0
TEXT
  8
LAYER_1
 10
-12.7277
 20
215.9632
 11
-12.7277
 21
215.9632
 40
3.0923
 41
0.5
 72
1
  1
100
  0
TEXT
  8
LAYER_1
 10
-4.454
 20
58.3612
 11
-4.454
 21
58.3612
 40
3.0923
 41
0.5
 50
89.99999999
 72
2
  1
%%c5
  0
TEXT
  8
LAYER_1
 10
-23.6635
 20
72.9158
 11
-23.6635
 21
72.9158
 40
3.0923
 41
0.5
 72
1
  1
%%c63
  0
TEXT
  8
LAYER_1
 10
-38.3317
 20
46.9146
 11
-38.3317
 21
46.9146
 40
3.0923
 41
0.5
  1
G1 1/4
  0
TEXT
  8
LAYER_1
 10
-34.6379
 20
63.8225
 11
-34.6379
 21
63.8225
 40
3.0923
 41
0.5
 50
89.99999999
 72
1
  1
max.50
  0
TEXT
  8
LAYER_1
 10
-3.8642
 20
42.0226
 11
-3.8642
 21
42.0226
 40
3.0923
 41
0.5
 72
1
  1
190
  0
TEXT
  8
LAYER_1
 10
7.3463
 20
154.0974
 11
7.3463
 21
154.0974
 40
3.0923
 41
0.5
 72
2
  1
%%c26
  0
TEXT
  8
LAYER_1
 10
-16.1549
 20
102.6656
 11
-16.1549
 21
102.6656
 40
3.0923
 41
0.5
 72
2
  1
%%c5
  0
TEXT
  8
LAYER_1
 10
-62.0284
 20
148.2538
 11
-62.0284
 21
148.2538
 40
3.0923
 41
0.5
 50
89.99999999
 72
1
  1
96
  0
TEXT
  8
LAYER_1
 10
-56.1356
 20
169.1172
 11
-56.1356
 21
169.1172
 40
3.0923
 41
0.5
 50
89.99999999
 72
2
  1
max.45
  0
TEXT
  8
LAYER_1
 10
-32.1994
 20
155.389
 11
-32.1994
 21
155.389
 40
3.0923
 41
0.5
 50
89.99999999
 72
1
  1
max.27
  0
TEXT
  8
LAYER_1
 10
-54.2411
 20
127.1034
 11
-54.2411
 21
127.1034
 40
3.0923
 41
0.5
  1
G 1/2
  0
CIRCLE
  8
LAYER_2
 10
79.042
 20
254.2429
 40
3.4997
  0
LINE
  8
LAYER_2
  6
AIGENLINE001
 10
39.0417
 20
248.7428
 11
39.0417
 21
259.743
  0
LINE
  8
LAYER_2
  6
AIGENLINE001
 10
84.5239
 20
254.2429
 11
33.5413
 21
254.2429
  0
LINE
  8
LAYER_2
  6
AIGENLINE001
 10
59.0412
 20
248.7428
 11
59.0412
 21
259.743
  0
LINE
  8
LAYER_2
  6
AIGENLINE001
 10
79.0413
 20
248.7428
 11
79.0413
 21
259.743
  0
LINE
  8
LAYER_2
  6
AIGENLINE001
 10
-42.7934
 20
244.6691
 11
-42.7934
 21
263.8204
  0
CIRCLE
  8
LAYER_2
 10
-42.7276
 20
254.2429
 40
2.1
  0
CIRCLE
  8
LAYER_2
 10
-42.7276
 20
254.2429
 40
2.6615
  0
ARC
  8
LAYER_2
 10
-42.7261
 20
254.244
 40
3.153
 50
17.88863766
 51
72.04926533
  0
ARC
  8
LAYER_2
 10
-42.728
 20
254.2426
 40
3.1541
 50
107.8937356
 51
162.0357013
  0
ARC
  8
LAYER_2
 10
-42.7279
 20
254.2416
 40
3.1528
 50
197.8872358
 51
252.0506672
  0
ARC
  8
LAYER_2
 10
-42.7262
 20
254.2426
 40
3.1532
 50
287.8853722
 51
342.0440648
  0
LINE
  8
LAYER_2
 10
-38.1904
 20
255.3694
 11
-38.1904
 21
254.2429
  0
ARC
  8
LAYER_2
 10
-36.839
 20
254.2431
 40
1.3501
 50
53.477575
 51
143.4895936
  0
ARC
  8
LAYER_2
 10
-36.8433
 20
254.2393
 40
1.3558
 50
33.60309927
 51
53.42815205
  0
ARC
  8
LAYER_2
 10
-36.839
 20
254.2426
 40
1.3499
 50
236.4239272
 51
326.4384119
  0
ARC
  8
LAYER_2
 10
-36.8405
 20
254.2418
 40
1.3484
 50
216.5240503
 51
236.4615995
  0
ARC
  8
LAYER_2
 10
-42.7068
 20
254.2429
 40
7.0325
 50
353.9016255
 51
6.098374501
  0
LINE
  8
LAYER_2
 10
-37.9241
 20
255.0464
 11
-37.9241
 21
253.4393
  0
ARC
  8
LAYER_2
 10
-39.0365
 20
256.0694
 40
1.1001
 50
231.1961523
 51
320.27306
  0
ARC
  8
LAYER_2
 10
-39.0364
 20
252.4138
 40
1.0996
 50
39.70424653
 51
128.9004122
  0
ARC
  8
LAYER_2
 10
-37.429
 20
254.2378
 40
2.495
 50
157.0140144
 51
179.8822313
  0
ARC
  8
LAYER_2
 10
-37.4288
 20
254.248
 40
2.4952
 50
180.1161122
 51
202.9853225
  0
ARC
  8
LAYER_2
 10
-42.732
 20
259.5414
 40
2.4947
 50
270.1006198
 51
292.975801
  0
LINE
  8
LAYER_2
 10
-38.1904
 20
254.2429
 11
-38.1904
 21
253.1163
  0
LINE
  8
LAYER_2
 10
-38.1904
 20
255.3694
 11
-37.9241
 21
255.0464
  0
LINE
  8
LAYER_2
 10
-37.9241
 20
253.4393
 11
-38.1904
 21
253.1163
  0
LINE
  8
LAYER_2
 10
-43.8542
 20
258.7797
 11
-42.7276
 21
258.7797
  0
ARC
  8
LAYER_2
 10
-42.7275
 20
260.1314
 40
1.3503
 50
143.4882591
 51
233.484845
  0
ARC
  8
LAYER_2
 10
-42.7202
 20
260.1235
 40
1.3608
 50
123.6453216
 51
143.4046237
  0
ARC
  8
LAYER_2
 10
-42.7275
 20
260.1314
 40
1.3504
 50
326.4306208
 51
56.42226832
  0
ARC
  8
LAYER_2
 10
-42.7272
 20
260.1311
 40
1.35
 50
306.5183679
 51
326.4325804
  0
ARC
  8
LAYER_2
 10
-42.7275
 20
254.2426
 40
7.0532
 50
83.9200543
 51
96.07994568
  0
LINE
  8
LAYER_2
 10
-43.531
 20
259.0464
 11
-41.9239
 21
259.0464
  0
ARC
  8
LAYER_2
 10
-44.5535
 20
257.9341
 40
1.0995
 50
321.1586851
 51
50.26915294
  0
ARC
  8
LAYER_2
 10
-40.8982
 20
257.9339
 40
1.0997
 50
129.7263022
 51
218.9078951
  0
ARC
  8
LAYER_2
 10
-42.7227
 20
259.5442
 40
2.4975
 50
247.0374227
 51
269.8884731
  0
LINE
  8
LAYER_2
 10
-42.7276
 20
258.7797
 11
-41.6011
 21
258.7797
  0
LINE
  8
LAYER_2
 10
-43.8542
 20
258.7797
 11
-43.531
 21
259.0464
  0
LINE
  8
LAYER_2
 10
-41.9239
 20
259.0464
 11
-41.6011
 21
258.7797
  0
ARC
  8
LAYER_2
 10
-48.0215
 20
254.2389
 40
2.4903
 50
0.09130916958
 51
23.00780649
  0
LINE
  8
LAYER_2
 10
-47.2645
 20
253.1165
 11
-47.2645
 21
254.2429
  0
ARC
  8
LAYER_2
 10
-48.616
 20
254.243
 40
1.3503
 50
233.4893695
 51
323.4837346
  0
ARC
  8
LAYER_2
 10
-48.6143
 20
254.2447
 40
1.3527
 50
213.5923383
 51
233.4753967
  0
ARC
  8
LAYER_2
 10
-48.6158
 20
254.2423
 40
1.3508
 50
56.44172049
 51
146.4134837
  0
ARC
  8
LAYER_2
 10
-48.6206
 20
254.2388
 40
1.3564
 50
36.54205601
 51
56.35727821
  0
ARC
  8
LAYER_2
 10
-42.7
 20
254.243
 40
7.0806
 50
173.9428637
 51
186.0571363
  0
LINE
  8
LAYER_2
 10
-47.5308
 20
253.4395
 11
-47.5308
 21
255.0464
  0
ARC
  8
LAYER_2
 10
-46.4185
 20
252.4168
 40
1.0998
 50
51.19595289
 51
140.2902649
  0
ARC
  8
LAYER_2
 10
-46.4184
 20
256.0725
 40
1.1001
 50
219.7262567
 51
308.8961136
  0
ARC
  8
LAYER_2
 10
-48.0198
 20
254.2468
 40
2.4886
 50
336.9839077
 51
359.9100182
  0
LINE
  8
LAYER_2
 10
-47.2645
 20
254.2429
 11
-47.2645
 21
255.3694
  0
LINE
  8
LAYER_2
 10
-47.2645
 20
253.1165
 11
-47.5308
 21
253.4395
  0
LINE
  8
LAYER_2
 10
-47.5308
 20
255.0464
 11
-47.2645
 21
255.3694
  0
ARC
  8
LAYER_2
 10
-42.7229
 20
248.941
 40
2.4981
 50
90.10869489
 51
112.9540623
  0
LINE
  8
LAYER_2
 10
-41.6011
 20
249.706
 11
-42.7276
 21
249.706
  0
ARC
  8
LAYER_2
 10
-42.7274
 20
248.3544
 40
1.3502
 50
323.4771561
 51
53.49417684
  0
ARC
  8
LAYER_2
 10
-42.7241
 20
248.3523
 40
1.3462
 50
303.4971472
 51
323.4646919
  0
ARC
  8
LAYER_2
 10
-42.7278
 20
248.3545
 40
1.3499
 50
146.4221654
 51
236.4342908
  0
ARC
  8
LAYER_2
 10
-42.7267
 20
248.354
 40
1.3512
 50
126.5341829
 51
146.4336666
  0
ARC
  8
LAYER_2
 10
-42.7275
 20
254.2246
 40
7.0347
 50
263.9039659
 51
276.0960342
  0
LINE
  8
LAYER_2
 10
-41.9242
 20
249.4394
 11
-43.531
 21
249.4394
  0
ARC
  8
LAYER_2
 10
-40.9012
 20
250.5521
 40
1.0997
 50
141.1914531
 51
230.2940216
  0
ARC
  8
LAYER_2
 10
-44.5567
 20
250.5518
 40
1.0995
 50
309.7119184
 51
38.91489406
  0
ARC
  8
LAYER_2
 10
-42.7323
 20
248.9415
 40
2.4976
 50
67.04358293
 51
89.89134451
  0
LINE
  8
LAYER_2
 10
-42.7276
 20
249.706
 11
-43.8542
 21
249.706
  0
LINE
  8
LAYER_2
 10
-41.6011
 20
249.706
 11
-41.9242
 21
249.4394
  0
LINE
  8
LAYER_2
 10
-43.531
 20
249.4394
 11
-43.8542
 21
249.706
  0
LINE
  8
LAYER_2
  6
AIGENLINE001
 10
-2.7935
 20
244.6691
 11
-2.7935
 21
263.8204
  0
CIRCLE
  8
LAYER_2
 10
-2.7276
 20
254.2429
 40
2.1
  0
CIRCLE
  8
LAYER_2
 10
-2.7276
 20
254.2429
 40
2.6613
  0
ARC
  8
LAYER_2
 10
-2.7264
 20
254.2442
 40
3.1529
 50
17.88557053
 51
72.04385948
  0
ARC
  8
LAYER_2
 10
-2.729
 20
254.2438
 40
3.1528
 50
107.8903088
 51
162.0504124
  0
ARC
  8
LAYER_2
 10
-2.728
 20
254.2418
 40
3.1532
 50
197.8903324
 51
252.0475706
  0
ARC
  8
LAYER_2
 10
-2.7261
 20
254.2425
 40
3.1531
 50
287.8824082
 51
342.044208
  0
LINE
  8
LAYER_2
 10
1.8092
 20
255.3694
 11
1.8092
 21
254.2429
  0
ARC
  8
LAYER_2
 10
3.1608
 20
254.2427
 40
1.3505
 50
53.48571276
 51
143.4788002
  0
ARC
  8
LAYER_2
 10
3.1568
 20
254.2391
 40
1.3558
 50
33.61053881
 51
53.43851291
  0
ARC
  8
LAYER_2
 10
3.1609
 20
254.2429
 40
1.3503
 50
236.4290841
 51
326.429687
  0
ARC
  8
LAYER_2
 10
3.1585
 20
254.2414
 40
1.3477
 50
216.5257383
 51
236.4768072
  0
ARC
  8
LAYER_2
 10
-2.7072
 20
254.2429
 40
7.0325
 50
353.9016233
 51
6.098376665
  0
LINE
  8
LAYER_2
 10
2.0759
 20
255.0464
 11
2.0759
 21
253.4393
  0
ARC
  8
LAYER_2
 10
0.9633
 20
256.0692
 40
1.0998
 50
231.1965781
 51
320.2756028
  0
ARC
  8
LAYER_2
 10
0.9632
 20
252.4139
 40
1.0996
 50
39.70166801
 51
128.9029907
  0
ARC
  8
LAYER_2
 10
2.5694
 20
254.2381
 40
2.4934
 50
157.0062968
 51
179.8899489
  0
ARC
  8
LAYER_2
 10
2.5695
 20
254.2476
 40
2.4935
 50
180.1083955
 51
202.9930393
  0
ARC
  8
LAYER_2
 10
-2.7321
 20
259.5417
 40
2.495
 50
270.1023129
 51
292.9741079
  0
LINE
  8
LAYER_2
 10
1.8092
 20
254.2429
 11
1.8092
 21
253.1163
  0
LINE
  8
LAYER_2
 10
1.8092
 20
255.3694
 11
2.0759
 21
255.0464
  0
LINE
  8
LAYER_2
 10
2.0759
 20
253.4393
 11
1.8092
 21
253.1163
  0
LINE
  8
LAYER_2
 10
-3.8542
 20
258.7797
 11
-2.7276
 21
258.7797
  0
ARC
  8
LAYER_2
 10
-2.7275
 20
260.1314
 40
1.3503
 50
143.4917954
 51
233.4813086
  0
ARC
  8
LAYER_2
 10
-2.7286
 20
260.132
 40
1.3491
 50
123.5486808
 51
143.4843681
  0
ARC
  8
LAYER_2
 10
-2.7274
 20
260.1316
 40
1.35
 50
326.4073264
 51
56.42203355
  0
ARC
  8
LAYER_2
 10
-2.7263
 20
260.1289
 40
1.3476
 50
306.5426513
 51
326.47953
  0
ARC
  8
LAYER_2
 10
-2.7274
 20
254.2453
 40
7.0506
 50
83.91776767
 51
96.08223231
  0
LINE
  8
LAYER_2
 10
-3.5311
 20
259.0464
 11
-1.9239
 21
259.0464
  0
ARC
  8
LAYER_2
 10
-4.5538
 20
257.9339
 40
1.0996
 50
321.1769016
 51
50.28049872
  0
ARC
  8
LAYER_2
 10
-0.8981
 20
257.9337
 40
1.1
 50
129.7243636
 51
218.8802951
  0
ARC
  8
LAYER_2
 10
-2.7227
 20
259.5442
 40
2.4975
 50
247.0374227
 51
269.8884731
  0
LINE
  8
LAYER_2
 10
-2.7276
 20
258.7797
 11
-1.6011
 21
258.7797
  0
LINE
  8
LAYER_2
 10
-3.8542
 20
258.7797
 11
-3.5311
 21
259.0464
  0
LINE
  8
LAYER_2
 10
-1.9239
 20
259.0464
 11
-1.6011
 21
258.7797
  0
ARC
  8
LAYER_2
 10
-8.0252
 20
254.239
 40
2.4936
 50
0.09032784565
 51
22.97474469
  0
LINE
  8
LAYER_2
 10
-7.2645
 20
253.1165
 11
-7.2645
 21
254.2429
  0
ARC
  8
LAYER_2
 10
-8.6161
 20
254.2426
 40
1.3499
 50
233.4845052
 51
323.4912562
  0
ARC
  8
LAYER_2
 10
-8.6183
 20
254.2413
 40
1.3475
 50
213.5615542
 51
233.5239651
  0
ARC
  8
LAYER_2
 10
-8.6161
 20
254.243
 40
1.3502
 50
56.42425572
 51
146.4333263
  0
ARC
  8
LAYER_2
 10
-8.616
 20
254.2439
 40
1.3495
 50
36.49051511
 51
56.40881912
  0
ARC
  8
LAYER_2
 10
-2.7
 20
254.243
 40
7.0807
 50
173.9429109
 51
186.0570891
  0
LINE
  8
LAYER_2
 10
-7.5311
 20
253.4395
 11
-7.5311
 21
255.0464
  0
ARC
  8
LAYER_2
 10
-6.4185
 20
252.4167
 40
1.0998
 50
51.20125625
 51
140.2857048
  0
ARC
  8
LAYER_2
 10
-6.4186
 20
256.0721
 40
1.0997
 50
219.7167763
 51
308.9026515
  0
ARC
  8
LAYER_2
 10
-8.0235
 20
254.2468
 40
2.4919
 50
337.01698
 51
359.9109987
  0
LINE
  8
LAYER_2
 10
-7.2645
 20
254.2429
 11
-7.2645
 21
255.3694
  0
LINE
  8
LAYER_2
 10
-7.2645
 20
253.1165
 11
-7.5311
 21
253.4395
  0
LINE
  8
LAYER_2
 10
-7.5311
 20
255.0464
 11
-7.2645
 21
255.3694
  0
ARC
  8
LAYER_2
 10
-2.7229
 20
248.9414
 40
2.4977
 50
90.10700301
 51
112.9557542
  0
LINE
  8
LAYER_2
 10
-1.6011
 20
249.706
 11
-2.7276
 21
249.706
  0
ARC
  8
LAYER_2
 10
-2.7278
 20
248.3544
 40
1.3504
 50
323.4853155
 51
53.48601746
  0
ARC
  8
LAYER_2
 10
-2.724
 20
248.352
 40
1.3459
 50
303.5048485
 51
323.4738859
  0
ARC
  8
LAYER_2
 10
-2.7283
 20
248.3546
 40
1.3497
 50
146.421851
 51
236.4522534
  0
ARC
  8
LAYER_2
 10
-2.7267
 20
248.3533
 40
1.3518
 50
126.5180617
 51
146.4142033
  0
ARC
  8
LAYER_2
 10
-2.7274
 20
254.222
 40
7.032
 50
263.9016733
 51
276.0983268
  0
LINE
  8
LAYER_2
 10
-1.9243
 20
249.4394
 11
-3.5311
 21
249.4394
  0
ARC
  8
LAYER_2
 10
-0.9012
 20
250.5521
 40
1.1
 50
141.20707
 51
230.2784047
  0
ARC
  8
LAYER_2
 10
-4.5568
 20
250.5518
 40
1.0995
 50
309.7135468
 51
38.91326568
  0
ARC
  8
LAYER_2
 10
-2.7321
 20
248.9444
 40
2.4947
 50
67.03006023
 51
89.89560126
  0
LINE
  8
LAYER_2
 10
-2.7276
 20
249.706
 11
-3.8542
 21
249.706
  0
LINE
  8
LAYER_2
 10
-1.6011
 20
249.706
 11
-1.9243
 21
249.4394
  0
LINE
  8
LAYER_2
 10
-3.5311
 20
249.4394
 11
-3.8542
 21
249.706
  0
LINE
  8
LAYER_2
  6
AIGENLINE001
 10
-22.7278
 20
222.5037
 11
-22.7278
 21
263.8204
  0
LINE
  8
LAYER_2
  6
AIGENLINE001
 10
-51.0761
 20
254.2429
 11
5.4893
 21
254.2429
  0
LINE
  8
LAYER_2
  6
AIGENLINE001
 10
-34.263
 20
170.8836
 11
-50.8277
 21
170.8836
  0
ARC
  8
LAYER_2
 10
-40.5557
 20
173.2237
 40
0.4901
 50
0.02099228601
 51
90.01408317
  0
LINE
  8
LAYER_2
 10
-40.0656
 20
173.095
 11
-40.0656
 21
173.2239
  0
LINE
  8
LAYER_2
 10
-40.5558
 20
173.7138
 11
-42.7269
 21
173.7138
  0
LINE
  8
LAYER_2
 10
-39.925
 20
173.095
 11
-42.7269
 21
173.095
  0
LINE
  8
LAYER_2
 10
-39.925
 20
172.5099
 11
-39.925
 21
173.095
  0
LINE
  8
LAYER_2
 10
-39.925
 20
172.5099
 11
-42.7269
 21
172.5099
  0
LINE
  8
LAYER_2
 10
-39.925
 20
172.5099
 11
-39.7538
 21
171.8762
  0
LINE
  8
LAYER_2
 10
-40.2637
 20
172.5099
 11
-40.2637
 21
173.095
  0
LINE
  8
LAYER_2
 10
-40.4408
 20
172.5099
 11
-40.4408
 21
173.095
  0
LINE
  8
LAYER_2
 10
-40.6337
 20
172.5099
 11
-40.6337
 21
173.095
  0
LINE
  8
LAYER_2
 10
-41.0554
 20
172.5099
 11
-41.0554
 21
173.095
  0
LINE
  8
LAYER_2
 10
-40.8469
 20
172.5099
 11
-40.8469
 21
173.095
  0
LINE
  8
LAYER_2
 10
-40.1176
 20
172.5099
 11
-40.1176
 21
173.095
  0
LINE
  8
LAYER_2
 10
-40.0177
 20
172.5099
 11
-40.0177
 21
173.095
  0
LINE
  8
LAYER_2
 10
-41.2855
 20
172.5099
 11
-41.2855
 21
173.095
  0
LINE
  8
LAYER_2
 10
-41.5291
 20
172.5099
 11
-41.5291
 21
173.095
  0
LINE
  8
LAYER_2
 10
-41.825
 20
172.5099
 11
-41.825
 21
173.095
  0
LINE
  8
LAYER_2
 10
-42.1144
 20
172.5099
 11
-42.1144
 21
173.095
  0
LINE
  8
LAYER_2
 10
-42.4038
 20
172.5099
 11
-42.4038
 21
173.095
  0
CIRCLE
  8
LAYER_2
 10
-42.7269
 20
170.8836
 40
0.7895
  0
CIRCLE
  8
LAYER_2
 10
-42.7269
 20
170.8836
 40
1.3503
  0
LINE
  8
LAYER_2
 10
-41.6272
 20
167.966
 11
-41.6272
 21
167.5543
  0
ARC
  8
LAYER_2
 10
-40.689
 20
168.6256
 40
0.7501
 50
90.01711571
 51
180.013438
  0
LINE
  8
LAYER_2
 10
-40.6892
 20
169.3757
 11
-42.7269
 21
169.3757
  0
LINE
  8
LAYER_2
 10
-41.4391
 20
168.6254
 11
-41.4391
 21
168.1541
  0
LINE
  8
LAYER_2
 10
-41.4391
 20
168.1541
 11
-42.7269
 21
168.1541
  0
LINE
  8
LAYER_2
 10
-41.3272
 20
167.554
 11
-42.7269
 21
167.554
  0
LINE
  8
LAYER_2
 10
-41.4391
 20
168.1541
 11
-41.6272
 21
167.966
  0
LINE
  8
LAYER_2
 10
-41.6272
 20
167.966
 11
-42.7269
 21
167.966
  0
LINE
  8
LAYER_2
 10
-38.1904
 20
172.0102
 11
-38.1904
 21
170.8836
  0
ARC
  8
LAYER_2
 10
-36.8389
 20
170.8834
 40
1.3504
 50
53.4937797
 51
143.4793243
  0
ARC
  8
LAYER_2
 10
-36.831
 20
170.8917
 40
1.339
 50
33.47778078
 51
53.55347054
  0
ARC
  8
LAYER_2
 10
-36.8389
 20
170.883
 40
1.3497
 50
236.4165701
 51
326.4516517
  0
ARC
  8
LAYER_2
 10
-36.8359
 20
170.8869
 40
1.3546
 50
216.5494536
 51
236.4006012
  0
ARC
  8
LAYER_2
 10
-42.7064
 20
170.8837
 40
7.032
 50
353.9016727
 51
6.098327293
  0
LINE
  8
LAYER_2
 10
-37.9238
 20
171.687
 11
-37.9238
 21
170.0802
  0
ARC
  8
LAYER_2
 10
-39.0362
 20
172.7097
 40
1.0996
 50
230.2468093
 51
320.2874404
  0
LINE
  8
LAYER_2
 10
-39.7394
 20
171.8643
 11
-39.7535
 21
171.8762
  0
ARC
  8
LAYER_2
 10
-37.7717
 20
170.8839
 40
2.0007
 50
154.3140495
 51
180.009486
  0
ARC
  8
LAYER_2
 10
-37.7672
 20
170.8844
 40
2.0052
 50
180.0224421
 51
205.7289922
  0
LINE
  8
LAYER_2
 10
-38.1904
 20
170.8836
 11
-38.1904
 21
169.7571
  0
ARC
  8
LAYER_2
 10
-39.0364
 20
169.0541
 40
1.1
 50
39.72825432
 51
119.2365838
  0
ARC
  8
LAYER_2
 10
-39.9736
 20
169.7757
 40
0.4
 50
269.9985589
 51
0.001441113884
  0
LINE
  8
LAYER_2
 10
-39.9736
 20
169.3757
 11
-40.6892
 21
169.3757
  0
LINE
  8
LAYER_2
 10
-39.5736
 20
169.7757
 11
-39.5736
 21
170.0139
  0
LINE
  8
LAYER_2
 10
-38.1904
 20
172.0102
 11
-37.9238
 21
171.687
  0
LINE
  8
LAYER_2
 10
-37.9238
 20
170.0802
 11
-38.1904
 21
169.7571
  0
ARC
  8
LAYER_2
 10
-40.5299
 20
165.5308
 40
0.7767
 50
197.7606184
 51
269.7826466
  0
ARC
  8
LAYER_2
 10
-40.1881
 20
165.6517
 40
1.1391
 50
179.8706032
 51
198.3102486
  0
LINE
  8
LAYER_2
 10
-40.9048
 20
164.7541
 11
-42.7269
 21
164.7541
  0
LINE
  8
LAYER_2
 10
-42.7269
 20
164.7541
 11
-44.5494
 21
164.7541
  0
LINE
  8
LAYER_2
 10
-41.3272
 20
167.5543
 11
-41.3272
 21
165.6543
  0
ARC
  8
LAYER_2
 10
-40.4905
 20
164.3909
 40
0.3635
 50
2.132744228
 51
87.91638748
  0
LINE
  8
LAYER_2
 10
-40.1273
 20
164.4044
 11
-40.1273
 21
164.2542
  0
LINE
  8
LAYER_2
 10
-39.9271
 20
161.6494
 11
-39.9271
 21
161.0544
  0
LINE
  8
LAYER_2
 10
-40.4773
 20
164.7541
 11
-40.5328
 21
164.7541
  0
ARC
  8
LAYER_2
 10
-40.2187
 20
161.6363
 40
0.2919
 50
2.581812458
 51
43.02488876
  0
LINE
  8
LAYER_2
 10
-40.1455
 20
164.2542
 11
-42.7269
 21
164.2542
  0
LINE
  8
LAYER_2
 10
-40.1455
 20
162.4549
 11
-42.7269
 21
162.4549
  0
LINE
  8
LAYER_2
 10
-40.1455
 20
161.7548
 11
-42.7269
 21
161.7548
  0
LINE
  8
LAYER_2
 10
-42.7269
 20
164.2542
 11
-45.3087
 21
164.2542
  0
LINE
  8
LAYER_2
 10
-39.9271
 20
161.0544
 11
-42.7269
 21
161.0541
  0
LINE
  8
LAYER_2
 10
-42.7269
 20
161.0541
 11
-45.5278
 21
161.0541
  0
ARC
  8
LAYER_2
 10
-42.5097
 20
168.7465
 40
5.312
 50
69.24457706
 51
92.34357419
  0
ARC
  8
LAYER_2
 10
-44.8985
 20
173.2237
 40
0.4901
 50
89.98546204
 51
179.9794625
  0
LINE
  8
LAYER_2
 10
-45.3886
 20
173.095
 11
-45.3886
 21
173.2239
  0
LINE
  8
LAYER_2
 10
-44.8984
 20
173.7138
 11
-42.7269
 21
173.7138
  0
LINE
  8
LAYER_2
 10
-45.5292
 20
173.095
 11
-42.7269
 21
173.095
  0
LINE
  8
LAYER_2
 10
-45.5292
 20
172.5099
 11
-45.5292
 21
173.095
  0
LINE
  8
LAYER_2
 10
-45.5292
 20
172.5099
 11
-42.7269
 21
172.5099
  0
LINE
  8
LAYER_2
 10
-45.5292
 20
172.5099
 11
-45.7007
 21
171.8762
  0
LINE
  8
LAYER_2
 10
-45.1905
 20
172.5099
 11
-45.1905
 21
173.095
  0
LINE
  8
LAYER_2
 10
-45.0138
 20
172.5099
 11
-45.0138
 21
173.095
  0
LINE
  8
LAYER_2
 10
-44.8209
 20
172.5099
 11
-44.8209
 21
173.095
  0
LINE
  8
LAYER_2
 10
-44.3988
 20
172.5099
 11
-44.3988
 21
173.095
  0
LINE
  8
LAYER_2
 10
-44.6073
 20
172.5099
 11
-44.6073
 21
173.095
  0
LINE
  8
LAYER_2
 10
-45.337
 20
172.5099
 11
-45.337
 21
173.095
  0
LINE
  8
LAYER_2
 10
-45.4369
 20
172.5099
 11
-45.4369
 21
173.095
  0
LINE
  8
LAYER_2
 10
-44.1687
 20
172.5099
 11
-44.1687
 21
173.095
  0
LINE
  8
LAYER_2
 10
-43.9251
 20
172.5099
 11
-43.9251
 21
173.095
  0
LINE
  8
LAYER_2
 10
-43.6292
 20
172.5099
 11
-43.6292
 21
173.095
  0
LINE
  8
LAYER_2
 10
-43.3402
 20
172.5099
 11
-43.3402
 21
173.095
  0
LINE
  8
LAYER_2
 10
-43.0504
 20
172.5099
 11
-43.0504
 21
173.095
  0
LINE
  8
LAYER_2
 10
-42.7269
 20
172.5099
 11
-42.7269
 21
173.095
  0
ARC
  8
LAYER_2
 10
-42.0174
 20
163.3353
 40
0.5003
 50
2.10759309
 51
47.23234706
  0
ARC
  8
LAYER_2
 10
-42.4873
 20
162.8282
 40
1.1917
 50
47.20155715
 51
76.17383887
  0
ARC
  8
LAYER_2
 10
-42.7229
 20
162.0594
 40
1.995
 50
74.88008601
 51
90.11453177
  0
ARC
  8
LAYER_2
 10
-42.7467
 20
162.2045
 40
1.85
 50
89.38574052
 51
112.3721213
  0
ARC
  8
LAYER_2
 10
-43.1266
 20
163.0723
 40
0.9032
 50
111.0385558
 51
144.6593675
  0
ARC
  8
LAYER_2
 10
-43.4954
 20
163.351
 40
0.4414
 50
146.4825903
 51
179.6431573
  0
ARC
  8
LAYER_2
 10
-43.4382
 20
163.3721
 40
0.499
 50
182.1168519
 51
227.3011151
  0
ARC
  8
LAYER_2
 10
-42.9674
 20
163.8812
 40
1.1923
 50
227.2659831
 51
256.2159432
  0
ARC
  8
LAYER_2
 10
-42.7309
 20
164.6551
 40
2.0008
 50
254.9183493
 51
270.1152247
  0
ARC
  8
LAYER_2
 10
-42.7071
 20
164.5062
 40
1.852
 50
269.3864844
 51
292.3359226
  0
ARC
  8
LAYER_2
 10
-42.3267
 20
163.6359
 40
0.9027
 50
290.9963443
 51
324.6070151
  0
ARC
  8
LAYER_2
 10
-41.9575
 20
163.3565
 40
0.4401
 50
326.4330043
 51
359.6415206
  0
LINE
  8
LAYER_2
 10
-43.8273
 20
167.966
 11
-43.8273
 21
167.5543
  0
ARC
  8
LAYER_2
 10
-44.7652
 20
168.6256
 40
0.7501
 50
359.9882078
 51
89.98887847
  0
LINE
  8
LAYER_2
 10
-44.7651
 20
169.3757
 11
-42.7269
 21
169.3757
  0
LINE
  8
LAYER_2
 10
-44.0151
 20
168.6254
 11
-44.0151
 21
168.1541
  0
LINE
  8
LAYER_2
 10
-44.0151
 20
168.1541
 11
-42.7269
 21
168.1541
  0
LINE
  8
LAYER_2
 10
-44.127
 20
167.554
 11
-42.7269
 21
167.554
  0
LINE
  8
LAYER_2
 10
-44.0151
 20
168.1541
 11
-43.8273
 21
167.966
  0
LINE
  8
LAYER_2
 10
-43.8273
 20
167.966
 11
-42.7269
 21
167.966
  0
LINE
  8
LAYER_2
 10
-47.2641
 20
172.0102
 11
-47.2641
 21
170.8836
  0
ARC
  8
LAYER_2
 10
-48.6156
 20
170.8838
 40
1.3501
 50
36.50864496
 51
126.518251
  0
ARC
  8
LAYER_2
 10
-48.6154
 20
170.8836
 40
1.3503
 50
126.52106
 51
146.4298882
  0
ARC
  8
LAYER_2
 10
-48.6157
 20
170.8827
 40
1.3495
 50
213.5410872
 51
303.590691
  0
ARC
  8
LAYER_2
 10
-48.6152
 20
170.8835
 40
1.3498
 50
303.5538695
 51
323.4791795
  0
ARC
  8
LAYER_2
 10
-42.7482
 20
170.8837
 40
7.0321
 50
173.9017068
 51
186.0982932
  0
LINE
  8
LAYER_2
 10
-47.5304
 20
171.687
 11
-47.5304
 21
170.0802
  0
ARC
  8
LAYER_2
 10
-46.4183
 20
172.71
 40
1.0997
 50
219.72554
 51
309.7395341
  0
LINE
  8
LAYER_2
 10
-45.7152
 20
171.8643
 11
-45.7007
 21
171.8762
  0
ARC
  8
LAYER_2
 10
-47.6826
 20
170.8831
 40
2.0008
 50
0.01538109683
 51
25.71130721
  0
ARC
  8
LAYER_2
 10
-47.6875
 20
170.8845
 40
2.0057
 50
334.2740807
 51
359.9744851
  0
LINE
  8
LAYER_2
 10
-47.2641
 20
170.8836
 11
-47.2641
 21
169.7571
  0
ARC
  8
LAYER_2
 10
-46.4179
 20
169.0534
 40
1.1005
 50
60.77667672
 51
140.2540256
  0
ARC
  8
LAYER_2
 10
-45.4808
 20
169.7755
 40
0.3998
 50
179.9727203
 51
269.9699552
  0
LINE
  8
LAYER_2
 10
-45.481
 20
169.3757
 11
-44.7651
 21
169.3757
  0
LINE
  8
LAYER_2
 10
-45.8806
 20
169.7757
 11
-45.8806
 21
170.0139
  0
LINE
  8
LAYER_2
 10
-47.2641
 20
172.0102
 11
-47.5304
 21
171.687
  0
LINE
  8
LAYER_2
 10
-47.5304
 20
170.0802
 11
-47.2641
 21
169.7571
  0
ARC
  8
LAYER_2
 10
-44.9244
 20
165.5309
 40
0.7768
 50
270.2151675
 51
342.2342799
  0
ARC
  8
LAYER_2
 10
-45.2661
 20
165.6517
 40
1.1391
 50
341.6891649
 51
0.1294521041
  0
LINE
  8
LAYER_2
 10
-44.127
 20
167.5543
 11
-44.127
 21
165.6543
  0
ARC
  8
LAYER_2
 10
-44.9771
 20
164.4043
 40
0.3498
 50
89.969859
 51
179.9810092
  0
LINE
  8
LAYER_2
 10
-45.3269
 20
164.4044
 11
-45.3269
 21
164.2542
  0
LINE
  8
LAYER_2
 10
-44.9769
 20
164.7541
 11
-44.9215
 21
164.7541
  0
ARC
  8
LAYER_2
 10
-40.7266
 20
163.3325
 40
1.0994
 50
1.140909537
 51
56.96937994
  0
ARC
  8
LAYER_2
 10
-40.6732
 20
163.3503
 40
1.0458
 50
311.6769175
 51
0.2248993503
  0
LINE
  8
LAYER_2
 10
-45.3087
 20
162.4549
 11
-42.7269
 21
162.4549
  0
LINE
  8
LAYER_2
 10
-45.3087
 20
161.7548
 11
-42.7269
 21
161.7548
  0
ARC
  8
LAYER_2
 10
-39.5525
 20
162.1858
 40
0.5726
 50
137.9676624
 51
217.7398957
  0
ARC
  8
LAYER_2
 10
-42.9443
 20
168.7457
 40
5.3129
 50
87.65432318
 51
110.7540787
  0
LINE
  8
LAYER_2
 10
-39.8689
 20
164.0241
 11
-40.15
 21
164.0544
  0
ARC
  8
LAYER_2
 10
-40.1612
 20
162.8284
 40
1.226
 50
89.47769163
 51
118.0759249
  0
ARC
  8
LAYER_2
 10
-40.3884
 20
163.2356
 40
0.7599
 50
117.4081642
 51
153.8606869
  0
ARC
  8
LAYER_2
 10
-40.5938
 20
163.3532
 40
0.5239
 50
155.5130981
 51
179.9459061
  0
ARC
  8
LAYER_2
 10
-40.5471
 20
163.365
 40
0.5707
 50
181.1369435
 51
222.8954315
  0
ARC
  8
LAYER_2
 10
-40.2547
 20
163.6465
 40
0.9766
 50
223.3172538
 51
255.8300929
  0
ARC
  8
LAYER_2
 10
-40.1504
 20
163.9759
 40
1.3216
 50
254.9402887
 51
270.0160451
  0
LINE
  8
LAYER_2
 10
-40.15
 20
162.6543
 11
-39.8661
 21
162.6846
  0
LINE
  8
LAYER_2
 10
-45.5271
 20
161.6494
 11
-45.5271
 21
161.0544
  0
ARC
  8
LAYER_2
 10
-45.2355
 20
161.6363
 40
0.2919
 50
136.9751112
 51
177.4181875
  0
ARC
  8
LAYER_2
 10
-44.7287
 20
163.3331
 40
1.0983
 50
123.0003219
 51
178.8893886
  0
ARC
  8
LAYER_2
 10
-44.7808
 20
163.3503
 40
1.046
 50
179.7749651
 51
228.3110472
  0
ARC
  8
LAYER_2
 10
-45.9025
 20
162.1858
 40
0.5731
 50
322.3159687
 51
41.99206739
  0
LINE
  8
LAYER_2
 10
-45.5853
 20
164.0241
 11
-45.3046
 21
164.0544
  0
ARC
  8
LAYER_2
 10
-45.2933
 20
162.8281
 40
1.2264
 50
61.92813032
 51
90.52761443
  0
ARC
  8
LAYER_2
 10
-45.0659
 20
163.2359
 40
0.7596
 50
26.12627886
 51
62.59091867
  0
ARC
  8
LAYER_2
 10
-44.861
 20
163.3532
 40
0.5242
 50
0.05383728086
 51
24.47358213
  0
ARC
  8
LAYER_2
 10
-44.9074
 20
163.365
 40
0.5708
 50
317.1180728
 51
358.8677882
  0
ARC
  8
LAYER_2
 10
-45.1995
 20
163.6462
 40
0.9761
 50
284.1628368
 51
316.6904416
  0
ARC
  8
LAYER_2
 10
-45.3042
 20
163.9771
 40
1.3228
 50
269.9835624
 51
285.0525061
  0
LINE
  8
LAYER_2
 10
-45.3046
 20
162.6543
 11
-45.5881
 21
162.6846
  0
LINE
  8
LAYER_2
  6
AIGENLINE001
 10
5.7366
 20
170.8829
 11
-10.8284
 21
170.8829
  0
ARC
  8
LAYER_2
 10
-0.5564
 20
173.223
 40
0.4901
 50
0.02013262241
 51
90.01494283
  0
LINE
  8
LAYER_2
 10
-0.0663
 20
173.0943
 11
-0.0663
 21
173.2232
  0
LINE
  8
LAYER_2
 10
-0.5565
 20
173.7131
 11
-2.7276
 21
173.7131
  0
LINE
  8
LAYER_2
 10
0.0742
 20
173.0943
 11
-2.7276
 21
173.0943
  0
LINE
  8
LAYER_2
 10
0.0742
 20
172.5094
 11
0.0742
 21
173.0943
  0
LINE
  8
LAYER_2
 10
0.0742
 20
172.5094
 11
-2.7276
 21
172.5094
  0
LINE
  8
LAYER_2
 10
0.0742
 20
172.5094
 11
0.2458
 21
171.8756
  0
LINE
  8
LAYER_2
 10
-0.2641
 20
172.5094
 11
-0.2641
 21
173.0943
  0
LINE
  8
LAYER_2
 10
-0.4411
 20
172.5094
 11
-0.4411
 21
173.0943
  0
LINE
  8
LAYER_2
 10
-0.6341
 20
172.5094
 11
-0.6341
 21
173.0943
  0
LINE
  8
LAYER_2
 10
-1.0558
 20
172.5094
 11
-1.0558
 21
173.0943
  0
LINE
  8
LAYER_2
 10
-0.8477
 20
172.5094
 11
-0.8477
 21
173.0943
  0
LINE
  8
LAYER_2
 10
-0.118
 20
172.5094
 11
-0.118
 21
173.0943
  0
LINE
  8
LAYER_2
 10
-0.0181
 20
172.5094
 11
-0.0181
 21
173.0943
  0
LINE
  8
LAYER_2
 10
-1.2859
 20
172.5094
 11
-1.2859
 21
173.0943
  0
LINE
  8
LAYER_2
 10
-1.5298
 20
172.5094
 11
-1.5298
 21
173.0943
  0
LINE
  8
LAYER_2
 10
-1.8257
 20
172.5094
 11
-1.8257
 21
173.0943
  0
LINE
  8
LAYER_2
 10
-2.1148
 20
172.5094
 11
-2.1148
 21
173.0943
  0
LINE
  8
LAYER_2
 10
-2.4045
 20
172.5094
 11
-2.4045
 21
173.0943
  0
CIRCLE
  8
LAYER_2
 10
-2.7276
 20
170.8829
 40
0.7896
  0
CIRCLE
  8
LAYER_2
 10
-2.7276
 20
170.8829
 40
1.3501
  0
LINE
  8
LAYER_2
 10
-1.6276
 20
167.9653
 11
-1.6276
 21
167.5536
  0
ARC
  8
LAYER_2
 10
-0.6897
 20
168.6248
 40
0.7502
 50
90.01293512
 51
180.0099786
  0
LINE
  8
LAYER_2
 10
-0.6899
 20
169.375
 11
-2.7276
 21
169.375
  0
LINE
  8
LAYER_2
 10
-1.4399
 20
168.6247
 11
-1.4399
 21
168.1534
  0
LINE
  8
LAYER_2
 10
-1.4399
 20
168.1534
 11
-2.7276
 21
168.1534
  0
LINE
  8
LAYER_2
 10
-1.3279
 20
167.5536
 11
-2.7276
 21
167.5536
  0
LINE
  8
LAYER_2
 10
-1.4399
 20
168.1534
 11
-1.6276
 21
167.9653
  0
LINE
  8
LAYER_2
 10
-1.6276
 20
167.9653
 11
-2.7276
 21
167.9653
  0
LINE
  8
LAYER_2
 10
1.8092
 20
172.0095
 11
1.8092
 21
170.8829
  0
ARC
  8
LAYER_2
 10
3.1605
 20
170.8828
 40
1.3505
 50
53.48314205
 51
143.4804859
  0
ARC
  8
LAYER_2
 10
3.1625
 20
170.8853
 40
1.3473
 50
33.54019423
 51
53.4910571
  0
ARC
  8
LAYER_2
 10
3.1607
 20
170.8824
 40
1.3497
 50
236.4218032
 51
326.4476085
  0
ARC
  8
LAYER_2
 10
3.1662
 20
170.8904
 40
1.3595
 50
216.6195869
 51
236.4148971
  0
ARC
  8
LAYER_2
 10
-2.7505
 20
170.883
 40
7.0756
 50
353.9393147
 51
6.060685345
  0
LINE
  8
LAYER_2
 10
2.0759
 20
171.6865
 11
2.0759
 21
170.0795
  0
ARC
  8
LAYER_2
 10
0.9633
 20
172.7092
 40
1.0997
 50
230.2602215
 51
320.2820403
  0
LINE
  8
LAYER_2
 10
0.2603
 20
171.8636
 11
0.2462
 21
171.8756
  0
ARC
  8
LAYER_2
 10
2.2278
 20
170.8832
 40
2.0006
 50
154.3066888
 51
180.0100147
  0
ARC
  8
LAYER_2
 10
2.2315
 20
170.8828
 40
2.0043
 50
179.9985617
 51
205.708496
  0
LINE
  8
LAYER_2
 10
1.8092
 20
170.8829
 11
1.8092
 21
169.7564
  0
ARC
  8
LAYER_2
 10
0.963
 20
169.053
 40
1.1004
 50
39.73606087
 51
119.2347228
  0
ARC
  8
LAYER_2
 10
0.0258
 20
169.7748
 40
0.3998
 50
270.0294787
 51
0.02784574216
  0
LINE
  8
LAYER_2
 10
0.026
 20
169.375
 11
-0.6899
 21
169.375
  0
LINE
  8
LAYER_2
 10
0.4256
 20
169.775
 11
0.4256
 21
170.0134
  0
LINE
  8
LAYER_2
 10
1.8092
 20
172.0095
 11
2.0759
 21
171.6865
  0
LINE
  8
LAYER_2
 10
2.0759
 20
170.0795
 11
1.8092
 21
169.7564
  0
ARC
  8
LAYER_2
 10
-0.5307
 20
165.5304
 40
0.7767
 50
197.7843074
 51
269.7938619
  0
ARC
  8
LAYER_2
 10
-0.189
 20
165.651
 40
1.1389
 50
179.8697514
 51
198.3097886
  0
LINE
  8
LAYER_2
 10
-0.9055
 20
164.7538
 11
-2.7276
 21
164.7538
  0
LINE
  8
LAYER_2
 10
-2.7276
 20
164.7538
 11
-4.5501
 21
164.7538
  0
LINE
  8
LAYER_2
 10
-1.3279
 20
167.5536
 11
-1.3279
 21
165.6536
  0
ARC
  8
LAYER_2
 10
-0.4914
 20
164.3899
 40
0.3641
 50
2.180164975
 51
87.8852785
  0
LINE
  8
LAYER_2
 10
-0.1276
 20
164.4038
 11
-0.1276
 21
164.2535
  0
LINE
  8
LAYER_2
 10
0.0725
 20
161.6487
 11
0.0725
 21
161.0541
  0
LINE
  8
LAYER_2
 10
-0.478
 20
164.7538
 11
-0.5335
 21
164.7538
  0
ARC
  8
LAYER_2
 10
-0.2191
 20
161.6356
 40
0.2919
 50
2.581812458
 51
43.02488876
  0
LINE
  8
LAYER_2
 10
-0.1463
 20
164.2535
 11
-2.7276
 21
164.2535
  0
LINE
  8
LAYER_2
 10
-0.1463
 20
162.4542
 11
-2.7276
 21
162.4542
  0
LINE
  8
LAYER_2
 10
-0.1463
 20
161.7541
 11
-2.7276
 21
161.7541
  0
LINE
  8
LAYER_2
 10
-2.7276
 20
164.2535
 11
-5.3094
 21
164.2535
  0
LINE
  8
LAYER_2
 10
0.0725
 20
161.0541
 11
-2.7276
 21
161.0534
  0
LINE
  8
LAYER_2
 10
-2.7276
 20
161.0534
 11
-5.5282
 21
161.0534
  0
ARC
  8
LAYER_2
 10
-2.5103
 20
168.7495
 40
5.3085
 50
69.23126378
 51
92.34625195
  0
ARC
  8
LAYER_2
 10
-4.8993
 20
173.223
 40
0.4901
 50
89.97700448
 51
179.976233
  0
LINE
  8
LAYER_2
 10
-5.3894
 20
173.0943
 11
-5.3894
 21
173.2232
  0
LINE
  8
LAYER_2
 10
-4.8991
 20
173.7131
 11
-2.7276
 21
173.7131
  0
LINE
  8
LAYER_2
 10
-5.5299
 20
173.0943
 11
-2.7276
 21
173.0943
  0
LINE
  8
LAYER_2
 10
-5.5299
 20
172.5094
 11
-5.5299
 21
173.0943
  0
LINE
  8
LAYER_2
 10
-5.5299
 20
172.5094
 11
-2.7276
 21
172.5094
  0
LINE
  8
LAYER_2
 10
-5.5299
 20
172.5094
 11
-5.7011
 21
171.8756
  0
LINE
  8
LAYER_2
 10
-5.1912
 20
172.5094
 11
-5.1912
 21
173.0943
  0
LINE
  8
LAYER_2
 10
-5.0142
 20
172.5094
 11
-5.0142
 21
173.0943
  0
LINE
  8
LAYER_2
 10
-4.8212
 20
172.5094
 11
-4.8212
 21
173.0943
  0
LINE
  8
LAYER_2
 10
-4.3996
 20
172.5094
 11
-4.3996
 21
173.0943
  0
LINE
  8
LAYER_2
 10
-4.608
 20
172.5094
 11
-4.608
 21
173.0943
  0
LINE
  8
LAYER_2
 10
-5.3373
 20
172.5094
 11
-5.3373
 21
173.0943
  0
LINE
  8
LAYER_2
 10
-5.4372
 20
172.5094
 11
-5.4372
 21
173.0943
  0
LINE
  8
LAYER_2
 10
-4.1691
 20
172.5094
 11
-4.1691
 21
173.0943
  0
LINE
  8
LAYER_2
 10
-3.9259
 20
172.5094
 11
-3.9259
 21
173.0943
  0
LINE
  8
LAYER_2
 10
-3.6299
 20
172.5094
 11
-3.6299
 21
173.0943
  0
LINE
  8
LAYER_2
 10
-3.3405
 20
172.5094
 11
-3.3405
 21
173.0943
  0
LINE
  8
LAYER_2
 10
-3.0511
 20
172.5094
 11
-3.0511
 21
173.0943
  0
LINE
  8
LAYER_2
 10
-2.7276
 20
172.5094
 11
-2.7276
 21
173.0943
  0
ARC
  8
LAYER_2
 10
-2.0177
 20
163.3348
 40
0.4999
 50
2.116628068
 51
47.25525281
  0
ARC
  8
LAYER_2
 10
-2.4882
 20
162.8269
 40
1.1923
 50
47.21688071
 51
76.1747778
  0
ARC
  8
LAYER_2
 10
-2.7236
 20
162.0587
 40
1.995
 50
74.88077307
 51
90.11404527
  0
ARC
  8
LAYER_2
 10
-2.7474
 20
162.2044
 40
1.8494
 50
89.38788444
 51
112.3738669
  0
ARC
  8
LAYER_2
 10
-3.1271
 20
163.0715
 40
0.9033
 50
111.0385898
 51
144.6460662
  0
ARC
  8
LAYER_2
 10
-3.4962
 20
163.3505
 40
0.441
 50
146.4651703
 51
179.6411354
  0
ARC
  8
LAYER_2
 10
-3.4383
 20
163.3718
 40
0.4992
 50
182.1227451
 51
227.288438
  0
ARC
  8
LAYER_2
 10
-2.9675
 20
163.8806
 40
1.1925
 50
227.2466878
 51
256.1932412
  0
ARC
  8
LAYER_2
 10
-2.7316
 20
164.6511
 40
1.9975
 50
254.8977312
 51
270.1144336
  0
ARC
  8
LAYER_2
 10
-2.7079
 20
164.5041
 40
1.8507
 50
269.3892391
 51
292.3554585
  0
ARC
  8
LAYER_2
 10
-2.3279
 20
163.6358
 40
0.9033
 50
291.0162037
 51
324.611596
  0
ARC
  8
LAYER_2
 10
-1.9582
 20
163.3561
 40
0.4401
 50
326.4300033
 51
359.6392006
  0
LINE
  8
LAYER_2
 10
-3.8277
 20
167.9653
 11
-3.8277
 21
167.5536
  0
ARC
  8
LAYER_2
 10
-4.766
 20
168.6248
 40
0.7502
 50
359.9889927
 51
89.98809357
  0
LINE
  8
LAYER_2
 10
-4.7658
 20
169.375
 11
-2.7276
 21
169.375
  0
LINE
  8
LAYER_2
 10
-4.0158
 20
168.6247
 11
-4.0158
 21
168.1534
  0
LINE
  8
LAYER_2
 10
-4.0158
 20
168.1534
 11
-2.7276
 21
168.1534
  0
LINE
  8
LAYER_2
 10
-4.1277
 20
167.5536
 11
-2.7276
 21
167.5536
  0
LINE
  8
LAYER_2
 10
-4.0158
 20
168.1534
 11
-3.8277
 21
167.9653
  0
LINE
  8
LAYER_2
 10
-3.8277
 20
167.9653
 11
-2.7276
 21
167.9653
  0
LINE
  8
LAYER_2
 10
-7.2645
 20
172.0095
 11
-7.2645
 21
170.8829
  0
ARC
  8
LAYER_2
 10
-8.6161
 20
170.8834
 40
1.3498
 50
36.50788753
 51
126.5222875
  0
ARC
  8
LAYER_2
 10
-8.6213
 20
170.8873
 40
1.3436
 50
126.4398125
 51
146.4577661
  0
ARC
  8
LAYER_2
 10
-8.616
 20
170.8832
 40
1.3505
 50
213.573462
 51
303.5630745
  0
ARC
  8
LAYER_2
 10
-8.616
 20
170.882
 40
1.3495
 50
303.5915151
 51
323.5091507
  0
ARC
  8
LAYER_2
 10
-2.7005
 20
170.883
 40
7.0803
 50
173.9433614
 51
186.0566386
  0
LINE
  8
LAYER_2
 10
-7.5311
 20
171.6865
 11
-7.5311
 21
170.0795
  0
ARC
  8
LAYER_2
 10
-6.4187
 20
172.7089
 40
1.0994
 50
219.7050923
 51
309.7526459
  0
LINE
  8
LAYER_2
 10
-5.7156
 20
171.8636
 11
-5.7011
 21
171.8756
  0
ARC
  8
LAYER_2
 10
-7.6829
 20
170.8826
 40
2.0007
 50
0.008940930843
 51
25.71201471
  0
ARC
  8
LAYER_2
 10
-7.6868
 20
170.8844
 40
2.0046
 50
334.2475006
 51
359.9577693
  0
LINE
  8
LAYER_2
 10
-7.2645
 20
170.8829
 11
-7.2645
 21
169.7564
  0
ARC
  8
LAYER_2
 10
-6.4186
 20
169.0536
 40
1.0998
 50
60.75600643
 51
140.2791554
  0
ARC
  8
LAYER_2
 10
-5.4813
 20
169.775
 40
0.4
 50
179.9993634
 51
270.0006365
  0
LINE
  8
LAYER_2
 10
-5.4813
 20
169.375
 11
-4.7658
 21
169.375
  0
LINE
  8
LAYER_2
 10
-5.8813
 20
169.775
 11
-5.8813
 21
170.0134
  0
LINE
  8
LAYER_2
 10
-7.2645
 20
172.0095
 11
-7.5311
 21
171.6865
  0
LINE
  8
LAYER_2
 10
-7.5311
 20
170.0795
 11
-7.2645
 21
169.7564
  0
ARC
  8
LAYER_2
 10
-4.925
 20
165.5306
 40
0.7768
 50
270.206754
 51
342.2088877
  0
ARC
  8
LAYER_2
 10
-5.2663
 20
165.651
 40
1.1386
 50
341.6851949
 51
0.1301452634
  0
LINE
  8
LAYER_2
 10
-4.1277
 20
167.5536
 11
-4.1277
 21
165.6536
  0
ARC
  8
LAYER_2
 10
-4.9777
 20
164.4038
 40
0.35
 50
90.00713725
 51
179.9928627
  0
LINE
  8
LAYER_2
 10
-5.3277
 20
164.4038
 11
-5.3277
 21
164.2535
  0
LINE
  8
LAYER_2
 10
-4.9777
 20
164.7538
 11
-4.9222
 21
164.7538
  0
ARC
  8
LAYER_2
 10
-0.7267
 20
163.3324
 40
1.0988
 50
1.112773612
 51
56.95858239
  0
ARC
  8
LAYER_2
 10
-0.6743
 20
163.3498
 40
1.0462
 50
311.6871224
 51
0.214694441
  0
LINE
  8
LAYER_2
 10
-5.3094
 20
162.4542
 11
-2.7276
 21
162.4542
  0
LINE
  8
LAYER_2
 10
-5.3094
 20
161.7541
 11
-2.7276
 21
161.7541
  0
ARC
  8
LAYER_2
 10
0.4468
 20
162.1853
 40
0.5724
 50
137.9807329
 51
217.7736088
  0
ARC
  8
LAYER_2
 10
-2.9449
 20
168.7467
 40
5.3114
 50
87.65517298
 51
110.7630005
  0
LINE
  8
LAYER_2
 10
0.1304
 20
164.0234
 11
-0.1504
 21
164.0537
  0
ARC
  8
LAYER_2
 10
-0.1617
 20
162.8273
 40
1.2264
 50
89.47255005
 51
118.0694692
  0
ARC
  8
LAYER_2
 10
-0.3892
 20
163.2353
 40
0.7595
 50
117.4052461
 51
153.8638967
  0
ARC
  8
LAYER_2
 10
-0.5945
 20
163.3528
 40
0.5236
 50
155.5159704
 51
179.9458563
  0
ARC
  8
LAYER_2
 10
-0.5471
 20
163.3646
 40
0.5711
 50
181.1366288
 51
222.8651558
  0
ARC
  8
LAYER_2
 10
-0.2551
 20
163.6454
 40
0.9762
 50
223.2868976
 51
255.8167301
  0
ARC
  8
LAYER_2
 10
-0.1508
 20
163.9749
 40
1.3213
 50
254.9302861
 51
270.0163361
  0
LINE
  8
LAYER_2
 10
-0.1504
 20
162.6536
 11
0.1331
 21
162.684
  0
LINE
  8
LAYER_2
 10
-5.5275
 20
161.6487
 11
-5.5275
 21
161.0541
  0
ARC
  8
LAYER_2
 10
-5.2353
 20
161.6356
 40
0.2925
 50
137.113241
 51
177.4372106
  0
ARC
  8
LAYER_2
 10
-4.7285
 20
163.332
 40
1.0992
 50
123.0314244
 51
178.8680181
  0
ARC
  8
LAYER_2
 10
-4.7815
 20
163.3496
 40
1.046
 50
179.7749651
 51
228.3110472
  0
ARC
  8
LAYER_2
 10
-5.9017
 20
162.1851
 40
0.572
 50
322.2244158
 51
42.08362022
  0
LINE
  8
LAYER_2
 10
-5.5861
 20
164.0234
 11
-5.3049
 21
164.0537
  0
ARC
  8
LAYER_2
 10
-5.2937
 20
162.8275
 40
1.2263
 50
61.92889837
 51
90.52139886
  0
ARC
  8
LAYER_2
 10
-5.0664
 20
163.2349
 40
0.7599
 50
26.15456001
 51
62.59935266
  0
ARC
  8
LAYER_2
 10
-4.8605
 20
163.3528
 40
0.5233
 50
0.05447041687
 51
24.50231767
  0
ARC
  8
LAYER_2
 10
-4.908
 20
163.3647
 40
0.5709
 50
317.1150365
 51
358.8572495
  0
ARC
  8
LAYER_2
 10
-5.2006
 20
163.6461
 40
0.9768
 50
284.1893657
 51
316.7002792
  0
ARC
  8
LAYER_2
 10
-5.3045
 20
163.9738
 40
1.3202
 50
269.9841157
 51
285.0763026
  0
LINE
  8
LAYER_2
 10
-5.3049
 20
162.6536
 11
-5.5888
 21
162.684
  0
LINE
  8
LAYER_2
 10
-38.5274
 20
145.5842
 11
-38.5274
 21
143.6536
  0
LINE
  8
LAYER_2
 10
-38.5274
 20
145.1543
 11
-40.1273
 21
145.1543
  0
LINE
  8
LAYER_2
 10
-38.5274
 20
142.154
 11
-40.1273
 21
142.154
  0
LINE
  8
LAYER_2
 10
-36.627
 20
146.2539
 11
-38.2273
 21
146.2539
  0
LINE
  8
LAYER_2
 10
-36.627
 20
144.8539
 11
-38.2273
 21
144.8539
  0
LINE
  8
LAYER_2
 10
-36.1272
 20
144.9541
 11
-36.1272
 21
142.3541
  0
LINE
  8
LAYER_2
 10
-32.927
 20
144.9541
 11
-32.927
 21
142.3541
  0
LINE
  8
LAYER_2
 10
-34.2272
 20
144.754
 11
-35.4271
 21
144.754
  0
LINE
  8
LAYER_2
 10
-32.927
 20
144.8539
 11
-29.5622
 21
144.8539
  0
LINE
  8
LAYER_2
 10
-32.927
 20
142.4537
 11
-29.5622
 21
142.4537
  0
LINE
  8
LAYER_2
 10
-36.3273
 20
144.8539
 11
-36.1272
 21
144.8539
  0
LINE
  8
LAYER_2
 10
-36.3273
 20
142.4537
 11
-36.1272
 21
142.4537
  0
ARC
  8
LAYER_2
 10
-35.6308
 20
144.8507
 40
0.1035
 50
1.775589527
 51
88.05260915
  0
LINE
  8
LAYER_2
 10
-36.1272
 20
144.9541
 11
-35.6273
 21
144.9541
  0
ARC
  8
LAYER_2
 10
-35.4235
 20
144.8579
 40
0.104
 50
182.2037724
 51
268.0251815
  0
ARC
  8
LAYER_2
 10
-34.0271
 20
144.8539
 40
0.1002
 50
89.96929111
 51
179.973556
  0
ARC
  8
LAYER_2
 10
-34.2272
 20
144.8539
 40
0.0999
 50
269.9924198
 51
0.007580218325
  0
LINE
  8
LAYER_2
 10
-34.027
 20
144.9541
 11
-32.927
 21
144.9541
  0
LINE
  8
LAYER_2
 10
-34.2272
 20
142.5539
 11
-35.4271
 21
142.5539
  0
ARC
  8
LAYER_2
 10
-35.6305
 20
142.4572
 40
0.1031
 50
271.7617345
 51
358.0659475
  0
LINE
  8
LAYER_2
 10
-36.1272
 20
142.3541
 11
-35.6273
 21
142.3541
  0
ARC
  8
LAYER_2
 10
-35.4271
 20
142.4536
 40
0.1003
 50
89.97641722
 51
179.9664299
  0
ARC
  8
LAYER_2
 10
-34.0238
 20
142.4576
 40
0.1036
 50
182.1615152
 51
268.2397543
  0
ARC
  8
LAYER_2
 10
-34.2316
 20
142.4496
 40
0.1044
 50
2.23468325
 51
87.59351543
  0
LINE
  8
LAYER_2
 10
-34.027
 20
142.3541
 11
-32.927
 21
142.3541
  0
ARC
  8
LAYER_2
 10
-37.6667
 20
143.7585
 40
2.8952
 50
162.7604369
 51
182.0760061
  0
ARC
  8
LAYER_2
 10
-38.8602
 20
144.0817
 40
1.6601
 50
139.7512577
 51
161.206054
  0
ARC
  8
LAYER_2
 10
-35.8944
 20
143.7483
 40
2.6347
 50
162.22942
 51
182.0603383
  0
ARC
  8
LAYER_2
 10
-37.6187
 20
144.2962
 40
0.8255
 50
137.5005374
 51
161.9165261
  0
ARC
  8
LAYER_2
 10
-37.683
 20
145.6079
 40
0.8447
 50
130.1156823
 51
181.6089564
  0
ARC
  8
LAYER_2
 10
-37.6711
 20
143.5486
 40
2.8908
 50
177.9185894
 51
197.253237
  0
ARC
  8
LAYER_2
 10
-38.8624
 20
143.226
 40
1.6581
 50
198.8150498
 51
220.2796644
  0
ARC
  8
LAYER_2
 10
-37.3672
 20
145.5844
 40
1.1602
 50
180.0105617
 51
209.2038188
  0
ARC
  8
LAYER_2
 10
-37.9618
 20
145.2534
 40
0.4796
 50
209.3448327
 51
236.3937025
  0
LINE
  8
LAYER_2
 10
-36.3273
 20
145.5842
 11
-36.3273
 21
143.6536
  0
ARC
  8
LAYER_2
 10
-38.962
 20
143.749
 40
2.6365
 50
357.9268399
 51
17.74348453
  0
ARC
  8
LAYER_2
 10
-37.235
 20
144.2968
 40
0.8246
 50
18.06093085
 51
42.49906092
  0
ARC
  8
LAYER_2
 10
-37.1708
 20
145.6086
 40
0.8439
 50
358.3417436
 51
49.87660686
  0
ARC
  8
LAYER_2
 10
-37.4876
 20
145.5836
 40
1.1603
 50
330.8424473
 51
0.02920938185
  0
ARC
  8
LAYER_2
 10
-36.8917
 20
145.2528
 40
0.4788
 50
303.5687524
 51
330.6726342
  0
LINE
  8
LAYER_2
 10
-38.5274
 20
141.724
 11
-38.5274
 21
143.6536
  0
LINE
  8
LAYER_2
 10
-36.627
 20
141.0543
 11
-38.2273
 21
141.0543
  0
LINE
  8
LAYER_2
 10
-36.627
 20
142.4547
 11
-38.2273
 21
142.4547
  0
ARC
  8
LAYER_2
 10
-35.8992
 20
143.5588
 40
2.63
 50
177.9350254
 51
197.7871003
  0
ARC
  8
LAYER_2
 10
-37.6231
 20
143.0104
 40
0.8209
 50
198.0948922
 51
222.60613
  0
ARC
  8
LAYER_2
 10
-37.6837
 20
141.7
 40
0.844
 50
178.3680131
 51
229.9073482
  0
ARC
  8
LAYER_2
 10
-37.3677
 20
141.7238
 40
1.1597
 50
150.7899713
 51
179.9904374
  0
ARC
  8
LAYER_2
 10
-37.9579
 20
142.0523
 40
0.4842
 50
123.8016886
 51
150.6351276
  0
LINE
  8
LAYER_2
 10
-36.3273
 20
141.724
 11
-36.3273
 21
143.6536
  0
ARC
  8
LAYER_2
 10
-38.9573
 20
143.5582
 40
2.6317
 50
342.2400203
 51
2.07780069
  0
ARC
  8
LAYER_2
 10
-37.2306
 20
143.0098
 40
0.82
 50
317.394271
 51
341.9276782
  0
ARC
  8
LAYER_2
 10
-37.1701
 20
141.6993
 40
0.8432
 50
310.1004039
 51
1.681245602
  0
ARC
  8
LAYER_2
 10
-37.4871
 20
141.7246
 40
1.1598
 50
359.9697862
 51
29.16375401
  0
ARC
  8
LAYER_2
 10
-36.8956
 20
142.0529
 40
0.4833
 50
29.34731625
 51
56.23594099
  0
LINE
  8
LAYER_2
 10
-6.9279
 20
145.5842
 11
-6.9279
 21
143.6536
  0
LINE
  8
LAYER_2
 10
-6.9279
 20
145.1543
 11
-5.328
 21
145.1543
  0
LINE
  8
LAYER_2
 10
-6.9279
 20
142.154
 11
-5.328
 21
142.154
  0
LINE
  8
LAYER_2
 10
-8.8279
 20
146.2539
 11
-7.228
 21
146.2539
  0
LINE
  8
LAYER_2
 10
-8.8279
 20
144.8539
 11
-7.228
 21
144.8539
  0
LINE
  8
LAYER_2
 10
-9.3281
 20
144.9541
 11
-9.3281
 21
142.3541
  0
LINE
  8
LAYER_2
 10
-12.5279
 20
144.9541
 11
-12.5279
 21
142.3541
  0
LINE
  8
LAYER_2
 10
-11.2281
 20
144.754
 11
-10.0282
 21
144.754
  0
LINE
  8
LAYER_2
 10
-12.5279
 20
144.8539
 11
-15.8931
 21
144.8539
  0
LINE
  8
LAYER_2
 10
-12.5279
 20
142.4537
 11
-15.8931
 21
142.4537
  0
LINE
  8
LAYER_2
 10
-9.1279
 20
144.8539
 11
-9.3281
 21
144.8539
  0
LINE
  8
LAYER_2
 10
-9.1279
 20
142.4537
 11
-9.3281
 21
142.4537
  0
ARC
  8
LAYER_2
 10
-9.8245
 20
144.8507
 40
0.1035
 50
91.9473908
 51
178.2244105
  0
LINE
  8
LAYER_2
 10
-9.3281
 20
144.9541
 11
-9.828
 21
144.9541
  0
ARC
  8
LAYER_2
 10
-10.0318
 20
144.8579
 40
0.104
 50
271.9748186
 51
357.7962276
  0
ARC
  8
LAYER_2
 10
-11.4282
 20
144.8539
 40
0.1002
 50
0.01946476804
 51
89.98053522
  0
ARC
  8
LAYER_2
 10
-11.2281
 20
144.8539
 40
0.0999
 50
179.9994341
 51
270.0005659
  0
LINE
  8
LAYER_2
 10
-11.4282
 20
144.9541
 11
-12.5279
 21
144.9541
  0
LINE
  8
LAYER_2
 10
-11.2281
 20
142.5539
 11
-10.0282
 21
142.5539
  0
ARC
  8
LAYER_2
 10
-9.8248
 20
142.4572
 40
0.1031
 50
181.9340525
 51
268.2382656
  0
LINE
  8
LAYER_2
 10
-9.3281
 20
142.3541
 11
-9.828
 21
142.3541
  0
ARC
  8
LAYER_2
 10
-10.0281
 20
142.4537
 40
0.1002
 50
0.02658491796
 51
90.03056796
  0
ARC
  8
LAYER_2
 10
-11.4315
 20
142.4576
 40
0.1035
 50
271.7991216
 51
357.8567607
  0
ARC
  8
LAYER_2
 10
-11.2237
 20
142.4496
 40
0.1044
 50
92.40648455
 51
177.7653167
  0
LINE
  8
LAYER_2
 10
-11.4282
 20
142.3541
 11
-12.5279
 21
142.3541
  0
ARC
  8
LAYER_2
 10
-7.7886
 20
143.7585
 40
2.8952
 50
357.9239939
 51
17.23956306
  0
ARC
  8
LAYER_2
 10
-6.5951
 20
144.0817
 40
1.6601
 50
18.79394598
 51
40.24874228
  0
ARC
  8
LAYER_2
 10
-9.5609
 20
143.7483
 40
2.6347
 50
357.9396617
 51
17.77057993
  0
ARC
  8
LAYER_2
 10
-7.8366
 20
144.2962
 40
0.8255
 50
18.08347392
 51
42.49946254
  0
ARC
  8
LAYER_2
 10
-7.7716
 20
145.6082
 40
0.844
 50
358.3682758
 51
49.90708548
  0
ARC
  8
LAYER_2
 10
-7.7842
 20
143.5486
 40
2.8908
 50
342.746763
 51
2.081410586
  0
ARC
  8
LAYER_2
 10
-6.5929
 20
143.226
 40
1.6581
 50
319.7203356
 51
341.1849502
  0
ARC
  8
LAYER_2
 10
-8.0875
 20
145.584
 40
1.1596
 50
330.8018611
 51
0.008555800094
  0
ARC
  8
LAYER_2
 10
-7.4931
 20
145.2533
 40
0.4794
 50
303.5688504
 51
330.6436796
  0
LINE
  8
LAYER_2
 10
-9.1279
 20
145.5842
 11
-9.1279
 21
143.6536
  0
ARC
  8
LAYER_2
 10
-6.4945
 20
143.7485
 40
2.6351
 50
162.2361933
 51
182.063544
  0
ARC
  8
LAYER_2
 10
-8.2194
 20
144.2964
 40
0.8253
 50
137.5006379
 51
161.9221613
  0
ARC
  8
LAYER_2
 10
-8.2843
 20
145.6083
 40
0.844
 50
130.1005316
 51
181.6383574
  0
ARC
  8
LAYER_2
 10
-7.9681
 20
145.5839
 40
1.1598
 50
179.9862802
 51
209.1879946
  0
ARC
  8
LAYER_2
 10
-8.5629
 20
145.2532
 40
0.4792
 50
209.3490831
 51
236.4311741
  0
LINE
  8
LAYER_2
 10
-6.9279
 20
141.724
 11
-6.9279
 21
143.6536
  0
LINE
  8
LAYER_2
 10
-8.8279
 20
141.0543
 11
-7.228
 21
141.0543
  0
LINE
  8
LAYER_2
 10
-8.8279
 20
142.4547
 11
-7.228
 21
142.4547
  0
ARC
  8
LAYER_2
 10
-9.5561
 20
143.5588
 40
2.63
 50
342.2128997
 51
2.064974578
  0
ARC
  8
LAYER_2
 10
-7.8322
 20
143.0104
 40
0.8209
 50
317.39387
 51
341.9051078
  0
ARC
  8
LAYER_2
 10
-7.7709
 20
141.6996
 40
0.8433
 50
310.0698976
 51
1.654741118
  0
ARC
  8
LAYER_2
 10
-8.0871
 20
141.7242
 40
1.1592
 50
359.9904425
 51
29.20434748
  0
ARC
  8
LAYER_2
 10
-7.497
 20
142.0524
 40
0.4839
 50
29.37626174
 51
56.23584554
  0
LINE
  8
LAYER_2
 10
-9.1279
 20
141.724
 11
-9.1279
 21
143.6536
  0
ARC
  8
LAYER_2
 10
-6.4992
 20
143.5587
 40
2.6304
 50
177.9318186
 51
197.7803208
  0
ARC
  8
LAYER_2
 10
-8.2239
 20
143.0102
 40
0.8207
 50
198.0892502
 51
222.6060297
  0
ARC
  8
LAYER_2
 10
-8.285
 20
141.6996
 40
0.8433
 50
178.3386326
 51
229.9224784
  0
ARC
  8
LAYER_2
 10
-7.9686
 20
141.7243
 40
1.1593
 50
150.8057986
 51
180.0147222
  0
ARC
  8
LAYER_2
 10
-8.559
 20
142.0525
 40
0.4838
 50
123.7641306
 51
150.6309733
  0
LINE
  8
LAYER_2
 10
39.0417
 20
260.5433
 11
39.0417
 21
266.7434
  0
LINE
  8
LAYER_2
 10
59.0412
 20
260.5433
 11
59.0412
 21
266.7434
  0
LINE
  8
LAYER_2
 10
79.0413
 20
260.5433
 11
79.0413
 21
266.7434
  0
INSERT
  8
LAYER_2
  2
AIGNBL02010002
 10
0
 20
0
 30
0
  0
INSERT
  8
LAYER_2
  2
AIGNBL02010004
 10
0
 20
0
 30
0
  0
CIRCLE
  8
LAYER_2
 10
59.0412
 20
254.2429
 40
3.5
  0
CIRCLE
  8
LAYER_2
 10
39.0417
 20
254.2427
 40
3.4997
  0
LINE
  8
LAYER_2
 10
41.516
 20
251.7674
 11
36.5661
 21
256.7173
  0
INSERT
  8
LAYER_2
  2
AIGNBL02010006
 10
0
 20
0
 30
0
  0
INSERT
  8
LAYER_2
  2
AIGNBL02010008
 10
0
 20
0
 30
0
  0
LINE
  8
LAYER_2
 10
61.5154
 20
251.7674
 11
56.5656
 21
256.7173
  0
INSERT
  8
LAYER_2
  2
AIGNBL0201000A
 10
0
 20
0
 30
0
  0
INSERT
  8
LAYER_2
  2
AIGNBL0201000C
 10
0
 20
0
 30
0
  0
LINE
  8
LAYER_2
 10
81.5149
 20
251.7674
 11
76.565
 21
256.7173
  0
INSERT
  8
LAYER_2
  2
AIGNBL0201000E
 10
0
 20
0
 30
0
  0
INSERT
  8
LAYER_2
  2
AIGNBL02010010
 10
0
 20
0
 30
0
  0
INSERT
  8
LAYER_2
  2
AIGNBL02010012
 10
0
 20
0
 30
0
  0
LINE
  8
LAYER_2
 10
-49.0146
 20
180.5175
 11
-49.0146
 21
158.9794
  0
LINE
  8
LAYER_2
 10
-36.5271
 20
180.5175
 11
-36.5271
 21
158.9794
  0
INSERT
  8
LAYER_2
  2
AIGNBL02010014
 10
0
 20
0
 30
0
  0
LINE
  8
LAYER_2
 10
-8.6115
 20
179.3176
 11
-16.5277
 21
179.3176
  0
LINE
  8
LAYER_2
 10
-28.8825
 20
180.5175
 11
-28.8825
 21
159.3226
  0
LINE
  8
LAYER_2
 10
-16.5277
 20
180.5175
 11
-16.5277
 21
159.3226
  0
LINE
  8
LAYER_2
 10
-10.7609
 20
157.8536
 11
-15.3274
 21
157.8536
  0
INSERT
  8
LAYER_2
  2
AIGNBL02010016
 10
0
 20
0
 30
0
  0
LINE
  8
LAYER_2
 10
-21.0277
 20
84.8537
 11
-10.7609
 21
84.8537
  0
LINE
  8
LAYER_2
 10
70.6835
 20
204.9496
 11
70.6835
 21
188.5625
  0
INSERT
  8
LAYER_2
  2
AIGNBL02010018
 10
0
 20
0
 30
0
  0
LINE
  8
LAYER_2
 10
41.6841
 20
204.9496
 11
41.6841
 21
187.5541
  0
INSERT
  8
LAYER_2
  2
AIGNBL0201001A
 10
0
 20
0
 30
0
  0
INSERT
  8
LAYER_2
  2
AIGNBL0201001B
 10
0
 20
0
 30
0
  0
INSERT
  8
LAYER_2
  2
AIGNBL0201001C
 10
0
 20
0
 30
0
  0
LINE
  8
LAYER_2
 10
39.8148
 20
185.8534
 11
32.6841
 21
185.8534
  0
LINE
  8
LAYER_2
 10
51.1774
 20
185.5
 11
44.0467
 21
185.5
  0
LINE
  8
LAYER_2
 10
36.8596
 20
173.9699
 11
39.1471
 21
173.9189
  0
LINE
  8
LAYER_2
 10
39.1471
 20
173.9189
 11
37.191
 21
175.1061
  0
LINE
  8
LAYER_2
 10
37.191
 20
175.1061
 11
36.8596
 21
173.9699
  0
LINE
  8
LAYER_2
 10
43.838
 20
174.4247
 11
41.6841
 21
173.6516
  0
LINE
  8
LAYER_2
 10
41.6841
 20
173.6516
 11
43.9358
 21
173.2444
  0
LINE
  8
LAYER_2
 10
43.9358
 20
173.2444
 11
43.838
 21
174.4247
  0
LINE
  8
LAYER_2
 10
41.6841
 20
183.1086
 11
41.6841
 21
172.4975
  0
LINE
  8
LAYER_2
 10
41.1015
 20
183.1123
 11
38.9563
 21
173.0205
  0
LINE
  8
LAYER_2
 10
70.6567
 20
203.7424
 11
41.6841
 21
203.7424
  0
LINE
  8
LAYER_2
 10
33.8913
 20
157.8536
 11
33.8913
 21
185.799
  0
INSERT
  8
LAYER_2
  2
AIGNBL0201001D
 10
0
 20
0
 30
0
  0
LINE
  8
LAYER_2
 10
50.4773
 20
157.8536
 11
50.4773
 21
185.4455
  0
INSERT
  8
LAYER_2
  2
AIGNBL0201001E
 10
0
 20
0
 30
0
  0
INSERT
  8
LAYER_2
  2
AIGNBL0201001F
 10
0
 20
0
 30
0
  0
LINE
  8
LAYER_2
 10
84.9855
 20
157.8536
 11
84.9855
 21
199.8536
  0
ARC
  8
LAYER_2
 10
41.6997
 20
185.9928
 40
12.3351
 50
243.3333723
 51
284.1498194
  0
LINE
  8
LAYER_2
 10
-42.7276
 20
243.4348
 11
-42.7276
 21
213.564
  0
LINE
  8
LAYER_2
 10
-22.7278
 20
221.4454
 11
-22.7278
 21
213.564
  0
LINE
  8
LAYER_2
 10
-2.728
 20
243.4348
 11
-2.728
 21
213.564
  0
INSERT
  8
LAYER_2
  2
AIGNBL02010020
 10
0
 20
0
 30
0
  0
INSERT
  8
LAYER_2
  2
AIGNBL02010022
 10
0
 20
0
 30
0
  0
LINE
  8
LAYER_2
 10
-33.8848
 20
223.4005
 11
-35.7151
 21
224.774
  0
LINE
  8
LAYER_2
 10
-35.7151
 20
224.774
 11
-33.4431
 21
224.4998
  0
LINE
  8
LAYER_2
 10
-33.4431
 20
224.4998
 11
-33.8848
 21
223.4005
  0
LINE
  8
LAYER_2
 10
-11.5905
 20
223.3917
 11
-9.7601
 21
224.7653
  0
LINE
  8
LAYER_2
 10
-9.7601
 20
224.7653
 11
-12.0318
 21
224.491
  0
LINE
  8
LAYER_2
 10
-12.0318
 20
224.491
 11
-11.5905
 21
223.3917
  0
LINE
  8
LAYER_2
 10
-26.6663
 20
62.7007
 11
-26.6663
 21
64.57
  0
LINE
  8
LAYER_2
  6
AIGENLINE001
 10
-32.6128
 20
52.9129
 11
11.9828
 21
52.9129
  0
LINE
  8
LAYER_2
  6
AIGENLINE001
 10
-22.7278
 20
46.9405
 11
-22.7278
 21
68.051
  0
LINE
  8
LAYER_2
  6
AIGENLINE002
 10
13.755
 20
52.9129
 11
17.0037
 21
52.9129
  0
INSERT
  8
LAYER_2
  2
AIGNBL02010024
 10
0
 20
0
 30
0
  0
LINE
  8
LAYER_2
 10
-16.4274
 20
67.651
 11
-16.4274
 21
72.6098
  0
INSERT
  8
LAYER_2
  2
AIGNBL02010025
 10
0
 20
0
 30
0
  0
INSERT
  8
LAYER_2
  2
AIGNBL02010026
 10
0
 20
0
 30
0
  0
LINE
  8
LAYER_2
 10
-29.6549
 20
67.0905
 11
-33.9709
 21
67.0905
  0
LINE
  8
LAYER_2
 10
-29.0275
 20
67.651
 11
-29.0275
 21
72.6098
  0
LINE
  8
LAYER_2
 10
-15.8376
 20
54.7836
 11
-15.4414
 21
54.5548
  0
LINE
  8
LAYER_2
 10
-15.4414
 20
51.0418
 11
-15.4414
 21
54.7836
  0
LINE
  8
LAYER_2
 10
-26.3996
 20
48.8756
 11
-26.3996
 21
50.2543
  0
LINE
  8
LAYER_2
 10
-26.6663
 20
49.1426
 11
-18.7891
 21
49.1426
  0
LINE
  8
LAYER_2
 10
-19.056
 20
48.8756
 11
-19.056
 21
50.2543
  0
LINE
  8
LAYER_2
 10
-15.4414
 20
51.2706
 11
-15.8376
 21
51.0418
  0
LINE
  8
LAYER_2
 10
-14.9612
 20
51.2706
 11
-15.4414
 21
51.2706
  0
LINE
  8
LAYER_2
 10
-15.4414
 20
54.5548
 11
-14.9612
 21
54.5548
  0
LINE
  8
LAYER_2
 10
-22.7278
 20
46.2211
 11
-22.7278
 21
40.7448
  0
INSERT
  8
LAYER_2
  2
AIGNBL02010027
 10
0
 20
0
 30
0
  0
LINE
  8
LAYER_2
 10
-28.6747
 20
46.258
 11
-38.4443
 21
46.258
  0
LINE
  8
LAYER_2
 10
-29.0182
 20
59.77
 11
-33.9709
 21
59.77
  0
LINE
  8
LAYER_2
 10
-15.8376
 20
54.7836
 11
-15.8376
 21
51.0418
  0
LINE
  8
LAYER_2
 10
-12.757
 20
55.2163
 11
-12.757
 21
50.6136
  0
LINE
  8
LAYER_2
 10
-12.757
 20
50.9964
 11
-14.1736
 21
50.9964
  0
LINE
  8
LAYER_2
 10
-12.757
 20
51.5063
 11
-14.1736
 21
51.5063
  0
LINE
  8
LAYER_2
 10
-12.757
 20
54.1686
 11
-14.1736
 21
54.1686
  0
LINE
  8
LAYER_2
 10
-12.757
 20
54.7632
 11
-14.1736
 21
54.7632
  0
LINE
  8
LAYER_2
 10
-12.757
 20
52.0726
 11
-14.1736
 21
52.0726
  0
LINE
  8
LAYER_2
 10
-12.757
 20
52.6107
 11
-14.1736
 21
52.6107
  0
LINE
  8
LAYER_2
 10
-12.757
 20
53.1206
 11
-14.1736
 21
53.1206
  0
LINE
  8
LAYER_2
 10
-12.757
 20
53.6305
 11
-14.1736
 21
53.6305
  0
INSERT
  8
LAYER_2
  2
AIGNBL02010028
 10
0
 20
0
 30
0
  0
LINE
  8
LAYER_2
 10
-14.1736
 20
55.1281
 11
-14.8627
 21
55.1281
  0
LINE
  8
LAYER_2
 10
-28.0446
 20
59.77
 11
-17.41
 21
59.77
  0
LINE
  8
LAYER_2
 10
-28.9803
 20
58.5253
 11
-28.9803
 21
58.722
  0
LINE
  8
LAYER_2
 10
-28.9803
 20
58.5253
 11
-27.3553
 21
57.5875
  0
LINE
  8
LAYER_2
 10
-19.056
 20
48.8756
 11
-26.3996
 21
48.8756
  0
LINE
  8
LAYER_2
 10
-26.6663
 20
49.1426
 11
-26.6663
 21
50.2543
  0
LINE
  8
LAYER_2
 10
-18.7891
 20
50.2543
 11
-18.7891
 21
49.1426
  0
LINE
  8
LAYER_2
 10
-18.7891
 20
49.1426
 11
-19.056
 21
48.8756
  0
LINE
  8
LAYER_2
 10
-26.6663
 20
49.1426
 11
-26.3996
 21
48.8756
  0
LINE
  8
LAYER_2
 10
-26.6173
 20
50.2543
 11
-26.6173
 21
50.8451
  0
LINE
  8
LAYER_2
 10
-18.8383
 20
50.2543
 11
-18.8383
 21
50.8451
  0
LINE
  8
LAYER_2
 10
-18.7891
 20
50.2543
 11
-26.6173
 21
50.2543
  0
LINE
  8
LAYER_2
 10
-16.4756
 20
58.5253
 11
-16.4756
 21
58.722
  0
LINE
  8
LAYER_2
 10
-16.4756
 20
58.5253
 11
-18.0997
 21
57.5875
  0
LINE
  8
LAYER_2
 10
-26.8633
 20
50.8451
 11
-26.8633
 21
56.7345
  0
ARC
  8
LAYER_2
 10
-17.589
 20
56.7238
 40
1.0034
 50
120.5981459
 51
179.389742
  0
ARC
  8
LAYER_2
 10
-27.868
 20
56.7234
 40
1.0048
 50
0.6346592629
 51
59.31698895
  0
LINE
  8
LAYER_2
 10
-18.5923
 20
56.7345
 11
-18.5923
 21
55.1777
  0
ARC
  8
LAYER_2
 10
-17.411
 20
59.1792
 40
0.5908
 50
0.02682159414
 51
89.90521764
  0
ARC
  8
LAYER_2
 10
-17.4152
 20
59.1814
 40
0.595
 50
309.565272
 51
359.8200419
  0
ARC
  8
LAYER_2
 10
-28.0225
 20
59.1567
 40
0.6137
 50
92.06060994
 51
177.8715098
  0
ARC
  8
LAYER_2
 10
-28.039
 20
59.1831
 40
0.5968
 50
180.3409691
 51
230.4785606
  0
ARC
  8
LAYER_2
 10
-28.8703
 20
64.6898
 40
2.0347
 50
1.604029791
 51
80.93507101
  0
ARC
  8
LAYER_2
 10
-16.6278
 20
64.6896
 40
2.0349
 50
99.06151091
 51
178.3894414
  0
LINE
  8
LAYER_2
 10
-14.1736
 20
50.6973
 11
-14.8627
 21
50.6973
  0
LINE
  8
LAYER_2
 10
-14.9612
 20
51.0418
 11
-18.2512
 21
51.0418
  0
LINE
  8
LAYER_2
 10
-18.1982
 20
54.7836
 11
-14.9612
 21
54.7836
  0
LINE
  8
LAYER_2
 10
-14.8627
 20
55.1281
 11
-14.9612
 21
55.0299
  0
LINE
  8
LAYER_2
 10
-14.9612
 20
50.7955
 11
-14.8627
 21
50.6973
  0
ARC
  8
LAYER_2
 10
-18.1982
 20
55.1777
 40
0.3941
 50
180.0004238
 51
269.9995763
  0
LINE
  8
LAYER_2
 10
-14.9612
 20
50.7955
 11
-14.9612
 21
55.0299
  0
ARC
  8
LAYER_2
 10
-18.2465
 20
50.6396
 40
0.4023
 50
90.66847739
 51
149.2725018
  0
LINE
  8
LAYER_2
 10
-16.4756
 20
58.722
 11
-28.9803
 21
58.722
  0
LINE
  8
LAYER_2
 10
-18.5923
 20
50.8451
 11
-26.8633
 21
50.8451
  0
LINE
  8
LAYER_2
 10
-14.1736
 20
55.2163
 11
-14.1736
 21
50.6136
  0
ARC
  8
LAYER_2
 10
-12.2996
 20
54.9241
 40
0.2924
 50
2.091755604
 51
87.82677155
  0
LINE
  8
LAYER_2
 10
-12.2885
 20
55.2163
 11
-14.1736
 21
55.2163
  0
ARC
  8
LAYER_2
 10
-12.2997
 20
50.9059
 40
0.2925
 50
272.1918257
 51
357.9506757
  0
LINE
  8
LAYER_2
 10
-12.2885
 20
50.6136
 11
-14.1736
 21
50.6136
  0
LINE
  8
LAYER_2
 10
-12.0074
 20
50.8954
 11
-12.0074
 21
54.9348
  0
LINE
  8
LAYER_2
 10
-29.0275
 20
66.6936
 11
-16.4274
 21
66.6936
  0
LINE
  8
LAYER_2
 10
-18.7891
 20
64.57
 11
-18.7891
 21
62.7007
  0
LINE
  8
LAYER_2
 10
-18.7891
 20
60.3215
 11
-18.7891
 21
59.77
  0
LINE
  8
LAYER_2
 10
-18.6619
 20
64.7468
 11
-18.7891
 21
64.57
  0
LINE
  8
LAYER_2
 10
-26.6663
 20
64.57
 11
-26.8364
 21
64.7468
  0
LINE
  8
LAYER_2
 10
-26.6663
 20
59.77
 11
-26.6663
 21
60.3215
  0
ARC
  8
LAYER_2
 10
-26.5718
 20
62.3349
 40
0.3658
 50
0.006104652638
 51
90.00955634
  0
LINE
  8
LAYER_2
 10
-26.6663
 20
62.7007
 11
-26.5719
 21
62.7007
  0
ARC
  8
LAYER_2
 10
-18.8726
 20
62.335
 40
0.3657
 50
90.0279143
 51
180.0190944
  0
LINE
  8
LAYER_2
 10
-18.8728
 20
62.7007
 11
-18.7891
 21
62.7007
  0
ARC
  8
LAYER_2
 10
-26.5717
 20
60.6872
 40
0.3657
 50
269.9723339
 51
359.9806702
  0
LINE
  8
LAYER_2
 10
-26.6663
 20
60.3215
 11
-26.5719
 21
60.3215
  0
LINE
  8
LAYER_2
 10
-26.206
 20
60.6871
 11
-26.206
 21
62.3349
  0
LINE
  8
LAYER_2
 10
-21.2271
 20
60.6871
 11
-21.2271
 21
62.3349
  0
ARC
  8
LAYER_2
 10
-18.8727
 20
60.6871
 40
0.3656
 50
179.9941324
 51
269.9901937
  0
LINE
  8
LAYER_2
 10
-19.2383
 20
60.6871
 11
-19.2383
 21
62.3349
  0
ARC
  8
LAYER_2
 10
-23.8027
 20
62.3348
 40
0.3659
 50
89.99435898
 51
179.98998
  0
LINE
  8
LAYER_2
 10
-23.8027
 20
62.7007
 11
-21.5923
 21
62.7007
  0
ARC
  8
LAYER_2
 10
-21.6063
 20
62.3215
 40
0.3795
 50
2.026526184
 51
87.87941783
  0
ARC
  8
LAYER_2
 10
-23.8029
 20
60.6872
 40
0.3657
 50
180.0232479
 51
270.023748
  0
LINE
  8
LAYER_2
 10
-23.8027
 20
60.3215
 11
-21.5923
 21
60.3215
  0
ARC
  8
LAYER_2
 10
-21.6065
 20
60.7009
 40
0.3796
 50
272.1422543
 51
357.9204668
  0
LINE
  8
LAYER_2
 10
-24.1686
 20
60.6871
 11
-24.1686
 21
62.3349
  0
LINE
  8
LAYER_2
 10
-18.8728
 20
60.3215
 11
-18.7891
 21
60.3215
  0
LINE
  8
LAYER_2
 10
-29.0275
 20
66.6936
 11
-29.0275
 21
66.809
  0
ARC
  8
LAYER_2
 10
-28.7356
 20
66.7986
 40
0.2921
 50
92.11480253
 51
177.9666703
  0
ARC
  8
LAYER_2
 10
-16.7196
 20
66.7983
 40
0.2924
 50
2.099356651
 51
87.8191705
  0
LINE
  8
LAYER_2
 10
-16.4274
 20
66.809
 11
-16.4274
 21
66.6936
  0
LINE
  8
LAYER_2
 10
-28.7464
 20
67.0905
 11
-16.7085
 21
67.0905
  0
LINE
  8
LAYER_2
 10
15.2722
 20
51.7694
 11
15.2722
 21
40.7455
  0
LINE
  8
LAYER_2
  6
AIGENLINE003
 10
12.8665
 20
49.9976
 11
12.8665
 21
56.2247
  0
LINE
  8
LAYER_2
 10
15.0745
 20
53.4052
 11
15.0745
 21
52.4206
  0
LINE
  8
LAYER_2
 10
12.9681
 20
50.9526
 11
12.9681
 21
52.3176
  0
LINE
  8
LAYER_2
 10
12.7704
 20
50.9526
 11
12.7704
 21
52.3176
  0
ARC
  8
LAYER_2
 10
13.1903
 20
53.3931
 40
0.5798
 50
13.11427423
 51
54.66875962
  0
ARC
  8
LAYER_2
 10
12.8937
 20
52.979
 40
1.0892
 50
54.53905668
 51
91.17758989
  0
ARC
  8
LAYER_2
 10
12.8582
 20
52.9282
 40
1.1399
 50
89.34136704
 51
119.0784833
  0
ARC
  8
LAYER_2
 10
12.6032
 20
53.3622
 40
0.6367
 50
118.0106882
 51
167.0075412
  0
ARC
  8
LAYER_2
 10
12.5615
 20
51.482
 40
0.6024
 50
196.1268797
 51
237.0511486
  0
ARC
  8
LAYER_2
 10
12.8465
 20
51.9092
 40
1.1159
 50
236.7014442
 51
270.7952192
  0
ARC
  8
LAYER_2
 10
12.8748
 20
51.9335
 40
1.1402
 50
269.3583462
 51
299.1451695
  0
ARC
  8
LAYER_2
 10
13.1433
 20
51.4808
 40
0.6142
 50
297.8314463
 51
354.8126241
  0
LINE
  8
LAYER_2
 10
12.5571
 20
54.6916
 11
12.5571
 21
54.0839
  0
LINE
  8
LAYER_2
 10
13.2058
 20
54.6916
 11
13.2058
 21
54.0839
  0
ARC
  8
LAYER_2
 10
13.0457
 20
54.9124
 40
0.2201
 50
270.7896778
 51
340.8729653
  0
ARC
  8
LAYER_2
 10
12.9562
 20
54.9732
 40
0.3257
 50
335.9171376
 51
6.900263292
  0
ARC
  8
LAYER_2
 10
12.9871
 20
55.0419
 40
0.294
 50
354.2308098
 51
73.74095657
  0
ARC
  8
LAYER_2
 10
12.7328
 20
54.916
 40
0.223
 50
203.9905976
 51
272.7568245
  0
ARC
  8
LAYER_2
 10
12.8038
 20
54.9713
 40
0.3111
 50
172.429296
 51
207.9832253
  0
ARC
  8
LAYER_2
 10
12.7883
 20
55.0395
 40
0.2941
 50
104.3674606
 51
185.2968791
  0
ARC
  8
LAYER_2
 10
12.2608
 20
54.9129
 40
0.2206
 50
270.8103941
 51
340.7784433
  0
ARC
  8
LAYER_2
 10
12.1714
 20
54.9738
 40
0.3263
 50
335.8347207
 51
6.773264128
  0
ARC
  8
LAYER_2
 10
12.195
 20
55.0426
 40
0.3019
 50
354.2492817
 51
61.66436912
  0
ARC
  8
LAYER_2
 10
13.5172
 20
54.9161
 40
0.2231
 50
204.0093669
 51
272.6746337
  0
ARC
  8
LAYER_2
 10
13.5883
 20
54.9716
 40
0.3114
 50
172.4961542
 51
208.0146608
  0
ARC
  8
LAYER_2
 10
13.5826
 20
55.0401
 40
0.3043
 50
118.5289188
 51
185.2475593
  0
LINE
  8
LAYER_2
 10
15.2722
 20
52.6176
 11
15.2722
 21
53.2081
  0
LINE
  8
LAYER_2
 10
15.0745
 20
53.4052
 11
15.2722
 21
53.2081
  0
LINE
  8
LAYER_2
 10
15.2722
 20
52.6176
 11
15.0745
 21
52.4206
  0
LINE
  8
LAYER_2
 10
13.755
 20
53.4052
 11
15.0745
 21
53.4052
  0
LINE
  8
LAYER_2
 10
13.755
 20
52.4206
 11
15.0745
 21
52.4206
  0
LINE
  8
LAYER_2
 10
-12.0074
 20
53.4128
 11
11.9828
 21
53.4128
  0
LINE
  8
LAYER_2
 10
-12.0074
 20
52.413
 11
11.9828
 21
52.413
  0
LINE
  8
LAYER_2
 10
12.1778
 20
54.0839
 11
13.5579
 21
54.0839
  0
LINE
  8
LAYER_2
 10
11.9828
 20
50.9654
 11
11.9828
 21
53.8565
  0
LINE
  8
LAYER_2
 10
13.755
 20
50.9609
 11
13.755
 21
53.8582
  0
ARC
  8
LAYER_2
 10
12.8691
 20
51.6353
 40
0.6895
 50
359.9861137
 51
89.98895879
  0
ARC
  8
LAYER_2
 10
12.8953
 20
51.6097
 40
0.7155
 50
92.09012922
 51
177.9680517
  0
ARC
  8
LAYER_2
 10
12.8692
 20
51.6351
 40
0.689
 50
180.0014242
 51
269.9985759
  0
ARC
  8
LAYER_2
 10
12.8694
 20
51.6353
 40
0.6892
 50
269.9814712
 51
359.9852753
  0
LINE
  8
LAYER_2
 10
12.1802
 20
50.7359
 11
13.5586
 21
50.7359
  0
LINE
  8
LAYER_2
 10
11.9828
 20
50.9654
 11
12.1802
 21
50.7359
  0
LINE
  8
LAYER_2
 10
13.755
 20
50.9654
 11
13.5586
 21
50.7359
  0
LINE
  8
LAYER_2
 10
13.5579
 20
54.0839
 11
13.755
 21
53.8544
  0
LINE
  8
LAYER_2
 10
12.1778
 20
54.0839
 11
11.9807
 21
53.8544
  0
LINE
  8
LAYER_2
 10
13.3126
 20
53.9846
 11
13.3126
 21
53.9853
  0
LINE
  8
LAYER_2
 10
12.1967
 20
54.6916
 11
13.5765
 21
54.6916
  0
ARC
  8
LAYER_2
 10
12.4217
 20
55.0994
 40
0.225
 50
89.99087287
 51
179.9836566
  0
LINE
  8
LAYER_2
 10
12.1967
 20
55.0995
 11
12.1967
 21
54.6916
  0
ARC
  8
LAYER_2
 10
13.3425
 20
55.0904
 40
0.2342
 50
2.228896443
 51
87.87291743
  0
LINE
  8
LAYER_2
 10
12.4217
 20
55.3244
 11
13.3512
 21
55.3244
  0
LINE
  8
LAYER_2
 10
13.5765
 20
55.0995
 11
13.5765
 21
54.6916
  0
LINE
  8
LAYER_2
 10
12.42
 20
54.0839
 11
12.42
 21
54.6916
  0
LINE
  8
LAYER_2
 10
13.3436
 20
54.0839
 11
13.3436
 21
54.6916
  0
LINE
  8
LAYER_2
 10
13.3319
 20
54.7925
 11
13.3319
 21
54.798
  0
LINE
  8
LAYER_2
 10
-0.1273
 20
153.3973
 11
-5.328
 21
153.3973
  0
INSERT
  8
LAYER_2
  2
AIGNBL02010029
 10
0
 20
0
 30
0
  0
INSERT
  8
LAYER_2
  2
AIGNBL0201002A
 10
0
 20
0
 30
0
  0
LINE
  8
LAYER_2
 10
-22.2276
 20
101.9655
 11
-23.2277
 21
101.9655
  0
INSERT
  8
LAYER_2
  2
AIGNBL0201002B
 10
0
 20
0
 30
0
  0
INSERT
  8
LAYER_2
  2
AIGNBL0201002C
 10
0
 20
0
 30
0
  0
LINE
  8
LAYER_2
  6
AIGENLINE001
 10
70.6835
 20
136.5136
 11
70.6835
 21
188.5625
  0
LINE
  8
LAYER_2
 10
40.0208
 20
186.2069
 11
41.6841
 21
185.8534
  0
LINE
  8
LAYER_2
 10
40.0105
 20
188.5604
 11
40.1159
 21
189.0594
  0
LINE
  8
LAYER_2
 10
40.2117
 20
189.0288
 11
42.2656
 21
188.5923
  0
ARC
  8
LAYER_2
 10
39.8908
 20
188.0591
 40
0.5154
 50
1.363872021
 51
76.56753864
  0
LINE
  8
LAYER_2
 10
40.395
 20
187.9675
 11
40.406
 21
188.0714
  0
LINE
  8
LAYER_2
 10
40.0208
 20
186.2069
 11
40.395
 21
187.9675
  0
LINE
  8
LAYER_2
 10
40.4198
 20
190.007
 11
42.4737
 21
189.5703
  0
ARC
  8
LAYER_2
 10
40.3305
 20
189.495
 40
0.5197
 50
80.10540228
 51
165.8818914
  0
ARC
  8
LAYER_2
 10
40.316
 20
189.5181
 40
0.5003
 50
168.0418436
 51
257.9719236
  0
ARC
  8
LAYER_2
 10
40.8108
 20
189.924
 40
0.4998
 50
77.9468334
 51
168.0268722
  0
LINE
  8
LAYER_2
 10
40.3219
 20
190.0277
 11
40.3199
 21
190.018
  0
LINE
  8
LAYER_2
 10
40.9152
 20
190.4128
 11
42.5778
 21
190.0594
  0
LINE
  8
LAYER_2
 10
43.3467
 20
185.5
 11
41.6841
 21
185.8534
  0
LINE
  8
LAYER_2
 10
44.3141
 20
187.6457
 11
44.4202
 21
188.1447
  0
LINE
  8
LAYER_2
 10
44.3203
 20
188.1556
 11
42.2656
 21
188.5923
  0
ARC
  8
LAYER_2
 10
44.2105
 20
187.1558
 40
0.5008
 50
78.0570966
 51
167.916609
  0
LINE
  8
LAYER_2
 10
43.3467
 20
185.5
 11
43.7208
 21
187.2606
  0
LINE
  8
LAYER_2
 10
44.5277
 20
189.1338
 11
42.4737
 21
189.5703
  0
ARC
  8
LAYER_2
 10
44.4238
 20
188.6446
 40
0.5001
 50
0.02039146753
 51
78.01011694
  0
ARC
  8
LAYER_2
 10
44.4241
 20
188.6454
 40
0.5006
 50
258.0380248
 51
347.9220907
  0
LINE
  8
LAYER_2
 10
44.9136
 20
188.5406
 11
44.9239
 21
188.6448
  0
ARC
  8
LAYER_2
 10
44.1367
 20
189.2169
 40
0.4998
 50
359.9956544
 51
78.02070566
  0
LINE
  8
LAYER_2
 10
44.6262
 20
189.113
 11
44.6365
 21
189.2169
  0
LINE
  8
LAYER_2
 10
44.6262
 20
189.113
 11
44.6235
 21
189.103
  0
LINE
  8
LAYER_2
 10
44.2404
 20
189.7059
 11
42.5778
 21
190.0594
  0
ARC
  8
LAYER_2
 10
50.7078
 20
178.0778
 40
19.9757
 50
359.9990518
 51
89.99894038
  0
ARC
  8
LAYER_2
 10
50.6516
 20
190.182
 40
7.8715
 50
89.9991757
 51
168.0055421
  0
LINE
  8
LAYER_2
  6
AIGENLINE001
 10
41.2907
 20
184.0019
 11
42.9519
 21
191.8178
  0
LINE
  8
LAYER_2
 10
50.6517
 20
198.0535
 11
50.7075
 21
198.0535
  0
ARC
  8
LAYER_2
 10
50.6518
 20
190.1815
 40
6.072
 50
90.00112216
 51
168.0029525
  0
LINE
  8
LAYER_2
 10
44.3361
 20
189.6754
 11
44.7124
 21
191.4436
  0
ARC
  8
LAYER_2
 10
50.7079
 20
178.0778
 40
18.1759
 50
359.9991155
 51
89.99899308
  0
ARC
  8
LAYER_2
 10
50.6521
 20
190.1805
 40
9.6729
 50
90.00255539
 51
167.9938911
  0
LINE
  8
LAYER_2
 10
40.8153
 20
190.4237
 11
41.1908
 21
192.1922
  0
ARC
  8
LAYER_2
 10
50.708
 20
178.0777
 40
21.7759
 50
359.9995249
 51
89.99942265
  0
LINE
  8
LAYER_2
 10
72.4839
 20
178.0775
 11
72.4839
 21
173.8152
  0
LINE
  8
LAYER_2
 10
50.6517
 20
196.2535
 11
50.7082
 21
196.2535
  0
LINE
  8
LAYER_2
 10
50.6517
 20
199.8534
 11
50.7075
 21
199.8534
  0
LINE
  8
LAYER_2
  6
AIGENLINE001
 10
-42.7276
 20
137.9909
 11
-42.7276
 21
176.547
  0
LINE
  8
LAYER_2
 10
-48.9281
 20
157.8536
 11
-42.728
 21
157.8536
  0
LINE
  8
LAYER_2
 10
-46.3329
 20
159.4535
 11
-42.728
 21
159.4535
  0
LINE
  8
LAYER_2
 10
-45.8217
 20
161.0541
 11
-42.728
 21
161.0541
  0
LINE
  8
LAYER_2
 10
-45.328
 20
151.8536
 11
-45.328
 21
157.8536
  0
LINE
  8
LAYER_2
 10
-45.1282
 20
151.8536
 11
-45.1282
 21
157.8536
  0
LINE
  8
LAYER_2
 10
-47.128
 20
151.8536
 11
-42.728
 21
151.8536
  0
LINE
  8
LAYER_2
 10
-47.128
 20
151.6538
 11
-42.728
 21
151.6538
  0
LINE
  8
LAYER_2
 10
-47.128
 20
151.454
 11
-42.728
 21
151.454
  0
LINE
  8
LAYER_2
 10
-47.128
 20
151.454
 11
-47.128
 21
151.8536
  0
LINE
  8
LAYER_2
 10
-44.528
 20
150.4535
 11
-42.728
 21
150.4535
  0
LINE
  8
LAYER_2
 10
-46.3281
 20
150.4535
 11
-44.528
 21
150.4535
  0
LINE
  8
LAYER_2
 10
-46.3281
 20
150.4535
 11
-46.3281
 21
151.454
  0
LINE
  8
LAYER_2
 10
-44.528
 20
150.4535
 11
-44.528
 21
151.454
  0
LINE
  8
LAYER_2
 10
-44.528
 20
147.0539
 11
-42.728
 21
147.0539
  0
LINE
  8
LAYER_2
 10
-45.328
 20
147.0539
 11
-42.728
 21
147.0539
  0
LINE
  8
LAYER_2
 10
-45.328
 20
147.0539
 11
-45.328
 21
150.4535
  0
LINE
  8
LAYER_2
 10
-45.1282
 20
147.2537
 11
-45.1282
 21
150.4535
  0
LINE
  8
LAYER_2
 10
-45.328
 20
147.2537
 11
-42.7276
 21
147.2537
  0
LINE
  8
LAYER_2
 10
-45.328
 20
140.6539
 11
-42.728
 21
140.6539
  0
LINE
  8
LAYER_2
 10
-44.8281
 20
138.8539
 11
-44.8281
 21
140.6539
  0
LINE
  8
LAYER_2
 10
-44.6279
 20
138.6537
 11
-44.6279
 21
140.6539
  0
LINE
  8
LAYER_2
 10
-45.328
 20
140.6539
 11
-45.328
 21
147.0539
  0
LINE
  8
LAYER_2
 10
-45.328
 20
147.0539
 11
-45.1282
 21
147.2537
  0
LINE
  8
LAYER_2
 10
-44.8281
 20
138.8539
 11
-42.728
 21
138.8539
  0
LINE
  8
LAYER_2
 10
-44.6279
 20
138.6537
 11
-42.7276
 21
138.6537
  0
LINE
  8
LAYER_2
 10
-44.6279
 20
138.6537
 11
-44.8281
 21
138.8539
  0
LINE
  8
LAYER_2
 10
-36.5271
 20
157.8536
 11
-42.7269
 21
157.8536
  0
LINE
  8
LAYER_2
 10
-39.122
 20
159.4535
 11
-42.7269
 21
159.4535
  0
LINE
  8
LAYER_2
 10
-39.6332
 20
161.0541
 11
-42.7269
 21
161.0541
  0
LINE
  8
LAYER_2
 10
-40.1273
 20
151.8536
 11
-40.1273
 21
157.8536
  0
LINE
  8
LAYER_2
 10
-40.3271
 20
151.8536
 11
-40.3271
 21
157.8536
  0
LINE
  8
LAYER_2
 10
-38.3272
 20
151.8536
 11
-42.7269
 21
151.8536
  0
LINE
  8
LAYER_2
 10
-38.3272
 20
151.6538
 11
-42.7269
 21
151.6538
  0
LINE
  8
LAYER_2
 10
-38.3272
 20
151.454
 11
-42.7269
 21
151.454
  0
LINE
  8
LAYER_2
 10
-38.3272
 20
151.454
 11
-38.3272
 21
151.8536
  0
LINE
  8
LAYER_2
 10
-40.9272
 20
150.4535
 11
-42.7269
 21
150.4535
  0
LINE
  8
LAYER_2
 10
-39.1271
 20
150.4535
 11
-40.9272
 21
150.4535
  0
LINE
  8
LAYER_2
 10
-39.1271
 20
150.4535
 11
-39.1271
 21
151.454
  0
LINE
  8
LAYER_2
 10
-40.9272
 20
150.4535
 11
-40.9272
 21
151.454
  0
LINE
  8
LAYER_2
 10
-40.9272
 20
147.0539
 11
-42.7269
 21
147.0539
  0
LINE
  8
LAYER_2
 10
-40.1273
 20
147.0539
 11
-42.7269
 21
147.0539
  0
LINE
  8
LAYER_2
 10
-40.1273
 20
147.0539
 11
-40.1273
 21
150.4535
  0
LINE
  8
LAYER_2
 10
-40.3271
 20
147.2537
 11
-40.3271
 21
150.4535
  0
LINE
  8
LAYER_2
 10
-40.1273
 20
147.2537
 11
-42.7276
 21
147.2537
  0
LINE
  8
LAYER_2
 10
-40.1273
 20
140.6539
 11
-42.7269
 21
140.6539
  0
LINE
  8
LAYER_2
 10
-40.6272
 20
138.8539
 11
-40.6272
 21
140.6539
  0
LINE
  8
LAYER_2
 10
-40.8273
 20
138.6537
 11
-40.8273
 21
140.6539
  0
LINE
  8
LAYER_2
 10
-40.1273
 20
140.6539
 11
-40.1273
 21
142.154
  0
LINE
  8
LAYER_2
 10
-40.1273
 20
145.1543
 11
-40.1273
 21
147.0539
  0
LINE
  8
LAYER_2
 10
-40.1273
 20
147.0539
 11
-40.3271
 21
147.2537
  0
LINE
  8
LAYER_2
 10
-40.6272
 20
138.8539
 11
-42.7269
 21
138.8539
  0
LINE
  8
LAYER_2
 10
-40.8273
 20
138.6537
 11
-42.7276
 21
138.6537
  0
LINE
  8
LAYER_2
 10
-40.8273
 20
138.6537
 11
-40.6272
 21
138.8539
  0
LINE
  8
LAYER_2
  6
AIGENLINE001
 10
-22.7278
 20
83.0451
 11
-22.7278
 21
202.2429
  0
LINE
  8
LAYER_2
  6
AIGENLINE001
 10
-20.7279
 20
137.2192
 11
-20.7279
 21
159.6481
  0
LINE
  8
LAYER_2
  6
AIGENLINE001
 10
-24.7277
 20
137.2192
 11
-24.7277
 21
159.6481
  0
LINE
  8
LAYER_2
 10
-22.7278
 20
157.8536
 11
-28.9276
 21
157.8536
  0
LINE
  8
LAYER_2
 10
-23.2277
 20
161.0534
 11
-26.1829
 21
161.0534
  0
LINE
  8
LAYER_2
 10
-22.7278
 20
158.854
 11
-27.0276
 21
158.854
  0
ARC
  8
LAYER_2
 10
-45.8217
 20
160.4093
 40
0.6448
 50
89.99837568
 51
176.3366062
  0
ARC
  8
LAYER_2
 10
-48.0061
 20
158.1995
 40
0.8554
 50
101.3901586
 51
170.8707859
  0
LINE
  8
LAYER_2
 10
-48.8506
 20
158.3352
 11
-48.9281
 21
157.8536
  0
ARC
  8
LAYER_2
 10
-48.1375
 20
160.7852
 40
1.7054
 50
281.4067553
 51
348.6918716
  0
LINE
  8
LAYER_2
 10
-47.8002
 20
159.1135
 11
-48.175
 21
159.038
  0
ARC
  8
LAYER_2
 10
-39.6335
 20
160.4089
 40
0.6452
 50
3.693605527
 51
89.97141257
  0
ARC
  8
LAYER_2
 10
-37.4489
 20
158.1994
 40
0.8555
 50
9.135184619
 51
78.60387084
  0
LINE
  8
LAYER_2
 10
-36.6043
 20
158.3352
 11
-36.5271
 21
157.8536
  0
ARC
  8
LAYER_2
 10
-37.3175
 20
160.785
 40
1.7052
 50
191.3018781
 51
258.5823253
  0
LINE
  8
LAYER_2
 10
-37.6551
 20
159.1135
 11
-37.2799
 21
159.038
  0
ARC
  8
LAYER_2
 10
-28.038
 20
157.9987
 40
0.8553
 50
90.00789735
 51
170.8989955
  0
ARC
  8
LAYER_2
 10
-26.1755
 20
160.1047
 40
0.9488
 50
90.44851768
 51
123.0550474
  0
ARC
  8
LAYER_2
 10
-26.3135
 20
160.2937
 40
0.7152
 50
122.0428022
 51
176.8139224
  0
ARC
  8
LAYER_2
 10
-19.2795
 20
160.1053
 40
0.9481
 50
56.93387989
 51
89.5447953
  0
ARC
  8
LAYER_2
 10
-19.1402
 20
160.2945
 40
0.7137
 50
3.123698173
 51
58.01751943
  0
LINE
  8
LAYER_2
 10
-28.8825
 20
158.134
 11
-28.9276
 21
157.8536
  0
ARC
  8
LAYER_2
 10
-28.0376
 20
159.864
 40
1.01
 50
269.9869717
 51
359.990337
  0
LINE
  8
LAYER_2
 10
-27.0276
 20
159.8638
 11
-27.0276
 21
160.3334
  0
LINE
  8
LAYER_2
 10
-22.7278
 20
168.0535
 11
-25.6275
 21
168.0535
  0
LINE
  8
LAYER_2
 10
-22.7278
 20
171.6536
 11
-24.7277
 21
171.6536
  0
LINE
  8
LAYER_2
 10
-22.7278
 20
172.4535
 11
-24.7277
 21
172.4535
  0
ARC
  8
LAYER_2
 10
-24.7275
 20
172.0537
 40
0.3998
 50
90.02585195
 51
180.0171468
  0
ARC
  8
LAYER_2
 10
-24.7275
 20
172.0534
 40
0.3998
 50
179.9704074
 51
269.9722681
  0
LINE
  8
LAYER_2
 10
-24.7277
 20
171.6536
 11
-25.7812
 21
170.2008
  0
LINE
  8
LAYER_2
 10
-22.7278
 20
167.0537
 11
-25.6275
 21
167.0537
  0
ARC
  8
LAYER_2
 10
-25.6275
 20
167.5532
 40
0.5003
 50
89.99488159
 51
180.0051184
  0
ARC
  8
LAYER_2
 10
-25.6091
 20
167.5724
 40
0.5191
 50
182.1231165
 51
267.9685751
  0
LINE
  8
LAYER_2
 10
-25.6275
 20
168.0535
 11
-25.9152
 21
169.4877
  0
LINE
  8
LAYER_2
 10
-23.2277
 20
161.2539
 11
-25.4712
 21
161.2539
  0
ARC
  8
LAYER_2
 10
-26.0315
 20
161.15
 40
0.104
 50
1.978257933
 51
87.7927882
  0
ARC
  8
LAYER_2
 10
-26.0279
 20
161.1537
 40
0.1003
 50
269.9774803
 51
359.9653668
  0
ARC
  8
LAYER_2
 10
-25.183
 20
163.4953
 40
1.6299
 50
121.0818054
 51
145.8693821
  0
ARC
  8
LAYER_2
 10
-24.6924
 20
163.1609
 40
2.2236
 50
145.8286216
 51
166.9605751
  0
ARC
  8
LAYER_2
 10
-24.3573
 20
163.0732
 40
2.5698
 50
166.7402749
 51
198.7338913
  0
ARC
  8
LAYER_2
 10
-24.9757
 20
162.8521
 40
1.9132
 50
198.4113794
 51
236.6505464
  0
ARC
  8
LAYER_2
 10
-26.4841
 20
165.6878
 40
0.9183
 50
302.0902346
 51
335.6588984
  0
ARC
  8
LAYER_2
 10
-26.8164
 20
165.8519
 40
1.2888
 50
335.1016485
 51
0.2044368706
  0
LINE
  8
LAYER_2
 10
-25.5276
 20
167.0537
 11
-25.5276
 21
165.8579
  0
ARC
  8
LAYER_2
 10
-22.7771
 20
167.7778
 40
2.2779
 50
88.75324889
 51
109.6921947
  0
ARC
  8
LAYER_2
 10
-23.4141
 20
169.4665
 40
0.4742
 50
105.9777423
 51
145.1809912
  0
ARC
  8
LAYER_2
 10
-22.8509
 20
169.7637
 40
0.9757
 50
186.4923289
 51
219.1563231
  0
ARC
  8
LAYER_2
 10
-21.7398
 20
170.4533
 40
2.2788
 50
214.9558718
 51
230.1460071
  0
ARC
  8
LAYER_2
 10
-22.5765
 20
169.3397
 40
0.8906
 50
225.5575714
 51
260.2209191
  0
LINE
  8
LAYER_2
 10
-23.8034
 20
169.7373
 11
-23.8203
 21
169.6534
  0
ARC
  8
LAYER_2
 10
-22.1535
 20
169.331
 40
0.6455
 50
39.00541299
 51
79.48673271
  0
ARC
  8
LAYER_2
 10
-22.709
 20
167.4778
 40
2.5773
 50
74.85796363
 51
90.41895567
  0
ARC
  8
LAYER_2
 10
-22.8746
 20
169.3301
 40
0.8804
 50
279.5968515
 51
314.1326708
  0
ARC
  8
LAYER_2
 10
-23.7184
 20
170.4555
 40
2.2826
 50
309.6603814
 51
325.0744813
  0
ARC
  8
LAYER_2
 10
-22.6076
 20
169.7649
 40
0.9789
 50
320.9896878
 51
353.4597837
  0
LINE
  8
LAYER_2
 10
-21.635
 20
169.6534
 11
-21.6519
 21
169.7373
  0
ARC
  8
LAYER_2
 10
-25.3339
 20
169.3985
 40
0.6567
 50
88.93092872
 51
127.9837007
  0
ARC
  8
LAYER_2
 10
-25.5134
 20
169.6325
 40
0.3618
 50
128.3686827
 51
163.1569587
  0
ARC
  8
LAYER_2
 10
-23.7655
 20
169.8139
 40
2.1086
 50
184.3655663
 51
211.7641517
  0
ARC
  8
LAYER_2
 10
-25.1815
 20
168.8357
 40
0.3992
 50
199.2864554
 51
249.3953565
  0
LINE
  8
LAYER_2
 10
-25.8597
 20
169.7373
 11
-25.868
 21
169.6534
  0
ARC
  8
LAYER_2
 10
-25.1921
 20
169.5927
 40
0.4328
 50
19.51878568
 51
68.31319054
  0
ARC
  8
LAYER_2
 10
-25.3209
 20
169.3334
 40
0.7217
 50
66.42030633
 51
90.08888205
  0
ARC
  8
LAYER_2
 10
-25.5311
 20
168.9222
 40
0.5054
 50
294.4461389
 51
341.62323
  0
ARC
  8
LAYER_2
 10
-26.6097
 20
169.679
 40
1.8075
 50
329.5457258
 51
342.9397444
  0
ARC
  8
LAYER_2
 10
-26.2508
 20
169.6992
 40
1.4757
 50
338.0978225
 51
358.2232871
  0
LINE
  8
LAYER_2
 10
-24.7759
 20
169.6534
 11
-24.7842
 21
169.7373
  0
ARC
  8
LAYER_2
 10
-20.1454
 20
169.399
 40
0.6562
 50
88.94498571
 51
127.9989927
  0
ARC
  8
LAYER_2
 10
-20.3245
 20
169.6322
 40
0.3622
 50
128.3730305
 51
163.1285883
  0
ARC
  8
LAYER_2
 10
-18.5769
 20
169.8141
 40
2.1086
 50
184.3708262
 51
211.7697996
  0
ARC
  8
LAYER_2
 10
-19.9928
 20
168.8357
 40
0.3992
 50
199.2864554
 51
249.3953565
  0
LINE
  8
LAYER_2
 10
-20.6711
 20
169.7373
 11
-20.6794
 21
169.6534
  0
ARC
  8
LAYER_2
 10
-20.0045
 20
169.5912
 40
0.4346
 50
19.64608478
 51
68.24787109
  0
ARC
  8
LAYER_2
 10
-20.1321
 20
169.3335
 40
0.7216
 50
66.41788116
 51
90.09378293
  0
ARC
  8
LAYER_2
 10
-20.3419
 20
168.9219
 40
0.5049
 50
294.4015215
 51
341.6358499
  0
ARC
  8
LAYER_2
 10
-21.4229
 20
169.6806
 40
1.8101
 50
329.5360815
 51
342.9125574
  0
ARC
  8
LAYER_2
 10
-21.0618
 20
169.6992
 40
1.4757
 50
338.0978225
 51
358.2232871
  0
LINE
  8
LAYER_2
 10
-19.5869
 20
169.6534
 11
-19.5952
 21
169.7373
  0
LINE
  8
LAYER_2
 10
-23.2277
 20
157.8536
 11
-23.2277
 21
152.4537
  0
LINE
  8
LAYER_2
 10
-23.2277
 20
151.5539
 11
-23.2281
 21
84.8537
  0
LINE
  8
LAYER_2
 10
-24.2278
 20
152.4537
 11
-28.2279
 21
152.4537
  0
LINE
  8
LAYER_2
 10
-24.2275
 20
152.1537
 11
-28.2275
 21
152.1537
  0
LINE
  8
LAYER_2
 10
-24.2278
 20
151.5539
 11
-28.2279
 21
151.5539
  0
LINE
  8
LAYER_2
 10
-24.8276
 20
157.8536
 11
-24.8276
 21
152.4537
  0
LINE
  8
LAYER_2
 10
-23.6277
 20
157.8536
 11
-23.6277
 21
152.4537
  0
LINE
  8
LAYER_2
  6
AIGENLINE001
 10
-24.2275
 20
157.8536
 11
-24.2275
 21
144.1369
  0
LINE
  8
LAYER_2
 10
-28.2279
 20
152.4537
 11
-28.2279
 21
151.5539
  0
LINE
  8
LAYER_2
 10
-18.6278
 20
152.4537
 11
-24.2278
 21
152.4537
  0
LINE
  8
LAYER_2
 10
-18.6278
 20
152.1537
 11
-24.2275
 21
152.1537
  0
LINE
  8
LAYER_2
 10
-18.6278
 20
151.5539
 11
-24.2278
 21
151.5539
  0
LINE
  8
LAYER_2
 10
-18.6278
 20
152.4537
 11
-18.6278
 21
151.5539
  0
LINE
  8
LAYER_2
 10
-22.2276
 20
157.8536
 11
-22.2276
 21
152.4537
  0
LINE
  8
LAYER_2
 10
-22.2276
 20
151.5539
 11
-22.2276
 21
84.8537
  0
LINE
  8
LAYER_2
 10
-23.2277
 20
147.1538
 11
-25.2276
 21
147.1538
  0
LINE
  8
LAYER_2
 10
-24.7277
 20
151.5539
 11
-24.7277
 21
147.1538
  0
LINE
  8
LAYER_2
 10
-23.7276
 20
151.5539
 11
-23.7276
 21
147.1538
  0
LINE
  8
LAYER_2
 10
-23.2277
 20
151.5539
 11
-23.2277
 21
147.1538
  0
LINE
  8
LAYER_2
 10
-25.2276
 20
151.5539
 11
-25.2276
 21
147.1538
  0
LINE
  8
LAYER_2
 10
-23.2277
 20
84.8537
 11
-22.2276
 21
84.8537
  0
LINE
  8
LAYER_2
 10
72.3744
 20
84.8537
 11
71.3746
 21
84.8537
  0
LINE
  8
LAYER_2
 10
-24.5279
 20
198.0534
 11
-24.5279
 21
190.0608
  0
LINE
  8
LAYER_2
 10
-24.5279
 20
188.1033
 11
-24.5279
 21
172.4535
  0
ARC
  8
LAYER_2
 10
-22.7278
 20
198.0534
 40
1.8
 50
0.0009372980281
 51
89.99906269
  0
ARC
  8
LAYER_2
 10
-22.7278
 20
198.0533
 40
1.8001
 50
89.99889482
 51
179.9979221
  0
LINE
  8
LAYER_2
 10
-22.7278
 20
157.8536
 11
-16.5277
 21
157.8536
  0
LINE
  8
LAYER_2
 10
-22.2272
 20
161.0534
 11
-19.272
 21
161.0534
  0
LINE
  8
LAYER_2
 10
-22.7278
 20
158.854
 11
-18.4276
 21
158.854
  0
ARC
  8
LAYER_2
 10
-17.4175
 20
157.9982
 40
0.8558
 50
9.131832993
 51
89.98137027
  0
LINE
  8
LAYER_2
 10
-16.5725
 20
158.134
 11
-16.5277
 21
157.8536
  0
ARC
  8
LAYER_2
 10
-17.4177
 20
159.8639
 40
1.0099
 50
180.0065204
 51
270.0048265
  0
LINE
  8
LAYER_2
 10
-18.4276
 20
159.8638
 11
-18.4276
 21
160.3334
  0
LINE
  8
LAYER_2
 10
-22.7278
 20
168.0535
 11
-19.8274
 21
168.0535
  0
LINE
  8
LAYER_2
 10
-22.7278
 20
171.6536
 11
-20.7276
 21
171.6536
  0
LINE
  8
LAYER_2
 10
-22.7278
 20
172.4535
 11
-20.7276
 21
172.4535
  0
ARC
  8
LAYER_2
 10
-20.7276
 20
172.0535
 40
0.4
 50
0.009762019933
 51
90.0045637
  0
ARC
  8
LAYER_2
 10
-20.7276
 20
172.0536
 40
0.4
 50
269.9973213
 51
0.002678716089
  0
LINE
  8
LAYER_2
 10
-22.7278
 20
167.0537
 11
-19.8274
 21
167.0537
  0
ARC
  8
LAYER_2
 10
-19.8276
 20
167.5534
 40
0.5001
 50
359.9732702
 51
89.98090229
  0
ARC
  8
LAYER_2
 10
-19.8272
 20
167.5534
 40
0.4997
 50
269.978719
 51
359.9754168
  0
LINE
  8
LAYER_2
 10
-22.2272
 20
161.2539
 11
-19.9845
 21
161.2539
  0
ARC
  8
LAYER_2
 10
-19.4237
 20
161.15
 40
0.104
 50
92.233828
 51
177.9951258
  0
ARC
  8
LAYER_2
 10
-19.4236
 20
161.1574
 40
0.1041
 50
182.1142551
 51
267.7139437
  0
LINE
  8
LAYER_2
 10
-19.4278
 20
161.0534
 11
-19.4274
 21
161.0534
  0
LINE
  8
LAYER_2
 10
-19.9276
 20
167.0537
 11
-19.9276
 21
165.8579
  0
LINE
  8
LAYER_2
 10
-20.9278
 20
198.0534
 11
-20.9278
 21
190.0608
  0
LINE
  8
LAYER_2
 10
-20.9278
 20
188.1033
 11
-20.9278
 21
172.4535
  0
LINE
  8
LAYER_2
  6
AIGENLINE001
 10
-2.7276
 20
137.9909
 11
-2.7276
 21
176.547
  0
LINE
  8
LAYER_2
 10
3.4725
 20
157.8536
 11
-2.7273
 21
157.8536
  0
LINE
  8
LAYER_2
 10
0.8776
 20
159.4535
 11
-2.7273
 21
159.4535
  0
LINE
  8
LAYER_2
 10
0.3664
 20
161.0541
 11
-2.7273
 21
161.0541
  0
LINE
  8
LAYER_2
 10
-0.1273
 20
151.8536
 11
-0.1273
 21
157.8536
  0
LINE
  8
LAYER_2
 10
-0.3271
 20
151.8536
 11
-0.3271
 21
157.8536
  0
LINE
  8
LAYER_2
 10
1.6728
 20
151.8536
 11
-2.7273
 21
151.8536
  0
LINE
  8
LAYER_2
 10
1.6728
 20
151.6538
 11
-2.7273
 21
151.6538
  0
LINE
  8
LAYER_2
 10
1.6728
 20
151.454
 11
-2.7273
 21
151.454
  0
LINE
  8
LAYER_2
 10
1.6728
 20
151.454
 11
1.6728
 21
151.8536
  0
LINE
  8
LAYER_2
 10
-0.9272
 20
150.4535
 11
-2.7273
 21
150.4535
  0
LINE
  8
LAYER_2
 10
0.8728
 20
150.4535
 11
-0.9272
 21
150.4535
  0
LINE
  8
LAYER_2
 10
0.8728
 20
150.4535
 11
0.8728
 21
151.454
  0
LINE
  8
LAYER_2
 10
-0.9272
 20
150.4535
 11
-0.9272
 21
151.454
  0
LINE
  8
LAYER_2
 10
-0.9272
 20
147.0539
 11
-2.7273
 21
147.0539
  0
LINE
  8
LAYER_2
 10
-0.1273
 20
147.0539
 11
-2.7273
 21
147.0539
  0
LINE
  8
LAYER_2
 10
-0.1273
 20
147.0539
 11
-0.1273
 21
150.4535
  0
LINE
  8
LAYER_2
 10
-0.3271
 20
147.2537
 11
-0.3271
 21
150.4535
  0
LINE
  8
LAYER_2
 10
-0.1273
 20
147.2537
 11
-2.7276
 21
147.2537
  0
LINE
  8
LAYER_2
 10
-0.1273
 20
140.6539
 11
-2.7273
 21
140.6539
  0
LINE
  8
LAYER_2
 10
-0.6272
 20
138.8539
 11
-0.6272
 21
140.6539
  0
LINE
  8
LAYER_2
 10
-0.827
 20
138.6537
 11
-0.827
 21
140.6539
  0
LINE
  8
LAYER_2
 10
-0.1273
 20
140.6539
 11
-0.1273
 21
147.0539
  0
LINE
  8
LAYER_2
 10
-0.1273
 20
147.0539
 11
-0.3271
 21
147.2537
  0
LINE
  8
LAYER_2
 10
-0.6272
 20
138.8539
 11
-2.7273
 21
138.8539
  0
LINE
  8
LAYER_2
 10
-0.827
 20
138.6537
 11
-2.7276
 21
138.6537
  0
LINE
  8
LAYER_2
 10
-0.827
 20
138.6537
 11
-0.6272
 21
138.8539
  0
LINE
  8
LAYER_2
 10
-8.9281
 20
157.8536
 11
-2.728
 21
157.8536
  0
LINE
  8
LAYER_2
 10
-6.333
 20
159.4535
 11
-2.728
 21
159.4535
  0
LINE
  8
LAYER_2
 10
-5.8217
 20
161.0541
 11
-2.728
 21
161.0541
  0
LINE
  8
LAYER_2
 10
-5.328
 20
151.8536
 11
-5.328
 21
157.8536
  0
LINE
  8
LAYER_2
 10
-5.1282
 20
151.8536
 11
-5.1282
 21
157.8536
  0
LINE
  8
LAYER_2
 10
-7.1281
 20
151.8536
 11
-2.728
 21
151.8536
  0
LINE
  8
LAYER_2
 10
-7.1281
 20
151.6538
 11
-2.728
 21
151.6538
  0
LINE
  8
LAYER_2
 10
-7.1281
 20
151.454
 11
-2.728
 21
151.454
  0
LINE
  8
LAYER_2
 10
-7.1281
 20
151.454
 11
-7.1281
 21
151.8536
  0
LINE
  8
LAYER_2
 10
-4.528
 20
150.4535
 11
-2.728
 21
150.4535
  0
LINE
  8
LAYER_2
 10
-6.3281
 20
150.4535
 11
-4.528
 21
150.4535
  0
LINE
  8
LAYER_2
 10
-6.3281
 20
150.4535
 11
-6.3281
 21
151.454
  0
LINE
  8
LAYER_2
 10
-4.528
 20
150.4535
 11
-4.528
 21
151.454
  0
LINE
  8
LAYER_2
 10
-4.528
 20
147.0539
 11
-2.728
 21
147.0539
  0
LINE
  8
LAYER_2
 10
-5.328
 20
147.0539
 11
-2.728
 21
147.0539
  0
LINE
  8
LAYER_2
 10
-5.328
 20
147.0539
 11
-5.328
 21
150.4535
  0
LINE
  8
LAYER_2
 10
-5.1282
 20
147.2537
 11
-5.1282
 21
150.4535
  0
LINE
  8
LAYER_2
 10
-5.328
 20
147.2537
 11
-2.7276
 21
147.2537
  0
LINE
  8
LAYER_2
 10
-5.328
 20
140.6539
 11
-2.728
 21
140.6539
  0
LINE
  8
LAYER_2
 10
-4.8281
 20
138.8539
 11
-4.8281
 21
140.6539
  0
LINE
  8
LAYER_2
 10
-4.628
 20
138.6537
 11
-4.628
 21
140.6539
  0
LINE
  8
LAYER_2
 10
-5.328
 20
140.6539
 11
-5.328
 21
142.154
  0
LINE
  8
LAYER_2
 10
-5.328
 20
145.1543
 11
-5.328
 21
147.0539
  0
LINE
  8
LAYER_2
 10
-5.328
 20
147.0539
 11
-5.1282
 21
147.2537
  0
LINE
  8
LAYER_2
 10
-4.8281
 20
138.8539
 11
-2.728
 21
138.8539
  0
LINE
  8
LAYER_2
 10
-4.628
 20
138.6537
 11
-2.7276
 21
138.6537
  0
LINE
  8
LAYER_2
 10
-4.628
 20
138.6537
 11
-4.8281
 21
138.8539
  0
ARC
  8
LAYER_2
 10
0.3661
 20
160.409
 40
0.6451
 50
3.692037555
 51
89.97298054
  0
ARC
  8
LAYER_2
 10
2.5505
 20
158.1989
 40
0.8561
 50
9.164017536
 51
78.57503793
  0
LINE
  8
LAYER_2
 10
3.3957
 20
158.3352
 11
3.4725
 21
157.8536
  0
ARC
  8
LAYER_2
 10
2.6827
 20
160.7858
 40
1.706
 50
191.3228633
 51
258.5785098
  0
LINE
  8
LAYER_2
 10
2.3449
 20
159.1135
 11
2.7201
 21
159.038
  0
ARC
  8
LAYER_2
 10
-5.8217
 20
160.4092
 40
0.6449
 50
89.99632269
 51
176.3297743
  0
ARC
  8
LAYER_2
 10
-8.0057
 20
158.1987
 40
0.8563
 50
101.4328154
 51
170.8281291
  0
LINE
  8
LAYER_2
 10
-8.851
 20
158.3352
 11
-8.9281
 21
157.8536
  0
ARC
  8
LAYER_2
 10
-8.1376
 20
160.7851
 40
1.7054
 50
281.4095297
 51
348.6933891
  0
LINE
  8
LAYER_2
 10
-7.8002
 20
159.1135
 11
-8.1754
 21
159.038
  0
LINE
  8
LAYER_2
 62
2
 10
-2.728
 20
161.0541
 11
0.0725
 21
161.0541
  0
LINE
  8
LAYER_2
 62
2
 10
-5.5282
 20
161.0544
 11
-2.728
 21
161.0541
  0
LINE
  8
LAYER_2
  6
AIGENLINE001
 10
79.1478
 20
170.8829
 11
62.5831
 21
170.8829
  0
LINE
  8
LAYER_2
 62
22
 10
70.6835
 20
161.0541
 11
73.4841
 21
161.0541
  0
LINE
  8
LAYER_2
 62
22
 10
67.8834
 20
161.0544
 11
70.6835
 21
161.0541
  0
LINE
  8
LAYER_2
 62
2
 10
-42.7269
 20
161.0541
 11
-45.5278
 21
161.0541
  0
LINE
  8
LAYER_2
 62
2
 10
-39.9271
 20
161.0544
 11
-42.7269
 21
161.0541
  0
ARC
  8
LAYER_2
 10
-21.1741
 20
185.7644
 40
0.2618
 50
19.86307285
 51
85.95445451
  0
ARC
  8
LAYER_2
 10
-22.3827
 20
181.7509
 40
4.4473
 50
73.9831971
 51
89.20967092
  0
ARC
  8
LAYER_2
 10
-22.6971
 20
178.4588
 40
7.7481
 50
87.22059118
 51
90.22722943
  0
ARC
  8
LAYER_2
 10
-22.8331
 20
179.7823
 40
6.4255
 50
89.06059864
 51
101.5234491
  0
ARC
  8
LAYER_2
 10
-24.1157
 20
185.5879
 40
0.4903
 50
90.12751185
 51
147.2192274
  0
ARC
  8
LAYER_2
 10
-24.2817
 20
185.9424
 40
0.2619
 50
199.8800149
 51
265.9653301
  0
ARC
  8
LAYER_2
 10
-23.0728
 20
189.958
 40
4.4493
 50
253.9882261
 51
269.2086364
  0
ARC
  8
LAYER_2
 10
-22.7585
 20
193.2498
 40
7.7499
 50
267.2209671
 51
270.2269657
  0
ARC
  8
LAYER_2
 10
-22.6225
 20
191.9251
 40
6.426
 50
269.0608686
 51
281.5221728
  0
ARC
  8
LAYER_2
 10
-21.34
 20
186.119
 40
0.4903
 50
270.1263783
 51
327.2074949
  0
ARC
  8
LAYER_2
 10
-21.1735
 20
188.0142
 40
0.2617
 50
19.89489113
 51
85.97414641
  0
ARC
  8
LAYER_2
 10
-22.3823
 20
183.9977
 40
4.4502
 50
73.99274805
 51
89.20952029
  0
ARC
  8
LAYER_2
 10
-22.6967
 20
180.7036
 40
7.753
 50
87.22157656
 51
90.22729488
  0
ARC
  8
LAYER_2
 10
-22.8329
 20
182.0293
 40
6.4281
 50
89.06067314
 51
101.5187224
  0
ARC
  8
LAYER_2
 10
-24.1154
 20
187.8376
 40
0.4903
 50
90.12314626
 51
147.1868069
  0
ARC
  8
LAYER_2
 10
-20.7853
 20
188.0355
 40
0.2666
 50
14.72352133
 51
78.67594483
  0
ARC
  8
LAYER_2
 10
-21.9955
 20
184.8866
 40
3.6366
 50
69.68446569
 51
86.50258688
  0
ARC
  8
LAYER_2
 10
-22.7247
 20
178.5329
 40
10.0287
 50
84.55839506
 51
90.01602999
  0
ARC
  8
LAYER_2
 10
-22.8221
 20
180.5767
 40
7.9855
 50
89.32119276
 51
100.5424346
  0
ARC
  8
LAYER_2
 10
-24.1411
 20
187.1609
 40
1.2744
 50
96.40112001
 51
125.280909
  0
ARC
  8
LAYER_2
 10
-24.8036
 20
188.1015
 40
0.1239
 50
126.4093636
 51
179.1763739
  0
ARC
  8
LAYER_2
 10
-24.6579
 20
188.1792
 40
0.2801
 50
195.7347336
 51
259.5034419
  0
ARC
  8
LAYER_2
 10
-24.3078
 20
188.7438
 40
0.9308
 50
244.4722002
 51
256.3494423
  0
ARC
  8
LAYER_2
 10
-20.9676
 20
188.3352
 40
0.4975
 50
274.6296793
 51
332.2199431
  0
ARC
  8
LAYER_2
 10
-20.7858
 20
188.5333
 40
0.2667
 50
14.69326821
 51
78.65191148
  0
ARC
  8
LAYER_2
 10
-21.9954
 20
185.3873
 40
3.6337
 50
69.67484572
 51
86.50596951
  0
ARC
  8
LAYER_2
 10
-22.725
 20
179.0285
 40
10.0309
 50
84.55974314
 51
90.01608358
  0
ARC
  8
LAYER_2
 10
-22.8225
 20
181.0774
 40
7.9825
 50
89.32041307
 51
100.5439566
  0
ARC
  8
LAYER_2
 10
-24.1413
 20
187.6597
 40
1.2734
 50
96.40013613
 51
125.3032876
  0
ARC
  8
LAYER_2
 10
-24.8034
 20
188.5991
 40
0.1241
 50
126.4546785
 51
179.179025
  0
LINE
  8
LAYER_2
 10
-24.9275
 20
188.6009
 11
-24.9275
 21
188.1033
  0
LINE
  8
LAYER_2
 10
-20.5278
 20
188.6009
 11
-20.5274
 21
188.1033
  0
ARC
  8
LAYER_2
 10
-20.5961
 20
189.0529
 40
0.4694
 50
3.467423561
 51
50.32821497
  0
ARC
  8
LAYER_2
 10
-21.4328
 20
188.0781
 40
1.7541
 50
49.61842185
 51
73.46752516
  0
ARC
  8
LAYER_2
 10
-22.6053
 20
184.5186
 40
5.5012
 50
72.30960724
 51
91.2725805
  0
ARC
  8
LAYER_2
 10
-22.7687
 20
183.685
 40
6.3335
 50
89.62740231
 51
102.4012997
  0
ARC
  8
LAYER_2
 10
-23.5647
 20
187.088
 40
2.8393
 50
101.4615426
 51
119.9697923
  0
ARC
  8
LAYER_2
 10
-24.6943
 20
188.9741
 40
0.6422
 50
116.7158906
 51
170.3888487
  0
ARC
  8
LAYER_2
 10
-24.8551
 20
189.1116
 40
0.4734
 50
183.6675049
 51
231.0095321
  0
ARC
  8
LAYER_2
 10
-24.5434
 20
189.3552
 40
0.8635
 50
225.0950094
 51
243.586171
  0
ARC
  8
LAYER_2
 10
-20.8915
 20
189.3299
 40
0.8319
 50
295.9533788
 51
331.5437316
  0
ARC
  8
LAYER_2
 10
-20.5776
 20
189.103
 40
0.4506
 50
337.9040715
 51
357.2367399
  0
ARC
  8
LAYER_2
 10
-20.987
 20
189.5421
 40
0.4601
 50
3.508474078
 51
51.50906091
  0
ARC
  8
LAYER_2
 10
-21.7931
 20
188.5715
 40
1.7217
 50
50.619364
 51
75.04814983
  0
ARC
  8
LAYER_2
 10
-22.6628
 20
185.7556
 40
4.6681
 50
73.65096999
 51
90.79722814
  0
ARC
  8
LAYER_2
 10
-22.7657
 20
185.479
 40
4.9443
 50
89.56053313
 51
103.9497135
  0
ARC
  8
LAYER_2
 10
-23.4907
 20
188.2171
 40
2.1126
 50
102.7678422
 51
124.4827801
  0
ARC
  8
LAYER_2
 10
-24.4028
 20
189.5138
 40
0.5278
 50
122.5654747
 51
173.850982
  0
LINE
  8
LAYER_2
 10
-28.928
 20
254.2429
 11
-28.888
 21
253.5425
  0
ARC
  8
LAYER_2
 10
-22.7273
 20
254.2436
 40
6.2005
 50
186.4921553
 51
253.1181252
  0
ARC
  8
LAYER_2
 10
-22.7275
 20
254.2429
 40
6.1998
 50
286.8818833
 51
0.001395655135
  0
ARC
  8
LAYER_2
 10
-22.7276
 20
254.2428
 40
4.2001
 50
0.003753360568
 51
90.00306747
  0
ARC
  8
LAYER_2
 10
-22.7278
 20
254.243
 40
4.1999
 50
89.99946757
 51
179.9991682
  0
ARC
  8
LAYER_2
 10
-22.7275
 20
254.2429
 40
4.2002
 50
179.9968493
 51
244.6182636
  0
ARC
  8
LAYER_2
 10
-22.7276
 20
254.243
 40
4.2001
 50
295.3732327
 51
0.0008699061859
  0
ARC
  8
LAYER_2
 10
-22.7277
 20
254.2429
 40
3.3999
 50
0.002951519258
 51
90.0021042
  0
ARC
  8
LAYER_2
 10
-22.7279
 20
254.2429
 40
3.3999
 50
89.99765703
 51
179.9972872
  0
ARC
  8
LAYER_2
 10
-22.7267
 20
254.2435
 40
3.4011
 50
180.006227
 51
238.0223373
  0
ARC
  8
LAYER_2
 10
-22.7284
 20
254.2433
 40
3.4006
 50
301.9710691
 51
359.9973286
  0
ARC
  8
LAYER_2
 10
-22.7278
 20
254.243
 40
3
 50
0.001435075989
 51
90.0004748
  0
ARC
  8
LAYER_2
 10
-22.7278
 20
254.243
 40
3
 50
89.99925461
 51
179.9988355
  0
ARC
  8
LAYER_2
 10
-22.7269
 20
254.2434
 40
3.0009
 50
180.0053977
 51
233.1189753
  0
ARC
  8
LAYER_2
 10
-22.7281
 20
254.2432
 40
3.0003
 50
306.8727869
 51
359.9990206
  0
ARC
  8
LAYER_2
 10
-22.7277
 20
254.243
 40
2.4001
 50
0.002987342186
 51
90.0017871
  0
ARC
  8
LAYER_2
 10
-22.7277
 20
254.2431
 40
2.4
 50
90.00145565
 51
180.0009317
  0
ARC
  8
LAYER_2
 10
-22.7258
 20
254.2433
 40
2.4019
 50
180.0057694
 51
221.3852725
  0
ARC
  8
LAYER_2
 10
-22.7283
 20
254.2434
 40
2.4007
 50
318.5898538
 51
359.9938423
  0
ARC
  8
LAYER_2
 10
-22.7277
 20
254.243
 40
1.7999
 50
0.003983499151
 51
90.00238304
  0
ARC
  8
LAYER_2
 10
-22.7279
 20
254.2429
 40
1.8
 50
89.99557443
 51
179.994876
  0
LINE
  8
LAYER_2
 10
-24.5279
 20
254.2431
 11
-24.5279
 21
226.1371
  0
LINE
  8
LAYER_2
 10
-20.9278
 20
254.2431
 11
-20.9278
 21
226.1371
  0
LINE
  8
LAYER_2
 10
-23.8278
 20
257.243
 11
-22.7278
 21
257.243
  0
LINE
  8
LAYER_2
 10
-22.7278
 20
257.243
 11
-21.6275
 21
257.243
  0
LINE
  8
LAYER_2
 10
-24.7759
 20
251.7903
 11
-25.3258
 21
252.7429
  0
LINE
  8
LAYER_2
 10
-25.3258
 20
252.7429
 11
-25.8756
 21
253.6954
  0
LINE
  8
LAYER_2
 10
-19.5793
 20
254.7903
 11
-20.1295
 21
255.7429
  0
LINE
  8
LAYER_2
 10
-20.1295
 20
255.7429
 11
-20.6797
 21
256.6956
  0
LINE
  8
LAYER_2
 10
-19.5793
 20
253.6954
 11
-20.1295
 21
252.7429
  0
LINE
  8
LAYER_2
 10
-20.1295
 20
252.7429
 11
-20.6797
 21
251.7903
  0
LINE
  8
LAYER_2
 10
-24.7759
 20
256.6954
 11
-25.3258
 21
255.7429
  0
LINE
  8
LAYER_2
 10
-25.3258
 20
255.7429
 11
-25.8756
 21
254.7903
  0
ARC
  8
LAYER_2
 10
-23.8277
 20
256.1483
 40
1.0947
 50
90.00537285
 51
150.014043
  0
ARC
  8
LAYER_2
 10
-23.8218
 20
252.3429
 40
1.1025
 50
210.0802618
 51
230.1791021
  0
ARC
  8
LAYER_2
 10
-20.5302
 20
254.2427
 40
1.0973
 50
0.009336832368
 51
29.93686903
  0
ARC
  8
LAYER_2
 10
-20.5304
 20
254.243
 40
1.0975
 50
330.066773
 51
359.9922452
  0
ARC
  8
LAYER_2
 10
-24.9277
 20
254.2429
 40
1.0946
 50
149.9910669
 51
210.0089331
  0
ARC
  8
LAYER_2
 10
-21.6274
 20
256.1489
 40
1.0941
 50
29.9800057
 51
90.0187062
  0
ARC
  8
LAYER_2
 10
-21.6291
 20
252.3392
 40
1.0967
 50
309.753505
 51
329.9643649
  0
ARC
  8
LAYER_2
 10
-22.7329
 20
226.1732
 40
1.7954
 50
181.1525298
 51
250.7127239
  0
ARC
  8
LAYER_2
 10
-22.7289
 20
226.2222
 40
1.843
 50
251.0983702
 51
270.0331449
  0
ARC
  8
LAYER_2
 10
-22.7553
 20
226.2345
 40
1.8555
 50
270.849714
 51
338.4476604
  0
ARC
  8
LAYER_2
 10
-22.6518
 20
226.1364
 40
1.724
 50
340.2164858
 51
0.02313607485
  0
ARC
  8
LAYER_2
 10
-22.6868
 20
225.9138
 40
2.5591
 50
0.3489973655
 51
46.57763892
  0
ARC
  8
LAYER_2
 10
-22.7913
 20
225.9294
 40
2.5327
 50
133.2886435
 51
224.2976903
  0
ARC
  8
LAYER_2
 10
-22.7278
 20
225.9936
 40
2.6229
 50
224.3330368
 51
313.3261409
  0
ARC
  8
LAYER_2
 10
-22.7009
 20
225.9506
 40
2.5732
 50
313.547373
 51
359.5284611
  0
ARC
  8
LAYER_2
 10
-22.652
 20
226.0304
 40
2.1246
 50
0.07581285467
 51
35.75292877
  0
ARC
  8
LAYER_2
 10
-22.6881
 20
226.0517
 40
2.2073
 50
146.4630309
 51
233.7838008
  0
ARC
  8
LAYER_2
 10
-22.7486
 20
226.2223
 40
2.314
 50
237.4912826
 51
321.9222612
  0
ARC
  8
LAYER_2
 10
-22.6536
 20
226.0361
 40
2.1262
 50
324.2927086
 51
359.920963
  0
ARC
  8
LAYER_2
 10
-42.7281
 20
254.2423
 40
3.7386
 50
11.22025687
 51
78.72708245
  0
ARC
  8
LAYER_2
 10
-42.728
 20
254.2435
 40
3.737
 50
101.2102369
 51
168.7507558
  0
ARC
  8
LAYER_2
 10
-42.7273
 20
254.2431
 40
3.738
 50
191.2151114
 51
258.7380815
  0
ARC
  8
LAYER_2
 10
-42.7273
 20
254.2427
 40
3.7375
 50
281.2156665
 51
348.7492282
  0
ARC
  8
LAYER_2
 10
-42.7272
 20
254.2437
 40
6.1998
 50
12.47971126
 51
77.51421044
  0
ARC
  8
LAYER_2
 10
-42.7277
 20
254.2431
 40
6.2002
 50
102.4759439
 51
167.5155478
  0
ARC
  8
LAYER_2
 10
-42.7276
 20
254.2429
 40
6.2003
 50
192.4840025
 51
257.5232903
  0
ARC
  8
LAYER_2
 10
-42.7268
 20
254.2421
 40
6.1994
 50
282.483197
 51
347.5216657
  0
ARC
  8
LAYER_2
 10
-2.7279
 20
254.243
 40
3.7378
 50
11.21202092
 51
78.73336708
  0
ARC
  8
LAYER_2
 10
-2.7277
 20
254.2427
 40
3.7379
 50
101.2142237
 51
168.7409202
  0
ARC
  8
LAYER_2
 10
-2.7275
 20
254.2434
 40
3.7382
 50
191.2186208
 51
258.7423759
  0
ARC
  8
LAYER_2
 10
-2.7276
 20
254.2431
 40
3.7378
 50
281.207643
 51
348.7436055
  0
ARC
  8
LAYER_2
 10
-2.7279
 20
254.2427
 40
6.2007
 50
12.48685696
 51
77.51557416
  0
ARC
  8
LAYER_2
 10
-2.7275
 20
254.2425
 40
6.201
 50
102.4802039
 51
167.5112877
  0
ARC
  8
LAYER_2
 10
-2.7274
 20
254.2435
 40
6.2011
 50
192.4882629
 51
257.51903
  0
ARC
  8
LAYER_2
 10
-2.7276
 20
254.2431
 40
6.2003
 50
282.4818334
 51
347.5145198
  0
ARC
  8
LAYER_2
 10
65.3727
 20
159.864
 40
1.0107
 50
332.8080237
 51
0.008276804428
  0
LINE
  8
LAYER_2
 10
66.3834
 20
159.8641
 11
66.3834
 21
160.3334
  0
LINE
  8
LAYER_2
 10
71.8718
 20
168.0535
 11
73.5836
 21
168.0535
  0
LINE
  8
LAYER_2
 10
72.0836
 20
167.0537
 11
73.5836
 21
167.0537
  0
ARC
  8
LAYER_2
 10
73.5836
 20
167.5532
 40
0.5003
 50
359.9960222
 51
90.00397782
  0
ARC
  8
LAYER_2
 10
73.5652
 20
167.5724
 40
0.5191
 50
272.031425
 51
357.8768835
  0
ARC
  8
LAYER_2
 10
67.3793
 20
161.1495
 40
0.1045
 50
2.480219346
 51
87.9198493
  0
ARC
  8
LAYER_2
 10
67.3787
 20
161.1584
 40
0.1051
 50
272.4245094
 51
357.5754906
  0
ARC
  8
LAYER_2
 10
75.9944
 20
159.8633
 40
1.0114
 50
179.9523646
 51
207.0832555
  0
LINE
  8
LAYER_2
 10
74.983
 20
159.8641
 11
74.983
 21
160.3334
  0
LINE
  8
LAYER_2
 10
69.4957
 20
168.0535
 11
67.7835
 21
168.0535
  0
LINE
  8
LAYER_2
 10
69.2838
 20
167.0537
 11
67.7835
 21
167.0537
  0
ARC
  8
LAYER_2
 10
67.803
 20
167.5345
 40
0.5194
 50
92.1470947
 51
177.9331274
  0
ARC
  8
LAYER_2
 10
67.7835
 20
167.5533
 40
0.4996
 50
180.006254
 51
270.0052155
  0
ARC
  8
LAYER_2
 10
73.9832
 20
161.154
 40
0.0999
 50
90.01385458
 51
179.9861454
  0
ARC
  8
LAYER_2
 10
73.9877
 20
161.1577
 40
0.1044
 50
182.0516739
 51
267.5482575
  0
LINE
  8
LAYER_2
 10
64.7325
 20
161.9974
 11
66.3834
 21
160.3465
  0
LINE
  8
LAYER_2
 10
64.5912
 20
161.8561
 11
65.0859
 21
162.3508
  0
LINE
  8
LAYER_2
 10
62.5407
 20
163.199
 11
63.3889
 21
164.0479
  0
ARC
  8
LAYER_2
 10
62.682
 20
163.0578
 40
0.1998
 50
135.0120262
 51
224.9879738
  0
ARC
  8
LAYER_2
 10
62.682
 20
163.0565
 40
0.1989
 50
224.7467662
 51
315.2532338
  0
ARC
  8
LAYER_2
 10
63.5301
 20
163.9064
 40
1.1996
 50
134.9916163
 51
215.408599
  0
ARC
  8
LAYER_2
 10
63.177
 20
162.5614
 40
0.5012
 50
45.10157907
 51
134.8984209
  0
LINE
  8
LAYER_2
 10
62.8232
 20
162.9165
 11
63.6721
 21
163.7647
  0
LINE
  8
LAYER_2
 10
63.5308
 20
162.9165
 11
64.5912
 21
161.8561
  0
LINE
  8
LAYER_2
 10
65.4401
 20
162.7043
 11
67.1
 21
161.0444
  0
LINE
  8
LAYER_2
 10
65.5814
 20
162.8455
 11
65.0859
 21
162.3508
  0
LINE
  8
LAYER_2
 10
64.2378
 20
164.8961
 11
63.3889
 21
164.0479
  0
ARC
  8
LAYER_2
 10
64.3719
 20
164.7469
 40
0.2078
 50
2.167173486
 51
88.03321124
  0
ARC
  8
LAYER_2
 10
64.3799
 20
164.7527
 40
0.2019
 50
90.26902255
 51
134.7400135
  0
ARC
  8
LAYER_2
 10
64.3791
 20
164.7558
 40
0.2004
 50
314.7899719
 51
359.7169812
  0
ARC
  8
LAYER_2
 10
63.5307
 20
163.9055
 40
1.2006
 50
54.6066953
 51
134.9813884
  0
ARC
  8
LAYER_2
 10
64.8737
 20
164.2601
 40
0.4999
 50
134.9945427
 51
225.0054573
  0
LINE
  8
LAYER_2
 10
64.5203
 20
164.6136
 11
63.6721
 21
163.7647
  0
LINE
  8
LAYER_2
 10
64.5203
 20
163.9066
 11
65.5814
 21
162.8455
  0
ARC
  8
LAYER_2
  6
AIGENLINE003
 10
70.8767
 20
155.1493
 40
0.9975
 50
359.9526696
 51
45.06011926
  0
LINE
  8
LAYER_2
  6
AIGENLINE001
 10
61.8441
 20
165.5931
 11
71.5813
 21
155.8554
  0
LINE
  8
LAYER_2
  6
AIGENLINE001
 10
71.8742
 20
155.1485
 11
71.8742
 21
82.7787
  0
ARC
  8
LAYER_2
 10
70.8744
 20
155.1481
 40
0.5002
 50
0.04446628633
 51
45.03174245
  0
LINE
  8
LAYER_2
 10
68.8762
 20
157.8536
 11
71.2279
 21
155.502
  0
LINE
  8
LAYER_2
 10
71.3746
 20
138.6537
 11
71.3746
 21
84.8537
  0
LINE
  8
LAYER_2
 10
71.3746
 20
155.1485
 11
71.3746
 21
138.6537
  0
ARC
  8
LAYER_2
 10
70.8767
 20
155.149
 40
1.4977
 50
359.9827256
 51
45.05120839
  0
LINE
  8
LAYER_2
 10
70.2901
 20
157.8536
 11
71.9348
 21
156.2089
  0
LINE
  8
LAYER_2
 10
72.3744
 20
138.6537
 11
72.3744
 21
84.8537
  0
LINE
  8
LAYER_2
 10
72.3744
 20
155.1485
 11
72.3744
 21
138.6537
  0
LINE
  8
LAYER_2
  6
AIGENLINE001
 10
68.6833
 20
145.3692
 11
68.6833
 21
158.4206
  0
LINE
  8
LAYER_2
 10
69.2834
 20
157.4464
 11
69.2834
 21
152.4537
  0
LINE
  8
LAYER_2
 10
68.0832
 20
157.8536
 11
68.0832
 21
152.4537
  0
LINE
  8
LAYER_2
 10
65.6833
 20
152.4537
 11
65.6833
 21
151.5539
  0
LINE
  8
LAYER_2
 10
71.0618
 20
152.4537
 11
71.0618
 21
151.5539
  0
LINE
  8
LAYER_2
 10
69.5832
 20
147.3536
 11
69.5832
 21
151.5539
  0
LINE
  8
LAYER_2
 10
67.7835
 20
150.4535
 11
67.7835
 21
151.5539
  0
LINE
  8
LAYER_2
 10
67.7835
 20
147.3536
 11
67.7835
 21
150.4535
  0
LINE
  8
LAYER_2
 10
68.0835
 20
147.3536
 11
67.7835
 21
147.3536
  0
LINE
  8
LAYER_2
 10
69.5832
 20
147.3536
 11
68.0835
 21
147.3536
  0
LINE
  8
LAYER_2
 10
66.2835
 20
151.5539
 11
65.6833
 21
151.5539
  0
LINE
  8
LAYER_2
 10
68.6833
 20
151.5539
 11
66.2835
 21
151.5539
  0
LINE
  8
LAYER_2
 10
71.0618
 20
151.5539
 11
68.6613
 21
151.5539
  0
LINE
  8
LAYER_2
 10
71.0832
 20
152.154
 11
68.6833
 21
152.154
  0
LINE
  8
LAYER_2
 10
71.0832
 20
152.4537
 11
68.6833
 21
152.4537
  0
LINE
  8
LAYER_2
 10
68.0835
 20
152.154
 11
65.6833
 21
152.154
  0
LINE
  8
LAYER_2
 10
68.6833
 20
152.154
 11
68.0835
 21
152.154
  0
LINE
  8
LAYER_2
 10
68.0832
 20
152.4537
 11
65.6833
 21
152.4537
  0
LINE
  8
LAYER_2
 10
68.6833
 20
152.4537
 11
68.0832
 21
152.4537
  0
ARC
  8
LAYER_2
 10
69.4313
 20
169.235
 40
0.787
 50
222.3926505
 51
259.1650946
  0
ARC
  8
LAYER_2
 10
70.362
 20
170.3519
 40
2.236
 50
212.5532734
 51
227.4560706
  0
LINE
  8
LAYER_2
 10
68.4773
 20
169.1487
 11
68.3557
 21
169.374
  0
LINE
  8
LAYER_2
 10
69.3961
 20
168.4884
 11
69.2834
 21
168.4621
  0
LINE
  8
LAYER_2
 10
72.0836
 20
168.4621
 11
71.9731
 21
168.4877
  0
ARC
  8
LAYER_2
 10
71.084
 20
170.2807
 40
2.1302
 50
312.2494828
 51
334.8374984
  0
ARC
  8
LAYER_2
 10
71.9349
 20
169.2362
 40
0.7883
 50
280.8724665
 51
317.5219121
  0
ARC
  8
LAYER_2
 10
-29.2082
 20
142.8267
 40
0.5141
 50
181.1450777
 51
226.4705307
  0
ARC
  8
LAYER_2
 10
-28.5116
 20
143.025
 40
1.2283
 50
178.6419611
 51
189.7757293
  0
ARC
  8
LAYER_2
 10
-28.7126
 20
143.1116
 40
1.0287
 50
151.7911082
 51
183.2199782
  0
ARC
  8
LAYER_2
 10
-29.3316
 20
143.3618
 40
0.3719
 50
128.3132743
 51
140.6074061
  0
ARC
  8
LAYER_2
 10
-29.9158
 20
142.8265
 40
0.5137
 50
313.5080949
 51
358.8715803
  0
ARC
  8
LAYER_2
 10
-30.6129
 20
143.0249
 40
1.2284
 50
350.22906
 51
1.361795737
  0
ARC
  8
LAYER_2
 10
-30.4116
 20
143.1117
 40
1.0284
 50
356.7725446
 51
28.20875108
  0
ARC
  8
LAYER_2
 10
-29.7925
 20
143.3619
 40
0.3716
 50
39.40479979
 51
51.71273751
  0
ARC
  8
LAYER_2
 10
-29.9171
 20
144.0267
 40
0.5149
 50
313.5677363
 51
358.8335284
  0
ARC
  8
LAYER_2
 10
-30.6127
 20
144.2247
 40
1.2282
 50
350.2292858
 51
1.355044379
  0
ARC
  8
LAYER_2
 10
-30.4126
 20
144.3115
 40
1.0294
 50
356.7825907
 51
28.19408845
  0
ARC
  8
LAYER_2
 10
-29.795
 20
144.5609
 40
0.3742
 50
39.27948099
 51
51.53471881
  0
ARC
  8
LAYER_2
 10
-16.2455
 20
142.8261
 40
0.5125
 50
313.4440111
 51
358.921516
  0
ARC
  8
LAYER_2
 10
-16.9441
 20
143.0247
 40
1.2287
 50
350.2434289
 51
1.373065916
  0
ARC
  8
LAYER_2
 10
-16.7417
 20
143.1121
 40
1.0277
 50
356.7501118
 51
28.20832861
  0
ARC
  8
LAYER_2
 10
-16.1224
 20
143.3623
 40
0.3708
 50
39.44134291
 51
51.79069171
  0
ARC
  8
LAYER_2
 10
-15.5392
 20
142.8263
 40
0.5137
 50
181.1010656
 51
226.451198
  0
ARC
  8
LAYER_2
 10
-14.8402
 20
143.0248
 40
1.2303
 50
178.6367165
 51
189.7518602
  0
ARC
  8
LAYER_2
 10
-15.0422
 20
143.1118
 40
1.0296
 50
151.8346213
 51
183.23071
  0
ARC
  8
LAYER_2
 10
-15.6627
 20
143.3621
 40
0.3715
 50
128.3228676
 51
140.627911
  0
ARC
  8
LAYER_2
 10
-15.5379
 20
144.0265
 40
0.5149
 50
181.1391162
 51
226.3915813
  0
ARC
  8
LAYER_2
 10
-14.8404
 20
144.2246
 40
1.2302
 50
178.6434531
 51
189.7516333
  0
ARC
  8
LAYER_2
 10
-15.0413
 20
144.3116
 40
1.0306
 50
151.8492646
 51
183.2206751
  0
ARC
  8
LAYER_2
 10
-15.6602
 20
144.5612
 40
0.3741
 50
128.5008721
 51
140.7532498
  0
ARC
  8
LAYER_2
 10
-21.5558
 20
145.5363
 40
0.5126
 50
91.07640341
 51
136.5487544
  0
ARC
  8
LAYER_2
 10
-21.3571
 20
144.8373
 40
1.2292
 50
88.62835066
 51
99.75444329
  0
ARC
  8
LAYER_2
 10
-21.2698
 20
145.0404
 40
1.0275
 50
61.78886776
 51
93.25478705
  0
ARC
  8
LAYER_2
 10
-21.0194
 20
145.6599
 40
0.3704
 50
38.18092566
 51
50.53860877
  0
ARC
  8
LAYER_2
 10
-21.5557
 20
146.2424
 40
0.5134
 50
223.5346464
 51
268.9176749
  0
ARC
  8
LAYER_2
 10
-21.357
 20
146.9423
 40
1.2309
 50
260.2550561
 51
271.3656246
  0
ARC
  8
LAYER_2
 10
-21.2699
 20
146.7392
 40
1.0292
 50
266.7569181
 51
298.1680384
  0
ARC
  8
LAYER_2
 10
-21.0194
 20
146.1185
 40
0.3708
 50
309.4043551
 51
321.7315379
  0
ARC
  8
LAYER_2
 10
-20.3554
 20
146.244
 40
0.515
 50
223.6068857
 51
268.864885
  0
ARC
  8
LAYER_2
 10
-20.1574
 20
146.9416
 40
1.2302
 50
260.2532346
 51
271.3580621
  0
ARC
  8
LAYER_2
 10
-20.0702
 20
146.7404
 40
1.0303
 50
266.7718467
 51
298.1505954
  0
ARC
  8
LAYER_2
 10
-19.8206
 20
146.1214
 40
0.3738
 50
309.2589693
 51
321.5251501
  0
LINE
  8
LAYER_2
 10
-62.5287
 20
157.8536
 11
-49.828
 21
157.8536
  0
LINE
  8
LAYER_2
 10
-56.3285
 20
151.8536
 11
-48.1006
 21
151.8536
  0
INSERT
  8
LAYER_2
  2
AIGNBL0201002D
 10
0
 20
0
 30
0
  0
LINE
  8
LAYER_2
 10
-45.6401
 20
138.6537
 11
-62.5287
 21
138.6537
  0
INSERT
  8
LAYER_2
  2
AIGNBL0201002F
 10
0
 20
0
 30
0
  0
LINE
  8
LAYER_2
 10
-55.1358
 20
157.8536
 11
-55.1358
 21
169.1352
  0
LINE
  8
LAYER_2
 10
-31.7819
 20
157.8536
 11
-29.741
 21
157.8536
  0
LINE
  8
LAYER_2
 10
-31.7819
 20
152.4537
 11
-29.0402
 21
152.4537
  0
INSERT
  8
LAYER_2
  2
AIGNBL02010031
 10
0
 20
0
 30
0
  0
INSERT
  8
LAYER_2
  2
AIGNBL02010032
 10
0
 20
0
 30
0
  0
INSERT
  8
LAYER_2
  2
AIGNBL02010033
 10
0
 20
0
 30
0
  0
INSERT
  8
LAYER_2
  2
AIGNBL02010034
 10
0
 20
0
 30
0
  0
LINE
  8
LAYER_2
 10
-11.9536
 20
157.8536
 11
-11.9536
 21
84.8806
  0
INSERT
  8
LAYER_2
  2
AIGNBL02010035
 10
0
 20
0
 30
0
  0
LINE
  8
LAYER_2
 10
-40.6272
 20
137.4555
 11
-40.6272
 21
125.3818
  0
LINE
  8
LAYER_2
 10
-44.8281
 20
137.4555
 11
-44.8281
 21
125.4273
  0
ARC
  8
LAYER_2
 10
-24.8213
 20
169.6519
 40
1.1058
 50
150.2365725
 51
193.4813477
  0
LINE
  8
LAYER_2
 10
-20.7276
 20
171.6536
 11
-19.6737
 21
170.2008
  0
LINE
  8
LAYER_2
 10
-19.8274
 20
168.0535
 11
-19.5401
 21
169.4877
  0
ARC
  8
LAYER_2
 10
-20.6345
 20
169.6523
 40
1.1063
 50
346.5039363
 51
29.72245916
  0
LINE
  8
LAYER_2
 10
67.7838
 20
168.0535
 11
67.5599
 21
168.4621
  0
LINE
  8
LAYER_2
 10
73.5836
 20
168.0535
 11
73.8076
 21
168.4621
  0
LINE
  8
LAYER_2
 10
67.5599
 20
168.4621
 11
67.5599
 21
169.6241
  0
LINE
  8
LAYER_2
 10
73.8076
 20
168.4621
 11
73.8076
 21
169.6232
  0
ARC
  8
LAYER_2
 10
-20.2719
 20
163.4968
 40
1.6298
 50
34.12959808
 51
58.91844188
  0
ARC
  8
LAYER_2
 10
-20.762
 20
163.1627
 40
2.223
 50
13.03327834
 51
34.17033907
  0
ARC
  8
LAYER_2
 10
-21.0967
 20
163.0751
 40
2.5688
 50
341.2453484
 51
13.25322507
  0
ARC
  8
LAYER_2
 10
-20.6009
 20
162.9045
 40
2.0444
 50
318.9940069
 51
341.3047648
  0
ARC
  8
LAYER_2
 10
-20.2082
 20
162.5688
 40
1.5278
 50
300.7157114
 51
318.8325686
  0
ARC
  8
LAYER_2
 10
-18.9708
 20
165.6895
 40
0.9187
 50
204.3561009
 51
237.9110544
  0
ARC
  8
LAYER_2
 10
-18.6395
 20
165.8534
 40
1.2881
 50
179.7996345
 51
204.9189901
  0
ARC
  8
LAYER_2
 10
73.1386
 20
163.4952
 40
1.63
 50
34.13297655
 51
58.91811466
  0
ARC
  8
LAYER_2
 10
72.6482
 20
163.1609
 40
2.2235
 50
13.04227617
 51
34.17415088
  0
ARC
  8
LAYER_2
 10
72.3144
 20
163.0734
 40
2.5685
 50
341.2585356
 51
13.26307281
  0
ARC
  8
LAYER_2
 10
72.9315
 20
162.8518
 40
1.9129
 50
303.351241
 51
341.6035398
  0
ARC
  8
LAYER_2
 10
74.4396
 20
165.6876
 40
0.918
 50
204.3329951
 51
237.9093523
  0
ARC
  8
LAYER_2
 10
74.7725
 20
165.8519
 40
1.2892
 50
179.7945037
 51
204.889887
  0
LINE
  8
LAYER_2
 10
73.4834
 20
167.0537
 11
73.4834
 21
165.8579
  0
LINE
  8
LAYER_2
 10
67.8834
 20
167.0537
 11
67.8834
 21
165.8579
  0
ARC
  8
LAYER_2
 10
68.2277
 20
163.4968
 40
1.6299
 50
121.0853045
 51
145.870846
  0
ARC
  8
LAYER_2
 10
68.7179
 20
163.1626
 40
2.2232
 50
145.8294422
 51
166.9635236
  0
ARC
  8
LAYER_2
 10
69.0515
 20
163.0752
 40
2.5678
 50
166.7428585
 51
198.7567735
  0
ARC
  8
LAYER_2
 10
68.5578
 20
162.905
 40
2.0457
 50
198.6900968
 51
220.9944744
  0
ARC
  8
LAYER_2
 10
68.1635
 20
162.5682
 40
1.5271
 50
221.1594349
 51
239.2844453
  0
ARC
  8
LAYER_2
 10
66.9263
 20
165.6898
 40
0.919
 50
302.0885312
 51
335.6357963
  0
ARC
  8
LAYER_2
 10
66.5956
 20
165.8534
 40
1.2878
 50
335.0725483
 51
0.1993049599
  0
ARC
  8
LAYER_2
 10
74.1311
 20
160.1053
 40
0.9482
 50
56.93417599
 51
89.54710138
  0
ARC
  8
LAYER_2
 10
74.2704
 20
160.2946
 40
0.7137
 50
3.119981292
 51
58.0149485
  0
ARC
  8
LAYER_2
 10
67.2355
 20
160.1047
 40
0.9488
 50
90.44851768
 51
123.0550474
  0
ARC
  8
LAYER_2
 10
67.0975
 20
160.2937
 40
0.7152
 50
122.0428022
 51
176.8139224
  0
ARC
  8
LAYER_2
 10
-22.7076
 20
254.243
 40
6.18
 50
89.99926732
 51
179.9988784
  0
ARC
  8
LAYER_2
 10
-22.7076
 20
254.2431
 40
6.1799
 50
359.9996768
 51
89.99939605
  0
ARC
  8
LAYER_2
 10
-22.6744
 20
254.1186
 40
32.0695
 50
273.4862423
 51
290.2197812
  0
ARC
  8
LAYER_2
 10
-22.7269
 20
254.7763
 40
32.7292
 50
269.9984379
 51
273.507914
  0
ARC
  8
LAYER_2
 10
-22.7338
 20
254.5093
 40
32.4622
 50
259.0349648
 51
270.0106076
  0
ARC
  8
LAYER_2
 10
-22.806
 20
254.0248
 40
31.9729
 50
249.7302141
 51
258.9968099
  0
LINE
  8
LAYER_2
 10
-23.2277
 20
162.0056
 11
-23.2277
 21
160.6999
  0
LINE
  8
LAYER_2
 10
-22.2272
 20
162.0042
 11
-22.2272
 21
160.7006
  0
ARC
  8
LAYER_2
 10
-23.0054
 20
162.3669
 40
0.421
 50
182.1937597
 51
231.6869464
  0
ARC
  8
LAYER_2
 10
-22.7486
 20
162.691
 40
0.8344
 50
231.6474689
 51
271.4994323
  0
ARC
  8
LAYER_2
 10
-22.7128
 20
162.7285
 40
0.8718
 50
269.0817819
 51
303.4993834
  0
ARC
  8
LAYER_2
 10
-22.4718
 20
162.3772
 40
0.4459
 50
302.5852848
 51
356.6075386
  0
ARC
  8
LAYER_2
 10
-22.9069
 20
160.7191
 40
0.3214
 50
183.433725
 51
239.8530165
  0
ARC
  8
LAYER_2
 10
-22.7338
 20
160.9841
 40
0.6377
 50
238.3621777
 51
270.5405734
  0
ARC
  8
LAYER_2
 10
-22.7136
 20
160.9455
 40
0.5991
 50
268.6424431
 51
309.2939736
  0
ARC
  8
LAYER_2
 10
-22.5202
 20
160.7078
 40
0.2927
 50
309.4609444
 51
358.4544476
  0
LINE
  8
LAYER_2
 10
-23.4261
 20
162.9978
 11
-23.4261
 21
162.3508
  0
LINE
  8
LAYER_2
 10
-22.0267
 20
162.9978
 11
-22.0267
 21
162.3508
  0
ARC
  8
LAYER_2
 10
-22.1794
 20
163.8959
 40
0.8528
 50
0.6690364226
 51
35.4516352
  0
ARC
  8
LAYER_2
 10
-22.456
 20
163.6932
 40
1.1957
 50
35.67931495
 51
59.33626847
  0
ARC
  8
LAYER_2
 10
-23.0358
 20
163.7377
 40
1.1376
 50
120.1221127
 51
149.8497369
  0
ARC
  8
LAYER_2
 10
-23.2551
 20
163.9053
 40
0.8645
 50
152.1507746
 51
229.6009133
  0
ARC
  8
LAYER_2
 10
-22.85
 20
164.3204
 40
1.4438
 50
228.0337265
 51
253.9654203
  0
ARC
  8
LAYER_2
 10
-22.7356
 20
164.689
 40
1.8296
 50
253.7124148
 51
299.085922
  0
ARC
  8
LAYER_2
 10
-22.4204
 20
164.0745
 40
1.1396
 50
300.2554078
 51
330.534909
  0
ARC
  8
LAYER_2
 10
-22.1503
 20
163.91
 40
0.8236
 50
331.2549651
 51
359.7140014
  0
ARC
  8
LAYER_2
 10
-22.7268
 20
163.9059
 40
1.2003
 50
359.9994624
 51
90.00053762
  0
ARC
  8
LAYER_2
 10
-22.7265
 20
163.9063
 40
1.1999
 50
90.01659843
 51
180.0168255
  0
ARC
  8
LAYER_2
 10
-23.4297
 20
163.9242
 40
0.497
 50
182.1093096
 51
227.2060497
  0
ARC
  8
LAYER_2
 10
-22.9635
 20
164.4267
 40
1.1825
 50
227.1705716
 51
256.1422588
  0
ARC
  8
LAYER_2
 10
-22.7302
 20
165.1879
 40
1.9779
 50
254.864242
 51
270.0995741
  0
ARC
  8
LAYER_2
 10
-22.7073
 20
165.043
 40
1.8331
 50
269.3897358
 51
292.4017847
  0
ARC
  8
LAYER_2
 10
-22.3311
 20
164.1851
 40
0.8968
 50
291.0693056
 51
324.6792394
  0
ARC
  8
LAYER_2
 10
-21.965
 20
163.9086
 40
0.4385
 50
326.4959432
 51
359.642215
  0
LINE
  8
LAYER_2
 10
-19.5277
 20
151.5539
 11
-19.5277
 21
145.8888
  0
LINE
  8
LAYER_2
 10
-19.5277
 20
157.8536
 11
-19.5277
 21
152.4537
  0
LINE
  8
LAYER_2
 10
-21.9279
 20
151.5539
 11
-21.9279
 21
145.8888
  0
LINE
  8
LAYER_2
 10
-21.9279
 20
157.8536
 11
-21.9279
 21
152.4537
  0
ARC
  8
LAYER_2
 10
-25.0556
 20
145.5376
 40
0.5112
 50
91.03712994
 51
136.6147554
  0
ARC
  8
LAYER_2
 10
-24.8565
 20
144.8373
 40
1.2292
 50
88.61903697
 51
99.75572468
  0
ARC
  8
LAYER_2
 10
-24.7691
 20
145.0398
 40
1.0281
 50
61.79620888
 51
93.26066994
  0
ARC
  8
LAYER_2
 10
-24.5186
 20
145.6598
 40
0.3704
 50
38.18196938
 51
50.53986186
  0
ARC
  8
LAYER_2
 10
-25.0555
 20
146.2411
 40
0.512
 50
223.4686787
 51
268.9569481
  0
ARC
  8
LAYER_2
 10
-24.8564
 20
146.9423
 40
1.231
 50
260.2537784
 51
271.3749313
  0
ARC
  8
LAYER_2
 10
-24.7692
 20
146.7398
 40
1.0298
 50
266.7510399
 51
298.1607081
  0
ARC
  8
LAYER_2
 10
-24.5186
 20
146.1185
 40
0.3708
 50
309.4031024
 51
321.7304937
  0
ARC
  8
LAYER_2
 10
-23.8546
 20
146.244
 40
0.515
 50
223.6078643
 51
268.8680932
  0
ARC
  8
LAYER_2
 10
-23.6565
 20
146.9419
 40
1.2305
 50
260.254314
 51
271.3592377
  0
ARC
  8
LAYER_2
 10
-23.5963
 20
146.9959
 40
1.2846
 50
268.6181076
 51
286.0338709
  0
LINE
  8
LAYER_2
 10
-25.4271
 20
151.5539
 11
-25.4271
 21
145.8888
  0
LINE
  8
LAYER_2
 10
-25.4271
 20
157.8536
 11
-25.4271
 21
152.4537
  0
LINE
  8
LAYER_2
  6
AIGENLINE001
 10
-14.1919
 20
143.6536
 11
-25.723
 21
143.6536
  0
ARC
  8
LAYER_2
  6
AIGENLINE001
 10
-16.6737
 20
137.2077
 40
8.054
 50
179.9178519
 51
201.7701006
  0
ARC
  8
LAYER_2
  6
AIGENLINE001
 10
-17.8964
 20
136.7663
 40
6.755
 50
202.1401102
 51
214.4001113
  0
ARC
  8
LAYER_2
  6
AIGENLINE001
 10
-18.7338
 20
136.19
 40
5.7384
 50
214.376376
 51
227.3184051
  0
ARC
  8
LAYER_2
  6
AIGENLINE001
 10
-19.3533
 20
135.5191
 40
4.8252
 50
227.3243393
 51
241.2154993
  0
ARC
  8
LAYER_2
  6
AIGENLINE001
 10
-19.7034
 20
134.8869
 40
4.1026
 50
241.2495871
 51
269.5957842
  0
ARC
  8
LAYER_2
  6
AIGENLINE001
 10
-19.7438
 20
134.8277
 40
4.0434
 50
270.1630128
 51
300.7486469
  0
ARC
  8
LAYER_2
  6
AIGENLINE001
 10
-20.1657
 20
135.5924
 40
4.9163
 50
300.4181489
 51
314.1143211
  0
ARC
  8
LAYER_2
  6
AIGENLINE001
 10
-20.8116
 20
136.2584
 40
5.8441
 50
314.1160559
 51
326.8978634
  0
ARC
  8
LAYER_2
  6
AIGENLINE001
 10
-21.9224
 20
136.9624
 40
7.1591
 50
327.0326657
 51
351.0118083
  0
ARC
  8
LAYER_2
  6
AIGENLINE001
 10
-23.0094
 20
137.2146
 40
8.2725
 50
350.4628081
 51
0.03186613684
  0
ARC
  8
LAYER_2
  6
AIGENLINE001
 10
-22.7896
 20
137.2307
 40
8.0527
 50
359.9179901
 51
21.77183762
  0
ARC
  8
LAYER_2
  6
AIGENLINE001
 10
-21.5679
 20
137.6718
 40
6.7547
 50
22.14149244
 51
34.40143049
  0
ARC
  8
LAYER_2
  6
AIGENLINE001
 10
-20.7307
 20
138.2479
 40
5.7384
 50
34.37768039
 51
47.31934994
  0
ARC
  8
LAYER_2
  6
AIGENLINE001
 10
-20.1113
 20
138.9188
 40
4.8253
 50
47.32526651
 51
61.21597427
  0
ARC
  8
LAYER_2
  6
AIGENLINE001
 10
-19.7613
 20
139.551
 40
4.1027
 50
61.25002364
 51
89.59569256
  0
ARC
  8
LAYER_2
  6
AIGENLINE001
 10
-28.7829
 20
137.2076
 40
8.055
 50
338.232961
 51
0.08225455489
  0
ARC
  8
LAYER_2
  6
AIGENLINE001
 10
-27.5591
 20
136.766
 40
6.7549
 50
325.6027802
 51
337.8626561
  0
ARC
  8
LAYER_2
  6
AIGENLINE001
 10
-26.7213
 20
136.1895
 40
5.7379
 50
312.6837535
 51
325.6265008
  0
ARC
  8
LAYER_2
  6
AIGENLINE001
 10
-26.1018
 20
135.5185
 40
4.8246
 50
298.7854478
 51
312.6777737
  0
ARC
  8
LAYER_2
  6
AIGENLINE001
 10
-25.7519
 20
134.8867
 40
4.1024
 50
270.4035345
 51
298.7511616
  0
ARC
  8
LAYER_2
  6
AIGENLINE001
 10
-25.7115
 20
134.8277
 40
4.0434
 50
239.2513531
 51
269.8369872
  0
ARC
  8
LAYER_2
  6
AIGENLINE001
 10
-25.2896
 20
135.5924
 40
4.9163
 50
225.885679
 51
239.5818511
  0
ARC
  8
LAYER_2
  6
AIGENLINE001
 10
-24.6437
 20
136.2584
 40
5.8441
 50
213.1021367
 51
225.8839442
  0
ARC
  8
LAYER_2
  6
AIGENLINE001
 10
-23.5329
 20
136.9624
 40
7.1591
 50
188.9881917
 51
212.9673343
  0
ARC
  8
LAYER_2
  6
AIGENLINE001
 10
-22.4459
 20
137.2146
 40
8.2725
 50
179.9681338
 51
189.5371919
  0
ARC
  8
LAYER_2
  6
AIGENLINE001
 10
-22.6657
 20
137.2307
 40
8.0527
 50
158.2281623
 51
180.08201
  0
ARC
  8
LAYER_2
  6
AIGENLINE001
 10
-23.8874
 20
137.6718
 40
6.7547
 50
145.5985695
 51
157.8585075
  0
ARC
  8
LAYER_2
  6
AIGENLINE001
 10
-24.7246
 20
138.2479
 40
5.7384
 50
132.68065
 51
145.6223196
  0
ARC
  8
LAYER_2
  6
AIGENLINE001
 10
-25.344
 20
138.9188
 40
4.8253
 50
118.7840257
 51
132.6747335
  0
ARC
  8
LAYER_2
  6
AIGENLINE001
 10
-25.694
 20
139.551
 40
4.1027
 50
90.40430741
 51
118.7499763
  0
LINE
  8
LAYER_2
  6
AIGENLINE001
 10
-19.7323
 20
143.6536
 11
-31.2634
 21
143.6536
  0
LINE
  8
LAYER_2
 10
68.8838
 20
178.0775
 11
68.8838
 21
173.8152
  0
INSERT
  8
LAYER_2
  2
AIGNBL02010037
 10
0
 20
0
 30
0
  0
INSERT
  8
LAYER_2
  2
AIGNBL02010038
 10
0
 20
0
 30
0
  0
LINE
  8
LAYER_3
 10
126.9566
 20
57.1559
 11
293.4567
 21
57.1559
  0
LINE
  8
LAYER_3
 10
213.4567
 20
37.1557
 11
293.4567
 21
37.1557
  0
LINE
  8
LAYER_3
 10
126.9566
 20
44.6564
 11
213.4567
 21
44.6564
  0
LINE
  8
LAYER_3
 10
126.9566
 20
30.6562
 11
213.4567
 21
30.6562
  0
LINE
  8
LAYER_3
 10
138.4563
 20
30.6562
 11
138.4563
 21
44.6564
  0
LINE
  8
LAYER_3
 10
213.4567
 20
17.1562
 11
213.4567
 21
57.1559
  0
LINE
  8
LAYER_3
 10
126.9566
 20
17.1562
 11
126.9566
 21
57.1559
  0
LINE
  8
LAYER_3
 10
194.4563
 20
30.6562
 11
194.4563
 21
57.1559
  0
LINE
  8
LAYER_3
 10
175.4566
 20
30.6562
 11
175.4566
 21
57.1559
  0
LINE
  8
LAYER_3
 10
293.4567
 20
17.1562
 11
-83.0433
 21
17.1562
  0
LINE
  8
LAYER_3
 10
-83.0433
 20
17.1562
 11
-83.0433
 21
280.1562
  0
LINE
  8
LAYER_3
 10
-83.0433
 20
280.1562
 11
293.4567
 21
280.1562
  0
LINE
  8
LAYER_3
 10
293.4567
 20
280.1562
 11
293.4567
 21
17.1562
  0
TEXT
  8
LAYER_3
 10
153.4949
 20
49.1839
 11
153.4949
 21
49.1839
 40
4.4979
 41
0.5
 72
1
  1
セラトレーディング株式会社
  0
TEXT
  8
LAYER_3
 10
127.9281
 20
40.658
 11
127.9281
 21
40.658
 40
3.0923
 41
0.5
  1
製図
  0
TEXT
  8
LAYER_3
 10
127.9281
 20
26.4587
 11
127.9281
 21
26.4587
 40
3.0923
 41
0.5
  1
備考
  0
TEXT
  8
LAYER_3
 10
139.5463
 20
40.658
 11
139.5463
 21
40.658
 40
3.0923
 41
0.5
  1
検図
  0
TEXT
  8
LAYER_3
 10
176.4998
 20
40.658
 11
176.4998
 21
40.658
 40
3.0923
 41
0.5
  1
日付
  0
TEXT
  8
LAYER_3
 10
219.0853
 20
45.4728
 11
219.0853
 21
45.4728
 40
3.9357
 41
0.5
  1
エロイーズ　湯水混合水栓
  0
TEXT
  8
LAYER_3
 10
253.4564
 20
20.3547
 11
253.4564
 21
20.3547
 40
3.9357
 41
0.5
 72
1
  1
HR2260A
  0
TEXT
  8
LAYER_3
 10
195.5498
 20
40.658
 11
195.5498
 21
40.658
 40
3.0923
 41
0.5
  1
尺度
  0
TEXT
  8
LAYER_3
 10
195.5498
 20
53.0652
 11
195.5498
 21
53.0652
 40
3.0923
 41
0.5
  1
単位
  0
TEXT
  8
LAYER_3
 10
203.2744
 20
48.0691
 11
203.2744
 21
48.0691
 40
3.6546
 41
0.5
 72
1
  1
mm
  0
TEXT
  8
LAYER_3
 10
214.5116
 20
53.0652
 11
214.5116
 21
53.0652
 40
3.0923
 41
0.5
  1
名称
  0
TEXT
  8
LAYER_3
 10
214.5116
 20
32.9265
 11
214.5116
 21
32.9265
 40
3.0923
 41
0.5
  1
品番
  0
LINE
  8
LAYER_3
 10
213.4567
 20
27.156
 11
293.4567
 21
27.156
  0
TEXT
  8
LAYER_3
 10
214.5116
 20
22.9268
 11
214.5116
 21
22.9268
 40
3.0923
 41
0.5
  1
図番
  0
INSERT
  8
LAYER_3
  2
AIGNBL03010002
 10
0
 20
0
 30
0
  0
LINE
  8
LAYER_3
 10
-83.0433
 20
148.6576
 11
-104.7936
 21
148.6576
  0
LINE
  8
LAYER_3
 10
105.2067
 20
297.1763
 11
105.2067
 21
280.1562
  0
LINE
  8
LAYER_3
 10
105.2067
 20
17.1562
 11
105.2067
 21
0.176
  0
LINE
  8
LAYER_3
 10
315.2069
 20
148.6576
 11
293.4567
 21
148.6576
  0
TEXT
  8
LAYER_3
 10
134.4938
 20
21.9546
 11
134.4938
 21
21.9546
 40
3.9357
 41
0.5
  1
（社）日本水道協会認証品
  0
TEXT
  8
LAYER_3
 10
293.4567
 20
12.8082
 11
293.4567
 21
12.8082
 40
3.3734
 41
0.5
 72
2
  1
A3
  0
TEXT
  8
LAYER_3
 10
177.6925
 20
34.4651
 11
177.6925
 21
34.4651
 40
3.6546
 41
0.5
  1
23.10.10
  0
TEXT
  8
LAYER_3
 10
132.6465
 20
34.8502
 11
132.6465
 21
34.8502
 40
3.6546
 41
0.5
 72
1
  1
木場
  0
TEXT
  8
LAYER_3
 10
151.2204
 20
34.8502
 11
151.2204
 21
34.8502
 40
3.6546
 41
0.5
 72
1
  1
井田
  0
TEXT
  8
LAYER_3
 10
253.4564
 20
30.3551
 11
253.4564
 21
30.3551
 40
3.9357
 41
0.5
 72
1
  1
図中の表参照
  0
TEXT
  8
LAYER_3
 10
203.8663
 20
34.4651
 11
203.8663
 21
34.4651
 40
3.6546
 41
0.5
 72
1
  1
1 ： 5
  0
TEXT
  8
LAYER_3
 10
244.5597
 20
246.5562
 11
244.5597
 21
246.5562
 40
3.3734
 41
0.5
  1
注：色番号はカタログを参照ください
  0
LINE
  8
LAYER_3
 10
244.5597
 20
273.1563
 11
293.4567
 21
273.1563
  0
LINE
  8
LAYER_3
 10
244.5597
 20
259.1564
 11
293.4567
 21
259.1564
  0
TEXT
  8
LAYER_3
 10
257.4196
 20
275.3071
 11
257.4196
 21
275.3071
 40
3.3734
 41
0.5
 72
1
  1
品番
  0
TEXT
  8
LAYER_3
 10
257.4196
 20
261.3072
 11
257.4196
 21
261.3072
 40
3.3734
 41
0.5
 72
1
  1
HR2260A-PB
  0
TEXT
  8
LAYER_3
 10
281.5804
 20
275.3071
 11
281.5804
 21
275.3071
 40
3.3734
 41
0.5
 72
1
  1
仕上
  0
TEXT
  8
LAYER_3
 10
282.4403
 20
261.307
 11
282.4403
 21
261.307
 40
3.3734
 41
0.5
 72
1
  1
ブラス
  0
LINE
  8
LAYER_3
 10
244.5597
 20
266.1564
 11
293.4567
 21
266.1564
  0
TEXT
  8
LAYER_3
 10
257.4196
 20
268.3071
 11
257.4196
 21
268.3071
 40
3.3734
 41
0.5
 72
1
  1
HR2260A-AB
  0
TEXT
  8
LAYER_3
 10
283.1402
 20
268.307
 11
283.1402
 21
268.307
 40
3.3734
 41
0.5
 72
1
  1
アンティークブラス
  0
LINE
  8
LAYER_3
 10
244.5597
 20
252.1565
 11
293.4567
 21
252.1565
  0
TEXT
  8
LAYER_3
 10
257.4196
 20
254.3073
 11
257.4196
 21
254.3073
 40
3.3734
 41
0.5
 72
1
  1
HR2260A-CH
  0
TEXT
  8
LAYER_3
 10
282.3328
 20
254.3071
 11
282.3328
 21
254.3071
 40
3.3734
 41
0.5
 72
1
  1
クロム
  0
LINE
  8
LAYER_3
 10
269.875
 20
280.1562
 11
269.875
 21
252.1565
  0
LINE
  8
LAYER_3
 10
244.5597
 20
280.1562
 11
244.5597
 21
252.1565
  0
LINE
  8
LAYER_3
 10
126.9566
 20
75.5544
 11
290.1597
 21
75.5544
  0
LINE
  8
LAYER_3
 10
126.9566
 20
89.1284
 11
290.1597
 21
89.1284
  0
TEXT
  8
LAYER_3
 10
169.5094
 20
69.912
 11
169.5094
 21
69.912
 40
3.9357
 41
0.5
  1
（1）水圧は湯水ほぼ同圧、且つ湯圧が水圧より高くならないように設定してください。
  0
TEXT
  8
LAYER_3
 10
169.5094
 20
63.8318
 11
169.5094
 21
63.8318
 40
3.9357
 41
0.5
  1
（2）湯水を逆に配管しないでください。
  0
TEXT
  8
LAYER_3
 10
169.5094
 20
83.6145
 11
169.5094
 21
83.6145
 40
3.9357
 41
0.5
  1
65℃
  0
TEXT
  8
LAYER_3
 10
169.5094
 20
77.5343
 11
169.5094
 21
77.5343
 40
3.9357
 41
0.5
  1
※安全のため給湯温度は60℃以下でのご使用をおすすめします。
  0
LINE
  8
LAYER_3
 10
126.9566
 20
102.7024
 11
290.1597
 21
102.7024
  0
TEXT
  8
LAYER_3
 10
169.5094
 20
97.1886
 11
169.5094
 21
97.1886
 40
3.9357
 41
0.5
  1
1～40℃
  0
TEXT
  8
LAYER_3
 10
169.5094
 20
91.1083
 11
169.5094
 21
91.1083
 40
3.9357
 41
0.5
  1
※寒冷地仕様ではありません、凍結が予想される場合は凍結予防をしてください。
  0
TEXT
  8
LAYER_3
 10
129.4953
 20
69.912
 11
129.4953
 21
69.912
 40
3.9357
 41
0.5
  1
特記事項
  0
TEXT
  8
LAYER_3
 10
129.4953
 20
83.6145
 11
129.4953
 21
83.6145
 40
3.9357
 41
0.5
  1
最高給湯温度
  0
TEXT
  8
LAYER_3
 10
129.4953
 20
97.1886
 11
129.4953
 21
97.1886
 40
3.9357
 41
0.5
  1
使用環境温度
  0
LINE
  8
LAYER_3
 10
145.6397
 20
124.0389
 11
290.1597
 21
124.0389
  0
TEXT
  8
LAYER_3
 10
147.4139
 20
118.5251
 11
147.4139
 21
118.5251
 40
3.9357
 41
0.5
  1
最高水圧
  0
LINE
  8
LAYER_3
 10
126.9566
 20
110.4649
 11
290.1597
 21
110.4649
  0
TEXT
  8
LAYER_3
 10
169.5094
 20
104.8105
 11
169.5094
 21
104.8105
 40
3.9357
 41
0.5
  1
水道水
  0
TEXT
  8
LAYER_3
 10
129.4953
 20
104.8105
 11
129.4953
 21
104.8105
 40
3.9357
 41
0.5
  1
使用可能水質
  0
LINE
  8
LAYER_3
 10
126.9566
 20
131.8014
 11
290.1597
 21
131.8014
  0
TEXT
  8
LAYER_3
 10
169.5094
 20
126.147
 11
169.5094
 21
126.147
 40
3.9357
 41
0.5
  1
0.1MPa（流動圧）
  0
TEXT
  8
LAYER_3
 10
147.4139
 20
126.147
 11
147.4139
 21
126.147
 40
3.9357
 41
0.5
  1
最低必要水圧
  0
LINE
  8
LAYER_3
 10
290.1597
 20
139.5639
 11
126.9566
 21
139.5639
  0
LINE
  8
LAYER_3
 10
126.9566
 20
139.5639
 11
126.9566
 21
61.9804
  0
LINE
  8
LAYER_3
 10
126.9566
 20
61.9804
 11
290.1597
 21
61.9804
  0
LINE
  8
LAYER_3
 10
290.1597
 20
61.9804
 11
290.1597
 21
139.5639
  0
LINE
  8
LAYER_3
 10
166.9707
 20
139.5639
 11
166.9707
 21
61.9804
  0
LINE
  8
LAYER_3
 10
145.6397
 20
131.8014
 11
145.6397
 21
110.4649
  0
TEXT
  8
LAYER_3
 10
169.5094
 20
133.9095
 11
169.5094
 21
133.9095
 40
3.9357
 41
0.5
  1
一般住宅用（屋内用）
  0
TEXT
  8
LAYER_3
 10
129.4953
 20
133.9095
 11
129.4953
 21
133.9095
 40
3.9357
 41
0.5
  1
用途
  0
TEXT
  8
LAYER_3
 10
129.4953
 20
126.147
 11
129.4953
 21
126.147
 40
3.9357
 41
0.5
  1
給水圧力
  0
TEXT
  8
LAYER_3
 10
169.5094
 20
118.5251
 11
169.5094
 21
118.5251
 40
3.9357
 41
0.5
  1
0.5MPa（流動圧）
  0
TEXT
  8
LAYER_3
 10
169.5094
 20
112.4448
 11
169.5094
 21
112.4448
 40
3.9357
 41
0.5
  1
※快適にお使いいただくためには、0.2～0.3MPa程度の圧力をおすすめします。
  0
ENDSEC
  0
EOF
