  0
SECTION
  2
HEADER
  9
$ACADVER
  1
AC1009
  9
$INSBASE
 10
0.0
 20
0.0
 30
0.0
  9
$EXTMIN
 10
-4.70052
 20
-21.071400000000001
 30
0.0
  9
$EXTMAX
 10
205.30099999999999
 20
275.93099999999993
 30
0.0
  9
$LIMMIN
 10
0.0
 20
0.0
  9
$LIMMAX
 10
12.0
 20
9.0
  9
$ORTHOMODE
 70
     0
  9
$REGENMODE
 70
     1
  9
$FILLMODE
 70
     1
  9
$QTEXTMODE
 70
     0
  9
$MIRRTEXT
 70
     1
  9
$DRAGMODE
 70
     2
  9
$LTSCALE
 40
1.0
  9
$OSMODE
 70
    37
  9
$ATTMODE
 70
     1
  9
$TEXTSIZE
 40
0.0
  9
$TRACEWID
 40
0.05
  9
$TEXTSTYLE
  7
STANDARD
  9
$CLAYER
  8
0
  9
$CELTYPE
  6
CONTINUOUS
  9
$CECOLOR
 62
   256
  9
$DIMSCALE
 40
1.0
  9
$DIMASZ
 40
0.18
  9
$DIMEXO
 40
0.0625
  9
$DIMDLI
 40
0.38
  9
$DIMRND
 40
0.0
  9
$DIMDLE
 40
0.0
  9
$DIMEXE
 40
0.18
  9
$DIMTP
 40
0.0
  9
$DIMTM
 40
0.0
  9
$DIMTXT
 40
0.18
  9
$DIMCEN
 40
0.09
  9
$DIMTSZ
 40
0.0
  9
$DIMTOL
 70
     0
  9
$DIMLIM
 70
     0
  9
$DIMTIH
 70
     1
  9
$DIMTOH
 70
     1
  9
$DIMSE1
 70
     0
  9
$DIMSE2
 70
     0
  9
$DIMTAD
 70
     0
  9
$DIMZIN
 70
     0
  9
$DIMBLK
  1

  9
$DIMASO
 70
     1
  9
$DIMSHO
 70
     1
  9
$DIMPOST
  1

  9
$DIMAPOST
  1

  9
$DIMALT
 70
     0
  9
$DIMALTD
 70
     2
  9
$DIMALTF
 40
25.399999999999999
  9
$DIMLFAC
 40
1.0
  9
$DIMTOFL
 70
     0
  9
$DIMTVP
 40
0.0
  9
$DIMTIX
 70
     0
  9
$DIMSOXD
 70
     0
  9
$DIMSAH
 70
     0
  9
$DIMBLK1
  1

  9
$DIMBLK2
  1

  9
$DIMSTYLE
  2
STANDARD
  9
$DIMCLRD
 70
     0
  9
$DIMCLRE
 70
     0
  9
$DIMCLRT
 70
     0
  9
$DIMTFAC
 40
1.0
  9
$DIMGAP
 40
0.09
  9
$LUNITS
 70
     2
  9
$LUPREC
 70
     4
  9
$SKETCHINC
 40
0.1
  9
$FILLETRAD
 40
0.0
  9
$AUNITS
 70
     0
  9
$AUPREC
 70
     0
  9
$MENU
  1
.
  9
$ELEVATION
 40
0.0
  9
$PELEVATION
 40
0.0
  9
$THICKNESS
 40
0.0
  9
$LIMCHECK
 70
     0
  9
$BLIPMODE
 70
     0
  9
$CHAMFERA
 40
0.0
  9
$CHAMFERB
 40
0.0
  9
$SKPOLY
 70
     0
  9
$TDCREATE
 40
2444972.375
  9
$TDUPDATE
 40
2456676.2488431009
  9
$TDINDWG
 40
0.0000126157
  9
$TDUSRTIMER
 40
0.0000126157
  9
$USRTIMER
 70
     1
  9
$ANGBASE
 50
0.0
  9
$ANGDIR
 70
     0
  9
$PDMODE
 70
     0
  9
$PDSIZE
 40
0.0
  9
$PLINEWID
 40
0.0
  9
$COORDS
 70
     1
  9
$SPLFRAME
 70
     0
  9
$SPLINETYPE
 70
     6
  9
$SPLINESEGS
 70
     8
  9
$ATTDIA
 70
     0
  9
$ATTREQ
 70
     1
  9
$HANDLING
 70
     1
  9
$HANDSEED
  5
8B9
  9
$SURFTAB1
 70
     6
  9
$SURFTAB2
 70
     6
  9
$SURFTYPE
 70
     6
  9
$SURFU
 70
     6
  9
$SURFV
 70
     6
  9
$UCSNAME
  2

  9
$UCSORG
 10
0.0
 20
0.0
 30
0.0
  9
$UCSXDIR
 10
1.0
 20
0.0
 30
0.0
  9
$UCSYDIR
 10
0.0
 20
1.0
 30
0.0
  9
$PUCSNAME
  2

  9
$PUCSORG
 10
0.0
 20
0.0
 30
0.0
  9
$PUCSXDIR
 10
1.0
 20
0.0
 30
0.0
  9
$PUCSYDIR
 10
0.0
 20
1.0
 30
0.0
  9
$USERI1
 70
     0
  9
$USERI2
 70
     0
  9
$USERI3
 70
     0
  9
$USERI4
 70
     0
  9
$USERI5
 70
     0
  9
$USERR1
 40
0.0
  9
$USERR2
 40
0.0
  9
$USERR3
 40
0.0
  9
$USERR4
 40
0.0
  9
$USERR5
 40
0.0
  9
$WORLDVIEW
 70
     1
  9
$SHADEDGE
 70
     3
  9
$SHADEDIF
 70
    70
  9
$TILEMODE
 70
     1
  9
$MAXACTVP
 70
    48
  9
$PLIMCHECK
 70
     0
  9
$PEXTMIN
 10
1.0000000000000000E+020
 20
1.0000000000000000E+020
 30
1.0000000000000000E+020
  9
$PEXTMAX
 10
-1.0000000000000000E+020
 20
-1.0000000000000000E+020
 30
-1.0000000000000000E+020
  9
$PLIMMIN
 10
0.0
 20
0.0
  9
$PLIMMAX
 10
12.0
 20
9.0
  9
$UNITMODE
 70
     0
  9
$VISRETAIN
 70
     1
  9
$PLINEGEN
 70
     0
  9
$PSLTSCALE
 70
     1
  0
ENDSEC
  0
SECTION
  2
TABLES
  0
TABLE
  2
VPORT
 70
     2
  0
VPORT
  2
*ACTIVE
 70
     0
 10
0.0
 20
0.0
 11
1.0
 21
1.0
 12
202.00678374696719
 22
127.4298
 13
0.0
 23
0.0
 14
1.0
 24
1.0
 15
0.0
 25
0.0
 16
0.0
 26
0.0
 36
1.0
 17
0.0
 27
0.0
 37
0.0
 40
299.45358899587342
 41
2.2894736842105261
 42
50.0
 43
0.0
 44
0.0
 50
0.0
 51
0.0
 71
     0
 72
   100
 73
     1
 74
     1
 75
     0
 76
     0
 77
     0
 78
     0
  0
ENDTAB
  0
TABLE
  2
LTYPE
 70
     4
  0
LTYPE
  2
CONTINUOUS
 70
     0
  3
Solid line
 72
    65
 73
     0
 40
0.0
  0
LTYPE
  2
AIGENLINE001
 70
     0
  3
generate AI->DXF Converter
 72
    65
 73
     4
 40
5.8561449999999988
 49
3.5278
 49
-0.776115
 49
0.776115
 49
-0.776115
  0
LTYPE
  2
AIGENLINE002
 70
     0
  3
generate AI->DXF Converter
 72
    65
 73
     4
 40
9.4368800000000004
 49
4.9389199999999986
 49
-1.4993199999999991
 49
1.4993199999999991
 49
-1.4993199999999991
  0
LTYPE
  2
AIGENLINE003
 70
     0
  3
generate AI->DXF Converter
 72
    65
 73
     4
 40
10.300112
 49
8.0000600000000013
 49
-0.700021
 49
0.9000100000000001
 49
-0.700021
  0
ENDTAB
  0
TABLE
  2
LAYER
 70
     2
  0
LAYER
  2
0
 70
     0
 62
     7
  6
CONTINUOUS
  0
LAYER
  2
_________2
 70
     0
 62
     7
  6
CONTINUOUS
  0
ENDTAB
  0
TABLE
  2
STYLE
 70
     1
  0
STYLE
  2
STANDARD
 70
     0
 40
0.0
 41
0.0
 50
0.0
 71
     0
 42
0.0
  3
TXT
  4
EXTFONT.SHX
  0
ENDTAB
  0
TABLE
  2
VIEW
 70
     0
  0
ENDTAB
  0
TABLE
  2
UCS
 70
     0
  0
ENDTAB
  0
TABLE
  2
APPID
 70
     1
  0
APPID
  2
ACAD
 70
     0
  0
ENDTAB
  0
TABLE
  2
DIMSTYLE
 70
     1
  0
DIMSTYLE
  2
STANDARD
 70
     0
  3

  4

  5

  6

  7

 40
1.0
 41
0.18
 42
0.0625
 43
0.38
 44
0.18
 45
0.0
 46
0.0
 47
0.0
 48
0.0
140
0.18
141
0.09
142
0.0
143
25.399999999999999
144
1.0
145
0.0
146
1.0
147
0.09
 71
     0
 72
     0
 73
     1
 74
     1
 75
     0
 76
     0
 77
     0
 78
     0
170
     0
171
     2
172
     0
173
     0
174
     0
175
     0
176
     0
177
     0
178
     0
  0
ENDTAB
  0
ENDSEC
  0
SECTION
  2
BLOCKS
  0
BLOCK
  8
0
  2
$MODEL_SPACE
 70
     0
 10
0.0
 20
0.0
 30
0.0
  3
$MODEL_SPACE
  1

  0
ENDBLK
  5
1A
  8
0
  0
BLOCK
 67
     1
  8
0
  2
$PAPER_SPACE
 70
     0
 10
0.0
 20
0.0
 30
0.0
  3
$PAPER_SPACE
  1

  0
ENDBLK
  5
17
 67
     1
  8
0
  0
ENDSEC
  0
SECTION
  2
ENTITIES
  0
TEXT
  5
24
  8
0
 62
     7
 10
23.107099999999988
 20
38.982199999999999
 30
0.0
 40
3.6545800000000002
  1
・国産洗面器とのセットの場合は、国産の排水ヘッド部を別途準備してください。
 41
0.5
  0
TEXT
  5
25
  8
0
 62
     7
 10
54.2273
 20
98.501400000000004
 30
0.0
 40
3.0923400000000001
  1
G1/2
 41
0.5
 72
     2
 11
59.3812
 21
98.501400000000004
 31
0.0
  0
TEXT
  5
26
  8
0
 62
     7
 10
59.309899999999999
 20
116.7005749999999
 30
0.0
 40
3.0923400000000001
  1
max.27
 50
90.0
 41
0.5
 72
     1
 11
59.309899999999999
 21
120.5659999999999
 31
0.0
  0
TEXT
  5
27
  8
0
 62
     7
 10
35.37339999999999
 20
126.56314999999989
 30
0.0
 40
3.0923400000000001
  1
max.45
 50
90.0
 41
0.5
 72
     2
 11
35.37339999999999
 21
134.2939999999999
 31
0.0
  0
TEXT
  5
28
  8
0
 62
     7
 10
29.065100000000001
 20
112.14252499999991
 30
0.0
 40
3.0923400000000001
  1
96
 50
90.0
 41
0.5
 72
     1
 11
29.065100000000001
 21
113.4309999999999
 31
0.0
  0
TEXT
  5
29
  8
0
 62
     7
 10
72.292000000000002
 20
68.329099999999997
 30
0.0
 40
3.0923400000000001
  1
%%c5
 41
0.5
  0
TEXT
  5
2A
  8
0
 62
     7
 10
96.020200000000017
 20
120.646
 30
0.0
 40
3.0923400000000001
  1
%%c26
 41
0.5
  0
TEXT
  5
2B
  8
0
 62
     7
 10
123.8149825
 20
54.338099999999997
 30
0.0
 40
3.0923400000000001
  1
210
 41
0.5
 72
     1
 11
125.4899999999999
 21
54.338099999999997
 31
0.0
  0
TEXT
  5
2C
  8
0
 62
     7
 10
92.558899999999994
 20
72.401522499999999
 30
0.0
 40
3.0923400000000001
  1
max.50
 50
90.0
 41
0.5
 72
     1
 11
92.558899999999994
 21
76.138099999999994
 31
0.0
  0
TEXT
  5
2D
  8
0
 62
     7
 10
88.865099999999984
 20
59.230200000000011
 30
0.0
 40
3.0923400000000001
  1
G1 1/4
 41
0.5
  0
TEXT
  5
2E
  8
0
 62
     7
 10
101.88744
 20
85.647700000000015
 30
0.0
 40
3.0923400000000001
  1
%%c63
 41
0.5
 72
     1
 11
103.949
 21
85.647700000000015
 31
0.0
  0
TEXT
  5
2F
  8
0
 62
     7
 10
122.45399999999989
 20
69.195149999999998
 30
0.0
 40
3.0923400000000001
  1
%%c5
 50
90.0
 41
0.5
 72
     2
 11
122.45399999999989
 21
71.772099999999995
 31
0.0
  0
TEXT
  5
30
  8
0
 62
     7
 10
77.235429999999994
 20
190.41499999999991
 30
0.0
 40
3.0923400000000001
  1
100
 41
0.5
 72
     1
 11
78.781599999999997
 21
190.41499999999991
 31
0.0
  0
TEXT
  5
31
  8
0
 62
     7
 10
57.235329999999998
 20
190.36000000000001
 30
0.0
 40
3.0923400000000001
  1
100
 41
0.5
 72
     1
 11
58.781500000000001
 21
190.36000000000001
 31
0.0
  0
TEXT
  5
32
  8
0
 62
     7
 10
127.88782999999989
 20
133.679
 30
0.0
 40
3.0923400000000001
  1
12%%d
 41
0.5
 72
     1
 11
129.434
 21
133.679
 31
0.0
  0
TEXT
  5
33
  8
0
 62
     7
 10
171.8179999999999
 20
142.1479824999999
 30
0.0
 40
3.0923400000000001
  1
210
 50
90.0
 41
0.5
 72
     1
 11
171.8179999999999
 21
143.82299999999989
 31
0.0
  0
TEXT
  5
34
  8
0
 62
     7
 10
137.61000000000001
 20
135.023135
 30
0.0
 40
3.0923400000000001
  1
138
 50
90.0
 41
0.5
 72
     1
 11
137.61000000000001
 21
136.827
 31
0.0
  0
TEXT
  5
35
  8
0
 62
     7
 10
120.524
 20
135.32798249999991
 30
0.0
 40
3.0923400000000001
  1
140
 50
90.0
 41
0.5
 72
     1
 11
120.524
 21
137.0029999999999
 31
0.0
  0
TEXT
  5
36
  8
0
 62
     7
 10
142.1991349999999
 20
170.12
 30
0.0
 40
3.0923400000000001
  1
145
 41
0.5
 72
     1
 11
144.0029999999999
 21
170.12
 31
0.0
  0
TEXT
  5
37
  8
0
 62
     7
 10
78.355699999999999
 20
87.097687500000006
 30
0.0
 40
3.0923400000000001
  1
340
 50
90.0
 41
0.5
 72
     1
 11
78.355699999999999
 21
89.0304
 31
0.0
  0
TEXT
  5
38
  8
0
 62
     7
 10
77.441540000000003
 20
145.864
 30
0.0
 40
3.0923400000000001
  1
%%c62
 41
0.5
 72
     1
 11
79.503100000000003
 21
145.864
 31
0.0
  0
TEXT
  5
39
  8
0
 62
     7
 10
46.676839999999999
 20
145.864
 30
0.0
 40
3.0923400000000001
  1
%%c62
 41
0.5
 72
     1
 11
48.738399999999999
 21
145.864
 31
0.0
  0
TEXT
  5
3A
  8
0
 62
     7
 10
120.93899999999989
 20
193.886
 30
0.0
 40
3.0923400000000001
  1
%%c35
 50
313.315
 41
0.5
  0
TEXT
  5
3B
  8
0
 62
     7
 10
140.93899999999991
 20
193.886
 30
0.0
 40
3.0923400000000001
  1
%%c35
 50
313.315
 41
0.5
  0
TEXT
  5
3C
  8
0
 62
     7
 10
160.93999999999991
 20
193.886
 30
0.0
 40
3.0923400000000001
  1
%%c35
 50
313.315
 41
0.5
  0
TEXT
  5
3D
  8
0
 62
     7
 10
144.12482999999989
 20
210.0029999999999
 30
0.0
 40
3.0923400000000001
  1
100
 41
0.5
 72
     1
 11
145.67099999999991
 21
210.0029999999999
 31
0.0
  0
TEXT
  5
3E
  8
0
 62
     7
 10
124.12483
 20
209.94900000000001
 30
0.0
 40
3.0923400000000001
  1
100
 41
0.5
 72
     1
 11
125.67099999999991
 21
209.94900000000001
 31
0.0
  0
TEXT
  5
3F
  8
0
 62
     7
 10
76.917687000000001
 20
205.73099999999999
 30
0.0
 40
3.0923400000000001
  1
スパウト
 41
0.5
 72
     1
 11
80.370800000000017
 21
205.73099999999999
 31
0.0
  0
TEXT
  5
40
  8
0
 62
     7
 10
76.0157545
 20
201.86500000000001
 30
0.0
 40
3.0923400000000001
  1
回転360%%d
 41
0.5
 72
     1
 11
80.370800000000017
 21
201.86500000000001
 31
0.0
  0
TEXT
  5
41
  8
0
 62
     7
 10
129.611242
 20
180.10699999999991
 30
0.0
 40
3.0923400000000001
  1
水栓金具取付穴
 41
0.5
 72
     1
 11
135.899
 21
180.10699999999991
 31
0.0
  0
LINE
  5
42
  8
0
 62
     7
 10
156.61600000000001
 20
103.831
 30
0.0
 11
156.416
 21
104.03100000000001
 31
0.0
  0
LINE
  5
43
  8
0
 62
     7
 10
156.61600000000001
 20
103.831
 30
0.0
 11
158.51699999999991
 21
103.831
 31
0.0
  0
LINE
  5
44
  8
0
 62
     7
 10
156.416
 20
104.03100000000001
 30
0.0
 11
158.51599999999991
 21
104.03100000000001
 31
0.0
  0
LINE
  5
45
  8
0
 62
     7
 10
155.916
 20
112.23099999999999
 30
0.0
 11
156.11600000000001
 21
112.4309999999999
 31
0.0
  0
LINE
  5
46
  8
0
 62
     7
 10
155.916
 20
105.831
 30
0.0
 11
155.916
 21
112.23099999999999
 31
0.0
  0
LINE
  5
47
  8
0
 62
     7
 10
156.61600000000001
 20
103.831
 30
0.0
 11
156.61600000000001
 21
105.831
 31
0.0
  0
LINE
  5
48
  8
0
 62
     7
 10
156.416
 20
104.03100000000001
 30
0.0
 11
156.416
 21
105.831
 31
0.0
  0
LINE
  5
49
  8
0
 62
     7
 10
155.916
 20
105.831
 30
0.0
 11
158.51599999999991
 21
105.831
 31
0.0
  0
LINE
  5
4A
  8
0
 62
     7
 10
155.916
 20
112.4309999999999
 30
0.0
 11
158.51699999999991
 21
112.4309999999999
 31
0.0
  0
LINE
  5
4B
  8
0
 62
     7
 10
156.11600000000001
 20
112.4309999999999
 30
0.0
 11
156.11600000000001
 21
115.6309999999999
 31
0.0
  0
LINE
  5
4C
  8
0
 62
     7
 10
155.916
 20
112.23099999999999
 30
0.0
 11
155.916
 21
115.6309999999999
 31
0.0
  0
LINE
  5
4D
  8
0
 62
     7
 10
155.916
 20
112.23099999999999
 30
0.0
 11
158.51599999999991
 21
112.23099999999999
 31
0.0
  0
LINE
  5
4E
  8
0
 62
     7
 10
156.71600000000001
 20
112.23099999999999
 30
0.0
 11
158.51599999999991
 21
112.23099999999999
 31
0.0
  0
LINE
  5
4F
  8
0
 62
     7
 10
155.39899999999989
 20
115.6309999999999
 30
0.0
 11
158.51599999999991
 21
115.6309999999999
 31
0.0
  0
LINE
  5
50
  8
0
 62
     7
 10
154.11600000000001
 20
116.6309999999999
 30
0.0
 11
154.11600000000001
 21
117.03100000000001
 31
0.0
  0
LINE
  5
51
  8
0
 62
     7
 10
154.11600000000001
 20
116.6309999999999
 30
0.0
 11
158.51599999999991
 21
116.6309999999999
 31
0.0
  0
LINE
  5
52
  8
0
 62
     7
 10
154.11600000000001
 20
116.8309999999999
 30
0.0
 11
158.51599999999991
 21
116.8309999999999
 31
0.0
  0
LINE
  5
53
  8
0
 62
     7
 10
154.11600000000001
 20
117.03100000000001
 30
0.0
 11
158.51599999999991
 21
117.03100000000001
 31
0.0
  0
LINE
  5
54
  8
0
 62
     7
 10
156.11600000000001
 20
117.03100000000001
 30
0.0
 11
156.11600000000001
 21
123.03100000000001
 31
0.0
  0
LINE
  5
55
  8
0
 62
     7
 10
155.916
 20
117.03100000000001
 30
0.0
 11
155.916
 21
123.03100000000001
 31
0.0
  0
LINE
  5
56
  8
0
 62
     7
 10
160.417
 20
103.831
 30
0.0
 11
160.61699999999999
 21
104.03100000000001
 31
0.0
  0
LINE
  5
57
  8
0
 62
     7
 10
160.417
 20
103.831
 30
0.0
 11
158.51699999999991
 21
103.831
 31
0.0
  0
LINE
  5
58
  8
0
 62
     7
 10
160.61699999999999
 20
104.03100000000001
 30
0.0
 11
158.51699999999991
 21
104.03100000000001
 31
0.0
  0
LINE
  5
59
  8
0
 62
     7
 10
161.11699999999999
 20
112.23099999999999
 30
0.0
 11
160.91699999999989
 21
112.4309999999999
 31
0.0
  0
LINE
  5
5A
  8
0
 62
     7
 10
161.11699999999999
 20
105.831
 30
0.0
 11
161.11699999999999
 21
112.23099999999999
 31
0.0
  0
LINE
  5
5B
  8
0
 62
     7
 10
160.417
 20
103.831
 30
0.0
 11
160.417
 21
105.831
 31
0.0
  0
LINE
  5
5C
  8
0
 62
     7
 10
160.61699999999999
 20
104.03100000000001
 30
0.0
 11
160.61699999999999
 21
105.831
 31
0.0
  0
LINE
  5
5D
  8
0
 62
     7
 10
161.11699999999999
 20
105.831
 30
0.0
 11
158.51699999999991
 21
105.831
 31
0.0
  0
LINE
  5
5E
  8
0
 62
     7
 10
161.11699999999999
 20
112.4309999999999
 30
0.0
 11
158.51699999999991
 21
112.4309999999999
 31
0.0
  0
LINE
  5
5F
  8
0
 62
     7
 10
160.91699999999989
 20
112.4309999999999
 30
0.0
 11
160.91699999999989
 21
115.6309999999999
 31
0.0
  0
LINE
  5
60
  8
0
 62
     7
 10
161.11699999999999
 20
112.23099999999999
 30
0.0
 11
161.11699999999999
 21
115.6309999999999
 31
0.0
  0
LINE
  5
61
  8
0
 62
     7
 10
161.11699999999999
 20
112.23099999999999
 30
0.0
 11
158.51699999999991
 21
112.23099999999999
 31
0.0
  0
LINE
  5
62
  8
0
 62
     7
 10
160.31700000000001
 20
112.23099999999999
 30
0.0
 11
158.51699999999991
 21
112.23099999999999
 31
0.0
  0
LINE
  5
63
  8
0
 62
     7
 10
158.51599999999991
 20
115.6309999999999
 30
0.0
 11
158.51599999999991
 21
116.6309999999999
 31
0.0
  0
LINE
  5
64
  8
0
 62
     7
 10
155.39899999999989
 20
115.6309999999999
 30
0.0
 11
155.39899999999989
 21
116.6309999999999
 31
0.0
  0
LINE
  5
65
  8
0
 62
     7
 10
161.6339999999999
 20
115.6309999999999
 30
0.0
 11
161.6339999999999
 21
116.6309999999999
 31
0.0
  0
LINE
  5
66
  8
0
 62
     7
 10
161.6339999999999
 20
115.6309999999999
 30
0.0
 11
158.51699999999991
 21
115.6309999999999
 31
0.0
  0
LINE
  5
67
  8
0
 62
     7
 10
162.917
 20
116.6309999999999
 30
0.0
 11
162.917
 21
117.03100000000001
 31
0.0
  0
LINE
  5
68
  8
0
 62
     7
 10
162.917
 20
116.6309999999999
 30
0.0
 11
158.51699999999991
 21
116.6309999999999
 31
0.0
  0
LINE
  5
69
  8
0
 62
     7
 10
162.917
 20
116.8309999999999
 30
0.0
 11
158.51699999999991
 21
116.8309999999999
 31
0.0
  0
LINE
  5
6A
  8
0
 62
     7
 10
162.917
 20
117.03100000000001
 30
0.0
 11
158.51699999999991
 21
117.03100000000001
 31
0.0
  0
LINE
  5
6B
  8
0
 62
     7
 10
160.91699999999989
 20
117.03100000000001
 30
0.0
 11
160.91699999999989
 21
123.03100000000001
 31
0.0
  0
LINE
  5
6C
  8
0
 62
     7
 10
161.11699999999999
 20
117.03100000000001
 30
0.0
 11
161.11699999999999
 21
123.03100000000001
 31
0.0
  0
LINE
  5
6D
  8
0
 62
     7
 10
153.44399999999999
 20
124.2909999999999
 30
0.0
 11
153.0689999999999
 21
124.215
 31
0.0
  0
ARC
  5
6E
  8
0
 62
     7
 10
153.070446
 20
125.99853899999989
 30
0.0
 40
1.748413
 50
282.34138200000001
 51
347.76203700000002
  0
LINE
  5
6F
  8
0
 62
     7
 10
152.393
 20
123.5119999999999
 30
0.0
 11
152.316
 21
123.03100000000001
 31
0.0
  0
ARC
  5
70
  8
0
 62
     7
 10
153.25748699999991
 20
123.35775099999999
 30
0.0
 40
0.8778109999999999
 50
102.401222
 51
169.86107200000001
  0
ARC
  5
71
  8
0
 62
     7
 10
155.44385600000001
 20
125.563722
 30
0.0
 40
0.6677890000000001
 50
91.847145999999995
 51
174.51270400000001
  0
LINE
  5
72
  8
0
 62
     7
 10
163.589
 20
124.2909999999999
 30
0.0
 11
163.964
 21
124.215
 31
0.0
  0
ARC
  5
73
  8
0
 62
     7
 10
163.96145300000001
 20
125.99653000000001
 30
0.0
 40
1.7461150000000001
 50
192.186893
 51
257.69494099999997
  0
LINE
  5
74
  8
0
 62
     7
 10
164.6399999999999
 20
123.5119999999999
 30
0.0
 11
164.71700000000001
 21
123.03100000000001
 31
0.0
  0
ARC
  5
75
  8
0
 62
     7
 10
163.77568099999991
 20
123.35746
 30
0.0
 40
0.8781600000000001
 50
10.154123999999999
 51
77.583543000000006
  0
ARC
  5
76
  8
0
 62
     7
 10
161.58903499999991
 20
125.562725
 30
0.0
 40
0.668804
 50
5.5647469999999997
 51
88.105981999999983
  0
LINE
  5
77
  8
0
 62
     7
 10
155.42199999999991
 20
126.23099999999999
 30
0.0
 11
158.51599999999991
 21
126.23099999999999
 31
0.0
  0
LINE
  5
78
  8
0
 62
     7
 10
154.91099999999989
 20
124.631
 30
0.0
 11
158.51599999999991
 21
124.631
 31
0.0
  0
LINE
  5
79
  8
0
 62
     7
 10
152.316
 20
123.03100000000001
 30
0.0
 11
158.51599999999991
 21
123.03100000000001
 31
0.0
  0
LINE
  5
7A
  8
0
 62
     7
 10
161.6109999999999
 20
126.23099999999999
 30
0.0
 11
158.51699999999991
 21
126.23099999999999
 31
0.0
  0
LINE
  5
7B
  8
0
 62
     7
 10
162.12200000000001
 20
124.631
 30
0.0
 11
158.51699999999991
 21
124.631
 31
0.0
  0
LINE
  5
7C
  8
0
 62
     7
 10
164.71700000000001
 20
123.03100000000001
 30
0.0
 11
158.51699999999991
 21
123.03100000000001
 31
0.0
  0
ARC
  5
7D
  8
0
 62
     7
 10
155.93435299999999
 20
127.95943
 30
0.0
 40
1.271406
 50
89.786128999999988
 51
102.539175
  0
ARC
  5
7E
  8
0
 62
     7
 10
155.93848899999989
 20
127.952887
 30
0.0
 40
1.2779409999999991
 50
63.016679000000011
 51
89.972666000000004
  0
ARC
  5
7F
  8
0
 62
     7
 10
156.11243099999999
 20
128.33570199999991
 30
0.0
 40
0.85808
 50
34.255765999999987
 51
61.768675000000002
  0
ARC
  5
80
  8
0
 62
     7
 10
156.34837999999999
 20
128.52148899999989
 30
0.0
 40
0.558868
 50
0.9172040000000002
 51
32.128377
  0
ARC
  5
81
  8
0
 62
     7
 10
156.373715
 20
128.53156899999999
 30
0.0
 40
0.5334630000000001
 50
325.19003399999991
 51
359.87816700000002
  0
ARC
  5
82
  8
0
 62
     7
 10
156.19710799999999
 20
128.6409689999999
 30
0.0
 40
0.740999
 50
302.80518599999999
 51
326.04020700000001
  0
ARC
  5
83
  8
0
 62
     7
 10
155.999189
 20
128.9175469999999
 30
0.0
 40
1.0808239999999989
 50
277.80677700000001
 51
303.68037799999991
  0
ARC
  5
84
  8
0
 62
     7
 10
155.94034500000001
 20
129.159627
 30
0.0
 40
1.328895999999999
 50
269.94628999999992
 51
278.9026629999999
  0
ARC
  5
85
  8
0
 62
     7
 10
155.93808300000001
 20
129.1590239999999
 30
0.0
 40
1.3282929999999991
 50
257.73504500000001
 51
270.043813
  0
ARC
  5
86
  8
0
 62
     7
 10
155.391593
 20
127.376811
 30
0.0
 40
0.5267730000000001
 50
351.581278
 51
44.466180999999999
  0
ARC
  5
87
  8
0
 62
     7
 10
155.3175149999999
 20
127.375232
 30
0.0
 40
0.59995
 50
322.69828999999987
 51
352.76631499999991
  0
ARC
  5
88
  8
0
 62
     7
 10
156.4777149999999
 20
128.53394
 30
0.0
 40
1.0609010000000001
 50
180.17072899999991
 51
227.978072
  0
ARC
  5
89
  8
0
 62
     7
 10
156.5684389999999
 20
128.44845499999991
 30
0.0
 40
1.1785600000000001
 50
123.552379
 51
152.50304700000001
  0
ARC
  5
8A
  8
0
 62
     7
 10
156.46546499999999
 20
128.53276099999999
 30
0.0
 40
1.048648
 50
153.99148700000001
 51
180.10826399999991
  0
ARC
  5
8B
  8
0
 62
     7
 10
155.98738700000001
 20
126.82122
 30
0.0
 40
0.270878
 50
135.32953699999999
 51
179.06954400000001
  0
LINE
  5
8C
  8
0
 62
     7
 10
155.71700000000001
 20
126.82599999999999
 30
0.0
 11
155.71700000000001
 21
126.23099999999999
 31
0.0
  0
ARC
  5
8D
  8
0
 62
     7
 10
161.098761
 20
127.9593729999999
 30
0.0
 40
1.2714650000000001
 50
77.460830000000001
 51
90.228814000000014
  0
ARC
  5
8E
  8
0
 62
     7
 10
161.09429399999991
 20
127.9551679999999
 30
0.0
 40
1.27566
 50
90.027433999999985
 51
117.0078689999999
  0
ARC
  5
8F
  8
0
 62
     7
 10
160.92095499999991
 20
128.3359759999999
 30
0.0
 40
0.8578649999999999
 50
118.243223
 51
145.7565699999999
  0
ARC
  5
90
  8
0
 62
     7
 10
160.68548799999999
 20
128.521389
 30
0.0
 40
0.5592660000000002
 50
147.88512299999991
 51
179.0731899999999
  0
ARC
  5
91
  8
0
 62
     7
 10
160.65985499999999
 20
128.53156899999999
 30
0.0
 40
0.533562
 50
180.1218409999999
 51
214.8025979999999
  0
ARC
  5
92
  8
0
 62
     7
 10
160.83681899999999
 20
128.641311
 30
0.0
 40
0.741586
 50
213.961128
 51
237.173261
  0
ARC
  5
93
  8
0
 62
     7
 10
161.03406299999989
 20
128.91691900000001
 30
0.0
 40
1.0802329999999991
 50
236.30657400000001
 51
262.17649399999988
  0
ARC
  5
94
  8
0
 62
     7
 10
161.09248899999989
 20
129.15724900000001
 30
0.0
 40
1.3265180000000001
 50
261.0893779999999
 51
270.05160799999987
  0
ARC
  5
95
  8
0
 62
     7
 10
161.09470999999999
 20
129.1653409999999
 30
0.0
 40
1.3346100000000001
 50
269.955938
 51
282.23580399999997
  0
ARC
  5
96
  8
0
 62
     7
 10
158.509355
 20
116.2125399999999
 30
0.0
 40
23.018257999999999
 50
89.981618999999995
 51
90.955185
  0
ARC
  5
97
  8
0
 62
     7
 10
158.23363499999999
 20
134.18274600000001
 30
0.0
 40
5.046009999999999
 50
91.226460999999986
 51
111.1060189999999
  0
ARC
  5
98
  8
0
 62
     7
 10
161.64857499999999
 20
127.37240799999999
 30
0.0
 40
0.5346390000000002
 50
135.69974799999989
 51
196.071382
  0
ARC
  5
99
  8
0
 62
     7
 10
161.72298099999989
 20
127.3790909999999
 30
0.0
 40
0.6081520000000001
 50
194.7356879999999
 51
217.1702259999999
  0
LINE
  5
9A
  8
0
 62
     7
 10
155.935
 20
126.9309999999999
 30
0.0
 11
158.51699999999991
 21
126.9309999999999
 31
0.0
  0
LINE
  5
9B
  8
0
 62
     7
 10
155.935
 20
127.631
 30
0.0
 11
158.51699999999991
 21
127.631
 31
0.0
  0
ARC
  5
9C
  8
0
 62
     7
 10
160.55377599999991
 20
128.53482500000001
 30
0.0
 40
1.0628839999999991
 50
312.06932499999988
 51
359.78191299999992
  0
ARC
  5
9D
  8
0
 62
     7
 10
160.46364999999989
 20
128.44823999999991
 30
0.0
 40
1.179694
 50
27.480039999999999
 51
56.383491999999997
  0
ARC
  5
9E
  8
0
 62
     7
 10
160.5665229999999
 20
128.53198
 30
0.0
 40
1.05013
 50
359.93451899999991
 51
26.016469000000001
  0
LINE
  5
9F
  8
0
 62
     7
 10
156.26699999999991
 20
129.93100000000001
 30
0.0
 11
156.322
 21
129.93100000000001
 31
0.0
  0
LINE
  5
A0
  8
0
 62
     7
 10
155.91699999999989
 20
129.58099999999999
 30
0.0
 11
155.91699999999989
 21
129.43100000000001
 31
0.0
  0
ARC
  5
A1
  8
0
 62
     7
 10
156.28041999999991
 20
129.56751800000001
 30
0.0
 40
0.363615
 50
92.157797000000016
 51
177.898595
  0
LINE
  5
A2
  8
0
 62
     7
 10
157.11699999999999
 20
132.73099999999991
 30
0.0
 11
157.11699999999999
 21
130.83099999999999
 31
0.0
  0
ARC
  5
A3
  8
0
 62
     7
 10
156.30616299999991
 20
130.7258249999999
 30
0.0
 40
0.795111
 50
271.155441
 51
342.78720399999997
  0
ARC
  5
A4
  8
0
 62
     7
 10
156.023032
 20
130.82068599999999
 30
0.0
 40
1.0936539999999999
 50
342.42948799999999
 51
0.526716
  0
LINE
  5
A5
  8
0
 62
     7
 10
153.71399999999991
 20
135.25700000000001
 30
0.0
 11
153.9799999999999
 21
134.93399999999991
 31
0.0
  0
LINE
  5
A6
  8
0
 62
     7
 10
153.9799999999999
 20
137.18700000000001
 30
0.0
 11
153.71399999999991
 21
136.864
 31
0.0
  0
LINE
  5
A7
  8
0
 62
     7
 10
155.363
 20
134.952
 30
0.0
 11
155.363
 21
135.19099999999989
 31
0.0
  0
LINE
  5
A8
  8
0
 62
     7
 10
155.76300000000001
 20
134.55199999999999
 30
0.0
 11
156.4789999999999
 21
134.55199999999999
 31
0.0
  0
ARC
  5
A9
  8
0
 62
     7
 10
155.77835099999999
 20
134.967431
 30
0.0
 40
0.415558
 50
182.10972899999999
 51
267.89030000000002
  0
ARC
  5
AA
  8
0
 62
     7
 10
154.83430399999989
 20
134.1838239999999
 30
0.0
 40
1.136979
 50
62.285437999999992
 51
138.7470459999999
  0
LINE
  5
AB
  8
0
 62
     7
 10
153.9799999999999
 20
136.06
 30
0.0
 11
153.9799999999999
 21
134.93399999999991
 31
0.0
  0
ARC
  5
AC
  8
0
 62
     7
 10
153.55130199999991
 20
136.06300899999999
 30
0.0
 40
2.010902999999999
 50
334.28650899999991
 51
359.91664999999989
  0
ARC
  5
AD
  8
0
 62
     7
 10
153.55993599999999
 20
136.0586679999999
 30
0.0
 40
2.002267999999999
 50
0.040493
 51
25.72433199999999
  0
ARC
  5
AE
  8
0
 62
     7
 10
154.83111199999999
 20
137.94618299999999
 30
0.0
 40
1.143059
 50
221.839643
 51
307.61530800000003
  0
ARC
  5
AF
  8
0
 62
     7
 10
155.71911099999991
 20
136.83208500000001
 30
0.0
 40
0.282417
 50
128.601776
 51
132.37021799999991
  0
LINE
  5
B0
  8
0
 62
     7
 10
153.71399999999991
 20
136.864
 30
0.0
 11
153.71399999999991
 21
135.25700000000001
 31
0.0
  0
ARC
  5
B1
  8
0
 62
     7
 10
158.47699999999989
 20
136.06008299999999
 30
0.0
 40
7.0137349999999996
 50
173.88547500000001
 51
186.11452499999999
  0
ARC
  5
B2
  8
0
 62
     7
 10
152.64277599999991
 20
136.13198700000001
 30
0.0
 40
1.403063999999999
 50
215.68567799999991
 51
301.45324299999999
  0
ARC
  5
B3
  8
0
 62
     7
 10
152.62571299999991
 20
136.06309899999991
 30
0.0
 40
1.354144
 50
303.59053899999998
 51
323.45041999999989
  0
ARC
  5
B4
  8
0
 62
     7
 10
152.61765399999999
 20
135.9879249999999
 30
0.0
 40
1.402819
 50
38.628318999999991
 51
124.408272
  0
ARC
  5
B5
  8
0
 62
     7
 10
152.62694200000001
 20
136.060697
 30
0.0
 40
1.3489109999999991
 50
126.48091100000001
 51
146.41835699999999
  0
LINE
  5
B6
  8
0
 62
     7
 10
153.9799999999999
 20
137.18700000000001
 30
0.0
 11
153.9799999999999
 21
136.06
 31
0.0
  0
LINE
  5
B7
  8
0
 62
     7
 10
157.417
 20
133.142
 30
0.0
 11
158.51699999999991
 21
133.142
 31
0.0
  0
LINE
  5
B8
  8
0
 62
     7
 10
157.2289999999999
 20
133.33099999999999
 30
0.0
 11
157.417
 21
133.142
 31
0.0
  0
LINE
  5
B9
  8
0
 62
     7
 10
157.11699999999999
 20
132.73099999999991
 30
0.0
 11
158.51699999999991
 21
132.73099999999991
 31
0.0
  0
LINE
  5
BA
  8
0
 62
     7
 10
157.2289999999999
 20
133.33099999999999
 30
0.0
 11
158.51699999999991
 21
133.33099999999999
 31
0.0
  0
LINE
  5
BB
  8
0
 62
     7
 10
157.2289999999999
 20
133.80199999999999
 30
0.0
 11
157.2289999999999
 21
133.33099999999999
 31
0.0
  0
LINE
  5
BC
  8
0
 62
     7
 10
156.4789999999999
 20
134.55199999999999
 30
0.0
 11
158.51699999999991
 21
134.55199999999999
 31
0.0
  0
ARC
  5
BD
  8
0
 62
     7
 10
156.4496189999999
 20
133.7728239999999
 30
0.0
 40
0.779871
 50
2.129982
 51
87.870007999999984
  0
LINE
  5
BE
  8
0
 62
     7
 10
157.417
 20
133.142
 30
0.0
 11
157.417
 21
132.73099999999991
 31
0.0
  0
ARC
  5
BF
  8
0
 62
     7
 10
159.28335399999989
 20
128.528897
 30
0.0
 40
0.442964
 50
0.198974
 51
38.243603999999991
  0
ARC
  5
C0
  8
0
 62
     7
 10
159.05753499999989
 20
128.379266
 30
0.0
 40
0.71329
 50
36.454802000000001
 51
53.079922000000003
  0
ARC
  5
C1
  8
0
 62
     7
 10
158.791371
 20
128.04207
 30
0.0
 40
1.1428
 50
52.566662000000008
 51
71.374821999999995
  0
ARC
  5
C2
  8
0
 62
     7
 10
158.54487999999989
 20
127.4147879999999
 30
0.0
 40
1.8162579999999999
 50
70.326056000000008
 51
90.887869999999992
  0
ARC
  5
C3
  8
0
 62
     7
 10
158.51635099999999
 20
127.2274639999999
 30
0.0
 40
2.0033629999999998
 50
89.988997999999995
 51
107.10402499999999
  0
ARC
  5
C4
  8
0
 62
     7
 10
158.341542
 20
127.8473069999999
 30
0.0
 40
1.359607
 50
107.74552199999999
 51
124.37578499999989
  0
ARC
  5
C5
  8
0
 62
     7
 10
158.0169689999999
 20
128.34502199999989
 30
0.0
 40
0.76567
 50
125.3585459999999
 51
147.61669900000001
  0
ARC
  5
C6
  8
0
 62
     7
 10
157.7648199999999
 20
128.522178
 30
0.0
 40
0.4580840000000001
 50
149.438109
 51
178.967187
  0
ARC
  5
C7
  8
0
 62
     7
 10
157.74903999999989
 20
128.53197800000001
 30
0.0
 40
0.442232
 50
180.19989000000001
 51
218.27651399999999
  0
ARC
  5
C8
  8
0
 62
     7
 10
157.975236
 20
128.682118
 30
0.0
 40
0.7131560000000001
 50
216.48831000000001
 51
233.10973499999989
  0
ARC
  5
C9
  8
0
 62
     7
 10
158.24147699999989
 20
129.0199209999999
 30
0.0
 40
1.1431919999999991
 50
232.600649
 51
251.40131600000001
  0
ARC
  5
CA
  8
0
 62
     7
 10
158.48822999999999
 20
129.64775800000001
 30
0.0
 40
1.8172499999999989
 50
250.341071
 51
270.89880299999987
  0
ARC
  5
CB
  8
0
 62
     7
 10
158.517109
 20
129.83468899999991
 30
0.0
 40
2.0039569999999989
 50
269.98933999999991
 51
287.09206699999987
  0
ARC
  5
CC
  8
0
 62
     7
 10
158.69198299999999
 20
129.21434600000001
 30
0.0
 40
1.359701
 50
287.73144200000002
 51
304.35444799999988
  0
ARC
  5
CD
  8
0
 62
     7
 10
159.01637700000001
 20
128.7164379999999
 30
0.0
 40
0.7657000000000001
 50
305.33980400000002
 51
327.58403099999992
  0
ARC
  5
CE
  8
0
 62
     7
 10
159.26875799999999
 20
128.538757
 30
0.0
 40
0.457634
 50
329.42506500000002
 51
358.95800500000001
  0
LINE
  5
CF
  8
0
 62
     7
 10
158.51699999999991
 20
137.68700000000001
 30
0.0
 11
158.51699999999991
 21
138.27199999999999
 31
0.0
  0
LINE
  5
D0
  8
0
 62
     7
 10
158.1939999999999
 20
137.68700000000001
 30
0.0
 11
158.1939999999999
 21
138.27199999999999
 31
0.0
  0
LINE
  5
D1
  8
0
 62
     7
 10
157.90399999999991
 20
137.68700000000001
 30
0.0
 11
157.90399999999991
 21
138.27199999999999
 31
0.0
  0
LINE
  5
D2
  8
0
 62
     7
 10
157.614
 20
137.68700000000001
 30
0.0
 11
157.614
 21
138.27199999999999
 31
0.0
  0
LINE
  5
D3
  8
0
 62
     7
 10
157.3189999999999
 20
137.68700000000001
 30
0.0
 11
157.3189999999999
 21
138.27199999999999
 31
0.0
  0
LINE
  5
D4
  8
0
 62
     7
 10
157.0749999999999
 20
137.68700000000001
 30
0.0
 11
157.0749999999999
 21
138.27199999999999
 31
0.0
  0
LINE
  5
D5
  8
0
 62
     7
 10
155.80699999999999
 20
137.68700000000001
 30
0.0
 11
155.80699999999999
 21
138.27199999999999
 31
0.0
  0
LINE
  5
D6
  8
0
 62
     7
 10
155.90700000000001
 20
137.68700000000001
 30
0.0
 11
155.90700000000001
 21
138.27199999999999
 31
0.0
  0
LINE
  5
D7
  8
0
 62
     7
 10
156.63599999999991
 20
137.68700000000001
 30
0.0
 11
156.63599999999991
 21
138.27199999999999
 31
0.0
  0
LINE
  5
D8
  8
0
 62
     7
 10
156.845
 20
137.68700000000001
 30
0.0
 11
156.845
 21
138.27199999999999
 31
0.0
  0
LINE
  5
D9
  8
0
 62
     7
 10
156.423
 20
137.68700000000001
 30
0.0
 11
156.423
 21
138.27199999999999
 31
0.0
  0
LINE
  5
DA
  8
0
 62
     7
 10
156.22999999999999
 20
137.68700000000001
 30
0.0
 11
156.22999999999999
 21
138.27199999999999
 31
0.0
  0
LINE
  5
DB
  8
0
 62
     7
 10
156.05299999999991
 20
137.68700000000001
 30
0.0
 11
156.05299999999991
 21
138.27199999999999
 31
0.0
  0
LINE
  5
DC
  8
0
 62
     7
 10
155.71399999999991
 20
137.68700000000001
 30
0.0
 11
155.54300000000001
 21
137.053
 31
0.0
  0
LINE
  5
DD
  8
0
 62
     7
 10
155.71399999999991
 20
137.68700000000001
 30
0.0
 11
158.51699999999991
 21
137.68700000000001
 31
0.0
  0
LINE
  5
DE
  8
0
 62
     7
 10
155.71399999999991
 20
137.68700000000001
 30
0.0
 11
155.71399999999991
 21
138.27199999999999
 31
0.0
  0
LINE
  5
DF
  8
0
 62
     7
 10
155.71399999999991
 20
138.27199999999999
 30
0.0
 11
158.51699999999991
 21
138.27199999999999
 31
0.0
  0
LINE
  5
E0
  8
0
 62
     7
 10
156.345
 20
138.8899999999999
 30
0.0
 11
158.51699999999991
 21
138.8899999999999
 31
0.0
  0
LINE
  5
E1
  8
0
 62
     7
 10
155.8549999999999
 20
138.27199999999999
 30
0.0
 11
155.8549999999999
 21
138.40000000000001
 31
0.0
  0
ARC
  5
E2
  8
0
 62
     7
 10
156.364261
 20
138.38101099999989
 30
0.0
 40
0.5095900000000001
 50
92.134818999999993
 51
177.824873
  0
ARC
  5
E3
  8
0
 62
     7
 10
158.52411599999991
 20
116.2177079999999
 30
0.0
 40
23.013089999999991
 50
89.044687999999994
 51
90.018365000000017
  0
ARC
  5
E4
  8
0
 62
     7
 10
158.79975999999999
 20
134.18234699999999
 30
0.0
 40
5.0464089999999988
 50
68.894785999999996
 51
88.773242000000025
  0
LINE
  5
E5
  8
0
 62
     7
 10
158.51699999999991
 20
126.2299999999999
 30
0.0
 11
155.71600000000001
 21
126.2299999999999
 31
0.0
  0
LINE
  5
E6
  8
0
 62
     7
 10
161.31700000000001
 20
126.23099999999999
 30
0.0
 11
158.51699999999991
 21
126.2299999999999
 31
0.0
  0
LINE
  5
E7
  8
0
 62
     7
 10
158.51699999999991
 20
129.43100000000001
 30
0.0
 11
155.935
 21
129.43100000000001
 31
0.0
  0
LINE
  5
E8
  8
0
 62
     7
 10
161.0989999999999
 20
126.9309999999999
 30
0.0
 11
158.51699999999991
 21
126.9309999999999
 31
0.0
  0
LINE
  5
E9
  8
0
 62
     7
 10
161.0989999999999
 20
127.631
 30
0.0
 11
158.51699999999991
 21
127.631
 31
0.0
  0
LINE
  5
EA
  8
0
 62
     7
 10
161.0989999999999
 20
129.43100000000001
 30
0.0
 11
158.51699999999991
 21
129.43100000000001
 31
0.0
  0
ARC
  5
EB
  8
0
 62
     7
 10
161.046817
 20
126.8211729999999
 30
0.0
 40
0.270147
 50
0.942969
 51
44.83813
  0
LINE
  5
EC
  8
0
 62
     7
 10
160.76599999999991
 20
129.93100000000001
 30
0.0
 11
160.71100000000001
 21
129.93100000000001
 31
0.0
  0
LINE
  5
ED
  8
0
 62
     7
 10
161.31700000000001
 20
126.82599999999999
 30
0.0
 11
161.31700000000001
 21
126.23099999999999
 31
0.0
  0
LINE
  5
EE
  8
0
 62
     7
 10
161.11699999999999
 20
129.58099999999999
 30
0.0
 11
161.11699999999999
 21
129.43100000000001
 31
0.0
  0
ARC
  5
EF
  8
0
 62
     7
 10
160.752734
 20
129.56683000000001
 30
0.0
 40
0.364301
 50
2.2056869999999988
 51
87.850668999999996
  0
LINE
  5
F0
  8
0
 62
     7
 10
159.91599999999991
 20
132.73099999999991
 30
0.0
 11
159.91599999999991
 21
130.83099999999999
 31
0.0
  0
LINE
  5
F1
  8
0
 62
     7
 10
158.51699999999991
 20
129.93100000000001
 30
0.0
 11
156.6939999999999
 21
129.93100000000001
 31
0.0
  0
LINE
  5
F2
  8
0
 62
     7
 10
160.339
 20
129.93100000000001
 30
0.0
 11
158.51699999999991
 21
129.93100000000001
 31
0.0
  0
ARC
  5
F3
  8
0
 62
     7
 10
160.727295
 20
130.72626
 30
0.0
 40
0.795546
 50
197.23590299999989
 51
268.84620200000001
  0
ARC
  5
F4
  8
0
 62
     7
 10
161.00878299999991
 20
130.82052200000001
 30
0.0
 40
1.0923439999999991
 50
179.46404799999991
 51
197.58329499999999
  0
LINE
  5
F5
  8
0
 62
     7
 10
163.31999999999991
 20
135.25700000000001
 30
0.0
 11
163.053
 21
134.93399999999991
 31
0.0
  0
LINE
  5
F6
  8
0
 62
     7
 10
163.053
 20
137.18700000000001
 30
0.0
 11
163.31999999999991
 21
136.864
 31
0.0
  0
LINE
  5
F7
  8
0
 62
     7
 10
161.6699999999999
 20
134.952
 30
0.0
 11
161.6699999999999
 21
135.19099999999989
 31
0.0
  0
LINE
  5
F8
  8
0
 62
     7
 10
161.27000000000001
 20
134.55199999999999
 30
0.0
 11
160.55500000000001
 21
134.55199999999999
 31
0.0
  0
ARC
  5
F9
  8
0
 62
     7
 10
161.25510800000001
 20
134.96745599999991
 30
0.0
 40
0.41557
 50
272.06370600000002
 51
357.88697499999989
  0
ARC
  5
FA
  8
0
 62
     7
 10
162.19897499999999
 20
134.18508299999999
 30
0.0
 40
1.1357749999999991
 50
41.221710999999999
 51
117.73552099999991
  0
LINE
  5
FB
  8
0
 62
     7
 10
163.053
 20
136.06
 30
0.0
 11
163.053
 21
134.93399999999991
 31
0.0
  0
ARC
  5
FC
  8
0
 62
     7
 10
163.482169
 20
136.06300899999999
 30
0.0
 40
2.010902999999999
 50
180.08337
 51
205.7135109999999
  0
ARC
  5
FD
  8
0
 62
     7
 10
163.47980399999989
 20
136.058672
 30
0.0
 40
2.008535999999999
 50
154.361895
 51
179.959731
  0
ARC
  5
FE
  8
0
 62
     7
 10
162.20191800000001
 20
137.94518600000001
 30
0.0
 40
1.142209
 50
232.358046
 51
318.18937599999992
  0
ARC
  5
FF
  8
0
 62
     7
 10
160.975222
 20
136.44993099999999
 30
0.0
 40
0.793107
 50
48.152639000000001
 51
49.47549999999999
  0
LINE
  5
100
  8
0
 62
     7
 10
163.31999999999991
 20
136.864
 30
0.0
 11
163.31999999999991
 21
135.25700000000001
 31
0.0
  0
ARC
  5
101
  8
0
 62
     7
 10
158.55575999999999
 20
136.06008299999999
 30
0.0
 40
7.0137580000000002
 50
353.88551399999989
 51
6.1144859999999994
  0
ARC
  5
102
  8
0
 62
     7
 10
164.3903479999999
 20
136.130965
 30
0.0
 40
1.40219
 50
238.52508900000001
 51
324.340127
  0
ARC
  5
103
  8
0
 62
     7
 10
164.4136959999999
 20
136.06854299999989
 30
0.0
 40
1.362155999999999
 50
216.58480499999999
 51
236.316035
  0
ARC
  5
104
  8
0
 62
     7
 10
164.415817
 20
135.9879249999999
 30
0.0
 40
1.402819
 50
55.591707999999997
 51
141.37166199999999
  0
ARC
  5
105
  8
0
 62
     7
 10
164.41220200000001
 20
136.068365
 30
0.0
 40
1.339372999999999
 50
33.458877000000001
 51
53.519157999999997
  0
LINE
  5
106
  8
0
 62
     7
 10
163.053
 20
137.18700000000001
 30
0.0
 11
163.053
 21
136.06
 31
0.0
  0
LINE
  5
107
  8
0
 62
     7
 10
159.61600000000001
 20
133.142
 30
0.0
 11
158.51699999999991
 21
133.142
 31
0.0
  0
LINE
  5
108
  8
0
 62
     7
 10
159.80500000000001
 20
133.33099999999999
 30
0.0
 11
159.61600000000001
 21
133.142
 31
0.0
  0
LINE
  5
109
  8
0
 62
     7
 10
159.91599999999991
 20
132.73099999999991
 30
0.0
 11
158.51699999999991
 21
132.73099999999991
 31
0.0
  0
LINE
  5
10A
  8
0
 62
     7
 10
159.80500000000001
 20
133.33099999999999
 30
0.0
 11
158.51699999999991
 21
133.33099999999999
 31
0.0
  0
LINE
  5
10B
  8
0
 62
     7
 10
159.80500000000001
 20
133.80199999999999
 30
0.0
 11
159.80500000000001
 21
133.33099999999999
 31
0.0
  0
LINE
  5
10C
  8
0
 62
     7
 10
160.55500000000001
 20
134.55199999999999
 30
0.0
 11
158.51699999999991
 21
134.55199999999999
 31
0.0
  0
ARC
  5
10D
  8
0
 62
     7
 10
160.554867
 20
133.80180899999999
 30
0.0
 40
0.750347
 50
90.0
 51
179.99996999999991
  0
LINE
  5
10E
  8
0
 62
     7
 10
159.61600000000001
 20
133.142
 30
0.0
 11
159.61600000000001
 21
132.73099999999991
 31
0.0
  0
ARC
  5
10F
  8
0
 62
     7
 10
158.56793500000001
 20
136.00852699999999
 30
0.0
 40
1.4026329999999989
 50
92.091865999999996
 51
177.893486
  0
ARC
  5
110
  8
0
 62
     7
 10
158.46520299999989
 20
136.00855100000001
 30
0.0
 40
1.402620999999999
 50
2.105534
 51
87.894456000000005
  0
ARC
  5
111
  8
0
 62
     7
 10
158.51673500000001
 20
136.06008299999999
 30
0.0
 40
1.3501419999999991
 50
270.00002000000001
 51
359.99998999999991
  0
ARC
  5
112
  8
0
 62
     7
 10
158.51656299999991
 20
136.06025500000001
 30
0.0
 40
1.350312999999999
 50
180.00731899999991
 51
270.00732900000003
  0
ARC
  5
113
  8
0
 62
     7
 10
158.5469929999999
 20
136.02982600000001
 30
0.0
 40
0.8204360000000001
 50
92.113515000000021
 51
177.88645600000001
  0
ARC
  5
114
  8
0
 62
     7
 10
158.48647800000001
 20
136.02982600000001
 30
0.0
 40
0.820437
 50
2.1135419999999989
 51
87.886448000000001
  0
ARC
  5
115
  8
0
 62
     7
 10
158.486817
 20
136.09036
 30
0.0
 40
0.820099
 50
272.09075300000001
 51
357.884253
  0
ARC
  5
116
  8
0
 62
     7
 10
158.54696899999999
 20
136.09067400000001
 30
0.0
 40
0.820425
 50
182.13689500000001
 51
267.88813900000002
  0
LINE
  5
117
  8
0
 62
     7
 10
158.84
 20
137.68700000000001
 30
0.0
 11
158.84
 21
138.27199999999999
 31
0.0
  0
LINE
  5
118
  8
0
 62
     7
 10
159.12999999999991
 20
137.68700000000001
 30
0.0
 11
159.12999999999991
 21
138.27199999999999
 31
0.0
  0
LINE
  5
119
  8
0
 62
     7
 10
159.4189999999999
 20
137.68700000000001
 30
0.0
 11
159.4189999999999
 21
138.27199999999999
 31
0.0
  0
LINE
  5
11A
  8
0
 62
     7
 10
159.715
 20
137.68700000000001
 30
0.0
 11
159.715
 21
138.27199999999999
 31
0.0
  0
LINE
  5
11B
  8
0
 62
     7
 10
159.958
 20
137.68700000000001
 30
0.0
 11
159.958
 21
138.27199999999999
 31
0.0
  0
LINE
  5
11C
  8
0
 62
     7
 10
161.226
 20
137.68700000000001
 30
0.0
 11
161.226
 21
138.27199999999999
 31
0.0
  0
LINE
  5
11D
  8
0
 62
     7
 10
161.126
 20
137.68700000000001
 30
0.0
 11
161.126
 21
138.27199999999999
 31
0.0
  0
LINE
  5
11E
  8
0
 62
     7
 10
160.39699999999999
 20
137.68700000000001
 30
0.0
 11
160.39699999999999
 21
138.27199999999999
 31
0.0
  0
LINE
  5
11F
  8
0
 62
     7
 10
160.1879999999999
 20
137.68700000000001
 30
0.0
 11
160.1879999999999
 21
138.27199999999999
 31
0.0
  0
LINE
  5
120
  8
0
 62
     7
 10
160.61000000000001
 20
137.68700000000001
 30
0.0
 11
160.61000000000001
 21
138.27199999999999
 31
0.0
  0
LINE
  5
121
  8
0
 62
     7
 10
160.803
 20
137.68700000000001
 30
0.0
 11
160.803
 21
138.27199999999999
 31
0.0
  0
LINE
  5
122
  8
0
 62
     7
 10
160.9799999999999
 20
137.68700000000001
 30
0.0
 11
160.9799999999999
 21
138.27199999999999
 31
0.0
  0
LINE
  5
123
  8
0
 62
     7
 10
161.3189999999999
 20
137.68700000000001
 30
0.0
 11
161.49000000000001
 21
137.053
 31
0.0
  0
LINE
  5
124
  8
0
 62
     7
 10
161.3189999999999
 20
137.68700000000001
 30
0.0
 11
158.51699999999991
 21
137.68700000000001
 31
0.0
  0
LINE
  5
125
  8
0
 62
     7
 10
161.3189999999999
 20
137.68700000000001
 30
0.0
 11
161.3189999999999
 21
138.27199999999999
 31
0.0
  0
LINE
  5
126
  8
0
 62
     7
 10
161.3189999999999
 20
138.27199999999999
 30
0.0
 11
158.51699999999991
 21
138.27199999999999
 31
0.0
  0
LINE
  5
127
  8
0
 62
     7
 10
160.6879999999999
 20
138.8899999999999
 30
0.0
 11
158.51699999999991
 21
138.8899999999999
 31
0.0
  0
LINE
  5
128
  8
0
 62
     7
 10
161.17799999999991
 20
138.27199999999999
 30
0.0
 11
161.17799999999991
 21
138.40000000000001
 31
0.0
  0
ARC
  5
129
  8
0
 62
     7
 10
160.66887600000001
 20
138.381021
 30
0.0
 40
0.509579
 50
2.1739820000000001
 51
87.866286999999986
  0
LINE
  5
12A
  8
0
 62
     7
 10
156.71700000000001
 20
143.25499999999991
 30
0.0
 11
156.71700000000001
 21
138.99199999999999
 31
0.0
  0
LINE
  5
12B
  8
0
  6
AIGENLINE001
 62
     7
 10
71.777000000000001
 20
108.831
 30
0.0
 11
60.245800000000003
 21
108.831
 31
0.0
  0
ARC
  5
12C
  8
0
  6
AIGENLINE001
 62
     7
 10
62.651694999999989
 20
102.398988
 30
0.0
 40
8.1297899999999998
 50
338.33378699999997
 51
359.97978699999987
  0
ARC
  5
12D
  8
0
  6
AIGENLINE001
 62
     7
 10
63.958362000000001
 20
101.9539509999999
 30
0.0
 40
6.7514830000000003
 50
320.78220099999999
 51
337.7497009999999
  0
ARC
  5
12E
  8
0
  6
AIGENLINE001
 62
     7
 10
65.059216000000006
 20
101.12442900000001
 30
0.0
 40
5.3743800000000004
 50
303.25460699999991
 51
320.21325999999999
  0
ARC
  5
12F
  8
0
  6
AIGENLINE001
 62
     7
 10
65.699282999999994
 20
100.2336949999999
 30
0.0
 40
4.2787800000000002
 50
275.46855199999987
 51
302.62781100000001
  0
ARC
  5
130
  8
0
  6
AIGENLINE001
 62
     7
 10
65.786762999999993
 20
99.895437000000001
 30
0.0
 40
3.934107
 50
269.992345
 51
274.66975000000002
  0
ARC
  5
131
  8
0
  6
AIGENLINE001
 62
     7
 10
65.793797999999995
 20
99.995277999999999
 30
0.0
 40
4.033955999999999
 50
238.3208459999999
 51
269.89261800000003
  0
ARC
  5
132
  8
0
  6
AIGENLINE001
 62
     7
 10
66.233993999999996
 20
100.80381800000001
 30
0.0
 40
4.9534519999999986
 50
220.58337999999989
 51
238.89927299999999
  0
ARC
  5
133
  8
0
  6
AIGENLINE001
 62
     7
 10
67.180127999999996
 20
101.689986
 30
0.0
 40
6.2487669999999991
 50
202.877351
 51
221.11059800000001
  0
ARC
  5
134
  8
0
  6
AIGENLINE001
 62
     7
 10
68.438411999999985
 20
102.295709
 30
0.0
 40
7.6438639999999989
 50
182.345787
 51
203.393854
  0
ARC
  5
135
  8
0
  6
AIGENLINE001
 62
     7
 10
69.204331999999994
 20
102.395713
 30
0.0
 40
8.4135150000000003
 50
179.997208
 51
182.81276099999991
  0
ARC
  5
136
  8
0
  6
AIGENLINE001
 62
     7
 10
68.918818000000002
 20
102.39326199999989
 30
0.0
 40
8.1280020000000004
 50
158.33063599999991
 51
179.97983699999989
  0
ARC
  5
137
  8
0
  6
AIGENLINE001
 62
     7
 10
67.612100999999996
 20
102.8388419999999
 30
0.0
 40
6.7494469999999991
 50
140.77744300000001
 51
157.74985799999999
  0
ARC
  5
138
  8
0
  6
AIGENLINE001
 62
     7
 10
66.514367000000007
 20
103.66591699999999
 30
0.0
 40
5.3763139999999989
 50
123.25569299999989
 51
140.20831799999991
  0
ARC
  5
139
  8
0
  6
AIGENLINE001
 62
     7
 10
65.873215999999999
 20
104.557935
 30
0.0
 40
4.2790460000000001
 50
95.468530999999984
 51
122.62651099999999
  0
ARC
  5
13A
  8
0
  6
AIGENLINE001
 62
     7
 10
65.785709999999995
 20
104.89645899999999
 30
0.0
 40
3.934107
 50
89.992324999999994
 51
94.669730000000015
  0
ARC
  5
13B
  8
0
  6
AIGENLINE001
 62
     7
 10
74.91130600000001
 20
102.3989849999999
 30
0.0
 40
8.1297750000000004
 50
180.0202129999999
 51
201.66625300000001
  0
ARC
  5
13C
  8
0
  6
AIGENLINE001
 62
     7
 10
73.604654000000011
 20
101.9539509999999
 30
0.0
 40
6.7514830000000003
 50
202.25031899999999
 51
219.21781899999999
  0
ARC
  5
13D
  8
0
  6
AIGENLINE001
 62
     7
 10
72.503799000000001
 20
101.12442900000001
 30
0.0
 40
5.3743800000000004
 50
219.78675999999999
 51
236.74541300000001
  0
ARC
  5
13E
  8
0
  6
AIGENLINE001
 62
     7
 10
71.863732999999996
 20
100.2336949999999
 30
0.0
 40
4.2787800000000002
 50
237.372209
 51
264.53146700000002
  0
ARC
  5
13F
  8
0
  6
AIGENLINE001
 62
     7
 10
71.776252999999997
 20
99.895437000000001
 30
0.0
 40
3.934107
 50
265.33026999999998
 51
270.00767500000001
  0
ARC
  5
140
  8
0
  6
AIGENLINE001
 62
     7
 10
71.769218000000009
 20
99.995277999999999
 30
0.0
 40
4.033955999999999
 50
270.10740099999992
 51
301.67917399999999
  0
ARC
  5
141
  8
0
  6
AIGENLINE001
 62
     7
 10
71.329021999999995
 20
100.80381800000001
 30
0.0
 40
4.9534519999999986
 50
301.10074700000001
 51
319.41663999999992
  0
ARC
  5
142
  8
0
  6
AIGENLINE001
 62
     7
 10
70.382886999999997
 20
101.689986
 30
0.0
 40
6.2487669999999991
 50
318.88942200000002
 51
337.12266899999992
  0
ARC
  5
143
  8
0
  6
AIGENLINE001
 62
     7
 10
69.124604000000005
 20
102.295709
 30
0.0
 40
7.6438639999999989
 50
336.60616599999997
 51
357.65423299999998
  0
ARC
  5
144
  8
0
  6
AIGENLINE001
 62
     7
 10
68.358564999999999
 20
102.39571599999999
 30
0.0
 40
8.4136340000000001
 50
357.18727799999999
 51
0.002752
  0
ARC
  5
145
  8
0
  6
AIGENLINE001
 62
     7
 10
68.644182999999998
 20
102.3932599999999
 30
0.0
 40
8.1280160000000006
 50
0.020163
 51
21.669325000000001
  0
ARC
  5
146
  8
0
  6
AIGENLINE001
 62
     7
 10
69.950914999999995
 20
102.8388419999999
 30
0.0
 40
6.7494469999999991
 50
22.250122000000001
 51
39.222537000000003
  0
ARC
  5
147
  8
0
  6
AIGENLINE001
 62
     7
 10
71.048648999999983
 20
103.66591699999999
 30
0.0
 40
5.3763139999999989
 50
39.791662000000002
 51
56.744287
  0
ARC
  5
148
  8
0
  6
AIGENLINE001
 62
     7
 10
71.689800000000005
 20
104.557935
 30
0.0
 40
4.2790460000000001
 50
57.373468999999993
 51
84.531448999999995
  0
ARC
  5
149
  8
0
  6
AIGENLINE001
 62
     7
 10
71.777304999999998
 20
104.89645899999999
 30
0.0
 40
3.934107
 50
85.330250000000007
 51
90.007654999999986
  0
LINE
  5
14A
  8
0
  6
AIGENLINE001
 62
     7
 10
77.317400000000006
 20
108.831
 30
0.0
 11
65.786199999999994
 21
108.831
 31
0.0
  0
LINE
  5
14B
  8
0
 62
     7
 10
66.081999999999994
 20
123.03100000000001
 30
0.0
 11
66.081999999999994
 21
117.6309999999999
 31
0.0
  0
LINE
  5
14C
  8
0
 62
     7
 10
66.081999999999994
 20
116.73099999999999
 30
0.0
 11
66.081999999999994
 21
111.0659999999999
 31
0.0
  0
ARC
  5
14D
  8
0
 62
     7
 10
67.883156999999997
 20
112.40291999999999
 30
0.0
 40
1.5142420000000001
 50
269.94599399999998
 51
284.70683799999989
  0
ARC
  5
14E
  8
0
 62
     7
 10
67.401246999999984
 20
111.13624899999991
 30
0.0
 40
0.138877
 50
210.50277799999989
 51
223.9862
  0
ARC
  5
14F
  8
0
 62
     7
 10
67.473714000000001
 20
111.20546999999991
 30
0.0
 40
0.239092
 50
223.86106099999989
 51
237.09953100000001
  0
ARC
  5
150
  8
0
 62
     7
 10
67.581521999999993
 20
111.3695
 30
0.0
 40
0.435375
 50
236.9127859999999
 51
246.69395999999989
  0
ARC
  5
151
  8
0
 62
     7
 10
67.701893999999996
 20
111.64577300000001
 30
0.0
 40
0.7367300000000001
 50
246.5971339999999
 51
254.166067
  0
ARC
  5
152
  8
0
 62
     7
 10
67.854433999999998
 20
112.19867499999999
 30
0.0
 40
1.310281
 50
254.34567599999991
 51
271.19365800000003
  0
ARC
  5
153
  8
0
 62
     7
 10
66.682526999999993
 20
112.41903000000001
 30
0.0
 40
1.530351999999999
 50
269.97260899999992
 51
283.99942099999998
  0
ARC
  5
154
  8
0
 62
     7
 10
66.889256000000003
 20
111.5534659999999
 30
0.0
 40
0.640547
 50
284.78669300000001
 51
301.05462
  0
ARC
  5
155
  8
0
 62
     7
 10
67.109166000000002
 20
111.17873400000001
 30
0.0
 40
0.20614
 50
302.42105699999991
 51
326.76611800000001
  0
ARC
  5
156
  8
0
 62
     7
 10
66.201956999999993
 20
111.13616399999989
 30
0.0
 40
0.139092
 50
210.41027500000001
 51
223.8524689999999
  0
ARC
  5
157
  8
0
 62
     7
 10
66.273143999999988
 20
111.2040419999999
 30
0.0
 40
0.237453
 50
223.763148
 51
237.07622799999999
  0
ARC
  5
158
  8
0
 62
     7
 10
66.381339999999994
 20
111.368426
 30
0.0
 40
0.434246
 50
236.88189
 51
246.68163799999999
  0
ARC
  5
159
  8
0
 62
     7
 10
66.501548
 20
111.644136
 30
0.0
 40
0.7350210000000002
 50
246.58398199999991
 51
254.16856799999999
  0
ARC
  5
15A
  8
0
 62
     7
 10
66.654677000000007
 20
112.19924899999999
 30
0.0
 40
1.3108580000000001
 50
254.348602
 51
271.20043199999992
  0
ARC
  5
15B
  8
0
 62
     7
 10
66.682529000000002
 20
109.71425000000001
 30
0.0
 40
1.528931
 50
75.987379000000004
 51
90.027484999999999
  0
ARC
  5
15C
  8
0
 62
     7
 10
66.889518999999993
 20
110.5799729999999
 30
0.0
 40
0.6389110000000001
 50
58.884525999999987
 51
75.198956999999993
  0
ARC
  5
15D
  8
0
 62
     7
 10
67.109080000000006
 20
110.953183
 30
0.0
 40
0.205992
 50
33.12705600000001
 51
57.524299999999997
  0
ARC
  5
15E
  8
0
 62
     7
 10
66.201926999999998
 20
110.99569099999989
 30
0.0
 40
0.138895
 50
136.2149639999999
 51
149.70489499999991
  0
ARC
  5
15F
  8
0
 62
     7
 10
66.273131000000006
 20
110.9280629999999
 30
0.0
 40
0.237096
 50
122.976023
 51
136.32264199999989
  0
ARC
  5
160
  8
0
 62
     7
 10
66.381079
 20
110.764601
 30
0.0
 40
0.432982
 50
113.3529149999999
 51
123.186087
  0
ARC
  5
161
  8
0
 62
     7
 10
66.501075999999998
 20
110.490112
 30
0.0
 40
0.7325520000000001
 50
105.847801
 51
113.4593959999999
  0
ARC
  5
162
  8
0
 62
     7
 10
66.654505
 20
109.93509399999991
 30
0.0
 40
1.308378
 50
88.789732000000001
 51
105.67397699999999
  0
LINE
  5
163
  8
0
 62
     7
 10
69.581400000000002
 20
123.03100000000001
 30
0.0
 11
69.581400000000002
 21
117.6309999999999
 31
0.0
  0
LINE
  5
164
  8
0
 62
     7
 10
69.581400000000002
 20
116.73099999999999
 30
0.0
 11
69.581400000000002
 21
111.0659999999999
 31
0.0
  0
LINE
  5
165
  8
0
 62
     7
 10
71.9816
 20
123.03100000000001
 30
0.0
 11
71.9816
 21
117.6309999999999
 31
0.0
  0
LINE
  5
166
  8
0
 62
     7
 10
71.9816
 20
116.73099999999999
 30
0.0
 11
71.9816
 21
111.0659999999999
 31
0.0
  0
ARC
  5
167
  8
0
 62
     7
 10
68.023792
 20
129.08476200000001
 30
0.0
 40
0.4409290000000001
 50
180.20252999999991
 51
218.1793569999999
  0
ARC
  5
168
  8
0
 62
     7
 10
68.248063000000002
 20
129.23323799999989
 30
0.0
 40
0.7093390000000001
 50
216.4089799999999
 51
233.0118359999999
  0
ARC
  5
169
  8
0
 62
     7
 10
68.511429000000007
 20
129.56633299999999
 30
0.0
 40
1.133899999999999
 50
232.5085969999999
 51
251.320413
  0
ARC
  5
16A
  8
0
 62
     7
 10
68.754772000000003
 20
130.18396699999991
 30
0.0
 40
1.797234999999999
 50
250.27750900000001
 51
270.88257900000002
  0
ARC
  5
16B
  8
0
 62
     7
 10
68.782791000000003
 20
130.36955599999999
 30
0.0
 40
1.9826099999999991
 50
269.990295
 51
287.14552099999992
  0
ARC
  5
16C
  8
0
 62
     7
 10
68.955153999999993
 20
129.759343
 30
0.0
 40
1.348789
 50
287.79069299999998
 51
304.42907699999989
  0
ARC
  5
16D
  8
0
 62
     7
 10
69.276612999999998
 20
129.26704399999991
 30
0.0
 40
0.7610940000000001
 50
305.42213099999992
 51
327.66126799999989
  0
ARC
  5
16E
  8
0
 62
     7
 10
69.527168000000003
 20
129.09133799999989
 30
0.0
 40
0.455638
 50
329.475707
 51
358.97713799999991
  0
ARC
  5
16F
  8
0
 62
     7
 10
68.736903999999996
 20
129.037295
 30
0.0
 40
1.2466749999999991
 50
2.1103849999999991
 51
87.906051999999988
  0
ARC
  5
170
  8
0
 62
     7
 10
68.828362999999996
 20
129.037654
 30
0.0
 40
1.246329999999999
 50
92.110927000000004
 51
177.905495
  0
ARC
  5
171
  8
0
 62
     7
 10
68.557112000000004
 20
128.8174149999999
 30
0.0
 40
1.264224999999999
 50
121.180733
 51
142.3605969999999
  0
ARC
  5
172
  8
0
 62
     7
 10
68.273268999999999
 20
129.0842669999999
 30
0.0
 40
0.877317
 50
144.84131099999999
 51
219.86635699999999
  0
ARC
  5
173
  8
0
 62
     7
 10
68.459226000000001
 20
129.25196800000001
 30
0.0
 40
1.127583
 50
220.350043
 51
227.24834299999989
  0
ARC
  5
174
  8
0
 62
     7
 10
68.591897000000003
 20
129.39448399999989
 30
0.0
 40
1.3222929999999991
 50
227.219021
 51
248.486323
  0
ARC
  5
175
  8
0
 62
     7
 10
68.777518999999984
 20
129.83833499999989
 30
0.0
 40
1.803318999999999
 50
248.17115799999999
 51
299.40920299999999
  0
ARC
  5
176
  8
0
 62
     7
 10
69.007891000000001
 20
129.34603300000001
 30
0.0
 40
1.2620039999999999
 50
301.27352300000001
 51
322.97467599999987
  0
ARC
  5
177
  8
0
 62
     7
 10
69.295045999999999
 20
129.104916
 30
0.0
 40
0.88777
 50
324.23877799999991
 51
358.59860999999989
  0
ARC
  5
178
  8
0
 62
     7
 10
69.358327000000003
 20
129.08147899999989
 30
0.0
 40
0.8242259999999999
 50
0.119883
 51
34.500093
  0
ARC
  5
179
  8
0
 62
     7
 10
69.103575000000006
 20
128.926073
 30
0.0
 40
1.122314
 50
33.672026999999993
 51
60.100417999999991
  0
LINE
  5
17A
  8
0
 62
     7
 10
69.482500000000002
 20
128.17500000000001
 30
0.0
 11
69.482500000000002
 21
127.52799999999991
 31
0.0
  0
LINE
  5
17B
  8
0
 62
     7
 10
68.083100000000002
 20
128.17500000000001
 30
0.0
 11
68.083100000000002
 21
127.52799999999991
 31
0.0
  0
ARC
  5
17C
  8
0
 62
     7
 10
68.547375999999986
 20
125.8779209999999
 30
0.0
 40
0.265843
 50
180.19721799999999
 51
216.44271900000001
  0
ARC
  5
17D
  8
0
 62
     7
 10
68.645981999999989
 20
125.94282
 30
0.0
 40
0.38377
 50
215.49240099999989
 51
236.930691
  0
ARC
  5
17E
  8
0
 62
     7
 10
68.762885999999995
 20
126.11565399999991
 30
0.0
 40
0.5924070000000001
 50
236.57673699999989
 51
271.79301299999992
  0
ARC
  5
17F
  8
0
 62
     7
 10
68.78035899999999
 20
126.190907
 30
0.0
 40
0.6673710000000001
 50
270.09122100000002
 51
299.941079
  0
ARC
  5
180
  8
0
 62
     7
 10
68.905073999999999
 20
125.95005
 30
0.0
 40
0.396599
 50
301.69570299999992
 51
332.64931100000001
  0
ARC
  5
181
  8
0
 62
     7
 10
69.017876999999984
 20
125.87846499999991
 30
0.0
 40
0.26378
 50
335.20382599999999
 51
359.68292700000001
  0
ARC
  5
182
  8
0
 62
     7
 10
68.461444
 20
127.5297249999999
 30
0.0
 40
0.378352
 50
180.27545499999991
 51
221.941947
  0
ARC
  5
183
  8
0
 62
     7
 10
68.636305000000007
 20
127.6641799999999
 30
0.0
 40
0.598522
 50
220.32757699999991
 51
246.58557200000001
  0
ARC
  5
184
  8
0
 62
     7
 10
68.769204000000002
 20
127.92106099999999
 30
0.0
 40
0.887284
 50
245.30192
 51
270.85570300000001
  0
ARC
  5
185
  8
0
 62
     7
 10
68.781586000000004
 20
127.982865
 30
0.0
 40
0.9489889999999999
 50
270.05251299999992
 51
295.8021589999999
  0
ARC
  5
186
  8
0
 62
     7
 10
68.906941000000003
 20
127.69290100000001
 30
0.0
 40
0.633512
 50
297.00996700000002
 51
321.40233599999999
  0
ARC
  5
187
  8
0
 62
     7
 10
69.082265000000007
 20
127.53859299999991
 30
0.0
 40
0.400381
 50
323.00865199999993
 51
358.47046699999993
  0
LINE
  5
188
  8
0
 62
     7
 10
69.281999999999996
 20
127.181
 30
0.0
 11
69.281999999999996
 21
125.8779999999999
 31
0.0
  0
LINE
  5
189
  8
0
 62
     7
 10
68.281499999999994
 20
127.18300000000001
 30
0.0
 11
68.281499999999994
 21
125.877
 31
0.0
  0
ARC
  5
18A
  8
0
 62
     7
 10
68.819388000000004
 20
228.62341599999999
 30
0.0
 40
32.124974000000002
 50
269.93229700000001
 51
290.21276699999999
  0
ARC
  5
18B
  8
0
 62
     7
 10
68.795631999999983
 20
228.91653299999999
 30
0.0
 40
32.418070999999998
 50
249.846284
 51
269.974895
  0
ARC
  5
18C
  8
0
 62
     7
 10
68.801577000000009
 20
228.69463399999989
 30
0.0
 40
6.1800249999999988
 50
90.0
 51
179.99996999999991
  0
ARC
  5
18D
  8
0
 62
     7
 10
68.801575
 20
228.69463399999989
 30
0.0
 40
6.1800249999999988
 50
0.00001
 51
89.999980000000008
  0
ARC
  5
18E
  8
0
 62
     7
 10
155.06885700000001
 20
125.302733
 30
0.0
 40
0.9277760000000001
 50
90.489031000000026
 51
143.580479
  0
ARC
  5
18F
  8
0
 62
     7
 10
154.850886
 20
125.502149
 30
0.0
 40
0.634744
 50
146.385301
 51
179.25110000000001
  0
ARC
  5
190
  8
0
 62
     7
 10
161.96357
 20
125.30337299999999
 30
0.0
 40
0.9271360000000001
 50
36.399524
 51
89.509956000000003
  0
ARC
  5
191
  8
0
 62
     7
 10
162.18128200000001
 20
125.5021889999999
 30
0.0
 40
0.6346689999999999
 50
0.7453840000000001
 51
33.614893000000002
  0
ARC
  5
192
  8
0
 62
     7
 10
154.823148
 20
130.79965799999991
 30
0.0
 40
0.8282069999999999
 50
300.80752699999988
 51
329.22037999999998
  0
ARC
  5
193
  8
0
 62
     7
 10
154.515457
 20
131.01105799999999
 30
0.0
 40
1.2009819999999991
 50
328.06743399999999
 51
1.1439669999999991
  0
ARC
  5
194
  8
0
 62
     7
 10
156.01321200000001
 20
128.72375199999991
 30
0.0
 40
1.5627779999999989
 50
120.541397
 51
146.41083499999999
  0
ARC
  5
195
  8
0
 62
     7
 10
156.485029
 20
128.36562099999989
 30
0.0
 40
2.154266999999999
 50
145.418544
 51
169.12508500000001
  0
ARC
  5
196
  8
0
 62
     7
 10
156.88248899999991
 20
128.2524699999999
 30
0.0
 40
2.566190999999999
 50
168.31833399999999
 51
198.77708200000001
  0
ARC
  5
197
  8
0
 62
     7
 10
156.47729699999991
 20
128.13109299999991
 30
0.0
 40
2.1435509999999991
 50
199.1916129999999
 51
220.20186399999989
  0
ARC
  5
198
  8
0
 62
     7
 10
156.0417149999999
 20
127.79992799999999
 30
0.0
 40
1.5973520000000001
 50
221.21434799999989
 51
238.8867799999999
  0
LINE
  5
199
  8
0
 62
     7
 10
155.71600000000001
 20
132.23099999999991
 30
0.0
 11
155.71600000000001
 21
131.03499999999991
 31
0.0
  0
LINE
  5
19A
  8
0
 62
     7
 10
161.316
 20
132.23099999999991
 30
0.0
 11
161.316
 21
131.03499999999991
 31
0.0
  0
ARC
  5
19B
  8
0
 62
     7
 10
162.20850899999999
 20
130.797551
 30
0.0
 40
0.827358
 50
210.75592900000001
 51
239.19258799999989
  0
ARC
  5
19C
  8
0
 62
     7
 10
162.51754099999991
 20
131.00948500000001
 30
0.0
 40
1.201546999999999
 50
178.84723399999999
 51
211.904831
  0
ARC
  5
19D
  8
0
 62
     7
 10
161.01888099999991
 20
128.72237399999989
 30
0.0
 40
1.5627779999999989
 50
33.589145000000002
 51
59.458582999999997
  0
ARC
  5
19E
  8
0
 62
     7
 10
160.54791999999989
 20
128.364462
 30
0.0
 40
2.1534379999999991
 50
10.87319499999999
 51
34.589565
  0
ARC
  5
19F
  8
0
 62
     7
 10
160.14874
 20
128.2506239999999
 30
0.0
 40
2.5671840000000001
 50
341.24151000000001
 51
11.68773399999999
  0
ARC
  5
1A0
  8
0
 62
     7
 10
160.556781
 20
128.129142
 30
0.0
 40
2.1418140000000001
 50
319.77892500000002
 51
340.80844500000001
  0
ARC
  5
1A1
  8
0
 62
     7
 10
160.989138
 20
127.79986699999991
 30
0.0
 40
1.599299
 50
301.13747899999998
 51
318.7840369999999
  0
ARC
  5
1A2
  8
0
 62
     7
 10
72.474102000000002
 20
130.79929599999991
 30
0.0
 40
0.827608
 50
210.77515099999991
 51
239.213078
  0
ARC
  5
1A3
  8
0
 62
     7
 10
72.782851000000008
 20
131.01106899999991
 30
0.0
 40
1.2014769999999999
 50
178.85702800000001
 51
211.91852299999991
  0
ARC
  5
1A4
  8
0
 62
     7
 10
71.286671999999996
 20
128.72725799999989
 30
0.0
 40
1.5586180000000001
 50
34.331650000000003
 51
59.464125999999993
  0
ARC
  5
1A5
  8
0
 62
     7
 10
70.818207000000001
 20
128.367559
 30
0.0
 40
2.1485849999999989
 50
10.850512
 51
35.207137000000003
  0
ARC
  5
1A6
  8
0
 62
     7
 10
70.414459999999991
 20
128.25212400000001
 30
0.0
 40
2.5671159999999991
 50
341.23404199999999
 51
11.684519999999999
  0
ARC
  5
1A7
  8
0
 62
     7
 10
70.820615000000004
 20
128.13168999999991
 30
0.0
 40
2.1438719999999991
 50
319.78563500000001
 51
340.78961299999992
  0
ARC
  5
1A8
  8
0
 62
     7
 10
71.255187000000006
 20
127.80062100000001
 30
0.0
 40
1.598504999999999
 50
301.13366300000001
 51
318.79040600000002
  0
LINE
  5
1A9
  8
0
 62
     7
 10
161.6399999999999
 20
133.63900000000001
 30
0.0
 11
161.6399999999999
 21
134.80000000000001
 31
0.0
  0
LINE
  5
1AA
  8
0
 62
     7
 10
155.393
 20
133.63900000000001
 30
0.0
 11
155.393
 21
134.80099999999999
 31
0.0
  0
LINE
  5
1AB
  8
0
 62
     7
 10
161.416
 20
133.23099999999991
 30
0.0
 11
161.6399999999999
 21
133.63900000000001
 31
0.0
  0
LINE
  5
1AC
  8
0
 62
     7
 10
155.61699999999999
 20
133.23099999999991
 30
0.0
 11
155.393
 21
133.63900000000001
 31
0.0
  0
ARC
  5
1AD
  8
0
 62
     7
 10
70.876280000000008
 20
134.8291429999999
 30
0.0
 40
1.1049869999999999
 50
346.50465800000001
 51
29.779523999999991
  0
LINE
  5
1AE
  8
0
 62
     7
 10
71.681700000000006
 20
133.23099999999991
 30
0.0
 11
71.969399999999993
 21
134.66499999999991
 31
0.0
  0
LINE
  5
1AF
  8
0
 62
     7
 10
70.781700000000001
 20
136.83099999999999
 30
0.0
 11
71.835300000000004
 21
135.3779999999999
 31
0.0
  0
ARC
  5
1B0
  8
0
 62
     7
 10
66.687078999999997
 20
134.8291429999999
 30
0.0
 40
1.1049869999999999
 50
150.220437
 51
193.4953809999999
  0
LINE
  5
1B1
  8
0
 62
     7
 10
46.680999999999997
 20
102.63200000000001
 30
0.0
 11
46.680999999999997
 21
96.721000000000004
 31
0.0
  0
LINE
  5
1B2
  8
0
 62
     7
 10
50.881999999999998
 20
102.63200000000001
 30
0.0
 11
50.881999999999998
 21
96.6755
 31
0.0
  0
LINE
  5
1B3
  8
0
 62
     7
 10
53.0655
 20
97.104399999999998
 30
0.0
 11
50.8551
 21
97.697000000000003
 31
0.0
  0
LINE
  5
1B4
  8
0
 62
     7
 10
50.8551
 20
97.697000000000003
 30
0.0
 11
53.0655
 21
98.289199999999994
 31
0.0
  0
LINE
  5
1B5
  8
0
 62
     7
 10
53.0655
 20
98.289199999999994
 30
0.0
 11
53.0655
 21
97.104399999999998
 31
0.0
  0
LINE
  5
1B6
  8
0
 62
     7
 10
44.49819999999999
 20
98.289500000000004
 30
0.0
 11
46.708599999999997
 21
97.697000000000003
 31
0.0
  0
LINE
  5
1B7
  8
0
 62
     7
 10
46.708599999999997
 20
97.697000000000003
 30
0.0
 11
44.49819999999999
 21
97.104799999999997
 31
0.0
  0
LINE
  5
1B8
  8
0
 62
     7
 10
44.49819999999999
 20
97.104799999999997
 30
0.0
 11
44.49819999999999
 21
98.289500000000004
 31
0.0
  0
LINE
  5
1B9
  8
0
 62
     7
 10
46.708599999999997
 20
97.697000000000003
 30
0.0
 11
50.8551
 21
97.697000000000003
 31
0.0
  0
LINE
  5
1BA
  8
0
 62
     7
 10
79.555700000000002
 20
123.03100000000001
 30
0.0
 11
79.555700000000002
 21
55.030200000000001
 31
0.0
  0
LINE
  5
1BB
  8
0
 62
     7
 10
60.811799999999991
 20
119.815
 30
0.0
 11
60.219299999999997
 21
117.6039999999999
 31
0.0
  0
LINE
  5
1BC
  8
0
 62
     7
 10
60.219299999999997
 20
117.6039999999999
 30
0.0
 11
59.6267
 21
119.815
 31
0.0
  0
LINE
  5
1BD
  8
0
 62
     7
 10
59.6267
 20
119.815
 30
0.0
 11
60.811799999999991
 21
119.815
 31
0.0
  0
LINE
  5
1BE
  8
0
 62
     7
 10
59.634999999999991
 20
120.81999999999989
 30
0.0
 11
60.226900000000001
 21
123.03100000000001
 31
0.0
  0
LINE
  5
1BF
  8
0
 62
     7
 10
60.226900000000001
 20
123.03100000000001
 30
0.0
 11
60.819400000000002
 21
120.81999999999989
 31
0.0
  0
LINE
  5
1C0
  8
0
 62
     7
 10
60.819400000000002
 20
120.81999999999989
 30
0.0
 11
59.634999999999991
 21
120.81999999999989
 31
0.0
  0
LINE
  5
1C1
  8
0
 62
     7
 10
35.795799999999993
 20
114.81999999999989
 30
0.0
 11
36.387700000000002
 21
117.03100000000001
 31
0.0
  0
LINE
  5
1C2
  8
0
 62
     7
 10
36.387700000000002
 20
117.03100000000001
 30
0.0
 11
36.980200000000004
 21
114.81999999999989
 31
0.0
  0
LINE
  5
1C3
  8
0
 62
     7
 10
36.980200000000004
 20
114.81999999999989
 30
0.0
 11
35.795799999999993
 21
114.81999999999989
 31
0.0
  0
LINE
  5
1C4
  8
0
 62
     7
 10
41.082000000000001
 20
97.697000000000003
 30
0.0
 11
46.708599999999997
 21
97.697000000000003
 31
0.0
  0
LINE
  5
1C5
  8
0
 62
     7
 10
50.8551
 20
97.697000000000003
 30
0.0
 11
59.271700000000003
 21
97.697000000000003
 31
0.0
  0
LINE
  5
1C6
  8
0
 62
     7
 10
36.380800000000001
 20
117.00399999999991
 30
0.0
 11
36.380800000000001
 21
112.8479999999999
 31
0.0
  0
LINE
  5
1C7
  8
0
 62
     7
 10
60.226900000000001
 20
123.03100000000001
 30
0.0
 11
60.226900000000001
 21
117.6309999999999
 31
0.0
  0
LINE
  5
1C8
  8
0
 62
     7
 10
59.7271
 20
117.6309999999999
 30
0.0
 11
62.468899999999998
 21
117.6309999999999
 31
0.0
  0
LINE
  5
1C9
  8
0
 62
     7
 10
59.7271
 20
123.03100000000001
 30
0.0
 11
61.768000000000001
 21
123.03100000000001
 31
0.0
  0
LINE
  5
1CA
  8
0
 62
     7
 10
36.37319999999999
 20
123.03100000000001
 30
0.0
 11
36.37319999999999
 21
134.31200000000001
 31
0.0
  0
LINE
  5
1CB
  8
0
 62
     7
 10
29.595600000000001
 20
106.041
 30
0.0
 11
30.1875
 21
103.831
 31
0.0
  0
LINE
  5
1CC
  8
0
 62
     7
 10
30.1875
 20
103.831
 30
0.0
 11
30.780100000000001
 21
106.041
 31
0.0
  0
LINE
  5
1CD
  8
0
 62
     7
 10
30.780100000000001
 20
106.041
 30
0.0
 11
29.595600000000001
 21
106.041
 31
0.0
  0
LINE
  5
1CE
  8
0
 62
     7
 10
30.765599999999999
 20
120.81999999999989
 30
0.0
 11
30.172999999999998
 21
123.03100000000001
 31
0.0
  0
LINE
  5
1CF
  8
0
 62
     7
 10
30.172999999999998
 20
123.03100000000001
 30
0.0
 11
29.5808
 21
120.81999999999989
 31
0.0
  0
LINE
  5
1D0
  8
0
 62
     7
 10
29.5808
 20
120.81999999999989
 30
0.0
 11
30.765599999999999
 21
120.81999999999989
 31
0.0
  0
LINE
  5
1D1
  8
0
 62
     7
 10
30.180599999999998
 20
103.831
 30
0.0
 11
30.180599999999998
 21
123.004
 31
0.0
  0
LINE
  5
1D2
  8
0
 62
     7
 10
45.869199999999999
 20
103.831
 30
0.0
 11
28.9803
 21
103.831
 31
0.0
  0
LINE
  5
1D3
  8
0
 62
     7
 10
35.780999999999999
 20
125.241
 30
0.0
 11
36.37319999999999
 21
123.03100000000001
 31
0.0
  0
LINE
  5
1D4
  8
0
 62
     7
 10
36.37319999999999
 20
123.03100000000001
 30
0.0
 11
36.965400000000002
 21
125.241
 31
0.0
  0
LINE
  5
1D5
  8
0
 62
     7
 10
36.965400000000002
 20
125.241
 30
0.0
 11
35.780999999999999
 21
125.241
 31
0.0
  0
LINE
  5
1D6
  8
0
 62
     7
 10
36.380400000000002
 20
117.05799999999989
 30
0.0
 11
36.380400000000002
 21
123.004
 31
0.0
  0
LINE
  5
1D7
  8
0
 62
     7
 10
35.180500000000002
 20
117.03100000000001
 30
0.0
 11
43.40829999999999
 21
117.03100000000001
 31
0.0
  0
LINE
  5
1D8
  8
0
 62
     7
 10
28.9803
 20
123.03100000000001
 30
0.0
 11
41.680900000000001
 21
123.03100000000001
 31
0.0
  0
ARC
  5
1D9
  8
0
 62
     7
 10
71.381839999999997
 20
112.41831999999999
 30
0.0
 40
1.5296419999999991
 50
269.972556
 51
284.00268699999998
  0
ARC
  5
1DA
  8
0
 62
     7
 10
71.587912000000003
 20
111.5553699999999
 30
0.0
 40
0.6425340000000001
 50
284.792528
 51
301.01964399999991
  0
ARC
  5
1DB
  8
0
 62
     7
 10
71.807532999999992
 20
111.18061399999991
 30
0.0
 40
0.208251
 50
302.37089600000002
 51
326.528076
  0
ARC
  5
1DC
  8
0
 62
     7
 10
70.900625000000005
 20
111.13624899999991
 30
0.0
 40
0.138877
 50
210.50277799999989
 51
223.9862
  0
ARC
  5
1DD
  8
0
 62
     7
 10
70.973092000000008
 20
111.20546999999991
 30
0.0
 40
0.239092
 50
223.86106099999989
 51
237.09953100000001
  0
ARC
  5
1DE
  8
0
 62
     7
 10
71.0809
 20
111.3695
 30
0.0
 40
0.435375
 50
236.9127859999999
 51
246.69395999999989
  0
ARC
  5
1DF
  8
0
 62
     7
 10
71.201272000000003
 20
111.64577300000001
 30
0.0
 40
0.7367300000000001
 50
246.5971339999999
 51
254.166067
  0
ARC
  5
1E0
  8
0
 62
     7
 10
71.353812000000005
 20
112.19867499999999
 30
0.0
 40
1.310281
 50
254.34567599999991
 51
271.19365800000003
  0
ARC
  5
1E1
  8
0
 62
     7
 10
70.181905
 20
112.41903000000001
 30
0.0
 40
1.530351999999999
 50
269.97260899999992
 51
283.99942099999998
  0
ARC
  5
1E2
  8
0
 62
     7
 10
70.388633999999996
 20
111.5534659999999
 30
0.0
 40
0.640547
 50
284.78669300000001
 51
301.05462
  0
ARC
  5
1E3
  8
0
 62
     7
 10
70.608543999999995
 20
111.17873400000001
 30
0.0
 40
0.20614
 50
302.42105699999991
 51
326.76611800000001
  0
ARC
  5
1E4
  8
0
 62
     7
 10
69.701334000000003
 20
111.13616399999989
 30
0.0
 40
0.139092
 50
210.41027500000001
 51
223.8524689999999
  0
ARC
  5
1E5
  8
0
 62
     7
 10
69.772520999999998
 20
111.2040419999999
 30
0.0
 40
0.237453
 50
223.763148
 51
237.07622799999999
  0
ARC
  5
1E6
  8
0
 62
     7
 10
69.880718000000002
 20
111.368426
 30
0.0
 40
0.434246
 50
236.88189
 51
246.68163799999999
  0
ARC
  5
1E7
  8
0
 62
     7
 10
70.000926000000007
 20
111.644136
 30
0.0
 40
0.7350210000000002
 50
246.58398199999991
 51
254.16856799999999
  0
ARC
  5
1E8
  8
0
 62
     7
 10
70.154054999999985
 20
112.19924899999999
 30
0.0
 40
1.3108580000000001
 50
254.348602
 51
271.20043199999992
  0
ARC
  5
1E9
  8
0
 62
     7
 10
70.181906999999995
 20
109.71425000000001
 30
0.0
 40
1.528931
 50
75.987379000000004
 51
90.027484999999999
  0
ARC
  5
1EA
  8
0
 62
     7
 10
70.388897
 20
110.5799729999999
 30
0.0
 40
0.6389110000000001
 50
58.884525999999987
 51
75.198956999999993
  0
ARC
  5
1EB
  8
0
 62
     7
 10
70.608457999999999
 20
110.953183
 30
0.0
 40
0.205992
 50
33.12705600000001
 51
57.524299999999997
  0
ARC
  5
1EC
  8
0
 62
     7
 10
69.701305000000005
 20
110.99569099999989
 30
0.0
 40
0.138895
 50
136.2149639999999
 51
149.70489499999991
  0
ARC
  5
1ED
  8
0
 62
     7
 10
69.772508000000002
 20
110.9280629999999
 30
0.0
 40
0.237096
 50
122.976023
 51
136.32264199999989
  0
ARC
  5
1EE
  8
0
 62
     7
 10
69.880456999999993
 20
110.764601
 30
0.0
 40
0.432982
 50
113.3529149999999
 51
123.186087
  0
ARC
  5
1EF
  8
0
 62
     7
 10
70.000454000000005
 20
110.490112
 30
0.0
 40
0.7325520000000001
 50
105.847801
 51
113.4593959999999
  0
ARC
  5
1F0
  8
0
 62
     7
 10
70.153882999999993
 20
109.93509399999991
 30
0.0
 40
1.308378
 50
88.789732000000001
 51
105.67397699999999
  0
ARC
  5
1F1
  8
0
 62
     7
 10
76.978107999999992
 20
109.430204
 30
0.0
 40
1.538997999999999
 50
166.03683599999999
 51
179.981346
  0
ARC
  5
1F2
  8
0
 62
     7
 10
76.105361000000002
 20
109.63751000000001
 30
0.0
 40
0.6420860000000001
 50
148.95638099999991
 51
165.19696999999999
  0
ARC
  5
1F3
  8
0
 62
     7
 10
75.731224999999995
 20
109.8568649999999
 30
0.0
 40
0.208476
 50
123.4332439999999
 51
147.58193499999999
  0
ARC
  5
1F4
  8
0
 62
     7
 10
75.685912000000002
 20
108.94919299999989
 30
0.0
 40
0.137512
 50
225.98516599999999
 51
239.61741399999991
  0
ARC
  5
1F5
  8
0
 62
     7
 10
75.755706000000004
 20
109.0226659999999
 30
0.0
 40
0.238849
 50
212.932897
 51
226.19134399999999
  0
ARC
  5
1F6
  8
0
 62
     7
 10
75.919506000000013
 20
109.130357
 30
0.0
 40
0.4348770000000001
 50
203.31336399999989
 51
213.10870600000001
  0
ARC
  5
1F7
  8
0
 62
     7
 10
76.192835000000002
 20
109.24986199999999
 30
0.0
 40
0.733186
 50
195.83022199999999
 51
203.43650600000001
  0
ARC
  5
1F8
  8
0
 62
     7
 10
76.74709
 20
109.403248
 30
0.0
 40
1.3082670000000001
 50
178.79740100000001
 51
195.67145699999989
  0
ARC
  5
1F9
  8
0
 62
     7
 10
76.978825000000001
 20
108.2302679999999
 30
0.0
 40
1.5397149999999991
 50
166.04010299999999
 51
179.98129399999991
  0
ARC
  5
1FA
  8
0
 62
     7
 10
76.103265000000007
 20
108.43831399999991
 30
0.0
 40
0.6398920000000001
 50
148.918711
 51
165.20548299999999
  0
ARC
  5
1FB
  8
0
 62
     7
 10
75.729225999999997
 20
108.6579959999999
 30
0.0
 40
0.2062
 50
123.18545399999999
 51
147.541515
  0
ARC
  5
1FC
  8
0
 62
     7
 10
75.684524999999994
 20
107.748148
 30
0.0
 40
0.135557
 50
226.001565
 51
239.81205199999999
  0
ARC
  5
1FD
  8
0
 62
     7
 10
75.754828000000003
 20
107.8225699999999
 30
0.0
 40
0.23793
 50
212.98045099999999
 51
226.272199
  0
ARC
  5
1FE
  8
0
 62
     7
 10
75.918673999999996
 20
107.9303179999999
 30
0.0
 40
0.434029
 50
203.33112099999991
 51
213.13810699999991
  0
ARC
  5
1FF
  8
0
 62
     7
 10
76.190915000000004
 20
108.049397
 30
0.0
 40
0.731171
 50
195.82478499999999
 51
203.450469
  0
ARC
  5
200
  8
0
 62
     7
 10
76.747238999999993
 20
108.20343699999999
 30
0.0
 40
1.3084209999999989
 50
178.787871
 51
195.67128099999991
  0
ARC
  5
201
  8
0
 62
     7
 10
74.253899000000004
 20
108.2302679999999
 30
0.0
 40
1.5397149999999991
 50
0.018687
 51
13.95987699999999
  0
ARC
  5
202
  8
0
 62
     7
 10
75.129458999999997
 20
108.43831399999991
 30
0.0
 40
0.6398920000000001
 50
14.794497
 51
31.08127
  0
ARC
  5
203
  8
0
 62
     7
 10
75.503497999999993
 20
108.6579959999999
 30
0.0
 40
0.2062
 50
32.458464999999997
 51
56.814526000000001
  0
ARC
  5
204
  8
0
 62
     7
 10
75.548198999999997
 20
107.748148
 30
0.0
 40
0.135557
 50
300.18796800000001
 51
313.99845499999992
  0
ARC
  5
205
  8
0
 62
     7
 10
75.477896999999999
 20
107.8225699999999
 30
0.0
 40
0.23793
 50
313.72782000000001
 51
327.01956899999988
  0
ARC
  5
206
  8
0
 62
     7
 10
75.314049999999995
 20
107.9303179999999
 30
0.0
 40
0.434029
 50
326.86191300000002
 51
336.66889900000001
  0
ARC
  5
207
  8
0
 62
     7
 10
75.041809000000001
 20
108.049397
 30
0.0
 40
0.731171
 50
336.54955099999989
 51
344.17523499999987
  0
ARC
  5
208
  8
0
 62
     7
 10
74.485483000000002
 20
108.20343699999999
 30
0.0
 40
1.308424
 50
344.32875899999999
 51
1.212089
  0
ARC
  5
209
  8
0
 62
     7
 10
60.587406999999992
 20
109.430209
 30
0.0
 40
1.536843
 50
0.018493
 51
13.982948
  0
ARC
  5
20A
  8
0
 62
     7
 10
61.457549999999998
 20
109.63732999999991
 30
0.0
 40
0.642504
 50
14.809796999999991
 51
31.039944999999999
  0
ARC
  5
20B
  8
0
 62
     7
 10
61.831932999999992
 20
109.8568639999999
 30
0.0
 40
0.208588
 50
32.398707999999999
 51
56.520451000000001
  0
ARC
  5
20C
  8
0
 62
     7
 10
61.877132000000003
 20
108.94945300000001
 30
0.0
 40
0.137897
 50
300.44139200000001
 51
314.024674
  0
ARC
  5
20D
  8
0
 62
     7
 10
61.807155999999999
 20
109.0228729999999
 30
0.0
 40
0.239321
 50
313.85491200000001
 51
327.081276
  0
ARC
  5
20E
  8
0
 62
     7
 10
61.643197000000001
 20
109.130638
 30
0.0
 40
0.435522
 50
326.90241900000001
 51
336.68287199999997
  0
ARC
  5
20F
  8
0
 62
     7
 10
61.367277999999999
 20
109.25111800000001
 30
0.0
 40
0.7365960000000001
 50
336.57197400000001
 51
344.14341799999988
  0
ARC
  5
210
  8
0
 62
     7
 10
60.816473999999999
 20
109.4034179999999
 30
0.0
 40
1.30806
 50
344.318286
 51
1.1953219999999991
  0
ARC
  5
211
  8
0
 62
     7
 10
60.586691000000002
 20
108.230273
 30
0.0
 40
1.5375589999999999
 50
0.018546
 51
13.97967699999999
  0
ARC
  5
212
  8
0
 62
     7
 10
61.459648999999999
 20
108.438135
 30
0.0
 40
0.640307
 50
14.80128399999999
 51
31.077615999999999
  0
ARC
  5
213
  8
0
 62
     7
 10
61.833936000000001
 20
108.65799699999999
 30
0.0
 40
0.206308
 50
32.439070999999998
 51
56.76829200000001
  0
ARC
  5
214
  8
0
 62
     7
 10
61.878529
 20
107.748397
 30
0.0
 40
0.135926
 50
300.24654800000002
 51
314.00841000000003
  0
ARC
  5
215
  8
0
 62
     7
 10
61.808036999999999
 20
107.822776
 30
0.0
 40
0.238399
 50
313.77406200000001
 51
327.03374300000002
  0
ARC
  5
216
  8
0
 62
     7
 10
61.644031000000012
 20
107.9305989999999
 30
0.0
 40
0.4346720000000001
 50
326.87302399999999
 51
336.66511200000002
  0
ARC
  5
217
  8
0
 62
     7
 10
61.369213999999999
 20
108.0506479999999
 30
0.0
 40
0.734563
 50
336.55801000000002
 51
344.14885299999992
  0
ARC
  5
218
  8
0
 62
     7
 10
60.816325999999997
 20
108.20360700000001
 30
0.0
 40
1.308212999999999
 50
344.31846200000001
 51
1.204863999999999
  0
ARC
  5
219
  8
0
 62
     7
 10
63.307305000000007
 20
108.230273
 30
0.0
 40
1.5375589999999999
 50
166.02030400000001
 51
179.98143400000001
  0
ARC
  5
21A
  8
0
 62
     7
 10
62.434346999999988
 20
108.438135
 30
0.0
 40
0.640307
 50
148.9223639999999
 51
165.1986959999999
  0
ARC
  5
21B
  8
0
 62
     7
 10
62.06006
 20
108.65799699999999
 30
0.0
 40
0.206308
 50
123.23168800000001
 51
147.56090900000001
  0
ARC
  5
21C
  8
0
 62
     7
 10
62.015467000000001
 20
107.748397
 30
0.0
 40
0.135926
 50
225.99161000000001
 51
239.75347199999999
  0
ARC
  5
21D
  8
0
 62
     7
 10
62.085958999999988
 20
107.822776
 30
0.0
 40
0.238399
 50
212.96627699999991
 51
226.22595799999999
  0
ARC
  5
21E
  8
0
 62
     7
 10
62.249965000000003
 20
107.9305989999999
 30
0.0
 40
0.4346720000000001
 50
203.33490699999999
 51
213.12699599999999
  0
ARC
  5
21F
  8
0
 62
     7
 10
62.524781999999988
 20
108.0506479999999
 30
0.0
 40
0.734563
 50
195.85116599999989
 51
203.44201000000001
  0
ARC
  5
220
  8
0
 62
     7
 10
63.077667000000012
 20
108.20360599999999
 30
0.0
 40
1.3082100000000001
 50
178.795096
 51
195.681578
  0
ARC
  5
221
  8
0
 62
     7
 10
159.403222
 20
135.18590499999991
 30
0.0
 40
1.574867
 50
326.94432499999999
 51
336.27078799999998
  0
ARC
  5
222
  8
0
 62
     7
 10
158.844784
 20
135.522783
 30
0.0
 40
2.2267790000000001
 50
312.500677
 51
327.51686100000001
  0
ARC
  5
223
  8
0
 62
     7
 10
159.29675599999999
 20
135.04265899999999
 30
0.0
 40
1.5674719999999991
 50
303.29479500000002
 51
312.17705000000001
  0
ARC
  5
224
  8
0
 62
     7
 10
159.7675219999999
 20
134.331873
 30
0.0
 40
0.7149390000000001
 50
287.26189699999998
 51
303.02954699999998
  0
ARC
  5
225
  8
0
 62
     7
 10
159.90441000000001
 20
133.92184800000001
 30
0.0
 40
0.282906
 50
272.44667399999997
 51
285.42840599999988
  0
ARC
  5
226
  8
0
 62
     7
 10
159.928573
 20
133.94235699999999
 30
0.0
 40
0.303399
 50
246.150533
 51
267.716903
  0
ARC
  5
227
  8
0
 62
     7
 10
157.08501000000001
 20
134.02688000000001
 30
0.0
 40
0.388941
 50
274.613722
 51
291.720798
  0
ARC
  5
228
  8
0
 62
     7
 10
157.12498199999999
 20
133.89300600000001
 30
0.0
 40
0.253955
 50
257.548813
 51
268.03970099999992
  0
ARC
  5
229
  8
0
 62
     7
 10
157.15834399999989
 20
134.05096399999999
 30
0.0
 40
0.415394
 50
248.0017629999999
 51
257.75298199999992
  0
ARC
  5
22A
  8
0
 62
     7
 10
157.26054500000001
 20
134.30660299999991
 30
0.0
 40
0.6907040000000001
 50
240.16840799999991
 51
248.08444
  0
ARC
  5
22B
  8
0
 62
     7
 10
157.53424499999991
 20
134.777208
 30
0.0
 40
1.2351069999999991
 50
227.73290199999991
 51
240.013969
  0
ARC
  5
22C
  8
0
 62
     7
 10
158.128546
 20
135.47358299999999
 30
0.0
 40
2.150345999999999
 50
212.25996499999991
 51
228.49444800000001
  0
ARC
  5
22D
  8
0
 62
     7
 10
157.85503199999991
 20
135.30515199999991
 30
0.0
 40
1.8291539999999999
 50
204.3449359999999
 51
212.3714829999999
  0
LINE
  5
22E
  8
0
 62
     7
 10
156.51599999999991
 20
117.6309999999999
 30
0.0
 11
155.916
 21
117.6309999999999
 31
0.0
  0
LINE
  5
22F
  8
0
 62
     7
 10
155.916
 20
117.6309999999999
 30
0.0
 11
153.51599999999991
 21
117.6309999999999
 31
0.0
  0
LINE
  5
230
  8
0
 62
     7
 10
156.51599999999991
 20
117.331
 30
0.0
 11
155.916
 21
117.331
 31
0.0
  0
LINE
  5
231
  8
0
 62
     7
 10
155.916
 20
117.331
 30
0.0
 11
153.51599999999991
 21
117.331
 31
0.0
  0
LINE
  5
232
  8
0
 62
     7
 10
158.91599999999991
 20
117.6309999999999
 30
0.0
 11
156.51599999999991
 21
117.6309999999999
 31
0.0
  0
LINE
  5
233
  8
0
 62
     7
 10
158.91599999999991
 20
117.331
 30
0.0
 11
156.51599999999991
 21
117.331
 31
0.0
  0
LINE
  5
234
  8
0
 62
     7
 10
158.89500000000001
 20
116.73099999999999
 30
0.0
 11
156.49399999999989
 21
116.73099999999999
 31
0.0
  0
LINE
  5
235
  8
0
 62
     7
 10
156.51599999999991
 20
116.73099999999999
 30
0.0
 11
154.11600000000001
 21
116.73099999999999
 31
0.0
  0
LINE
  5
236
  8
0
 62
     7
 10
154.11600000000001
 20
116.73099999999999
 30
0.0
 11
153.51599999999991
 21
116.73099999999999
 31
0.0
  0
LINE
  5
237
  8
0
 62
     7
 10
157.416
 20
112.53100000000001
 30
0.0
 11
155.916
 21
112.53100000000001
 31
0.0
  0
LINE
  5
238
  8
0
 62
     7
 10
155.916
 20
112.53100000000001
 30
0.0
 11
155.61600000000001
 21
112.53100000000001
 31
0.0
  0
LINE
  5
239
  8
0
 62
     7
 10
155.61600000000001
 20
112.53100000000001
 30
0.0
 11
155.61600000000001
 21
115.6309999999999
 31
0.0
  0
LINE
  5
23A
  8
0
 62
     7
 10
155.61600000000001
 20
115.6309999999999
 30
0.0
 11
155.61600000000001
 21
116.73099999999999
 31
0.0
  0
LINE
  5
23B
  8
0
 62
     7
 10
157.416
 20
112.53100000000001
 30
0.0
 11
157.416
 21
116.73099999999999
 31
0.0
  0
LINE
  5
23C
  8
0
 62
     7
 10
158.89500000000001
 20
117.6309999999999
 30
0.0
 11
158.89500000000001
 21
116.73099999999999
 31
0.0
  0
LINE
  5
23D
  8
0
 62
     7
 10
153.51599999999991
 20
117.6309999999999
 30
0.0
 11
153.51599999999991
 21
116.73099999999999
 31
0.0
  0
LINE
  5
23E
  8
0
 62
     7
 10
155.916
 20
123.03100000000001
 30
0.0
 11
155.916
 21
117.6309999999999
 31
0.0
  0
LINE
  5
23F
  8
0
 62
     7
 10
157.11600000000001
 20
122.62299999999991
 30
0.0
 11
157.11600000000001
 21
117.6309999999999
 31
0.0
  0
LINE
  5
240
  8
0
  6
AIGENLINE001
 62
     7
 10
156.51599999999991
 20
110.54600000000001
 30
0.0
 11
156.51599999999991
 21
123.598
 31
0.0
  0
LINE
  5
241
  8
0
 62
     7
 10
160.20699999999991
 20
120.32599999999989
 30
0.0
 11
160.20699999999991
 21
103.831
 31
0.0
  0
LINE
  5
242
  8
0
 62
     7
 10
160.20699999999991
 20
103.831
 30
0.0
 11
160.20699999999991
 21
54.875900000000001
 31
0.0
  0
LINE
  5
243
  8
0
 62
     7
 10
158.12299999999991
 20
123.03100000000001
 30
0.0
 11
159.76799999999989
 21
121.386
 31
0.0
  0
ARC
  5
244
  8
0
 62
     7
 10
158.68909600000001
 20
120.31750599999999
 30
0.0
 40
1.518179999999999
 50
0.3033580000000001
 51
44.730018999999992
  0
LINE
  5
245
  8
0
 62
     7
 10
159.20699999999991
 20
120.32599999999989
 30
0.0
 11
159.20699999999991
 21
103.831
 31
0.0
  0
LINE
  5
246
  8
0
 62
     7
 10
159.20699999999991
 20
103.831
 30
0.0
 11
159.20699999999991
 21
54.875900000000001
 31
0.0
  0
LINE
  5
247
  8
0
 62
     7
 10
156.709
 20
123.03100000000001
 30
0.0
 11
159.06100000000001
 21
120.679
 31
0.0
  0
ARC
  5
248
  8
0
 62
     7
 10
158.70196799999999
 20
120.322855
 30
0.0
 40
0.505521
 50
0.30477
 51
44.792132000000002
  0
LINE
  5
249
  8
0
  6
AIGENLINE001
 62
     7
 10
159.70699999999991
 20
120.32599999999989
 30
0.0
 11
159.70699999999991
 21
51.3309
 31
0.0
  0
LINE
  5
24A
  8
0
  6
AIGENLINE001
 62
     7
 10
149.67699999999999
 20
130.77000000000001
 30
0.0
 11
159.4139999999999
 21
121.032
 31
0.0
  0
ARC
  5
24B
  8
0
  6
AIGENLINE002
 62
     7
 10
158.69437699999989
 20
120.320194
 30
0.0
 40
1.012661
 50
0.302654
 51
44.698951000000001
  0
LINE
  5
24C
  8
0
 62
     7
 10
152.35299999999989
 20
129.08399999999989
 30
0.0
 11
153.4139999999999
 21
128.02199999999999
 31
0.0
  0
LINE
  5
24D
  8
0
 62
     7
 10
152.35299999999989
 20
129.78999999999999
 30
0.0
 11
151.505
 21
128.94200000000001
 31
0.0
  0
ARC
  5
24E
  8
0
 62
     7
 10
152.73413500000001
 20
129.43701799999999
 30
0.0
 40
0.5197560000000001
 50
137.15107900000001
 51
222.8489209999999
  0
ARC
  5
24F
  8
0
 62
     7
 10
151.36773700000001
 20
129.03187
 30
0.0
 40
1.239889999999999
 50
56.123142000000009
 51
133.46759399999991
  0
ARC
  5
250
  8
0
 62
     7
 10
152.210171
 20
129.933491
 30
0.0
 40
0.202169
 50
314.98007799999999
 51
359.50263999999999
  0
ARC
  5
251
  8
0
 62
     7
 10
152.20412200000001
 20
129.92367400000001
 30
0.0
 40
0.208367
 50
2.2176049999999989
 51
87.880915999999985
  0
ARC
  5
252
  8
0
 62
     7
 10
152.21245599999989
 20
129.93159800000001
 30
0.0
 40
0.2003
 50
90.180036000000001
 51
135.099355
  0
LINE
  5
253
  8
0
 62
     7
 10
152.071
 20
130.07299999999989
 30
0.0
 11
151.22200000000001
 21
129.22499999999991
 31
0.0
  0
LINE
  5
254
  8
0
 62
     7
 10
153.4139999999999
 20
128.02199999999999
 30
0.0
 11
152.9189999999999
 21
127.52799999999991
 31
0.0
  0
LINE
  5
255
  8
0
 62
     7
 10
153.27299999999991
 20
127.881
 30
0.0
 11
154.93299999999991
 21
126.22199999999999
 31
0.0
  0
LINE
  5
256
  8
0
 62
     7
 10
151.364
 20
128.0929999999999
 30
0.0
 11
152.42399999999989
 21
127.0329999999999
 31
0.0
  0
LINE
  5
257
  8
0
 62
     7
 10
150.65600000000001
 20
128.0929999999999
 30
0.0
 11
151.505
 21
128.94200000000001
 31
0.0
  0
ARC
  5
258
  8
0
 62
     7
 10
151.00982500000001
 20
127.712008
 30
0.0
 40
0.52025
 50
47.149827999999999
 51
132.85015200000001
  0
ARC
  5
259
  8
0
 62
     7
 10
151.41514100000001
 20
129.079027
 30
0.0
 40
1.240079999999999
 50
136.55758399999999
 51
213.847398
  0
ARC
  5
25A
  8
0
 62
     7
 10
150.52548300000001
 20
128.2346719999999
 30
0.0
 40
0.207477
 50
137.0940379999999
 51
222.90596199999999
  0
ARC
  5
25B
  8
0
 62
     7
 10
150.51476199999999
 20
128.24460199999999
 30
0.0
 40
0.206899
 50
226.94498799999991
 51
313.05503199999993
  0
LINE
  5
25C
  8
0
 62
     7
 10
150.374
 20
128.376
 30
0.0
 11
151.22200000000001
 21
129.22499999999991
 31
0.0
  0
LINE
  5
25D
  8
0
 62
     7
 10
152.42399999999989
 20
127.0329999999999
 30
0.0
 11
152.9189999999999
 21
127.52799999999991
 31
0.0
  0
LINE
  5
25E
  8
0
 62
     7
 10
152.56499999999991
 20
127.17399999999989
 30
0.0
 11
154.21600000000001
 21
125.524
 31
0.0
  0
ARC
  5
25F
  8
0
 62
     7
 10
161.81993399999999
 20
126.327262
 30
0.0
 40
0.103788
 50
92.103763999999984
 51
177.89620600000001
  0
ARC
  5
260
  8
0
 62
     7
 10
161.820638
 20
126.334868
 30
0.0
 40
0.104491
 50
182.0820239999999
 51
267.52422200000001
  0
ARC
  5
261
  8
0
 62
     7
 10
155.63560100000001
 20
132.74968699999999
 30
0.0
 40
0.519211
 50
182.1313789999999
 51
267.86865099999989
  0
ARC
  5
262
  8
0
 62
     7
 10
155.636279
 20
132.711106
 30
0.0
 40
0.519887
 50
92.203312999999994
 51
177.875631
  0
LINE
  5
263
  8
0
 62
     7
 10
157.11699999999999
 20
132.23099999999991
 30
0.0
 11
155.61600000000001
 21
132.23099999999991
 31
0.0
  0
LINE
  5
264
  8
0
 62
     7
 10
157.32900000000001
 20
133.23099999999991
 30
0.0
 11
155.61600000000001
 21
133.23099999999991
 31
0.0
  0
LINE
  5
265
  8
0
 62
     7
 10
162.816
 20
125.041
 30
0.0
 11
162.816
 21
125.51000000000001
 31
0.0
  0
ARC
  5
266
  8
0
 62
     7
 10
163.83867799999999
 20
125.043187
 30
0.0
 40
1.0227829999999991
 50
180.11022299999991
 51
206.93306299999989
  0
ARC
  5
267
  8
0
 62
     7
 10
155.2120679999999
 20
126.33497300000001
 30
0.0
 40
0.104571
 50
272.13764500000002
 51
357.86236500000001
  0
ARC
  5
268
  8
0
 62
     7
 10
155.2128229999999
 20
126.3272129999999
 30
0.0
 40
0.103815
 50
2.130233
 51
88.263540000000006
  0
ARC
  5
269
  8
0
 62
     7
 10
161.41649099999989
 20
132.730377
 30
0.0
 40
0.5002310000000002
 50
0.00001
 51
89.999980000000008
  0
ARC
  5
26A
  8
0
 62
     7
 10
161.3978469999999
 20
132.74973600000001
 30
0.0
 40
0.5192350000000001
 50
272.05767200000003
 51
357.86336299999999
  0
LINE
  5
26B
  8
0
 62
     7
 10
159.91599999999991
 20
132.23099999999991
 30
0.0
 11
161.416
 21
132.23099999999991
 31
0.0
  0
LINE
  5
26C
  8
0
 62
     7
 10
159.70500000000001
 20
133.23099999999991
 30
0.0
 11
161.416
 21
133.23099999999991
 31
0.0
  0
LINE
  5
26D
  8
0
 62
     7
 10
154.21600000000001
 20
125.041
 30
0.0
 11
154.21600000000001
 21
125.51000000000001
 31
0.0
  0
ARC
  5
26E
  8
0
 62
     7
 10
153.20743200000001
 20
125.0404689999999
 30
0.0
 40
1.0087639999999991
 50
332.79138899999998
 51
0.042687
  0
ARC
  5
26F
  8
0
 62
     7
 10
88.661856999999998
 20
228.81459100000001
 30
0.0
 40
6.3440019999999988
 50
283.30523699999998
 51
346.690586
  0
ARC
  5
270
  8
0
 62
     7
 10
88.903124000000005
 20
228.81632099999999
 30
0.0
 40
6.3462629999999987
 50
193.32065700000001
 51
256.68984099999989
  0
ARC
  5
271
  8
0
 62
     7
 10
88.902190000000004
 20
228.57371199999989
 30
0.0
 40
6.3451389999999988
 50
103.3038899999999
 51
166.68561199999999
  0
ARC
  5
272
  8
0
 62
     7
 10
88.660674
 20
228.5735509999999
 30
0.0
 40
6.3453730000000004
 50
13.315365999999999
 51
76.686717999999999
  0
ARC
  5
273
  8
0
 62
     7
 10
88.704145999999994
 20
228.77207200000001
 30
0.0
 40
3.8293239999999988
 50
282.12463700000001
 51
347.83506199999999
  0
ARC
  5
274
  8
0
 62
     7
 10
88.860712000000007
 20
228.77354399999999
 30
0.0
 40
3.8311779999999991
 50
192.14195799999999
 51
257.81439999999992
  0
ARC
  5
275
  8
0
 62
     7
 10
88.859238000000005
 20
228.616613
 30
0.0
 40
3.8295899999999992
 50
102.125997
 51
167.82694100000001
  0
ARC
  5
276
  8
0
 62
     7
 10
88.702379000000008
 20
228.61555000000001
 30
0.0
 40
3.8313229999999998
 50
12.141546999999999
 51
77.804688999999996
  0
ARC
  5
277
  8
0
 62
     7
 10
48.661929000000001
 20
228.81436099999999
 30
0.0
 40
6.3438290000000004
 50
283.30766
 51
346.69234999999998
  0
ARC
  5
278
  8
0
 62
     7
 10
48.902853999999991
 20
228.815597
 30
0.0
 40
6.3455479999999991
 50
193.31547
 51
256.68874699999998
  0
ARC
  5
279
  8
0
 62
     7
 10
48.901957000000003
 20
228.57439799999989
 30
0.0
 40
6.3444690000000001
 50
103.305234
 51
166.69054800000001
  0
ARC
  5
27A
  8
0
 62
     7
 10
48.661245000000001
 20
228.5742799999999
 30
0.0
 40
6.3445999999999989
 50
13.310254
 51
76.687642000000011
  0
ARC
  5
27B
  8
0
 62
     7
 10
48.704397
 20
228.7716759999999
 30
0.0
 40
3.8289449999999992
 50
282.12651
 51
347.83990499999999
  0
ARC
  5
27C
  8
0
 62
     7
 10
48.861350999999999
 20
228.7742319999999
 30
0.0
 40
3.8319969999999999
 50
192.14985799999999
 51
257.80650000000003
  0
ARC
  5
27D
  8
0
 62
     7
 10
48.858965000000012
 20
228.616883
 30
0.0
 40
3.8293159999999999
 50
102.1261129999999
 51
167.83018300000001
  0
ARC
  5
27E
  8
0
 62
     7
 10
48.702550000000002
 20
228.61555200000001
 30
0.0
 40
3.8312750000000002
 50
12.141676999999991
 51
77.807918999999998
  0
ARC
  5
27F
  8
0
 62
     7
 10
68.826980000000006
 20
200.50407100000001
 30
0.0
 40
2.211476999999999
 50
146.56293400000001
 51
233.67775399999991
  0
ARC
  5
280
  8
0
 62
     7
 10
68.760384999999985
 20
200.67463699999999
 30
0.0
 40
2.3146309999999999
 50
237.50966700000001
 51
321.90653700000001
  0
ARC
  5
281
  8
0
 62
     7
 10
68.834451000000001
 20
200.49426
 30
0.0
 40
2.147216999999999
 50
324.47607599999992
 51
359.74324300000001
  0
ARC
  5
282
  8
0
 62
     7
 10
68.847397000000001
 20
200.47899000000001
 30
0.0
 40
2.134256999999999
 50
0.15162
 51
35.658380999999999
  0
ARC
  5
283
  8
0
 62
     7
 10
68.859879000000006
 20
200.377747
 30
0.0
 40
2.6340910000000002
 50
135.48732199999989
 51
222.09236000000001
  0
ARC
  5
284
  8
0
 62
     7
 10
68.784212999999994
 20
200.58281099999999
 30
0.0
 40
2.7229719999999991
 50
226.36549099999999
 51
311.29362200000003
  0
ARC
  5
285
  8
0
 62
     7
 10
68.80081899999999
 20
200.40551899999991
 30
0.0
 40
2.5809239999999991
 50
313.61461800000001
 51
359.45051199999989
  0
ARC
  5
286
  8
0
 62
     7
 10
68.825377000000003
 20
200.366311
 30
0.0
 40
2.556287999999999
 50
0.324018
 51
46.608477999999991
  0
ARC
  5
287
  8
0
 62
     7
 10
68.808709999999991
 20
200.65898100000001
 30
0.0
 40
1.828547999999999
 50
182.208777
 51
269.14493900000002
  0
ARC
  5
288
  8
0
 62
     7
 10
68.730902999999998
 20
200.69702599999999
 30
0.0
 40
1.8670729999999991
 50
271.55050399999999
 51
349.05821900000001
  0
ARC
  5
289
  8
0
 62
     7
 10
68.850949
 20
200.58785700000001
 30
0.0
 40
1.730545999999999
 50
351.85359899999997
 51
0.021525
  0
ARC
  5
28A
  8
0
 62
     7
 10
69.886189999999985
 20
226.78554800000001
 30
0.0
 40
1.0887999999999991
 50
309.68734000000001
 51
330.04477400000002
  0
ARC
  5
28B
  8
0
 62
     7
 10
69.869669999999985
 20
230.57952499999999
 30
0.0
 40
1.1151809999999991
 50
30.600977
 51
89.394886
  0
ARC
  5
28C
  8
0
 62
     7
 10
66.606161
 20
228.6944629999999
 30
0.0
 40
1.1161779999999999
 50
150.62983299999999
 51
209.37016700000001
  0
ARC
  5
28D
  8
0
 62
     7
 10
70.975994999999998
 20
228.6957679999999
 30
0.0
 40
1.1003379999999989
 50
330.08621699999992
 51
359.93203999999992
  0
ARC
  5
28E
  8
0
 62
     7
 10
70.973402000000007
 20
228.692464
 30
0.0
 40
1.102930999999999
 50
0.103866
 51
29.877877999999999
  0
ARC
  5
28F
  8
0
 62
     7
 10
67.670773999999994
 20
226.7804459999999
 30
0.0
 40
1.0810109999999999
 50
209.881113
 51
230.38681299999999
  0
ARC
  5
290
  8
0
 62
     7
 10
67.694969999999998
 20
230.57688899999999
 30
0.0
 40
1.1178349999999999
 50
90.686965999999984
 51
149.33274399999991
  0
LINE
  5
291
  8
0
 62
     7
 10
66.183499999999995
 20
230.19399999999999
 30
0.0
 11
65.633399999999995
 21
229.24199999999999
 31
0.0
  0
LINE
  5
292
  8
0
 62
     7
 10
66.733500000000006
 20
231.14699999999999
 30
0.0
 11
66.183499999999995
 21
230.19399999999999
 31
0.0
  0
LINE
  5
293
  8
0
 62
     7
 10
71.3797
 20
227.19399999999999
 30
0.0
 11
70.829499999999996
 21
226.24199999999999
 31
0.0
  0
LINE
  5
294
  8
0
 62
     7
 10
71.929699999999997
 20
228.14699999999999
 30
0.0
 11
71.3797
 21
227.19399999999999
 31
0.0
  0
LINE
  5
295
  8
0
 62
     7
 10
71.3797
 20
230.19399999999999
 30
0.0
 11
70.829499999999996
 21
231.14699999999999
 31
0.0
  0
LINE
  5
296
  8
0
 62
     7
 10
71.929699999999997
 20
229.24199999999999
 30
0.0
 11
71.3797
 21
230.19399999999999
 31
0.0
  0
LINE
  5
297
  8
0
 62
     7
 10
66.183499999999995
 20
227.19399999999999
 30
0.0
 11
65.633399999999995
 21
228.14699999999999
 31
0.0
  0
LINE
  5
298
  8
0
 62
     7
 10
66.733500000000006
 20
226.24199999999999
 30
0.0
 11
66.183499999999995
 21
227.19399999999999
 31
0.0
  0
LINE
  5
299
  8
0
 62
     7
 10
68.781400000000005
 20
231.69499999999991
 30
0.0
 11
69.881799999999984
 21
231.69499999999991
 31
0.0
  0
LINE
  5
29A
  8
0
 62
     7
 10
67.681600000000003
 20
231.69499999999991
 30
0.0
 11
68.781400000000005
 21
231.69499999999991
 31
0.0
  0
LINE
  5
29B
  8
0
 62
     7
 10
70.581500000000005
 20
228.69499999999999
 30
0.0
 11
70.581500000000005
 21
200.589
 31
0.0
  0
LINE
  5
29C
  8
0
 62
     7
 10
66.981499999999997
 20
228.69499999999999
 30
0.0
 11
66.981499999999997
 21
200.589
 31
0.0
  0
ARC
  5
29D
  8
0
 62
     7
 10
68.781506999999991
 20
228.69454899999999
 30
0.0
 40
1.7999879999999999
 50
0.002751
 51
90.002722000000006
  0
ARC
  5
29E
  8
0
 62
     7
 10
68.781421999999992
 20
228.69463500000001
 30
0.0
 40
1.7999019999999999
 50
90.0
 51
179.99996999999991
  0
ARC
  5
29F
  8
0
 62
     7
 10
68.760723999999996
 20
228.7024009999999
 30
0.0
 40
2.4207509999999992
 50
318.77090800000002
 51
359.81619499999999
  0
ARC
  5
2A0
  8
0
 62
     7
 10
68.781420999999995
 20
228.69463500000001
 30
0.0
 40
2.400040999999999
 50
0.00001
 51
89.999980000000008
  0
ARC
  5
2A1
  8
0
 62
     7
 10
68.781508000000002
 20
228.69472099999999
 30
0.0
 40
2.399954999999999
 50
90.00205600000001
 51
180.00206600000001
  0
ARC
  5
2A2
  8
0
 62
     7
 10
68.806370000000001
 20
228.703745
 30
0.0
 40
2.424834999999999
 50
180.21526700000001
 51
221.186791
  0
ARC
  5
2A3
  8
0
 62
     7
 10
68.730440999999999
 20
228.7200379999999
 30
0.0
 40
3.0510950000000001
 50
307.3502279999999
 51
359.522966
  0
ARC
  5
2A4
  8
0
 62
     7
 10
68.781420999999995
 20
228.69463500000001
 30
0.0
 40
3.000008999999999
 50
0.00001
 51
89.999980000000008
  0
ARC
  5
2A5
  8
0
 62
     7
 10
68.781421999999992
 20
228.69463500000001
 30
0.0
 40
3.000008999999999
 50
90.0
 51
179.99996999999991
  0
ARC
  5
2A6
  8
0
 62
     7
 10
68.83017199999999
 20
228.71905499999991
 30
0.0
 40
3.0488559999999998
 50
180.458934
 51
232.6744919999999
  0
ARC
  5
2A7
  8
0
 62
     7
 10
68.716610000000003
 20
228.73036499999989
 30
0.0
 40
3.464982
 50
302.561823
 51
359.40918499999998
  0
ARC
  5
2A8
  8
0
 62
     7
 10
68.781506999999991
 20
228.69454899999999
 30
0.0
 40
3.3999009999999998
 50
0.001461
 51
90.001431999999994
  0
ARC
  5
2A9
  8
0
 62
     7
 10
68.781421999999992
 20
228.69463500000001
 30
0.0
 40
3.3998149999999998
 50
90.0
 51
179.99996999999991
  0
ARC
  5
2AA
  8
0
 62
     7
 10
68.84756800000001
 20
228.73100899999989
 30
0.0
 40
3.4661509999999991
 50
180.60129299999991
 51
237.427739
  0
ARC
  5
2AB
  8
0
 62
     7
 10
68.686058000000003
 20
228.754997
 30
0.0
 40
4.2960750000000001
 50
296.18061599999999
 51
359.19494199999991
  0
ARC
  5
2AC
  8
0
 62
     7
 10
68.781593000000001
 20
228.6944629999999
 30
0.0
 40
4.2001150000000003
 50
0.00236
 51
90.002329999999986
  0
ARC
  5
2AD
  8
0
 62
     7
 10
68.781421999999992
 20
228.69463500000001
 30
0.0
 40
4.1999430000000002
 50
90.0
 51
179.99996999999991
  0
ARC
  5
2AE
  8
0
 62
     7
 10
68.878845999999996
 20
228.75599700000001
 30
0.0
 40
4.2978050000000003
 50
180.81807599999999
 51
243.80269100000001
  0
ARC
  5
2AF
  8
0
 62
     7
 10
68.606076999999999
 20
228.824794
 30
0.0
 40
6.3768510000000003
 50
288.05084099999999
 51
358.83045299999992
  0
ARC
  5
2B0
  8
0
 62
     7
 10
68.857086999999993
 20
228.704295
 30
0.0
 40
6.2760220000000002
 50
180.0897719999999
 51
186.497793
  0
ARC
  5
2B1
  8
0
 62
     7
 10
68.919453000000004
 20
228.8094089999999
 30
0.0
 40
6.3506299999999998
 50
187.376406
 51
252.22919999999991
  0
ARC
  5
2B2
  8
0
 62
     7
 10
70.623574000000005
 20
154.74681000000001
 30
0.0
 40
0.3579
 50
0.127258
 51
30.759247999999999
  0
ARC
  5
2B3
  8
0
 62
     7
 10
70.439418000000003
 20
154.6497709999999
 30
0.0
 40
0.5658820000000001
 50
29.666114
 51
46.506594
  0
ARC
  5
2B4
  8
0
 62
     7
 10
70.131363000000007
 20
154.3410889999999
 30
0.0
 40
1.0019020000000001
 50
45.876244
 51
59.82730999999999
  0
ARC
  5
2B5
  8
0
 62
     7
 10
69.709890999999999
 20
153.66405
 30
0.0
 40
1.7992090000000001
 50
59.060353999999997
 51
68.964109999999991
  0
ARC
  5
2B6
  8
0
 62
     7
 10
69.282317000000006
 20
152.62213
 30
0.0
 40
2.925276999999999
 50
68.472886000000003
 51
76.457415999999995
  0
ARC
  5
2B7
  8
0
 62
     7
 10
68.910450999999995
 20
151.17503499999989
 30
0.0
 40
4.419274999999999
 50
76.163593000000006
 51
85.920147999999983
  0
ARC
  5
2B8
  8
0
 62
     7
 10
68.785010999999997
 20
150.011146
 30
0.0
 40
5.5892989999999987
 50
85.486363999999995
 51
90.036783
  0
ARC
  5
2B9
  8
0
 62
     7
 10
68.779844999999995
 20
150.18360899999999
 30
0.0
 40
5.416834999999999
 50
89.983314000000007
 51
100.3804899999999
  0
ARC
  5
2BA
  8
0
 62
     7
 10
68.455918000000011
 20
152.07539800000001
 30
0.0
 40
3.4977129999999992
 50
100.7448969999999
 51
111.55329499999991
  0
ARC
  5
2BB
  8
0
 62
     7
 10
67.880082999999999
 20
153.61000300000001
 30
0.0
 40
1.859084999999999
 50
112.422206
 51
121.8127639999999
  0
ARC
  5
2BC
  8
0
 62
     7
 10
67.448762000000002
 20
154.31906499999991
 30
0.0
 40
1.0291980000000001
 50
122.21648500000001
 51
135.470519
  0
ARC
  5
2BD
  8
0
 62
     7
 10
67.099575000000002
 20
154.67219199999991
 30
0.0
 40
0.532672
 50
136.20895899999999
 51
161.010355
  0
ARC
  5
2BE
  8
0
 62
     7
 10
66.928546999999995
 20
154.746757
 30
0.0
 40
0.347006
 50
163.4637919999999
 51
179.85989900000001
  0
ARC
  5
2BF
  8
0
 62
     7
 10
70.288440000000008
 20
154.971801
 30
0.0
 40
1.3967579999999991
 50
299.75525800000003
 51
309.277694
  0
ARC
  5
2C0
  8
0
 62
     7
 10
70.684798999999984
 20
154.476877
 30
0.0
 40
0.762745
 50
309.76675199999988
 51
324.90729399999998
  0
ARC
  5
2C1
  8
0
 62
     7
 10
70.962295999999995
 20
154.2752909999999
 30
0.0
 40
0.4198330000000001
 50
325.64549199999988
 51
357.71756299999993
  0
ARC
  5
2C2
  8
0
 62
     7
 10
71.014169999999993
 20
154.25752199999991
 30
0.0
 40
0.367628
 50
0.163472
 51
31.098600999999999
  0
ARC
  5
2C3
  8
0
 62
     7
 10
70.816633999999993
 20
154.15209899999991
 30
0.0
 40
0.5913430000000001
 50
29.959272999999989
 51
46.457664999999999
  0
ARC
  5
2C4
  8
0
 62
     7
 10
70.502689000000004
 20
153.8399
 30
0.0
 40
1.0339940000000001
 50
45.765151000000003
 51
58.867795999999998
  0
ARC
  5
2C5
  8
0
 62
     7
 10
70.042970999999994
 20
153.122671
 30
0.0
 40
1.8857429999999991
 50
58.178368000000013
 51
68.055101000000008
  0
ARC
  5
2C6
  8
0
 62
     7
 10
69.542982999999992
 20
151.95675600000001
 30
0.0
 40
3.1541579999999998
 50
67.545722999999995
 51
74.945623999999995
  0
ARC
  5
2C7
  8
0
 62
     7
 10
69.055557999999991
 20
150.235086
 30
0.0
 40
4.943397
 50
74.673039000000003
 51
83.848184999999987
  0
ARC
  5
2C8
  8
0
 62
     7
 10
68.797263999999998
 20
148.370035
 30
0.0
 40
6.8256249999999987
 50
83.370198000000002
 51
90.130082999999999
  0
ARC
  5
2C9
  8
0
 62
     7
 10
68.780764000000005
 20
148.28730699999991
 30
0.0
 40
6.9083360000000003
 50
89.991676999999996
 51
99.382267000000013
  0
ARC
  5
2CA
  8
0
 62
     7
 10
68.421326000000008
 20
150.62746200000001
 30
0.0
 40
4.5409689999999996
 50
99.721228999999994
 51
108.9953379999999
  0
ARC
  5
2CB
  8
0
 62
     7
 10
67.77329499999999
 20
152.59147699999991
 30
0.0
 40
2.473117999999999
 50
109.6099229999999
 51
118.10017999999999
  0
ARC
  5
2CC
  8
0
 62
     7
 10
67.268214999999984
 20
153.55369400000001
 30
0.0
 40
1.386444
 50
118.417326
 51
129.51412500000001
  0
ARC
  5
2CD
  8
0
 62
     7
 10
66.824184000000002
 20
154.0976399999999
 30
0.0
 40
0.6842930000000002
 50
129.81059999999991
 51
152.57008300000001
  0
ARC
  5
2CE
  8
0
 62
     7
 10
66.558577
 20
154.254018
 30
0.0
 40
0.376868
 50
155.07049599999999
 51
179.307804
  0
ARC
  5
2CF
  8
0
 62
     7
 10
66.544948000000005
 20
154.25941900000001
 30
0.0
 40
0.363213
 50
180.1338659999999
 51
210.62816799999999
  0
ARC
  5
2D0
  8
0
 62
     7
 10
66.749956000000012
 20
154.36692600000001
 30
0.0
 40
0.594511
 50
209.47775899999999
 51
226.95334299999999
  0
ARC
  5
2D1
  8
0
 62
     7
 10
67.109700000000004
 20
154.732146
 30
0.0
 40
1.107056
 50
226.24931099999989
 51
241.50493299999991
  0
LINE
  5
2D2
  8
0
 62
     7
 10
70.981499999999997
 20
153.77799999999991
 30
0.0
 11
70.981999999999999
 21
153.28100000000001
 31
0.0
  0
LINE
  5
2D3
  8
0
 62
     7
 10
66.581500000000005
 20
153.77799999999991
 30
0.0
 11
66.581900000000005
 21
153.28100000000001
 31
0.0
  0
ARC
  5
2D4
  8
0
 62
     7
 10
70.872698
 20
153.77759499999991
 30
0.0
 40
0.108777
 50
0.291562
 51
36.503318
  0
ARC
  5
2D5
  8
0
 62
     7
 10
70.784195999999994
 20
153.72148499999989
 30
0.0
 40
0.213428
 50
34.477567999999998
 51
48.669034000000003
  0
ARC
  5
2D6
  8
0
 62
     7
 10
70.655508999999995
 20
153.57682600000001
 30
0.0
 40
0.4070420000000001
 50
48.514474
 51
58.876796000000013
  0
ARC
  5
2D7
  8
0
 62
     7
 10
70.469296
 20
153.2717419999999
 30
0.0
 40
0.7644630000000001
 50
58.748079000000011
 51
66.346263000000022
  0
ARC
  5
2D8
  8
0
 62
     7
 10
70.210557999999992
 20
152.68865600000001
 30
0.0
 40
1.402372999999999
 50
66.221176
 51
71.777090999999999
  0
ARC
  5
2D9
  8
0
 62
     7
 10
69.909109000000001
 20
151.78226000000001
 30
0.0
 40
2.35758
 50
71.706926999999993
 51
76.007640000000009
  0
ARC
  5
2DA
  8
0
 62
     7
 10
69.460313999999997
 20
149.96781799999999
 30
0.0
 40
4.2267010000000003
 50
76.05155400000001
 51
82.505831999999984
  0
ARC
  5
2DB
  8
0
 62
     7
 10
68.95808000000001
 20
146.576832
 30
0.0
 40
7.6544270000000001
 50
82.089093000000005
 51
87.007968999999974
  0
ARC
  5
2DC
  8
0
 62
     7
 10
68.788605000000004
 20
144.02892
 30
0.0
 40
10.207777
 50
86.804490999999999
 51
90.040307999999982
  0
ARC
  5
2DD
  8
0
 62
     7
 10
68.778664000000006
 20
144.2387939999999
 30
0.0
 40
9.9979009999999988
 50
89.984183999999999
 51
95.595518999999996
  0
ARC
  5
2DE
  8
0
 62
     7
 10
68.417345999999995
 20
148.12466000000001
 30
0.0
 40
6.0953509999999991
 50
95.776900999999995
 51
101.2715589999999
  0
ARC
  5
2DF
  8
0
 62
     7
 10
67.778089000000008
 20
151.38269099999991
 30
0.0
 40
2.7752309999999998
 50
101.47567099999991
 51
109.319695
  0
ARC
  5
2E0
  8
0
 62
     7
 10
67.166931000000005
 20
153.14743999999999
 30
0.0
 40
0.9076920000000001
 50
109.768237
 51
123.570509
  0
ARC
  5
2E1
  8
0
 62
     7
 10
66.802266000000003
 20
153.70695499999999
 30
0.0
 40
0.239919
 50
124.8960449999999
 51
152.08798699999991
  0
ARC
  5
2E2
  8
0
 62
     7
 10
66.686695999999998
 20
153.77734099999989
 30
0.0
 40
0.105157
 50
156.5047899999999
 51
179.559876
  0
ARC
  5
2E3
  8
0
 62
     7
 10
70.098894999999985
 20
154.64208099999999
 30
0.0
 40
1.6957019999999989
 50
286.54722599999991
 51
294.82902899999999
  0
ARC
  5
2E4
  8
0
 62
     7
 10
70.54277900000001
 20
153.65320099999991
 30
0.0
 40
0.6119630000000002
 50
295.98901099999989
 51
305.11616199999997
  0
ARC
  5
2E5
  8
0
 62
     7
 10
70.755444999999995
 20
153.35738599999999
 30
0.0
 40
0.247685
 50
304.23834900000003
 51
331.35612300000003
  0
ARC
  5
2E6
  8
0
 62
     7
 10
70.877983999999998
 20
153.2813699999999
 30
0.0
 40
0.10401
 50
335.75186999999988
 51
359.5216069999999
  0
ARC
  5
2E7
  8
0
 62
     7
 10
70.873331999999991
 20
153.2799399999999
 30
0.0
 40
0.108659
 50
0.29614
 51
36.533346000000002
  0
ARC
  5
2E8
  8
0
 62
     7
 10
70.784512000000007
 20
153.22348600000001
 30
0.0
 40
0.213767
 50
34.519317999999998
 51
48.682635000000012
  0
ARC
  5
2E9
  8
0
 62
     7
 10
70.656455000000008
 20
153.079444
 30
0.0
 40
0.406499
 50
48.530675000000002
 51
58.907511000000007
  0
ARC
  5
2EA
  8
0
 62
     7
 10
70.469393999999994
 20
152.77280999999999
 30
0.0
 40
0.765686
 50
58.770227000000013
 51
66.356953000000004
  0
ARC
  5
2EB
  8
0
 62
     7
 10
70.211513999999994
 20
152.19131999999999
 30
0.0
 40
1.4017889999999991
 50
66.232907999999995
 51
71.792058999999995
  0
ARC
  5
2EC
  8
0
 62
     7
 10
69.906966999999995
 20
151.27473499999999
 30
0.0
 40
2.367642
 50
71.721986000000001
 51
76.005093000000002
  0
ARC
  5
2ED
  8
0
 62
     7
 10
69.459558000000001
 20
149.46253899999991
 30
0.0
 40
4.2342490000000002
 50
76.060902999999996
 51
82.504469999999984
  0
ARC
  5
2EE
  8
0
 62
     7
 10
68.957208999999992
 20
146.06492600000001
 30
0.0
 40
7.6685559999999988
 50
82.094712999999999
 51
87.004752999999994
  0
ARC
  5
2EF
  8
0
 62
     7
 10
68.78891800000001
 20
143.53170900000001
 30
0.0
 40
10.20716799999999
 50
86.804398000000006
 51
90.040136000000004
  0
ARC
  5
2F0
  8
0
 62
     7
 10
68.779004
 20
143.73571699999999
 30
0.0
 40
10.003158000000001
 50
89.984170999999989
 51
95.593414999999993
  0
ARC
  5
2F1
  8
0
 62
     7
 10
68.417757999999992
 20
147.624943
 30
0.0
 40
6.0972710000000001
 50
95.777143999999964
 51
101.269854
  0
ARC
  5
2F2
  8
0
 62
     7
 10
67.779014000000004
 20
150.882014
 30
0.0
 40
2.778192999999999
 50
101.478211
 51
109.312501
  0
ARC
  5
2F3
  8
0
 62
     7
 10
67.167027000000004
 20
152.6499179999999
 30
0.0
 40
0.907402
 50
109.76283100000001
 51
123.56585099999999
  0
ARC
  5
2F4
  8
0
 62
     7
 10
66.802576999999999
 20
153.20923500000001
 30
0.0
 40
0.239913
 50
124.8950959999999
 51
152.0763189999999
  0
ARC
  5
2F5
  8
0
 62
     7
 10
66.687061
 20
153.2796689999999
 30
0.0
 40
0.105177
 50
156.51422999999991
 51
179.54652999999999
  0
ARC
  5
2F6
  8
0
 62
     7
 10
66.688449000000006
 20
153.2809509999999
 30
0.0
 40
0.106564
 50
180.24167299999999
 51
215.54154500000001
  0
ARC
  5
2F7
  8
0
 62
     7
 10
66.776494999999997
 20
153.33550299999999
 30
0.0
 40
0.210026
 50
213.68843899999999
 51
227.690596
  0
ARC
  5
2F8
  8
0
 62
     7
 10
66.896323999999993
 20
153.46640899999991
 30
0.0
 40
0.387495
 50
227.61682599999989
 51
237.94479399999989
  0
ARC
  5
2F9
  8
0
 62
     7
 10
67.079035000000005
 20
153.75626699999989
 30
0.0
 40
0.730133
 50
237.86504199999999
 51
245.65187099999989
  0
ARC
  5
2FA
  8
0
 62
     7
 10
67.381171999999992
 20
154.424982
 30
0.0
 40
1.4639359999999999
 50
245.668837
 51
254.16424499999999
  0
ARC
  5
2FB
  8
0
 62
     7
 10
70.500158999999996
 20
153.27988599999989
 30
0.0
 40
0.081683
 50
0.4316620000000001
 51
41.750158999999996
  0
ARC
  5
2FC
  8
0
 62
     7
 10
70.408876000000006
 20
153.21159299999991
 30
0.0
 40
0.195508
 50
38.867097999999999
 51
53.498339999999999
  0
ARC
  5
2FD
  8
0
 62
     7
 10
70.28398
 20
153.045717
 30
0.0
 40
0.403144
 50
53.25308299999999
 51
63.329875000000008
  0
ARC
  5
2FE
  8
0
 62
     7
 10
70.092476000000005
 20
152.67166
 30
0.0
 40
0.8233659999999998
 50
63.104927000000011
 51
69.941015000000007
  0
ARC
  5
2FF
  8
0
 62
     7
 10
69.836815000000001
 20
151.97515100000001
 30
0.0
 40
1.565313999999999
 50
69.894953000000015
 51
75.182946000000001
  0
ARC
  5
300
  8
0
 62
     7
 10
69.541271999999992
 20
150.873729
 30
0.0
 40
2.7056939999999989
 50
75.097292999999993
 51
79.062379000000007
  0
ARC
  5
301
  8
0
 62
     7
 10
69.141029000000003
 20
148.789075
 30
0.0
 40
4.8284219999999989
 50
79.092872999999983
 51
85.230722999999998
  0
ARC
  5
302
  8
0
 62
     7
 10
68.809108999999992
 20
145.48438599999989
 30
0.0
 40
8.1494590000000002
 50
84.836950000000002
 51
90.192230000000009
  0
ARC
  5
303
  8
0
 62
     7
 10
68.782142000000007
 20
145.06140199999999
 30
0.0
 40
8.5723970000000005
 50
90.002502000000007
 51
96.128095999999999
  0
ARC
  5
304
  8
0
 62
     7
 10
68.361324999999994
 20
149.1890919999999
 30
0.0
 40
4.4234260000000001
 50
96.415982
 51
102.6480279999999
  0
ARC
  5
305
  8
0
 62
     7
 10
67.740495999999993
 20
151.97552999999991
 30
0.0
 40
1.568673999999999
 50
102.80725099999999
 51
113.50995899999999
  0
ARC
  5
306
  8
0
 62
     7
 10
67.267090999999994
 20
153.07790900000001
 30
0.0
 40
0.369
 50
114.3858339999999
 51
135.04012599999999
  0
ARC
  5
307
  8
0
 62
     7
 10
67.077493000000004
 20
153.2746249999999
 30
0.0
 40
0.095981
 50
138.160448
 51
176.48985599999989
  0
ARC
  5
308
  8
0
 62
     7
 10
70.49951999999999
 20
151.03004899999991
 30
0.0
 40
0.081806
 50
0.433537
 51
41.717495999999997
  0
ARC
  5
309
  8
0
 62
     7
 10
70.407717000000005
 20
150.961263
 30
0.0
 40
0.196347
 50
38.872126000000002
 51
53.448277000000012
  0
ARC
  5
30A
  8
0
 62
     7
 10
70.283160999999993
 20
150.79560799999999
 30
0.0
 40
0.4036020000000001
 50
53.249083999999989
 51
63.317972999999988
  0
ARC
  5
30B
  8
0
 62
     7
 10
70.093202000000005
 20
150.42500899999999
 30
0.0
 40
0.820043
 50
63.086225000000013
 51
69.950694999999996
  0
ARC
  5
30C
  8
0
 62
     7
 10
69.839174999999997
 20
149.735255
 30
0.0
 40
1.5550850000000001
 50
69.870919999999998
 51
75.194528000000005
  0
ARC
  5
30D
  8
0
 62
     7
 10
69.540852999999998
 20
148.626
 30
0.0
 40
2.7037490000000002
 50
75.089392000000004
 51
79.057434000000001
  0
ARC
  5
30E
  8
0
 62
     7
 10
69.141413
 20
146.5471639999999
 30
0.0
 40
4.8206119999999997
 50
79.086408000000006
 51
85.233847999999995
  0
ARC
  5
30F
  8
0
 62
     7
 10
68.809153000000009
 20
143.25036399999999
 30
0.0
 40
8.1338200000000001
 50
84.831034000000002
 51
90.195331999999993
  0
ARC
  5
310
  8
0
 62
     7
 10
68.781794999999988
 20
142.81366199999999
 30
0.0
 40
8.5704750000000001
 50
90.002484999999993
 51
96.129456999999988
  0
ARC
  5
311
  8
0
 62
     7
 10
68.36032800000001
 20
146.94447099999991
 30
0.0
 40
4.4183329999999996
 50
96.41489399999999
 51
102.65417600000001
  0
ARC
  5
312
  8
0
 62
     7
 10
67.740157999999994
 20
149.72649499999989
 30
0.0
 40
1.5680329999999989
 50
102.8128249999999
 51
113.520409
  0
ARC
  5
313
  8
0
 62
     7
 10
67.266789000000003
 20
150.82826
 30
0.0
 40
0.368938
 50
114.397453
 51
135.0591629999999
  0
ARC
  5
314
  8
0
 62
     7
 10
67.077321999999995
 20
151.024778
 30
0.0
 40
0.096154
 50
138.1996419999999
 51
176.4883669999999
  0
ARC
  5
315
  8
0
 62
     7
 10
67.063151000000005
 20
151.03128699999999
 30
0.0
 40
0.081806
 50
180.43355699999989
 51
221.71751599999999
  0
ARC
  5
316
  8
0
 62
     7
 10
67.154815999999997
 20
151.0999469999999
 30
0.0
 40
0.19616
 50
218.8688919999999
 51
233.46012699999989
  0
ARC
  5
317
  8
0
 62
     7
 10
67.279263
 20
151.2652919999999
 30
0.0
 40
0.403102
 50
233.24087800000001
 51
243.32164
  0
ARC
  5
318
  8
0
 62
     7
 10
67.469740999999999
 20
151.6369929999999
 30
0.0
 40
0.8207600000000001
 50
243.09032400000001
 51
249.949139
  0
ARC
  5
319
  8
0
 62
     7
 10
67.723759000000001
 20
152.3269479999999
 30
0.0
 40
1.555987999999999
 50
249.87303099999991
 51
255.19373799999991
  0
ARC
  5
31A
  8
0
 62
     7
 10
68.021460000000005
 20
153.43385799999999
 30
0.0
 40
2.702226
 50
255.08891899999989
 51
259.05942099999987
  0
ARC
  5
31B
  8
0
 62
     7
 10
68.421261999999999
 20
155.5142909999999
 30
0.0
 40
4.8207259999999996
 50
259.08689800000002
 51
265.23469999999992
  0
ARC
  5
31C
  8
0
 62
     7
 10
68.753668000000005
 20
158.81283699999989
 30
0.0
 40
8.1356850000000005
 50
264.83164199999999
 51
270.19546700000001
  0
ARC
  5
31D
  8
0
 62
     7
 10
68.781045999999989
 20
159.245508
 30
0.0
 40
8.5683089999999993
 50
270.002521
 51
276.13025299999998
  0
ARC
  5
31E
  8
0
 62
     7
 10
69.202344999999994
 20
155.11671699999999
 30
0.0
 40
4.4181929999999987
 50
276.41579899999999
 51
282.65479799999991
  0
ARC
  5
31F
  8
0
 62
     7
 10
69.822541999999984
 20
152.334689
 30
0.0
 40
1.5678819999999991
 50
282.81359399999991
 51
293.52165200000002
  0
ARC
  5
320
  8
0
 62
     7
 10
70.295881999999992
 20
151.23307600000001
 30
0.0
 40
0.368938
 50
294.39747299999988
 51
315.05918199999991
  0
ARC
  5
321
  8
0
 62
     7
 10
70.485348999999985
 20
151.03655800000001
 30
0.0
 40
0.096154
 50
318.19966099999999
 51
356.48838699999999
  0
LINE
  5
322
  8
0
 62
     7
 10
51.582000000000001
 20
126.232
 30
0.0
 11
48.781999999999989
 21
126.23099999999999
 31
0.0
  0
LINE
  5
323
  8
0
 62
     7
 10
48.781999999999989
 20
126.23099999999999
 30
0.0
 11
45.98149999999999
 21
126.23099999999999
 31
0.0
  0
LINE
  5
324
  8
0
 62
     7
 10
155.71600000000001
 20
126.232
 30
0.0
 11
158.51599999999991
 21
126.23099999999999
 31
0.0
  0
LINE
  5
325
  8
0
 62
     7
 10
158.51599999999991
 20
126.23099999999999
 30
0.0
 11
161.31700000000001
 21
126.23099999999999
 31
0.0
  0
LINE
  5
326
  8
0
  6
AIGENLINE001
 62
     7
 10
166.98099999999999
 20
136.06
 30
0.0
 11
150.41599999999991
 21
136.06
 31
0.0
  0
LINE
  5
327
  8
0
 62
     7
 10
85.981199999999987
 20
126.232
 30
0.0
 11
88.781400000000005
 21
126.23099999999999
 31
0.0
  0
LINE
  5
328
  8
0
 62
     7
 10
88.781400000000005
 20
126.23099999999999
 30
0.0
 11
91.581900000000005
 21
126.23099999999999
 31
0.0
  0
LINE
  5
329
  8
0
 62
     7
 10
83.709100000000007
 20
124.2909999999999
 30
0.0
 11
83.333899999999986
 21
124.215
 31
0.0
  0
ARC
  5
32A
  8
0
 62
     7
 10
83.335562999999993
 20
125.998392
 30
0.0
 40
1.748238
 50
282.33769999999993
 51
347.76571899999988
  0
LINE
  5
32B
  8
0
 62
     7
 10
82.6584
 20
123.5119999999999
 30
0.0
 11
82.581199999999995
 21
123.03100000000001
 31
0.0
  0
ARC
  5
32C
  8
0
 62
     7
 10
83.52259699999999
 20
123.35761599999989
 30
0.0
 40
0.877973
 50
102.4082769999999
 51
169.854016
  0
ARC
  5
32D
  8
0
 62
     7
 10
85.708994000000004
 20
125.563537
 30
0.0
 40
0.667974
 50
91.846281999999974
 51
174.49825699999991
  0
LINE
  5
32E
  8
0
 62
     7
 10
93.854299999999995
 20
124.2909999999999
 30
0.0
 11
94.229500000000002
 21
124.215
 31
0.0
  0
ARC
  5
32F
  8
0
 62
     7
 10
94.227587999999997
 20
125.9979129999999
 30
0.0
 40
1.7477149999999999
 50
192.22195099999999
 51
257.66727700000001
  0
LINE
  5
330
  8
0
 62
     7
 10
94.905100000000004
 20
123.5119999999999
 30
0.0
 11
94.982100000000003
 21
123.03100000000001
 31
0.0
  0
ARC
  5
331
  8
0
 62
     7
 10
94.040650999999997
 20
123.35746
 30
0.0
 40
0.8781600000000001
 50
10.154123999999999
 51
77.583543000000006
  0
ARC
  5
332
  8
0
 62
     7
 10
91.853832999999995
 20
125.562725
 30
0.0
 40
0.668804
 50
5.5647469999999997
 51
88.105981999999983
  0
LINE
  5
333
  8
0
 62
     7
 10
86.881399999999999
 20
103.831
 30
0.0
 11
86.681200000000004
 21
104.03100000000001
 31
0.0
  0
LINE
  5
334
  8
0
 62
     7
 10
86.881399999999999
 20
103.831
 30
0.0
 11
88.781700000000001
 21
103.831
 31
0.0
  0
LINE
  5
335
  8
0
 62
     7
 10
86.681200000000004
 20
104.03100000000001
 30
0.0
 11
88.781400000000005
 21
104.03100000000001
 31
0.0
  0
LINE
  5
336
  8
0
 62
     7
 10
86.181299999999979
 20
112.23099999999999
 30
0.0
 11
86.381100000000004
 21
112.4309999999999
 31
0.0
  0
LINE
  5
337
  8
0
 62
     7
 10
86.181299999999979
 20
110.331
 30
0.0
 11
86.181299999999979
 21
112.23099999999999
 31
0.0
  0
LINE
  5
338
  8
0
 62
     7
 10
86.181299999999979
 20
105.831
 30
0.0
 11
86.181299999999979
 21
107.3309999999999
 31
0.0
  0
LINE
  5
339
  8
0
 62
     7
 10
86.881399999999999
 20
103.831
 30
0.0
 11
86.881399999999999
 21
105.831
 31
0.0
  0
LINE
  5
33A
  8
0
 62
     7
 10
86.681200000000004
 20
104.03100000000001
 30
0.0
 11
86.681200000000004
 21
105.831
 31
0.0
  0
LINE
  5
33B
  8
0
 62
     7
 10
86.181299999999979
 20
105.831
 30
0.0
 11
88.781400000000005
 21
105.831
 31
0.0
  0
LINE
  5
33C
  8
0
 62
     7
 10
86.181299999999979
 20
112.4309999999999
 30
0.0
 11
88.781700000000001
 21
112.4309999999999
 31
0.0
  0
LINE
  5
33D
  8
0
 62
     7
 10
86.381100000000004
 20
112.4309999999999
 30
0.0
 11
86.381100000000004
 21
115.6309999999999
 31
0.0
  0
LINE
  5
33E
  8
0
 62
     7
 10
86.181299999999979
 20
112.23099999999999
 30
0.0
 11
86.181299999999979
 21
115.6309999999999
 31
0.0
  0
LINE
  5
33F
  8
0
 62
     7
 10
86.181299999999979
 20
112.23099999999999
 30
0.0
 11
88.781400000000005
 21
112.23099999999999
 31
0.0
  0
LINE
  5
340
  8
0
 62
     7
 10
86.981300000000005
 20
112.23099999999999
 30
0.0
 11
88.781400000000005
 21
112.23099999999999
 31
0.0
  0
LINE
  5
341
  8
0
 62
     7
 10
86.981300000000005
 20
115.6309999999999
 30
0.0
 11
86.981300000000005
 21
116.6309999999999
 31
0.0
  0
LINE
  5
342
  8
0
 62
     7
 10
85.181399999999996
 20
115.6309999999999
 30
0.0
 11
85.181399999999996
 21
116.6309999999999
 31
0.0
  0
LINE
  5
343
  8
0
 62
     7
 10
85.181399999999996
 20
115.6309999999999
 30
0.0
 11
86.981300000000005
 21
115.6309999999999
 31
0.0
  0
LINE
  5
344
  8
0
 62
     7
 10
86.981300000000005
 20
115.6309999999999
 30
0.0
 11
88.781400000000005
 21
115.6309999999999
 31
0.0
  0
LINE
  5
345
  8
0
 62
     7
 10
84.381299999999996
 20
116.6309999999999
 30
0.0
 11
84.381299999999996
 21
117.03100000000001
 31
0.0
  0
LINE
  5
346
  8
0
 62
     7
 10
84.381299999999996
 20
116.6309999999999
 30
0.0
 11
88.781400000000005
 21
116.6309999999999
 31
0.0
  0
LINE
  5
347
  8
0
 62
     7
 10
84.381299999999996
 20
116.8309999999999
 30
0.0
 11
88.781400000000005
 21
116.8309999999999
 31
0.0
  0
LINE
  5
348
  8
0
 62
     7
 10
84.381299999999996
 20
117.03100000000001
 30
0.0
 11
88.781400000000005
 21
117.03100000000001
 31
0.0
  0
LINE
  5
349
  8
0
 62
     7
 10
86.381100000000004
 20
117.03100000000001
 30
0.0
 11
86.381100000000004
 21
123.03100000000001
 31
0.0
  0
LINE
  5
34A
  8
0
 62
     7
 10
86.181299999999979
 20
117.03100000000001
 30
0.0
 11
86.181299999999979
 21
123.03100000000001
 31
0.0
  0
LINE
  5
34B
  8
0
 62
     7
 10
85.687499999999986
 20
126.23099999999999
 30
0.0
 11
88.781400000000005
 21
126.23099999999999
 31
0.0
  0
LINE
  5
34C
  8
0
 62
     7
 10
85.176400000000001
 20
124.631
 30
0.0
 11
88.781400000000005
 21
124.631
 31
0.0
  0
LINE
  5
34D
  8
0
 62
     7
 10
82.581199999999995
 20
123.03100000000001
 30
0.0
 11
88.781400000000005
 21
123.03100000000001
 31
0.0
  0
LINE
  5
34E
  8
0
 62
     7
 10
90.682199999999995
 20
103.831
 30
0.0
 11
90.882400000000004
 21
104.03100000000001
 31
0.0
  0
LINE
  5
34F
  8
0
 62
     7
 10
90.682199999999995
 20
103.831
 30
0.0
 11
88.781700000000001
 21
103.831
 31
0.0
  0
LINE
  5
350
  8
0
 62
     7
 10
90.882400000000004
 20
104.03100000000001
 30
0.0
 11
88.782200000000003
 21
104.03100000000001
 31
0.0
  0
LINE
  5
351
  8
0
 62
     7
 10
91.382099999999994
 20
112.23099999999999
 30
0.0
 11
91.182299999999998
 21
112.4309999999999
 31
0.0
  0
LINE
  5
352
  8
0
 62
     7
 10
91.382099999999994
 20
105.831
 30
0.0
 11
91.382099999999994
 21
112.23099999999999
 31
0.0
  0
LINE
  5
353
  8
0
 62
     7
 10
90.682199999999995
 20
103.831
 30
0.0
 11
90.682199999999995
 21
105.831
 31
0.0
  0
LINE
  5
354
  8
0
 62
     7
 10
90.882400000000004
 20
104.03100000000001
 30
0.0
 11
90.882400000000004
 21
105.831
 31
0.0
  0
LINE
  5
355
  8
0
 62
     7
 10
91.382099999999994
 20
105.831
 30
0.0
 11
88.782200000000003
 21
105.831
 31
0.0
  0
LINE
  5
356
  8
0
 62
     7
 10
91.382099999999994
 20
112.4309999999999
 30
0.0
 11
88.781700000000001
 21
112.4309999999999
 31
0.0
  0
LINE
  5
357
  8
0
 62
     7
 10
91.182299999999998
 20
112.4309999999999
 30
0.0
 11
91.182299999999998
 21
115.6309999999999
 31
0.0
  0
LINE
  5
358
  8
0
 62
     7
 10
91.382099999999994
 20
112.23099999999999
 30
0.0
 11
91.382099999999994
 21
115.6309999999999
 31
0.0
  0
LINE
  5
359
  8
0
 62
     7
 10
91.382099999999994
 20
112.23099999999999
 30
0.0
 11
88.782200000000003
 21
112.23099999999999
 31
0.0
  0
LINE
  5
35A
  8
0
 62
     7
 10
90.582099999999997
 20
112.23099999999999
 30
0.0
 11
88.782200000000003
 21
112.23099999999999
 31
0.0
  0
LINE
  5
35B
  8
0
 62
     7
 10
90.582099999999997
 20
115.6309999999999
 30
0.0
 11
90.582099999999997
 21
116.6309999999999
 31
0.0
  0
LINE
  5
35C
  8
0
 62
     7
 10
92.382199999999997
 20
115.6309999999999
 30
0.0
 11
92.382199999999997
 21
116.6309999999999
 31
0.0
  0
LINE
  5
35D
  8
0
 62
     7
 10
92.382199999999997
 20
115.6309999999999
 30
0.0
 11
90.582099999999997
 21
115.6309999999999
 31
0.0
  0
LINE
  5
35E
  8
0
 62
     7
 10
90.582099999999997
 20
115.6309999999999
 30
0.0
 11
88.782200000000003
 21
115.6309999999999
 31
0.0
  0
LINE
  5
35F
  8
0
 62
     7
 10
93.182000000000002
 20
116.6309999999999
 30
0.0
 11
93.182000000000002
 21
117.03100000000001
 31
0.0
  0
LINE
  5
360
  8
0
 62
     7
 10
93.182000000000002
 20
116.6309999999999
 30
0.0
 11
88.782200000000003
 21
116.6309999999999
 31
0.0
  0
LINE
  5
361
  8
0
 62
     7
 10
93.182000000000002
 20
116.8309999999999
 30
0.0
 11
88.782200000000003
 21
116.8309999999999
 31
0.0
  0
LINE
  5
362
  8
0
 62
     7
 10
93.182000000000002
 20
117.03100000000001
 30
0.0
 11
88.782200000000003
 21
117.03100000000001
 31
0.0
  0
LINE
  5
363
  8
0
 62
     7
 10
91.182299999999998
 20
117.03100000000001
 30
0.0
 11
91.182299999999998
 21
123.03100000000001
 31
0.0
  0
LINE
  5
364
  8
0
 62
     7
 10
91.382099999999994
 20
117.03100000000001
 30
0.0
 11
91.382099999999994
 21
123.03100000000001
 31
0.0
  0
LINE
  5
365
  8
0
 62
     7
 10
91.875900000000001
 20
126.23099999999999
 30
0.0
 11
88.782200000000003
 21
126.23099999999999
 31
0.0
  0
LINE
  5
366
  8
0
 62
     7
 10
92.387200000000007
 20
124.631
 30
0.0
 11
88.782200000000003
 21
124.631
 31
0.0
  0
LINE
  5
367
  8
0
 62
     7
 10
94.982100000000003
 20
123.03100000000001
 30
0.0
 11
88.782200000000003
 21
123.03100000000001
 31
0.0
  0
LINE
  5
368
  8
0
  6
AIGENLINE001
 62
     7
 10
88.781700000000001
 20
103.16799999999991
 30
0.0
 11
88.781700000000001
 21
141.7239999999999
 31
0.0
  0
LINE
  5
369
  8
0
 62
     7
 10
70.581500000000005
 20
153.28100000000001
 30
0.0
 11
70.581500000000005
 21
137.63099999999989
 31
0.0
  0
LINE
  5
36A
  8
0
 62
     7
 10
70.581500000000005
 20
163.23099999999991
 30
0.0
 11
70.581500000000005
 21
155.238
 31
0.0
  0
LINE
  5
36B
  8
0
 62
     7
 10
71.581599999999995
 20
132.23099999999991
 30
0.0
 11
71.581599999999995
 21
131.03499999999991
 31
0.0
  0
ARC
  5
36C
  8
0
 62
     7
 10
72.085498000000001
 20
126.32708
 30
0.0
 40
0.10397
 50
92.108804000000006
 51
177.98969700000001
  0
ARC
  5
36D
  8
0
 62
     7
 10
72.085666000000003
 20
126.3345429999999
 30
0.0
 40
0.104145
 50
182.09943999999999
 51
267.80205799999999
  0
LINE
  5
36E
  8
0
 62
     7
 10
72.081699999999984
 20
126.2299999999999
 30
0.0
 11
72.081800000000001
 21
126.2299999999999
 31
0.0
  0
LINE
  5
36F
  8
0
 62
     7
 10
69.281999999999996
 20
126.431
 30
0.0
 11
71.524900000000002
 21
126.431
 31
0.0
  0
ARC
  5
370
  8
0
 62
     7
 10
71.662407999999999
 20
132.75020000000001
 30
0.0
 40
0.5197230000000001
 50
272.12665499999991
 51
357.81411400000002
  0
ARC
  5
371
  8
0
 62
     7
 10
71.681607
 20
132.7304629999999
 30
0.0
 40
0.500145
 50
359.99014299999999
 51
89.990113000000008
  0
LINE
  5
372
  8
0
 62
     7
 10
68.781400000000005
 20
132.23099999999991
 30
0.0
 11
71.681700000000006
 21
132.23099999999991
 31
0.0
  0
ARC
  5
373
  8
0
 62
     7
 10
70.766363999999996
 20
137.24602699999991
 30
0.0
 40
0.415553
 50
272.10907500000002
 51
357.8909339999999
  0
ARC
  5
374
  8
0
 62
     7
 10
70.766358999999994
 20
137.21543600000001
 30
0.0
 40
0.415558
 50
2.109726999999999
 51
87.890263000000004
  0
LINE
  5
375
  8
0
 62
     7
 10
68.781400000000005
 20
137.63099999999989
 30
0.0
 11
70.781700000000001
 21
137.63099999999989
 31
0.0
  0
LINE
  5
376
  8
0
 62
     7
 10
68.781400000000005
 20
136.83099999999999
 30
0.0
 11
70.781700000000001
 21
136.83099999999999
 31
0.0
  0
LINE
  5
377
  8
0
 62
     7
 10
68.781400000000005
 20
133.23099999999991
 30
0.0
 11
71.681700000000006
 21
133.23099999999991
 31
0.0
  0
LINE
  5
378
  8
0
 62
     7
 10
73.081599999999995
 20
125.041
 30
0.0
 11
73.081599999999995
 21
125.51000000000001
 31
0.0
  0
ARC
  5
379
  8
0
 62
     7
 10
74.091553000000005
 20
125.0410479999999
 30
0.0
 40
1.0099359999999999
 50
180.00978199999989
 51
270.009792
  0
LINE
  5
37A
  8
0
 62
     7
 10
74.936599999999999
 20
123.31100000000001
 30
0.0
 11
74.981800000000007
 21
123.03100000000001
 31
0.0
  0
ARC
  5
37B
  8
0
 62
     7
 10
74.068083999999999
 20
123.14763600000001
 30
0.0
 40
0.883802
 50
10.657387999999999
 51
88.444811999999999
  0
LINE
  5
37C
  8
0
 62
     7
 10
68.781400000000005
 20
124.03100000000001
 30
0.0
 11
73.081599999999995
 21
124.03100000000001
 31
0.0
  0
LINE
  5
37D
  8
0
 62
     7
 10
69.281999999999996
 20
126.2299999999999
 30
0.0
 11
72.236999999999995
 21
126.2299999999999
 31
0.0
  0
LINE
  5
37E
  8
0
 62
     7
 10
68.781400000000005
 20
123.03100000000001
 30
0.0
 11
74.981800000000007
 21
123.03100000000001
 31
0.0
  0
ARC
  5
37F
  8
0
 62
     7
 10
68.712582999999995
 20
163.1618499999999
 30
0.0
 40
1.8701799999999991
 50
2.109464
 51
87.890525999999994
  0
ARC
  5
380
  8
0
 62
     7
 10
68.781508000000002
 20
163.23077499999999
 30
0.0
 40
1.7999879999999999
 50
90.002741999999984
 51
180.00275099999999
  0
LINE
  5
381
  8
0
 62
     7
 10
66.981499999999997
 20
153.28100000000001
 30
0.0
 11
66.981499999999997
 21
137.63099999999989
 31
0.0
  0
LINE
  5
382
  8
0
 62
     7
 10
66.981499999999997
 20
163.23099999999991
 30
0.0
 11
66.981499999999997
 21
155.238
 31
0.0
  0
LINE
  5
383
  8
0
 62
     7
 10
160.20699999999991
 20
54.875900000000001
 30
0.0
 11
159.20699999999991
 21
54.875900000000001
 31
0.0
  0
LINE
  5
384
  8
0
 62
     7
 10
68.281499999999994
 20
55.003399999999999
 30
0.0
 11
69.281700000000001
 21
55.003399999999999
 31
0.0
  0
LINE
  5
385
  8
0
 62
     7
 10
66.281599999999997
 20
116.73099999999999
 30
0.0
 11
66.281599999999997
 21
112.331
 31
0.0
  0
LINE
  5
386
  8
0
 62
     7
 10
68.281499999999994
 20
116.73099999999999
 30
0.0
 11
68.281499999999994
 21
112.331
 31
0.0
  0
LINE
  5
387
  8
0
 62
     7
 10
67.781599999999983
 20
116.73099999999999
 30
0.0
 11
67.781599999999983
 21
112.331
 31
0.0
  0
LINE
  5
388
  8
0
 62
     7
 10
66.781700000000001
 20
116.73099999999999
 30
0.0
 11
66.781700000000001
 21
112.331
 31
0.0
  0
LINE
  5
389
  8
0
 62
     7
 10
68.281499999999994
 20
112.331
 30
0.0
 11
66.281599999999997
 21
112.331
 31
0.0
  0
LINE
  5
38A
  8
0
 62
     7
 10
69.281700000000001
 20
116.73099999999999
 30
0.0
 11
69.281700000000001
 21
55.003399999999999
 31
0.0
  0
LINE
  5
38B
  8
0
 62
     7
 10
69.281700000000001
 20
123.03100000000001
 30
0.0
 11
69.281700000000001
 21
117.6309999999999
 31
0.0
  0
LINE
  5
38C
  8
0
 62
     7
 10
72.881600000000006
 20
117.6309999999999
 30
0.0
 11
72.881600000000006
 21
116.73099999999999
 31
0.0
  0
LINE
  5
38D
  8
0
 62
     7
 10
72.881600000000006
 20
116.73099999999999
 30
0.0
 11
67.281400000000005
 21
116.73099999999999
 31
0.0
  0
LINE
  5
38E
  8
0
 62
     7
 10
72.881600000000006
 20
117.331
 30
0.0
 11
67.281599999999983
 21
117.331
 31
0.0
  0
LINE
  5
38F
  8
0
 62
     7
 10
72.881600000000006
 20
117.6309999999999
 30
0.0
 11
67.281400000000005
 21
117.6309999999999
 31
0.0
  0
LINE
  5
390
  8
0
 62
     7
 10
63.281500000000001
 20
117.6309999999999
 30
0.0
 11
63.281500000000001
 21
116.73099999999999
 31
0.0
  0
LINE
  5
391
  8
0
  6
AIGENLINE001
 62
     7
 10
67.281599999999983
 20
123.03100000000001
 30
0.0
 11
67.281599999999983
 21
109.31399999999999
 31
0.0
  0
LINE
  5
392
  8
0
 62
     7
 10
67.881600000000006
 20
123.03100000000001
 30
0.0
 11
67.881600000000006
 21
117.6309999999999
 31
0.0
  0
LINE
  5
393
  8
0
 62
     7
 10
66.681600000000003
 20
123.03100000000001
 30
0.0
 11
66.681600000000003
 21
117.6309999999999
 31
0.0
  0
LINE
  5
394
  8
0
 62
     7
 10
67.281400000000005
 20
116.73099999999999
 30
0.0
 11
63.281500000000001
 21
116.73099999999999
 31
0.0
  0
LINE
  5
395
  8
0
 62
     7
 10
67.281599999999983
 20
117.331
 30
0.0
 11
63.281599999999997
 21
117.331
 31
0.0
  0
LINE
  5
396
  8
0
 62
     7
 10
67.281400000000005
 20
117.6309999999999
 30
0.0
 11
63.281500000000001
 21
117.6309999999999
 31
0.0
  0
LINE
  5
397
  8
0
 62
     7
 10
68.281499999999994
 20
116.73099999999999
 30
0.0
 11
68.281199999999998
 21
55.003399999999999
 31
0.0
  0
LINE
  5
398
  8
0
 62
     7
 10
68.281499999999994
 20
123.03100000000001
 30
0.0
 11
68.281499999999994
 21
117.6309999999999
 31
0.0
  0
ARC
  5
399
  8
0
 62
     7
 10
71.448651999999996
 20
134.82618500000001
 30
0.0
 40
0.473703
 50
0.5244170000000001
 51
10.733665
  0
ARC
  5
39A
  8
0
 62
     7
 10
71.370897999999997
 20
133.71862200000001
 30
0.0
 40
0.079582
 50
273.63173299999988
 51
292.361088
  0
ARC
  5
39B
  8
0
 62
     7
 10
71.340531999999996
 20
133.79593399999999
 30
0.0
 40
0.162639
 50
291.89260899999999
 51
306.86414300000001
  0
ARC
  5
39C
  8
0
 62
     7
 10
71.221423999999999
 20
133.95782700000001
 30
0.0
 40
0.363623
 50
306.57594
 51
317.26584100000002
  0
ARC
  5
39D
  8
0
 62
     7
 10
70.936323999999999
 20
134.226215
 30
0.0
 40
0.7551680000000001
 50
316.98771099999988
 51
324.30285199999997
  0
ARC
  5
39E
  8
0
 62
     7
 10
70.435516000000007
 20
134.5897929999999
 30
0.0
 40
1.374031999999999
 50
324.17589199999992
 51
329.88929000000002
  0
ARC
  5
39F
  8
0
 62
     7
 10
69.606335999999999
 20
135.06960799999999
 30
0.0
 40
2.3320310000000002
 50
329.91163999999992
 51
341.4006819999999
  0
ARC
  5
3A0
  8
0
 62
     7
 10
69.529484999999994
 20
135.119384
 30
0.0
 40
2.4208500000000002
 50
340.86425799999989
 51
348.00916000000001
  0
ARC
  5
3A1
  8
0
 62
     7
 10
70.756178000000006
 20
134.857247
 30
0.0
 40
1.166463
 50
348.08601699999991
 51
358.68710399999992
  0
ARC
  5
3A2
  8
0
 62
     7
 10
71.579931000000002
 20
134.8157929999999
 30
0.0
 40
0.348385
 50
16.443355
 51
48.561366999999997
  0
ARC
  5
3A3
  8
0
 62
     7
 10
71.441597000000002
 20
134.6782639999999
 30
0.0
 40
0.543186
 50
47.223215999999987
 51
74.845908999999992
  0
ARC
  5
3A4
  8
0
 62
     7
 10
71.378636
 20
134.50936799999991
 30
0.0
 40
0.7228590000000001
 50
73.528532999999996
 51
90.213738999999975
  0
ARC
  5
3A5
  8
0
 62
     7
 10
71.145014000000003
 20
134.84181299999989
 30
0.0
 40
0.315328
 50
166.68965800000001
 51
182.05225999999999
  0
ARC
  5
3A6
  8
0
 62
     7
 10
71.554416000000003
 20
134.8270159999999
 30
0.0
 40
0.724536
 50
179.72277999999989
 51
185.41460299999989
  0
ARC
  5
3A7
  8
0
 62
     7
 10
72.075051000000002
 20
134.87385499999991
 30
0.0
 40
1.2472700000000001
 50
185.29988299999991
 51
190.99415400000001
  0
ARC
  5
3A8
  8
0
 62
     7
 10
73.176618999999988
 20
135.09341499999999
 30
0.0
 40
2.3704990000000001
 50
191.12593399999989
 51
210.75983400000001
  0
ARC
  5
3A9
  8
0
 62
     7
 10
72.165066999999993
 20
134.49840699999999
 30
0.0
 40
1.196957
 50
211.04928899999999
 51
221.00636299999999
  0
ARC
  5
3AA
  8
0
 62
     7
 10
71.527648999999997
 20
133.95498000000001
 30
0.0
 40
0.3594650000000001
 50
222.30498999999989
 51
234.34917599999989
  0
ARC
  5
3AB
  8
0
 62
     7
 10
71.393309000000002
 20
133.7639639999999
 30
0.0
 40
0.125968
 50
233.36208999999999
 51
262.07424900000001
  0
ARC
  5
3AC
  8
0
 62
     7
 10
71.376558000000003
 20
134.5160909999999
 30
0.0
 40
0.7161310000000001
 50
90.035689000000005
 51
118.935928
  0
ARC
  5
3AD
  8
0
 62
     7
 10
71.264882999999998
 20
134.740623
 30
0.0
 40
0.4657250000000001
 50
120.277323
 51
148.88683599999999
  0
ARC
  5
3AE
  8
0
 62
     7
 10
71.153776000000008
 20
134.82155700000001
 30
0.0
 40
0.328994
 50
150.9560239999999
 51
163.606537
  0
ARC
  5
3AF
  8
0
 62
     7
 10
66.287086000000002
 20
134.82887600000001
 30
0.0
 40
0.446388
 50
0.21116
 51
11.046922
  0
ARC
  5
3B0
  8
0
 62
     7
 10
66.182225000000003
 20
133.718211
 30
0.0
 40
0.079171
 50
273.63795599999997
 51
292.41929699999997
  0
ARC
  5
3B1
  8
0
 62
     7
 10
66.151668999999998
 20
133.79587100000001
 30
0.0
 40
0.162621
 50
291.93587200000002
 51
306.89236899999992
  0
ARC
  5
3B2
  8
0
 62
     7
 10
66.032170999999991
 20
133.95809800000001
 30
0.0
 40
0.364105
 50
306.60654899999997
 51
317.27783399999993
  0
ARC
  5
3B3
  8
0
 62
     7
 10
65.746471999999997
 20
134.22690600000001
 30
0.0
 40
0.7563750000000001
 50
317.00136900000001
 51
324.30404700000003
  0
ARC
  5
3B4
  8
0
 62
     7
 10
65.246653000000009
 20
134.5897929999999
 30
0.0
 40
1.374031999999999
 50
324.17589199999992
 51
329.88929000000002
  0
ARC
  5
3B5
  8
0
 62
     7
 10
64.424368000000001
 20
135.065596
 30
0.0
 40
2.3240529999999988
 50
329.91199699999999
 51
341.43885399999999
  0
ARC
  5
3B6
  8
0
 62
     7
 10
64.35363199999999
 20
135.11750000000001
 30
0.0
 40
2.4077799999999989
 50
340.80376299999989
 51
347.98891400000002
  0
ARC
  5
3B7
  8
0
 62
     7
 10
65.576999999999998
 20
134.8558679999999
 30
0.0
 40
1.1567499999999991
 50
348.05431199999998
 51
358.74439799999988
  0
ARC
  5
3B8
  8
0
 62
     7
 10
66.391785999999996
 20
134.81641799999991
 30
0.0
 40
0.347519
 50
16.378018999999998
 51
48.567304
  0
ARC
  5
3B9
  8
0
 62
     7
 10
66.253095000000002
 20
134.67875799999999
 30
0.0
 40
0.542658
 50
47.206634999999991
 51
74.852120999999997
  0
ARC
  5
3BA
  8
0
 62
     7
 10
66.189964000000003
 20
134.509534
 30
0.0
 40
0.7226930000000001
 50
73.526606000000015
 51
90.215249999999997
  0
ARC
  5
3BB
  8
0
 62
     7
 10
65.972109000000003
 20
134.84023999999991
 30
0.0
 40
0.331226
 50
167.06040400000001
 51
181.68151399999999
  0
ARC
  5
3BC
  8
0
 62
     7
 10
66.371251000000001
 20
134.82770699999989
 30
0.0
 40
0.7302310000000001
 50
179.77917899999991
 51
185.4267229999999
  0
ARC
  5
3BD
  8
0
 62
     7
 10
66.888212999999993
 20
134.87446199999999
 30
0.0
 40
1.2493000000000001
 50
185.31918999999991
 51
191.00441299999989
  0
ARC
  5
3BE
  8
0
 62
     7
 10
67.987282999999991
 20
135.093467
 30
0.0
 40
2.3699720000000002
 50
191.129716
 51
210.768879
  0
ARC
  5
3BF
  8
0
 62
     7
 10
66.979440999999994
 20
134.50025899999989
 30
0.0
 40
1.200539
 50
211.04955200000001
 51
220.97487699999999
  0
ARC
  5
3C0
  8
0
 62
     7
 10
66.338622999999998
 20
133.9548399999999
 30
0.0
 40
0.359175
 50
222.31687700000001
 51
234.375338
  0
ARC
  5
3C1
  8
0
 62
     7
 10
66.204669999999993
 20
133.76419299999989
 30
0.0
 40
0.126202
 50
233.393495
 51
262.06529799999998
  0
ARC
  5
3C2
  8
0
 62
     7
 10
66.187866999999997
 20
134.51600599999989
 30
0.0
 40
0.7162150000000001
 50
90.035703999999996
 51
118.934186
  0
ARC
  5
3C3
  8
0
 62
     7
 10
66.074524999999994
 20
134.74255099999991
 30
0.0
 40
0.4632310000000001
 50
120.221788
 51
149.55692400000001
  0
ARC
  5
3C4
  8
0
 62
     7
 10
65.963222999999999
 20
134.82196699999989
 30
0.0
 40
0.327258
 50
151.671018
 51
163.59187900000001
  0
ARC
  5
3C5
  8
0
 62
     7
 10
69.637242000000001
 20
134.82693
 30
0.0
 40
0.236998
 50
0.868242
 51
21.661106
  0
ARC
  5
3C6
  8
0
 62
     7
 10
68.771936999999994
 20
133.94225299999999
 30
0.0
 40
0.303202
 50
271.79252700000001
 51
281.39135499999992
  0
ARC
  5
3C7
  8
0
 62
     7
 10
68.737414000000001
 20
134.12164899999991
 30
0.0
 40
0.4858850000000001
 50
281.20396499999998
 51
290.2559169999999
  0
ARC
  5
3C8
  8
0
 62
     7
 10
68.59473100000001
 20
134.50405799999999
 30
0.0
 40
0.894045
 50
290.3497319999999
 51
304.356966
  0
ARC
  5
3C9
  8
0
 62
     7
 10
68.131128000000004
 20
135.240869
 30
0.0
 40
1.764252999999999
 50
303.28208599999999
 51
313.46794999999992
  0
ARC
  5
3CA
  8
0
 62
     7
 10
67.775301999999996
 20
135.64497299999999
 30
0.0
 40
2.3024100000000001
 50
312.9762429999999
 51
325.04393299999992
  0
ARC
  5
3CB
  8
0
 62
     7
 10
68.182929000000001
 20
135.35253099999991
 30
0.0
 40
1.8007789999999999
 50
325.23908599999987
 51
333.41749499999997
  0
ARC
  5
3CC
  8
0
 62
     7
 10
68.972383999999991
 20
134.95354999999989
 30
0.0
 40
0.9162450000000001
 50
333.63856800000002
 51
347.42801600000001
  0
ARC
  5
3CD
  8
0
 62
     7
 10
69.478740999999985
 20
134.83103500000001
 30
0.0
 40
0.395473
 50
348.7843759999999
 51
359.925544
  0
ARC
  5
3CE
  8
0
 62
     7
 10
69.622292000000002
 20
134.77622
 30
0.0
 40
0.272803
 50
30.43466699999999
 51
52.688882999999997
  0
ARC
  5
3CF
  8
0
 62
     7
 10
69.442053999999999
 20
134.56914399999991
 30
0.0
 40
0.5470420000000001
 50
50.820503999999993
 51
59.868290999999999
  0
ARC
  5
3D0
  8
0
 62
     7
 10
69.22313299999999
 20
134.18611100000001
 30
0.0
 40
0.9882179999999999
 50
60.038694999999997
 51
73.730847999999995
  0
ARC
  5
3D1
  8
0
 62
     7
 10
68.927187000000004
 20
133.28744900000001
 30
0.0
 40
1.934072999999999
 50
72.772889000000021
 51
82.310950000000005
  0
ARC
  5
3D2
  8
0
 62
     7
 10
68.790316000000004
 20
132.43314099999989
 30
0.0
 40
2.7990939999999989
 50
81.874189999999999
 51
90.18204200000001
  0
ARC
  5
3D3
  8
0
 62
     7
 10
67.864896000000002
 20
134.83912399999991
 30
0.0
 40
0.17596
 50
154.668262
 51
182.80238999999989
  0
ARC
  5
3D4
  8
0
 62
     7
 10
68.038860999999983
 20
134.82737800000001
 30
0.0
 40
0.349728
 50
179.4850669999999
 51
188.2086449999999
  0
ARC
  5
3D5
  8
0
 62
     7
 10
68.238082999999989
 20
134.85458299999999
 30
0.0
 40
0.5507950000000002
 50
188.050715
 51
196.37695199999999
  0
ARC
  5
3D6
  8
0
 62
     7
 10
68.54412099999999
 20
134.94358299999999
 30
0.0
 40
0.8695109999999999
 50
196.31762499999999
 51
203.31907899999999
  0
ARC
  5
3D7
  8
0
 62
     7
 10
69.076070999999985
 20
135.17614499999991
 30
0.0
 40
1.450072
 50
203.43733399999999
 51
214.77770799999999
  0
ARC
  5
3D8
  8
0
 62
     7
 10
69.752932000000001
 20
135.61553000000001
 30
0.0
 40
2.256788999999999
 50
214.13843800000001
 51
230.22500600000001
  0
ARC
  5
3D9
  8
0
 62
     7
 10
69.391447999999997
 20
135.18328299999999
 30
0.0
 40
1.693311999999999
 50
230.26840899999991
 51
238.8075649999999
  0
ARC
  5
3DA
  8
0
 62
     7
 10
68.938074
 20
134.4408
 30
0.0
 40
0.823365
 50
239.036338
 51
253.85117
  0
ARC
  5
3DB
  8
0
 62
     7
 10
68.795017999999985
 20
133.98039900000001
 30
0.0
 40
0.34147
 50
255.421764
 51
267.71814000000001
  0
ARC
  5
3DC
  8
0
 62
     7
 10
68.780966000000006
 20
132.4981019999999
 30
0.0
 40
2.7341189999999989
 50
89.983215999999999
 51
104.25542
  0
ARC
  5
3DD
  8
0
 62
     7
 10
68.440345999999991
 20
133.94402700000001
 30
0.0
 40
1.2491110000000001
 50
105.4444899999999
 51
117.40392299999991
  0
ARC
  5
3DE
  8
0
 62
     7
 10
68.109273999999999
 20
134.59569500000001
 30
0.0
 40
0.5182260000000002
 50
118.069104
 51
136.458066
  0
ARC
  5
3DF
  8
0
 62
     7
 10
67.919732999999994
 20
134.788478
 30
0.0
 40
0.248198
 50
138.5757659999999
 51
149.510413
  0
LINE
  5
3E0
  8
0
 62
     7
 10
65.981700000000004
 20
132.23099999999991
 30
0.0
 11
65.981700000000004
 21
131.03499999999991
 31
0.0
  0
ARC
  5
3E1
  8
0
 62
     7
 10
65.089258000000001
 20
130.7979179999999
 30
0.0
 40
0.827608
 50
300.78694200000001
 51
329.22486900000001
  0
ARC
  5
3E2
  8
0
 62
     7
 10
64.780507999999998
 20
131.009692
 30
0.0
 40
1.201478
 50
328.08151600000002
 51
1.1429320000000001
  0
ARC
  5
3E3
  8
0
 62
     7
 10
66.276688000000007
 20
128.72587999999999
 30
0.0
 40
1.5586180000000001
 50
120.5358539999999
 51
145.66832999999991
  0
ARC
  5
3E4
  8
0
 62
     7
 10
66.745153000000002
 20
128.36618000000001
 30
0.0
 40
2.1485849999999989
 50
144.792844
 51
169.1494679999999
  0
ARC
  5
3E5
  8
0
 62
     7
 10
67.148896999999991
 20
128.25074599999991
 30
0.0
 40
2.5671129999999991
 50
168.31544
 51
198.76599799999991
  0
ARC
  5
3E6
  8
0
 62
     7
 10
66.742744999999999
 20
128.130312
 30
0.0
 40
2.1438719999999991
 50
199.210407
 51
220.214384
  0
ARC
  5
3E7
  8
0
 62
     7
 10
66.308172999999996
 20
127.79924199999989
 30
0.0
 40
1.598504999999999
 50
221.20961399999999
 51
238.86635699999991
  0
ARC
  5
3E8
  8
0
 62
     7
 10
65.477767
 20
126.3342989999999
 30
0.0
 40
0.103892
 50
272.06832799999989
 51
358.030213
  0
ARC
  5
3E9
  8
0
 62
     7
 10
65.477547000000001
 20
126.3269449999999
 30
0.0
 40
0.104118
 50
2.082215999999999
 51
87.720543000000006
  0
LINE
  5
3EA
  8
0
 62
     7
 10
68.281499999999994
 20
126.431
 30
0.0
 11
66.0381
 21
126.431
 31
0.0
  0
LINE
  5
3EB
  8
0
 62
     7
 10
65.881699999999995
 20
133.23099999999991
 30
0.0
 11
65.593999999999994
 21
134.66499999999991
 31
0.0
  0
ARC
  5
3EC
  8
0
 62
     7
 10
65.881753000000003
 20
132.7304629999999
 30
0.0
 40
0.500145
 50
90.009867000000014
 51
180.0098769999999
  0
ARC
  5
3ED
  8
0
 62
     7
 10
65.900475999999998
 20
132.7497239999999
 30
0.0
 40
0.5192290000000001
 50
182.13533699999999
 51
267.92393399999992
  0
LINE
  5
3EE
  8
0
 62
     7
 10
68.781400000000005
 20
132.23099999999991
 30
0.0
 11
65.881699999999995
 21
132.23099999999991
 31
0.0
  0
LINE
  5
3EF
  8
0
 62
     7
 10
66.781700000000001
 20
136.83099999999999
 30
0.0
 11
65.727999999999994
 21
135.3779999999999
 31
0.0
  0
ARC
  5
3F0
  8
0
 62
     7
 10
66.796995999999993
 20
137.215441
 30
0.0
 40
0.415553
 50
92.109037999999998
 51
177.89093199999999
  0
ARC
  5
3F1
  8
0
 62
     7
 10
66.797000999999995
 20
137.24603200000001
 30
0.0
 40
0.415558
 50
182.10972899999999
 51
267.89030000000002
  0
LINE
  5
3F2
  8
0
 62
     7
 10
68.781400000000005
 20
137.63099999999989
 30
0.0
 11
66.781700000000001
 21
137.63099999999989
 31
0.0
  0
LINE
  5
3F3
  8
0
 62
     7
 10
68.781400000000005
 20
136.83099999999999
 30
0.0
 11
66.781700000000001
 21
136.83099999999999
 31
0.0
  0
LINE
  5
3F4
  8
0
 62
     7
 10
68.781400000000005
 20
133.23099999999991
 30
0.0
 11
65.881699999999995
 21
133.23099999999991
 31
0.0
  0
LINE
  5
3F5
  8
0
 62
     7
 10
64.481700000000004
 20
125.041
 30
0.0
 11
64.481700000000004
 21
125.51000000000001
 31
0.0
  0
ARC
  5
3F6
  8
0
 62
     7
 10
63.471806999999998
 20
125.0410479999999
 30
0.0
 40
1.0099359999999999
 50
269.99024700000001
 51
359.99021800000003
  0
LINE
  5
3F7
  8
0
 62
     7
 10
62.6265
 20
123.31100000000001
 30
0.0
 11
62.581600000000002
 21
123.03100000000001
 31
0.0
  0
ARC
  5
3F8
  8
0
 62
     7
 10
72.229122000000004
 20
125.30305299999991
 30
0.0
 40
0.927456
 50
36.409514000000001
 51
89.510452999999998
  0
ARC
  5
3F9
  8
0
 62
     7
 10
72.446965000000006
 20
125.5021689999999
 30
0.0
 40
0.634706
 50
0.7471320000000001
 51
33.614785999999988
  0
ARC
  5
3FA
  8
0
 62
     7
 10
65.334237999999999
 20
125.30305299999991
 30
0.0
 40
0.927456
 50
90.489526999999995
 51
143.59046599999999
  0
ARC
  5
3FB
  8
0
 62
     7
 10
65.116395999999995
 20
125.5021689999999
 30
0.0
 40
0.634706
 50
146.3851939999999
 51
179.252848
  0
ARC
  5
3FC
  8
0
 62
     7
 10
63.495027999999998
 20
123.14772499999989
 30
0.0
 40
0.8837099999999999
 50
91.550400999999994
 51
169.34736000000001
  0
LINE
  5
3FD
  8
0
 62
     7
 10
53.854199999999992
 20
124.2909999999999
 30
0.0
 11
54.229199999999999
 21
124.215
 31
0.0
  0
ARC
  5
3FE
  8
0
 62
     7
 10
54.228009
 20
125.998604
 30
0.0
 40
1.748491
 50
192.23961999999989
 51
257.65700099999992
  0
LINE
  5
3FF
  8
0
 62
     7
 10
54.904800000000002
 20
123.5119999999999
 30
0.0
 11
54.981999999999999
 21
123.03100000000001
 31
0.0
  0
ARC
  5
400
  8
0
 62
     7
 10
54.041095999999989
 20
123.358103
 30
0.0
 40
0.8773899999999999
 50
10.120535
 51
77.617131999999984
  0
ARC
  5
401
  8
0
 62
     7
 10
51.853614999999998
 20
125.562736
 30
0.0
 40
0.668798
 50
5.5637959999999991
 51
88.091624999999993
  0
LINE
  5
402
  8
0
 62
     7
 10
43.7087
 20
124.2909999999999
 30
0.0
 11
43.3339
 21
124.215
 31
0.0
  0
ARC
  5
403
  8
0
 62
     7
 10
43.33511699999999
 20
125.99866299999989
 30
0.0
 40
1.748513999999999
 50
282.337447
 51
347.758579
  0
LINE
  5
404
  8
0
 62
     7
 10
42.658499999999989
 20
123.5119999999999
 30
0.0
 11
42.581000000000003
 21
123.03100000000001
 31
0.0
  0
ARC
  5
405
  8
0
 62
     7
 10
43.522357999999997
 20
123.35800999999999
 30
0.0
 40
0.8775479999999999
 50
102.4017569999999
 51
169.875135
  0
ARC
  5
406
  8
0
 62
     7
 10
45.70893499999999
 20
125.5633559999999
 30
0.0
 40
0.668154
 50
91.845022
 51
174.48420999999999
  0
LINE
  5
407
  8
0
 62
     7
 10
68.781400000000005
 20
124.03100000000001
 30
0.0
 11
64.481700000000004
 21
124.03100000000001
 31
0.0
  0
LINE
  5
408
  8
0
 62
     7
 10
68.281499999999994
 20
126.2299999999999
 30
0.0
 11
65.326300000000003
 21
126.2299999999999
 31
0.0
  0
LINE
  5
409
  8
0
 62
     7
 10
68.781400000000005
 20
123.03100000000001
 30
0.0
 11
62.581600000000002
 21
123.03100000000001
 31
0.0
  0
LINE
  5
40A
  8
0
  6
AIGENLINE001
 62
     7
 10
66.781499999999994
 20
102.3959999999999
 30
0.0
 11
66.781499999999994
 21
124.825
 31
0.0
  0
LINE
  5
40B
  8
0
  6
AIGENLINE001
 62
     7
 10
70.781499999999994
 20
102.3959999999999
 30
0.0
 11
70.781499999999994
 21
124.825
 31
0.0
  0
LINE
  5
40C
  8
0
  6
AIGENLINE001
 62
     7
 10
68.781400000000005
 20
51.458300000000001
 30
0.0
 11
68.781400000000005
 21
167.4199999999999
 31
0.0
  0
LINE
  5
40D
  8
0
 62
     7
 10
50.682000000000002
 20
103.831
 30
0.0
 11
50.881999999999998
 21
104.03100000000001
 31
0.0
  0
LINE
  5
40E
  8
0
 62
     7
 10
50.682000000000002
 20
103.831
 30
0.0
 11
48.781300000000002
 21
103.831
 31
0.0
  0
LINE
  5
40F
  8
0
 62
     7
 10
50.881999999999998
 20
104.03100000000001
 30
0.0
 11
48.781999999999989
 21
104.03100000000001
 31
0.0
  0
LINE
  5
410
  8
0
 62
     7
 10
51.381999999999998
 20
112.23099999999999
 30
0.0
 11
51.182200000000002
 21
112.4309999999999
 31
0.0
  0
LINE
  5
411
  8
0
 62
     7
 10
51.381999999999998
 20
110.331
 30
0.0
 11
51.381999999999998
 21
112.23099999999999
 31
0.0
  0
LINE
  5
412
  8
0
 62
     7
 10
51.381999999999998
 20
105.831
 30
0.0
 11
51.381999999999998
 21
107.3309999999999
 31
0.0
  0
LINE
  5
413
  8
0
 62
     7
 10
50.682000000000002
 20
103.831
 30
0.0
 11
50.682000000000002
 21
105.831
 31
0.0
  0
LINE
  5
414
  8
0
 62
     7
 10
50.881999999999998
 20
104.03100000000001
 30
0.0
 11
50.881999999999998
 21
105.831
 31
0.0
  0
LINE
  5
415
  8
0
 62
     7
 10
51.381999999999998
 20
105.831
 30
0.0
 11
48.781999999999989
 21
105.831
 31
0.0
  0
LINE
  5
416
  8
0
 62
     7
 10
51.381999999999998
 20
112.4309999999999
 30
0.0
 11
48.781700000000001
 21
112.4309999999999
 31
0.0
  0
LINE
  5
417
  8
0
 62
     7
 10
51.182200000000002
 20
112.4309999999999
 30
0.0
 11
51.182200000000002
 21
115.6309999999999
 31
0.0
  0
LINE
  5
418
  8
0
 62
     7
 10
51.381999999999998
 20
112.23099999999999
 30
0.0
 11
51.381999999999998
 21
115.6309999999999
 31
0.0
  0
LINE
  5
419
  8
0
 62
     7
 10
51.381999999999998
 20
112.23099999999999
 30
0.0
 11
48.781999999999989
 21
112.23099999999999
 31
0.0
  0
LINE
  5
41A
  8
0
 62
     7
 10
50.58209999999999
 20
112.23099999999999
 30
0.0
 11
48.781999999999989
 21
112.23099999999999
 31
0.0
  0
LINE
  5
41B
  8
0
 62
     7
 10
50.58209999999999
 20
115.6309999999999
 30
0.0
 11
50.58209999999999
 21
116.6309999999999
 31
0.0
  0
LINE
  5
41C
  8
0
 62
     7
 10
52.381999999999991
 20
115.6309999999999
 30
0.0
 11
52.381999999999991
 21
116.6309999999999
 31
0.0
  0
LINE
  5
41D
  8
0
 62
     7
 10
52.381999999999991
 20
115.6309999999999
 30
0.0
 11
50.58209999999999
 21
115.6309999999999
 31
0.0
  0
LINE
  5
41E
  8
0
 62
     7
 10
50.58209999999999
 20
115.6309999999999
 30
0.0
 11
48.781999999999989
 21
115.6309999999999
 31
0.0
  0
LINE
  5
41F
  8
0
 62
     7
 10
53.181899999999999
 20
116.6309999999999
 30
0.0
 11
53.181899999999999
 21
117.03100000000001
 31
0.0
  0
LINE
  5
420
  8
0
 62
     7
 10
53.181899999999999
 20
116.6309999999999
 30
0.0
 11
48.781999999999989
 21
116.6309999999999
 31
0.0
  0
LINE
  5
421
  8
0
 62
     7
 10
53.181899999999999
 20
116.8309999999999
 30
0.0
 11
48.781999999999989
 21
116.8309999999999
 31
0.0
  0
LINE
  5
422
  8
0
 62
     7
 10
53.181899999999999
 20
117.03100000000001
 30
0.0
 11
48.781999999999989
 21
117.03100000000001
 31
0.0
  0
LINE
  5
423
  8
0
 62
     7
 10
51.182200000000002
 20
117.03100000000001
 30
0.0
 11
51.182200000000002
 21
123.03100000000001
 31
0.0
  0
LINE
  5
424
  8
0
 62
     7
 10
51.381999999999998
 20
117.03100000000001
 30
0.0
 11
51.381999999999998
 21
123.03100000000001
 31
0.0
  0
LINE
  5
425
  8
0
 62
     7
 10
51.875900000000001
 20
126.23099999999999
 30
0.0
 11
48.781999999999989
 21
126.23099999999999
 31
0.0
  0
LINE
  5
426
  8
0
 62
     7
 10
52.387
 20
124.631
 30
0.0
 11
48.781999999999989
 21
124.631
 31
0.0
  0
LINE
  5
427
  8
0
 62
     7
 10
54.981999999999999
 20
123.03100000000001
 30
0.0
 11
48.781999999999989
 21
123.03100000000001
 31
0.0
  0
LINE
  5
428
  8
0
 62
     7
 10
46.881
 20
103.831
 30
0.0
 11
46.680999999999997
 21
104.03100000000001
 31
0.0
  0
LINE
  5
429
  8
0
 62
     7
 10
46.881
 20
103.831
 30
0.0
 11
48.781300000000002
 21
103.831
 31
0.0
  0
LINE
  5
42A
  8
0
 62
     7
 10
46.680999999999997
 20
104.03100000000001
 30
0.0
 11
48.781100000000002
 21
104.03100000000001
 31
0.0
  0
LINE
  5
42B
  8
0
 62
     7
 10
46.180900000000001
 20
112.23099999999999
 30
0.0
 11
46.381100000000004
 21
112.4309999999999
 31
0.0
  0
LINE
  5
42C
  8
0
 62
     7
 10
46.180900000000001
 20
105.831
 30
0.0
 11
46.180900000000001
 21
112.23099999999999
 31
0.0
  0
LINE
  5
42D
  8
0
 62
     7
 10
46.881
 20
103.831
 30
0.0
 11
46.881
 21
105.831
 31
0.0
  0
LINE
  5
42E
  8
0
 62
     7
 10
46.680999999999997
 20
104.03100000000001
 30
0.0
 11
46.680999999999997
 21
105.831
 31
0.0
  0
LINE
  5
42F
  8
0
 62
     7
 10
46.180900000000001
 20
105.831
 30
0.0
 11
48.781100000000002
 21
105.831
 31
0.0
  0
LINE
  5
430
  8
0
 62
     7
 10
46.180900000000001
 20
112.4309999999999
 30
0.0
 11
48.781300000000002
 21
112.4309999999999
 31
0.0
  0
LINE
  5
431
  8
0
 62
     7
 10
46.381100000000004
 20
112.4309999999999
 30
0.0
 11
46.381100000000004
 21
115.6309999999999
 31
0.0
  0
LINE
  5
432
  8
0
 62
     7
 10
46.180900000000001
 20
112.23099999999999
 30
0.0
 11
46.180900000000001
 21
115.6309999999999
 31
0.0
  0
LINE
  5
433
  8
0
 62
     7
 10
46.180900000000001
 20
112.23099999999999
 30
0.0
 11
48.781100000000002
 21
112.23099999999999
 31
0.0
  0
LINE
  5
434
  8
0
 62
     7
 10
46.981099999999991
 20
112.23099999999999
 30
0.0
 11
48.781100000000002
 21
112.23099999999999
 31
0.0
  0
LINE
  5
435
  8
0
 62
     7
 10
46.981099999999991
 20
115.6309999999999
 30
0.0
 11
46.981099999999991
 21
116.6309999999999
 31
0.0
  0
LINE
  5
436
  8
0
 62
     7
 10
45.180999999999997
 20
115.6309999999999
 30
0.0
 11
45.180999999999997
 21
116.6309999999999
 31
0.0
  0
LINE
  5
437
  8
0
 62
     7
 10
45.180999999999997
 20
115.6309999999999
 30
0.0
 11
46.981099999999991
 21
115.6309999999999
 31
0.0
  0
LINE
  5
438
  8
0
 62
     7
 10
46.981099999999991
 20
115.6309999999999
 30
0.0
 11
48.781100000000002
 21
115.6309999999999
 31
0.0
  0
LINE
  5
439
  8
0
 62
     7
 10
44.381
 20
116.6309999999999
 30
0.0
 11
44.381
 21
117.03100000000001
 31
0.0
  0
LINE
  5
43A
  8
0
 62
     7
 10
44.381
 20
116.6309999999999
 30
0.0
 11
48.781100000000002
 21
116.6309999999999
 31
0.0
  0
LINE
  5
43B
  8
0
 62
     7
 10
44.381
 20
116.8309999999999
 30
0.0
 11
48.781100000000002
 21
116.8309999999999
 31
0.0
  0
LINE
  5
43C
  8
0
 62
     7
 10
44.381
 20
117.03100000000001
 30
0.0
 11
48.781100000000002
 21
117.03100000000001
 31
0.0
  0
LINE
  5
43D
  8
0
 62
     7
 10
46.381100000000004
 20
117.03100000000001
 30
0.0
 11
46.381100000000004
 21
123.03100000000001
 31
0.0
  0
LINE
  5
43E
  8
0
 62
     7
 10
46.180900000000001
 20
117.03100000000001
 30
0.0
 11
46.180900000000001
 21
123.03100000000001
 31
0.0
  0
LINE
  5
43F
  8
0
 62
     7
 10
45.687399999999997
 20
126.23099999999999
 30
0.0
 11
48.781100000000002
 21
126.23099999999999
 31
0.0
  0
LINE
  5
440
  8
0
 62
     7
 10
45.176199999999987
 20
124.631
 30
0.0
 11
48.781100000000002
 21
124.631
 31
0.0
  0
LINE
  5
441
  8
0
 62
     7
 10
42.581000000000003
 20
123.03100000000001
 30
0.0
 11
48.781100000000002
 21
123.03100000000001
 31
0.0
  0
LINE
  5
442
  8
0
  6
AIGENLINE001
 62
     7
 10
48.781300000000002
 20
103.16799999999991
 30
0.0
 11
48.781300000000002
 21
141.7239999999999
 31
0.0
  0
LINE
  5
443
  8
0
 62
     7
 10
138.48400000000001
 20
165.03099999999989
 30
0.0
 11
138.53999999999991
 21
165.03099999999989
 31
0.0
  0
LINE
  5
444
  8
0
 62
     7
 10
138.48400000000001
 20
161.43100000000001
 30
0.0
 11
138.541
 21
161.43100000000001
 31
0.0
  0
LINE
  5
445
  8
0
 62
     7
 10
160.31700000000001
 20
143.25499999999991
 30
0.0
 11
160.31700000000001
 21
138.99199999999999
 31
0.0
  0
ARC
  5
446
  8
0
 62
     7
 10
138.54073600000001
 20
143.254862
 30
0.0
 40
21.776073
 50
359.99955699999992
 51
89.999526999999986
  0
LINE
  5
447
  8
0
 62
     7
 10
128.648
 20
155.601
 30
0.0
 11
129.02299999999991
 21
157.37
 31
0.0
  0
ARC
  5
448
  8
0
 62
     7
 10
138.7289429999999
 20
155.0563139999999
 30
0.0
 40
9.9774460000000005
 50
91.404354999999995
 51
166.59236799999991
  0
ARC
  5
449
  8
0
 62
     7
 10
138.54065099999991
 20
143.25494900000001
 30
0.0
 40
18.176010999999999
 50
359.99919499999999
 51
89.999166000000017
  0
LINE
  5
44A
  8
0
 62
     7
 10
132.1689999999999
 20
154.85299999999989
 30
0.0
 11
132.5449999999999
 21
156.62100000000001
 31
0.0
  0
ARC
  5
44B
  8
0
 62
     7
 10
138.63803799999999
 20
155.1690909999999
 30
0.0
 40
6.2635819999999987
 50
91.405411000000015
 51
166.5978659999999
  0
LINE
  5
44C
  8
0
 62
     7
 10
138.48400000000001
 20
163.23099999999991
 30
0.0
 11
138.53999999999991
 21
163.23099999999991
 31
0.0
  0
LINE
  5
44D
  8
0
  6
AIGENLINE001
 62
     7
 10
129.12299999999991
 20
149.17899999999989
 30
0.0
 11
130.78499999999991
 21
156.995
 31
0.0
  0
ARC
  5
44E
  8
0
 62
     7
 10
138.68352699999991
 20
155.11331000000001
 30
0.0
 40
8.1199929999999991
 50
91.405108999999996
 51
166.6005199999999
  0
ARC
  5
44F
  8
0
 62
     7
 10
138.5405639999999
 20
143.25503499999999
 30
0.0
 40
19.975826999999988
 50
359.99902200000002
 51
89.998992000000015
  0
LINE
  5
450
  8
0
 62
     7
 10
132.07299999999989
 20
154.8829999999999
 30
0.0
 11
130.41
 21
155.23699999999991
 31
0.0
  0
LINE
  5
451
  8
0
 62
     7
 10
132.459
 20
154.28999999999991
 30
0.0
 11
132.45599999999999
 21
154.27999999999989
 31
0.0
  0
ARC
  5
452
  8
0
 62
     7
 10
131.9462419999999
 20
154.39372599999999
 30
0.0
 40
0.5229960000000001
 50
348.59035
 51
0.044914
  0
ARC
  5
453
  8
0
 62
     7
 10
131.95347599999999
 20
154.3812969999999
 30
0.0
 40
0.515921
 50
1.425997999999999
 51
76.598931000000007
  0
ARC
  5
454
  8
0
 62
     7
 10
132.24217799999991
 20
153.84498999999991
 30
0.0
 40
0.5198330000000001
 50
260.11931499999992
 51
345.84418699999998
  0
ARC
  5
455
  8
0
 62
     7
 10
132.22671699999989
 20
153.822001
 30
0.0
 40
0.5298430000000001
 50
348.66464400000001
 51
0.007945
  0
ARC
  5
456
  8
0
 62
     7
 10
132.24078600000001
 20
153.809225
 30
0.0
 40
0.515935
 50
1.4271430000000001
 51
76.597785999999999
  0
LINE
  5
457
  8
0
 62
     7
 10
132.36000000000001
 20
154.31100000000001
 30
0.0
 11
130.30600000000001
 21
154.74799999999999
 31
0.0
  0
LINE
  5
458
  8
0
 62
     7
 10
131.179
 20
150.67699999999999
 30
0.0
 11
131.554
 21
152.4379999999999
 31
0.0
  0
ARC
  5
459
  8
0
 62
     7
 10
132.057592
 20
152.3108959999999
 30
0.0
 40
0.5198020000000002
 50
80.120835000000014
 51
165.86603699999989
  0
LINE
  5
45A
  8
0
 62
     7
 10
132.15299999999991
 20
153.333
 30
0.0
 11
130.0979999999999
 21
153.77000000000001
 31
0.0
  0
LINE
  5
45B
  8
0
 62
     7
 10
132.14699999999999
 20
152.82299999999989
 30
0.0
 11
132.2529999999999
 21
153.322
 31
0.0
  0
LINE
  5
45C
  8
0
 62
     7
 10
131.179
 20
150.67699999999999
 30
0.0
 11
129.51699999999991
 21
151.03100000000001
 31
0.0
  0
LINE
  5
45D
  8
0
 62
     7
 10
128.74799999999991
 20
155.59
 30
0.0
 11
130.41
 21
155.23699999999991
 31
0.0
  0
LINE
  5
45E
  8
0
 62
     7
 10
128.15499999999989
 20
155.20500000000001
 30
0.0
 11
128.15299999999991
 21
155.19499999999991
 31
0.0
  0
ARC
  5
45F
  8
0
 62
     7
 10
128.65863899999991
 20
155.078014
 30
0.0
 40
0.5198020000000002
 50
80.120835000000014
 51
165.86603699999989
  0
ARC
  5
460
  8
0
 62
     7
 10
128.16323099999991
 20
154.672179
 30
0.0
 40
0.5198020000000002
 50
80.120835000000014
 51
165.86603699999989
  0
ARC
  5
461
  8
0
 62
     7
 10
128.1710909999999
 20
154.7099639999999
 30
0.0
 40
0.5196300000000002
 50
170.12171499999991
 51
255.88037700000001
  0
LINE
  5
462
  8
0
 62
     7
 10
128.25200000000001
 20
155.184
 30
0.0
 11
130.30600000000001
 21
154.74799999999999
 31
0.0
  0
LINE
  5
463
  8
0
 62
     7
 10
127.85299999999989
 20
151.3839999999999
 30
0.0
 11
128.22799999999989
 21
153.14500000000001
 31
0.0
  0
ARC
  5
464
  8
0
 62
     7
 10
127.77020400000001
 20
153.24583200000001
 30
0.0
 40
0.468438
 50
347.540233
 51
0.342843
  0
ARC
  5
465
  8
0
 62
     7
 10
127.7227
 20
153.23582500000001
 30
0.0
 40
0.516092
 50
1.4221909999999991
 51
76.505193999999989
  0
LINE
  5
466
  8
0
 62
     7
 10
128.0439999999999
 20
154.20599999999999
 30
0.0
 11
130.0979999999999
 21
153.77000000000001
 31
0.0
  0
LINE
  5
467
  8
0
 62
     7
 10
127.8429999999999
 20
153.73799999999989
 30
0.0
 11
127.949
 21
154.23699999999999
 31
0.0
  0
LINE
  5
468
  8
0
 62
     7
 10
127.85299999999989
 20
151.3839999999999
 30
0.0
 11
129.51699999999991
 21
151.03100000000001
 31
0.0
  0
LINE
  5
469
  8
0
  6
AIGENLINE001
 62
     7
 10
158.51599999999991
 20
101.6909999999999
 30
0.0
 11
158.51599999999991
 21
153.74000000000001
 31
0.0
  0
LINE
  5
46A
  8
0
 62
     7
 10
66.070599999999999
 20
66.557299999999998
 30
0.0
 11
68.281400000000005
 21
67.149500000000003
 31
0.0
  0
LINE
  5
46B
  8
0
 62
     7
 10
68.281400000000005
 20
67.149500000000003
 30
0.0
 11
66.070599999999999
 21
67.742000000000004
 31
0.0
  0
LINE
  5
46C
  8
0
 62
     7
 10
66.070599999999999
 20
67.742000000000004
 30
0.0
 11
66.070599999999999
 21
66.557299999999998
 31
0.0
  0
LINE
  5
46D
  8
0
 62
     7
 10
68.254099999999994
 20
67.142200000000003
 30
0.0
 11
62.7044
 21
67.142200000000003
 31
0.0
  0
LINE
  5
46E
  8
0
 62
     7
 10
71.492400000000004
 20
67.727199999999996
 30
0.0
 11
69.281700000000001
 21
67.135000000000005
 31
0.0
  0
LINE
  5
46F
  8
0
 62
     7
 10
69.281700000000001
 20
67.135000000000005
 30
0.0
 11
71.492400000000004
 21
66.542400000000001
 31
0.0
  0
LINE
  5
470
  8
0
 62
     7
 10
71.492400000000004
 20
66.542400000000001
 30
0.0
 11
71.492400000000004
 21
67.727199999999996
 31
0.0
  0
LINE
  5
471
  8
0
 62
     7
 10
76.885400000000004
 20
67.142200000000003
 30
0.0
 11
69.308199999999999
 21
67.142200000000003
 31
0.0
  0
LINE
  5
472
  8
0
 62
     7
 10
69.281700000000001
 20
67.142200000000003
 30
0.0
 11
68.281400000000005
 21
67.142200000000003
 31
0.0
  0
LINE
  5
473
  8
0
 62
     7
 10
83.970600000000005
 20
118.8739999999999
 30
0.0
 11
86.181299999999979
 21
119.46599999999999
 31
0.0
  0
LINE
  5
474
  8
0
 62
     7
 10
86.181299999999979
 20
119.46599999999999
 30
0.0
 11
83.970600000000005
 21
120.059
 31
0.0
  0
LINE
  5
475
  8
0
 62
     7
 10
83.970600000000005
 20
120.059
 30
0.0
 11
83.970600000000005
 21
118.8739999999999
 31
0.0
  0
LINE
  5
476
  8
0
 62
     7
 10
86.1541
 20
119.459
 30
0.0
 11
80.604399999999984
 21
119.459
 31
0.0
  0
LINE
  5
477
  8
0
 62
     7
 10
93.592799999999997
 20
120.0439999999999
 30
0.0
 11
91.382099999999994
 21
119.452
 31
0.0
  0
LINE
  5
478
  8
0
 62
     7
 10
91.382099999999994
 20
119.452
 30
0.0
 11
93.592799999999997
 21
118.85899999999999
 31
0.0
  0
LINE
  5
479
  8
0
 62
     7
 10
93.592799999999997
 20
118.85899999999999
 30
0.0
 11
93.592799999999997
 21
120.0439999999999
 31
0.0
  0
LINE
  5
47A
  8
0
 62
     7
 10
103.649
 20
119.459
 30
0.0
 11
91.408600000000007
 21
119.459
 31
0.0
  0
LINE
  5
47B
  8
0
 62
     7
 10
91.382099999999994
 20
119.459
 30
0.0
 11
86.181299999999979
 21
119.459
 31
0.0
  0
LINE
  5
47C
  8
0
 62
     7
 10
144.53
 20
67.108099999999993
 30
0.0
 11
144.53
 21
67.113600000000005
 31
0.0
  0
LINE
  5
47D
  8
0
 62
     7
 10
144.542
 20
66.399500000000003
 30
0.0
 11
144.542
 21
67.007199999999997
 31
0.0
  0
LINE
  5
47E
  8
0
 62
     7
 10
143.61799999999999
 20
66.399500000000003
 30
0.0
 11
143.61799999999999
 21
67.007199999999997
 31
0.0
  0
LINE
  5
47F
  8
0
 62
     7
 10
144.77500000000001
 20
67.415099999999995
 30
0.0
 11
144.77500000000001
 21
67.007199999999997
 31
0.0
  0
LINE
  5
480
  8
0
 62
     7
 10
143.62
 20
67.640100000000004
 30
0.0
 11
144.55000000000001
 21
67.640100000000004
 31
0.0
  0
ARC
  5
481
  8
0
 62
     7
 10
144.54101999999989
 20
67.40620899999999
 30
0.0
 40
0.234001
 50
2.1746590000000001
 51
87.91300600000001
  0
LINE
  5
482
  8
0
 62
     7
 10
143.39500000000001
 20
67.415099999999995
 30
0.0
 11
143.39500000000001
 21
67.007199999999997
 31
0.0
  0
ARC
  5
483
  8
0
 62
     7
 10
143.6284959999999
 20
67.406639999999996
 30
0.0
 40
0.233567
 50
92.072760999999986
 51
177.927209
  0
LINE
  5
484
  8
0
 62
     7
 10
143.39500000000001
 20
67.007199999999997
 30
0.0
 11
144.77500000000001
 21
67.007199999999997
 31
0.0
  0
LINE
  5
485
  8
0
 62
     7
 10
144.51099999999991
 20
66.300200000000004
 30
0.0
 11
144.51099999999991
 21
66.300899999999999
 31
0.0
  0
LINE
  5
486
  8
0
 62
     7
 10
143.376
 20
66.399500000000003
 30
0.0
 11
143.179
 21
66.170000000000002
 31
0.0
  0
LINE
  5
487
  8
0
 62
     7
 10
144.756
 20
66.399500000000003
 30
0.0
 11
144.953
 21
66.170000000000002
 31
0.0
  0
LINE
  5
488
  8
0
 62
     7
 10
144.953
 20
63.280900000000003
 30
0.0
 11
144.75699999999989
 21
63.051499999999997
 31
0.0
  0
LINE
  5
489
  8
0
 62
     7
 10
143.18100000000001
 20
63.280900000000003
 30
0.0
 11
143.37899999999991
 21
63.051499999999997
 31
0.0
  0
LINE
  5
48A
  8
0
 62
     7
 10
143.37899999999991
 20
63.051499999999997
 30
0.0
 11
144.75699999999989
 21
63.051499999999997
 31
0.0
  0
ARC
  5
48B
  8
0
 62
     7
 10
144.04099999999991
 20
63.924467
 30
0.0
 40
0.716417
 50
2.096760999999999
 51
87.874603000000008
  0
ARC
  5
48C
  8
0
 62
     7
 10
144.09383799999989
 20
63.925123999999997
 30
0.0
 40
0.715749
 50
92.103289000000018
 51
177.95394899999991
  0
ARC
  5
48D
  8
0
 62
     7
 10
144.0937889999999
 20
63.976897999999998
 30
0.0
 40
0.715724
 50
182.0994869999999
 51
267.90054300000003
  0
ARC
  5
48E
  8
0
 62
     7
 10
144.04136799999989
 20
63.977237000000002
 30
0.0
 40
0.716062
 50
272.09698600000002
 51
357.87438300000002
  0
LINE
  5
48F
  8
0
 62
     7
 10
144.953
 20
63.276499999999999
 30
0.0
 11
144.953
 21
66.1738
 31
0.0
  0
LINE
  5
490
  8
0
 62
     7
 10
143.18100000000001
 20
63.280900000000003
 30
0.0
 11
143.18100000000001
 21
66.1721
 31
0.0
  0
LINE
  5
491
  8
0
 62
     7
 10
143.376
 20
66.399500000000003
 30
0.0
 11
144.756
 21
66.399500000000003
 31
0.0
  0
LINE
  5
492
  8
0
 62
     7
 10
115.1899999999999
 20
64.7286
 30
0.0
 11
143.18100000000001
 21
64.7286
 31
0.0
  0
LINE
  5
493
  8
0
 62
     7
 10
115.1899999999999
 20
65.728399999999993
 30
0.0
 11
143.18100000000001
 21
65.728399999999993
 31
0.0
  0
LINE
  5
494
  8
0
 62
     7
 10
144.953
 20
64.736199999999997
 30
0.0
 11
146.273
 21
64.736199999999997
 31
0.0
  0
LINE
  5
495
  8
0
 62
     7
 10
144.953
 20
65.720799999999997
 30
0.0
 11
146.273
 21
65.720799999999997
 31
0.0
  0
LINE
  5
496
  8
0
 62
     7
 10
146.471
 20
64.933199999999999
 30
0.0
 11
146.273
 21
64.736199999999997
 31
0.0
  0
LINE
  5
497
  8
0
 62
     7
 10
146.273
 20
65.720799999999997
 30
0.0
 11
146.471
 21
65.523700000000005
 31
0.0
  0
LINE
  5
498
  8
0
 62
     7
 10
146.471
 20
64.933199999999999
 30
0.0
 11
146.471
 21
65.523700000000005
 31
0.0
  0
ARC
  5
499
  8
0
 62
     7
 10
144.72682299999991
 20
67.300348999999997
 30
0.0
 40
0.291442
 50
249.49212199999999
 51
269.82473900000002
  0
ARC
  5
49A
  8
0
 62
     7
 10
144.7052789999999
 20
67.220483999999999
 30
0.0
 40
0.209236
 50
202.3287389999999
 51
247.35552200000001
  0
ARC
  5
49B
  8
0
 62
     7
 10
144.8938389999999
 20
67.306712000000005
 30
0.0
 40
0.4164970000000001
 50
177.08023799999989
 51
203.44639299999989
  0
ARC
  5
49C
  8
0
 62
     7
 10
144.9576689999999
 20
67.329669999999993
 30
0.0
 40
0.4797890000000001
 50
164.06582800000001
 51
180.20815399999989
  0
ARC
  5
49D
  8
0
 62
     7
 10
144.75177999999991
 20
67.382250999999997
 30
0.0
 40
0.267442
 50
115.7313409999999
 51
162.78842299999999
  0
ARC
  5
49E
  8
0
 62
     7
 10
143.4477929999999
 20
67.265586999999996
 30
0.0
 40
0.258118
 50
273.21352100000001
 51
306.77675099999988
  0
ARC
  5
49F
  8
0
 62
     7
 10
143.45818899999989
 20
67.225418999999988
 30
0.0
 40
0.220282
 50
310.86942099999987
 51
339.88063399999999
  0
ARC
  5
4A0
  8
0
 62
     7
 10
143.24833599999999
 20
67.308290999999997
 30
0.0
 40
0.445871
 50
339.15717999999993
 51
2.5241109999999991
  0
ARC
  5
4A1
  8
0
 62
     7
 10
143.19087699999989
 20
67.327682999999993
 30
0.0
 40
0.5028970000000002
 50
0.027729
 51
15.660411
  0
ARC
  5
4A2
  8
0
 62
     7
 10
143.426421
 20
67.388789000000003
 30
0.0
 40
0.259646
 50
16.707418000000001
 51
64.872168000000002
  0
ARC
  5
4A3
  8
0
 62
     7
 10
143.9427159999999
 20
67.301850000000002
 30
0.0
 40
0.292942
 50
249.545287
 51
269.82525099999992
  0
ARC
  5
4A4
  8
0
 62
     7
 10
143.9205199999999
 20
67.219977
 30
0.0
 40
0.208621
 50
202.247524
 51
247.39850999999999
  0
ARC
  5
4A5
  8
0
 62
     7
 10
144.11026399999989
 20
67.306410999999997
 30
0.0
 40
0.417045
 50
177.04278699999989
 51
203.36880099999999
  0
ARC
  5
4A6
  8
0
 62
     7
 10
144.16714799999991
 20
67.331191000000004
 30
0.0
 40
0.4733850000000001
 50
163.9683149999999
 51
180.39516399999991
  0
ARC
  5
4A7
  8
0
 62
     7
 10
143.96094500000001
 20
67.383572999999998
 30
0.0
 40
0.260819
 50
100.464766
 51
162.517832
  0
ARC
  5
4A8
  8
0
 62
     7
 10
144.23164099999991
 20
67.287345000000002
 30
0.0
 40
0.279894
 50
273.15790299999992
 51
293.63342799999998
  0
ARC
  5
4A9
  8
0
 62
     7
 10
144.25342099999989
 20
67.217793999999984
 30
0.0
 40
0.207598
 50
295.822273
 51
340.83652599999999
  0
ARC
  5
4AA
  8
0
 62
     7
 10
144.03326200000001
 20
67.307279000000008
 30
0.0
 40
0.4451
 50
339.25864300000001
 51
2.658787999999999
  0
ARC
  5
4AB
  8
0
 62
     7
 10
143.97710499999999
 20
67.328149999999994
 30
0.0
 40
0.500778
 50
359.97445199999993
 51
15.675490999999999
  0
ARC
  5
4AC
  8
0
 62
     7
 10
144.2136659999999
 20
67.388772000000003
 30
0.0
 40
0.256696
 50
16.91402699999999
 51
77.841456999999991
  0
LINE
  5
4AD
  8
0
 62
     7
 10
144.404
 20
67.007199999999997
 30
0.0
 11
144.404
 21
66.399500000000003
 31
0.0
  0
LINE
  5
4AE
  8
0
 62
     7
 10
143.75499999999991
 20
67.007199999999997
 30
0.0
 11
143.75499999999991
 21
66.399500000000003
 31
0.0
  0
ARC
  5
4AF
  8
0
 62
     7
 10
143.696957
 20
63.761581000000007
 30
0.0
 40
0.532265
 50
194.281092
 51
229.29810499999991
  0
ARC
  5
4B0
  8
0
 62
     7
 10
143.917723
 20
63.978197999999999
 30
0.0
 40
0.8408569999999999
 50
227.51907799999989
 51
249.441856
  0
ARC
  5
4B1
  8
0
 62
     7
 10
144.053765
 20
64.286073000000002
 30
0.0
 40
1.1770549999999991
 50
248.50402099999999
 51
270.31980600000003
  0
ARC
  5
4B2
  8
0
 62
     7
 10
144.05903499999999
 20
64.304723999999993
 30
0.0
 40
1.1956889999999989
 50
270.06227899999999
 51
298.43700999999987
  0
ARC
  5
4B3
  8
0
 62
     7
 10
144.241378
 20
63.922370999999998
 30
0.0
 40
0.772945
 50
300.04816099999999
 51
322.62855400000001
  0
ARC
  5
4B4
  8
0
 62
     7
 10
144.4424939999999
 20
63.753878999999998
 30
0.0
 40
0.51098
 50
323.955129
 51
358.54121400000002
  0
ARC
  5
4B5
  8
0
 62
     7
 10
144.46765199999999
 20
65.744263000000004
 30
0.0
 40
0.495066
 50
11.18862599999999
 51
37.488735999999989
  0
ARC
  5
4B6
  8
0
 62
     7
 10
144.29862800000001
 20
65.624006000000008
 30
0.0
 40
0.7024110000000001
 50
36.881115999999999
 51
61.061769999999989
  0
ARC
  5
4B7
  8
0
 62
     7
 10
144.09481599999989
 20
65.293402
 30
0.0
 40
1.0905089999999991
 50
60.095211999999997
 51
91.323082999999983
  0
ARC
  5
4B8
  8
0
 62
     7
 10
144.07034799999991
 20
65.182303000000005
 30
0.0
 40
1.2013169999999991
 50
90.033938000000006
 51
116.9434289999999
  0
ARC
  5
4B9
  8
0
 62
     7
 10
143.9075939999999
 20
65.545858999999993
 30
0.0
 40
0.8037189999999999
 50
118.343909
 51
140.05235200000001
  0
ARC
  5
4BA
  8
0
 62
     7
 10
143.71195
 20
65.723675
 30
0.0
 40
0.5396640000000001
 50
141.18834799999999
 51
169.606731
  0
LINE
  5
4BB
  8
0
 62
     7
 10
143.96899999999991
 20
63.2682
 30
0.0
 11
143.96899999999991
 21
64.633200000000002
 31
0.0
  0
LINE
  5
4BC
  8
0
 62
     7
 10
144.16599999999991
 20
63.2682
 30
0.0
 11
144.16599999999991
 21
64.633200000000002
 31
0.0
  0
LINE
  5
4BD
  8
0
 62
     7
 10
146.273
 20
65.720799999999997
 30
0.0
 11
146.273
 21
64.736199999999997
 31
0.0
  0
LINE
  5
4BE
  8
0
  6
AIGENLINE002
 62
     7
 10
144.06499999999991
 20
62.313200000000002
 30
0.0
 11
144.06499999999991
 21
68.540300000000002
 31
0.0
  0
LINE
  5
4BF
  8
0
 62
     7
 10
146.471
 20
64.084999999999994
 30
0.0
 11
146.471
 21
53.061
 31
0.0
  0
LINE
  5
4C0
  8
0
 62
     7
 10
98.450400000000002
 20
79.406199999999998
 30
0.0
 11
110.488
 21
79.406199999999998
 31
0.0
  0
LINE
  5
4C1
  8
0
 62
     7
 10
110.76899999999991
 20
79.124700000000004
 30
0.0
 11
110.76899999999991
 21
79.009299999999996
 31
0.0
  0
ARC
  5
4C2
  8
0
 62
     7
 10
110.4773409999999
 20
79.114041
 30
0.0
 40
0.29233
 50
2.089113999999999
 51
87.840704000000002
  0
ARC
  5
4C3
  8
0
 62
     7
 10
98.461112000000014
 20
79.114368999999996
 30
0.0
 40
0.291989
 50
92.097161999999997
 51
177.972981
  0
LINE
  5
4C4
  8
0
 62
     7
 10
98.169300000000007
 20
79.009299999999996
 30
0.0
 11
98.169300000000007
 21
79.124700000000004
 31
0.0
  0
LINE
  5
4C5
  8
0
 62
     7
 10
108.3239999999999
 20
72.637200000000007
 30
0.0
 11
108.4079999999999
 21
72.637200000000007
 31
0.0
  0
LINE
  5
4C6
  8
0
 62
     7
 10
103.02799999999991
 20
73.002700000000004
 30
0.0
 11
103.02799999999991
 21
74.650499999999994
 31
0.0
  0
ARC
  5
4C7
  8
0
 62
     7
 10
103.408027
 20
73.016937999999996
 30
0.0
 40
0.379994
 50
182.143776
 51
267.9102299999999
  0
LINE
  5
4C8
  8
0
 62
     7
 10
103.39399999999991
 20
72.637200000000007
 30
0.0
 11
105.605
 21
72.637200000000007
 31
0.0
  0
ARC
  5
4C9
  8
0
 62
     7
 10
105.59035900000001
 20
73.016564999999986
 30
0.0
 40
0.379634
 50
272.14346599999988
 51
357.910571
  0
ARC
  5
4CA
  8
0
 62
     7
 10
103.4083599999999
 20
74.636333999999991
 30
0.0
 40
0.380326
 50
92.138175000000004
 51
177.861795
  0
LINE
  5
4CB
  8
0
 62
     7
 10
103.39399999999991
 20
75.016400000000004
 30
0.0
 11
105.605
 21
75.016400000000004
 31
0.0
  0
ARC
  5
4CC
  8
0
 62
     7
 10
105.590334
 20
74.637015000000005
 30
0.0
 40
0.379646
 50
2.0390609999999998
 51
87.852925999999997
  0
LINE
  5
4CD
  8
0
 62
     7
 10
107.959
 20
73.002700000000004
 30
0.0
 11
107.959
 21
74.650499999999994
 31
0.0
  0
ARC
  5
4CE
  8
0
 62
     7
 10
108.338323
 20
73.016914
 30
0.0
 40
0.379982
 50
182.14017199999989
 51
267.85985799999997
  0
LINE
  5
4CF
  8
0
 62
     7
 10
105.97
 20
73.002700000000004
 30
0.0
 11
105.97
 21
74.650499999999994
 31
0.0
  0
LINE
  5
4D0
  8
0
 62
     7
 10
100.991
 20
73.002700000000004
 30
0.0
 11
100.991
 21
74.650499999999994
 31
0.0
  0
LINE
  5
4D1
  8
0
 62
     7
 10
100.53100000000001
 20
72.637200000000007
 30
0.0
 11
100.625
 21
72.637200000000007
 31
0.0
  0
ARC
  5
4D2
  8
0
 62
     7
 10
100.610814
 20
73.017252999999997
 30
0.0
 40
0.38032
 50
272.13535000000002
 51
357.81068399999992
  0
LINE
  5
4D3
  8
0
 62
     7
 10
108.3239999999999
 20
75.016400000000004
 30
0.0
 11
108.4079999999999
 21
75.016400000000004
 31
0.0
  0
ARC
  5
4D4
  8
0
 62
     7
 10
108.338337
 20
74.636677000000006
 30
0.0
 40
0.379983
 50
92.14221400000001
 51
177.911732
  0
LINE
  5
4D5
  8
0
 62
     7
 10
100.53100000000001
 20
75.016400000000004
 30
0.0
 11
100.625
 21
75.016400000000004
 31
0.0
  0
ARC
  5
4D6
  8
0
 62
     7
 10
100.610795
 20
74.636333999999991
 30
0.0
 40
0.380326
 50
2.138185
 51
87.861805000000004
  0
LINE
  5
4D7
  8
0
 62
     7
 10
100.53100000000001
 20
72.085599999999999
 30
0.0
 11
100.53100000000001
 21
72.637200000000007
 31
0.0
  0
LINE
  5
4D8
  8
0
 62
     7
 10
100.53100000000001
 20
76.8857
 30
0.0
 11
100.361
 21
77.0625
 31
0.0
  0
LINE
  5
4D9
  8
0
 62
     7
 10
108.535
 20
77.0625
 30
0.0
 11
108.4079999999999
 21
76.8857
 31
0.0
  0
LINE
  5
4DA
  8
0
 62
     7
 10
108.4079999999999
 20
72.637200000000007
 30
0.0
 11
108.4079999999999
 21
72.085599999999999
 31
0.0
  0
LINE
  5
4DB
  8
0
 62
     7
 10
108.4079999999999
 20
76.8857
 30
0.0
 11
108.4079999999999
 21
75.016400000000004
 31
0.0
  0
LINE
  5
4DC
  8
0
 62
     7
 10
98.169300000000007
 20
79.009299999999996
 30
0.0
 11
110.76899999999991
 21
79.009299999999996
 31
0.0
  0
LINE
  5
4DD
  8
0
 62
     7
 10
115.1899999999999
 20
63.211000000000013
 30
0.0
 11
115.1899999999999
 21
67.250399999999985
 31
0.0
  0
LINE
  5
4DE
  8
0
 62
     7
 10
114.9079999999999
 20
62.929200000000002
 30
0.0
 11
113.023
 21
62.929200000000002
 31
0.0
  0
ARC
  5
4DF
  8
0
 62
     7
 10
114.897722
 20
63.22101700000001
 30
0.0
 40
0.292012
 50
272.10373099999993
 51
358.03653799999989
  0
LINE
  5
4E0
  8
0
 62
     7
 10
114.9079999999999
 20
67.531899999999993
 30
0.0
 11
113.023
 21
67.531899999999993
 31
0.0
  0
ARC
  5
4E1
  8
0
 62
     7
 10
114.89742699999999
 20
67.239755000000002
 30
0.0
 40
0.29233
 50
2.089113999999999
 51
87.840704000000002
  0
LINE
  5
4E2
  8
0
 62
     7
 10
113.023
 20
67.531899999999993
 30
0.0
 11
113.023
 21
62.929200000000002
 31
0.0
  0
LINE
  5
4E3
  8
0
 62
     7
 10
108.6049999999999
 20
63.160699999999991
 30
0.0
 11
100.334
 21
63.160699999999991
 31
0.0
  0
LINE
  5
4E4
  8
0
 62
     7
 10
110.721
 20
71.037599999999998
 30
0.0
 11
98.216499999999996
 21
71.037599999999998
 31
0.0
  0
ARC
  5
4E5
  8
0
 62
     7
 10
108.9504189999999
 20
62.955100999999999
 30
0.0
 40
0.4023570000000001
 50
90.681681000000012
 51
149.26821000000001
  0
LINE
  5
4E6
  8
0
 62
     7
 10
112.236
 20
63.1111
 30
0.0
 11
112.236
 21
67.345500000000001
 31
0.0
  0
ARC
  5
4E7
  8
0
 62
     7
 10
109.01379
 20
67.508394999999993
 30
0.0
 40
0.4095030000000001
 50
182.11365499999999
 51
267.88637499999999
  0
LINE
  5
4E8
  8
0
 62
     7
 10
112.236
 20
63.1111
 30
0.0
 11
112.334
 21
63.012900000000002
 31
0.0
  0
LINE
  5
4E9
  8
0
 62
     7
 10
112.334
 20
67.443700000000007
 30
0.0
 11
112.236
 21
67.345500000000001
 31
0.0
  0
LINE
  5
4EA
  8
0
 62
     7
 10
108.999
 20
67.099199999999996
 30
0.0
 11
112.236
 21
67.099199999999996
 31
0.0
  0
LINE
  5
4EB
  8
0
 62
     7
 10
112.236
 20
63.357399999999998
 30
0.0
 11
108.946
 21
63.357399999999998
 31
0.0
  0
LINE
  5
4EC
  8
0
 62
     7
 10
113.023
 20
63.012900000000002
 30
0.0
 11
112.334
 21
63.012900000000002
 31
0.0
  0
ARC
  5
4ED
  8
0
 62
     7
 10
110.57101400000001
 20
77.003590000000003
 30
0.0
 40
2.0368900000000001
 50
99.108186000000018
 51
178.34408699999989
  0
ARC
  5
4EE
  8
0
 62
     7
 10
98.324299000000011
 20
77.003414000000006
 30
0.0
 40
2.0371290000000002
 50
1.660674999999999
 51
80.881300999999993
  0
ARC
  5
4EF
  8
0
 62
     7
 10
99.174806000000004
 20
71.471816000000004
 30
0.0
 40
0.6142340000000001
 50
92.109406000000007
 51
177.823747
  0
ARC
  5
4F0
  8
0
 62
     7
 10
99.157768000000004
 20
71.498694999999998
 30
0.0
 40
0.5967640000000002
 50
180.34125299999991
 51
230.48479399999999
  0
ARC
  5
4F1
  8
0
 62
     7
 10
109.78173200000001
 20
71.497005999999999
 30
0.0
 40
0.595005
 50
309.56536999999997
 51
359.82031999999998
  0
ARC
  5
4F2
  8
0
 62
     7
 10
109.76401300000001
 20
71.472938999999997
 30
0.0
 40
0.613123
 50
2.075127999999999
 51
87.857967000000002
  0
LINE
  5
4F3
  8
0
 62
     7
 10
108.6049999999999
 20
69.0501
 30
0.0
 11
108.6049999999999
 21
67.493300000000005
 31
0.0
  0
ARC
  5
4F4
  8
0
 62
     7
 10
99.329049999999995
 20
69.039093999999992
 30
0.0
 40
1.0047109999999999
 50
0.629972
 51
59.317272000000003
  0
ARC
  5
4F5
  8
0
 62
     7
 10
109.60861799999989
 20
69.039026000000007
 30
0.0
 40
1.0041139999999991
 50
120.61756200000001
 51
179.3657199999999
  0
LINE
  5
4F6
  8
0
 62
     7
 10
100.334
 20
63.160699999999991
 30
0.0
 11
100.334
 21
69.0501
 31
0.0
  0
LINE
  5
4F7
  8
0
 62
     7
 10
110.721
 20
70.840900000000005
 30
0.0
 11
109.09699999999999
 21
69.903199999999998
 31
0.0
  0
LINE
  5
4F8
  8
0
 62
     7
 10
110.721
 20
70.840900000000005
 30
0.0
 11
110.721
 21
71.037599999999998
 31
0.0
  0
LINE
  5
4F9
  8
0
 62
     7
 10
108.4079999999999
 20
62.569899999999997
 30
0.0
 11
100.58
 21
62.569899999999997
 31
0.0
  0
LINE
  5
4FA
  8
0
 62
     7
 10
108.35899999999999
 20
62.569899999999997
 30
0.0
 11
108.35899999999999
 21
63.160699999999991
 31
0.0
  0
LINE
  5
4FB
  8
0
 62
     7
 10
100.58
 20
62.569899999999997
 30
0.0
 11
100.58
 21
63.160699999999991
 31
0.0
  0
LINE
  5
4FC
  8
0
 62
     7
 10
100.53100000000001
 20
61.458100000000002
 30
0.0
 11
100.797
 21
61.191099999999999
 31
0.0
  0
LINE
  5
4FD
  8
0
 62
     7
 10
108.4079999999999
 20
61.458100000000002
 30
0.0
 11
108.14099999999991
 21
61.191099999999999
 31
0.0
  0
LINE
  5
4FE
  8
0
 62
     7
 10
108.4079999999999
 20
62.569899999999997
 30
0.0
 11
108.4079999999999
 21
61.458100000000002
 31
0.0
  0
LINE
  5
4FF
  8
0
 62
     7
 10
100.53100000000001
 20
61.458100000000002
 30
0.0
 11
100.53100000000001
 21
62.569899999999997
 31
0.0
  0
LINE
  5
500
  8
0
 62
     7
 10
108.14099999999991
 20
61.191099999999999
 30
0.0
 11
100.797
 21
61.191099999999999
 31
0.0
  0
LINE
  5
501
  8
0
 62
     7
 10
98.216499999999996
 20
70.840900000000005
 30
0.0
 11
99.841700000000003
 21
69.903199999999998
 31
0.0
  0
LINE
  5
502
  8
0
 62
     7
 10
98.216499999999996
 20
70.840900000000005
 30
0.0
 11
98.216499999999996
 21
71.037599999999998
 31
0.0
  0
LINE
  5
503
  8
0
 62
     7
 10
99.152199999999993
 20
72.085599999999999
 30
0.0
 11
109.78700000000001
 21
72.085599999999999
 31
0.0
  0
LINE
  5
504
  8
0
 62
     7
 10
113.023
 20
67.443700000000007
 30
0.0
 11
112.334
 21
67.443700000000007
 31
0.0
  0
LINE
  5
505
  8
0
 62
     7
 10
123.91199999999991
 20
62.900599999999997
 30
0.0
 11
123.4379999999999
 21
64.670000000000002
 31
0.0
  0
LINE
  5
506
  8
0
 62
     7
 10
123.4379999999999
 20
64.670000000000002
 30
0.0
 11
122.96299999999999
 21
62.900599999999997
 31
0.0
  0
LINE
  5
507
  8
0
 62
     7
 10
122.96299999999999
 20
62.900599999999997
 30
0.0
 11
123.91199999999991
 21
62.900599999999997
 31
0.0
  0
LINE
  5
508
  8
0
 62
     7
 10
122.9739999999999
 20
67.520499999999998
 30
0.0
 11
123.449
 21
65.751099999999994
 31
0.0
  0
LINE
  5
509
  8
0
 62
     7
 10
123.449
 20
65.751099999999994
 30
0.0
 11
123.9229999999999
 21
67.520499999999998
 31
0.0
  0
LINE
  5
50A
  8
0
 62
     7
 10
123.9229999999999
 20
67.520499999999998
 30
0.0
 11
122.9739999999999
 21
67.520499999999998
 31
0.0
  0
LINE
  5
50B
  8
0
 62
     7
 10
123.4429999999999
 20
71.901700000000005
 30
0.0
 11
123.4429999999999
 21
61.318600000000004
 31
0.0
  0
LINE
  5
50C
  8
0
 62
     7
 10
114.44
 20
65.946100000000001
 30
0.0
 11
113.023
 21
65.946100000000001
 31
0.0
  0
LINE
  5
50D
  8
0
 62
     7
 10
114.44
 20
65.436199999999999
 30
0.0
 11
113.023
 21
65.436199999999999
 31
0.0
  0
LINE
  5
50E
  8
0
 62
     7
 10
114.44
 20
64.926299999999998
 30
0.0
 11
113.023
 21
64.926299999999998
 31
0.0
  0
LINE
  5
50F
  8
0
 62
     7
 10
114.44
 20
64.388199999999983
 30
0.0
 11
113.023
 21
64.388199999999983
 31
0.0
  0
LINE
  5
510
  8
0
 62
     7
 10
114.44
 20
67.078800000000001
 30
0.0
 11
113.023
 21
67.078800000000001
 31
0.0
  0
LINE
  5
511
  8
0
 62
     7
 10
114.44
 20
66.484200000000001
 30
0.0
 11
113.023
 21
66.484200000000001
 31
0.0
  0
LINE
  5
512
  8
0
 62
     7
 10
114.44
 20
63.821800000000003
 30
0.0
 11
113.023
 21
63.821800000000003
 31
0.0
  0
LINE
  5
513
  8
0
 62
     7
 10
114.44
 20
63.311999999999991
 30
0.0
 11
113.023
 21
63.311999999999991
 31
0.0
  0
LINE
  5
514
  8
0
 62
     7
 10
114.44
 20
67.531899999999993
 30
0.0
 11
114.44
 21
62.929200000000002
 31
0.0
  0
LINE
  5
515
  8
0
 62
     7
 10
111.35899999999999
 20
67.099199999999996
 30
0.0
 11
111.35899999999999
 21
63.357399999999998
 31
0.0
  0
LINE
  5
516
  8
0
 62
     7
 10
98.178600000000003
 20
72.085599999999999
 30
0.0
 11
93.225899999999996
 21
72.085599999999999
 31
0.0
  0
LINE
  5
517
  8
0
 62
     7
 10
98.522099999999995
 20
58.573500000000003
 30
0.0
 11
88.752399999999994
 21
58.573500000000003
 31
0.0
  0
LINE
  5
518
  8
0
 62
     7
 10
99.905500000000004
 20
59.82269999999999
 30
0.0
 11
100.52799999999991
 21
61.5456
 31
0.0
  0
LINE
  5
519
  8
0
 62
     7
 10
100.52799999999991
 20
61.5456
 30
0.0
 11
99.128100000000003
 21
60.363999999999997
 31
0.0
  0
LINE
  5
51A
  8
0
 62
     7
 10
99.128100000000003
 20
60.363999999999997
 30
0.0
 11
99.905500000000004
 21
59.82269999999999
 31
0.0
  0
ARC
  5
51B
  8
0
 62
     7
 10
4249.6880000000001
 20
-2829.6819999999998
 30
0.0
 40
5057.0940000000001
 50
145.13113000000001
 51
145.17095399999999
  0
LINE
  5
51C
  8
0
 62
     7
 10
104.46899999999989
 20
58.53670000000001
 30
0.0
 11
104.46899999999989
 21
53.060299999999991
 31
0.0
  0
LINE
  5
51D
  8
0
 62
     7
 10
111.755
 20
66.870400000000004
 30
0.0
 11
112.236
 21
66.870400000000004
 31
0.0
  0
LINE
  5
51E
  8
0
 62
     7
 10
112.236
 20
63.586199999999998
 30
0.0
 11
111.755
 21
63.586199999999998
 31
0.0
  0
LINE
  5
51F
  8
0
 62
     7
 10
111.755
 20
63.586199999999998
 30
0.0
 11
111.35899999999999
 21
63.357399999999998
 31
0.0
  0
LINE
  5
520
  8
0
 62
     7
 10
108.14099999999991
 20
61.191099999999999
 30
0.0
 11
108.14099999999991
 21
62.569899999999997
 31
0.0
  0
LINE
  5
521
  8
0
 62
     7
 10
100.53100000000001
 20
61.458100000000002
 30
0.0
 11
108.4079999999999
 21
61.458100000000002
 31
0.0
  0
LINE
  5
522
  8
0
 62
     7
 10
100.797
 20
61.191099999999999
 30
0.0
 11
100.797
 21
62.569899999999997
 31
0.0
  0
LINE
  5
523
  8
0
 62
     7
 10
111.755
 20
63.357399999999998
 30
0.0
 11
111.755
 21
67.099199999999996
 31
0.0
  0
LINE
  5
524
  8
0
 62
     7
 10
111.35899999999999
 20
67.099199999999996
 30
0.0
 11
111.755
 21
66.870400000000004
 31
0.0
  0
LINE
  5
525
  8
0
 62
     7
 10
98.169300000000007
 20
79.966700000000003
 30
0.0
 11
98.169300000000007
 21
84.925600000000003
 31
0.0
  0
LINE
  5
526
  8
0
 62
     7
 10
97.541900000000012
 20
79.406199999999998
 30
0.0
 11
93.225899999999996
 21
79.406199999999998
 31
0.0
  0
LINE
  5
527
  8
0
 62
     7
 10
108.99799999999991
 20
84.063299999999998
 30
0.0
 11
110.767
 21
84.537300000000002
 31
0.0
  0
LINE
  5
528
  8
0
 62
     7
 10
110.767
 20
84.537300000000002
 30
0.0
 11
108.99799999999991
 21
85.011399999999995
 31
0.0
  0
LINE
  5
529
  8
0
 62
     7
 10
108.99799999999991
 20
85.011399999999995
 30
0.0
 11
108.99799999999991
 21
84.063299999999998
 31
0.0
  0
LINE
  5
52A
  8
0
 62
     7
 10
99.941000000000017
 20
85.0
 30
0.0
 11
98.171700000000001
 21
84.526000000000025
 31
0.0
  0
LINE
  5
52B
  8
0
 62
     7
 10
98.171700000000001
 20
84.526000000000025
 30
0.0
 11
99.941000000000017
 21
84.051199999999994
 31
0.0
  0
LINE
  5
52C
  8
0
 62
     7
 10
99.941000000000017
 20
84.051199999999994
 30
0.0
 11
99.941000000000017
 21
85.0
 31
0.0
  0
LINE
  5
52D
  8
0
 62
     7
 10
110.76899999999991
 20
84.531499999999994
 30
0.0
 11
98.169300000000007
 21
84.531499999999994
 31
0.0
  0
LINE
  5
52E
  8
0
 62
     7
 10
94.0886
 20
77.634699999999995
 30
0.0
 11
93.614500000000007
 21
79.404099999999985
 31
0.0
  0
LINE
  5
52F
  8
0
 62
     7
 10
93.614500000000007
 20
79.404099999999985
 30
0.0
 11
93.140499999999989
 21
77.634699999999995
 31
0.0
  0
LINE
  5
530
  8
0
 62
     7
 10
93.140499999999989
 20
77.634699999999995
 30
0.0
 11
94.0886
 21
77.634699999999995
 31
0.0
  0
LINE
  5
531
  8
0
 62
     7
 10
93.152199999999993
 20
73.950500000000005
 30
0.0
 11
93.626199999999983
 21
72.181100000000001
 31
0.0
  0
LINE
  5
532
  8
0
 62
     7
 10
93.626199999999983
 20
72.181100000000001
 30
0.0
 11
94.100300000000004
 21
73.950500000000005
 31
0.0
  0
LINE
  5
533
  8
0
 62
     7
 10
94.100300000000004
 20
73.950500000000005
 30
0.0
 11
93.152199999999993
 21
73.950500000000005
 31
0.0
  0
LINE
  5
534
  8
0
 62
     7
 10
93.620000000000005
 20
79.406199999999998
 30
0.0
 11
93.620000000000005
 21
72.085599999999999
 31
0.0
  0
LINE
  5
535
  8
0
 62
     7
 10
110.76899999999991
 20
79.966700000000003
 30
0.0
 11
110.76899999999991
 21
84.925600000000003
 31
0.0
  0
LINE
  5
536
  8
0
 62
     7
 10
106.27799999999991
 20
53.9223
 30
0.0
 11
104.508
 21
53.4482
 31
0.0
  0
LINE
  5
537
  8
0
 62
     7
 10
104.508
 20
53.4482
 30
0.0
 11
106.27799999999991
 21
52.974200000000003
 31
0.0
  0
LINE
  5
538
  8
0
 62
     7
 10
106.27799999999991
 20
52.974200000000003
 30
0.0
 11
106.27799999999991
 21
53.9223
 31
0.0
  0
LINE
  5
539
  8
0
 62
     7
 10
144.70099999999991
 20
52.985900000000001
 30
0.0
 11
146.471
 21
53.460000000000001
 31
0.0
  0
LINE
  5
53A
  8
0
 62
     7
 10
146.471
 20
53.460000000000001
 30
0.0
 11
144.70099999999991
 21
53.93399999999999
 31
0.0
  0
LINE
  5
53B
  8
0
 62
     7
 10
144.70099999999991
 20
53.93399999999999
 30
0.0
 11
144.70099999999991
 21
52.985900000000001
 31
0.0
  0
LINE
  5
53C
  8
0
 62
     7
 10
104.53
 20
53.454399999999993
 30
0.0
 11
146.4729999999999
 21
53.454399999999993
 31
0.0
  0
LINE
  5
53D
  8
0
  6
AIGENLINE003
 62
     7
 10
144.953
 20
65.228499999999997
 30
0.0
 11
148.202
 21
65.228499999999997
 31
0.0
  0
LINE
  5
53E
  8
0
  6
AIGENLINE001
 62
     7
 10
104.46899999999989
 20
59.256
 30
0.0
 11
104.46899999999989
 21
80.366699999999994
 31
0.0
  0
LINE
  5
53F
  8
0
  6
AIGENLINE001
 62
     7
 10
94.584000000000003
 20
65.228499999999997
 30
0.0
 11
143.18100000000001
 21
65.228499999999997
 31
0.0
  0
LINE
  5
540
  8
0
 62
     7
 10
100.53100000000001
 20
75.016400000000004
 30
0.0
 11
100.53100000000001
 21
76.8857
 31
0.0
  0
LINE
  5
541
  8
0
 62
     7
 10
79.918800000000005
 20
197.8429999999999
 30
0.0
 11
81.749200000000002
 21
199.21700000000001
 31
0.0
  0
LINE
  5
542
  8
0
 62
     7
 10
81.749200000000002
 20
199.21700000000001
 30
0.0
 11
79.477299999999985
 21
198.94200000000001
 31
0.0
  0
LINE
  5
543
  8
0
 62
     7
 10
79.477299999999985
 20
198.94200000000001
 30
0.0
 11
79.918800000000005
 21
197.8429999999999
 31
0.0
  0
LINE
  5
544
  8
0
 62
     7
 10
57.624400000000001
 20
197.85199999999989
 30
0.0
 11
55.79399999999999
 21
199.22499999999999
 31
0.0
  0
LINE
  5
545
  8
0
 62
     7
 10
55.79399999999999
 20
199.22499999999999
 30
0.0
 11
58.065899999999992
 21
198.95099999999991
 31
0.0
  0
LINE
  5
546
  8
0
 62
     7
 10
58.065899999999992
 20
198.95099999999991
 30
0.0
 11
57.624400000000001
 21
197.85199999999989
 31
0.0
  0
LINE
  5
547
  8
0
 62
     7
 10
86.570999999999984
 20
189.80000000000001
 30
0.0
 11
88.781499999999994
 21
189.20799999999991
 31
0.0
  0
LINE
  5
548
  8
0
 62
     7
 10
88.781499999999994
 20
189.20799999999991
 30
0.0
 11
86.570999999999984
 21
188.6159999999999
 31
0.0
  0
LINE
  5
549
  8
0
 62
     7
 10
86.570999999999984
 20
188.6159999999999
 30
0.0
 11
86.570999999999984
 21
189.80000000000001
 31
0.0
  0
LINE
  5
54A
  8
0
 62
     7
 10
70.992199999999997
 20
188.63
 30
0.0
 11
68.781800000000004
 21
189.22200000000001
 31
0.0
  0
LINE
  5
54B
  8
0
 62
     7
 10
68.781800000000004
 20
189.22200000000001
 30
0.0
 11
70.992199999999997
 21
189.815
 31
0.0
  0
LINE
  5
54C
  8
0
 62
     7
 10
70.992199999999997
 20
189.815
 30
0.0
 11
70.992199999999997
 21
188.63
 31
0.0
  0
LINE
  5
54D
  8
0
 62
     7
 10
88.754499999999979
 20
189.21499999999989
 30
0.0
 11
68.808800000000005
 21
189.21499999999989
 31
0.0
  0
LINE
  5
54E
  8
0
 62
     7
 10
68.754400000000004
 20
189.21499999999989
 30
0.0
 11
48.808500000000002
 21
189.21499999999989
 31
0.0
  0
LINE
  5
54F
  8
0
 62
     7
 10
66.570899999999995
 20
189.80000000000001
 30
0.0
 11
68.781199999999998
 21
189.20799999999991
 31
0.0
  0
LINE
  5
550
  8
0
 62
     7
 10
68.781199999999998
 20
189.20799999999991
 30
0.0
 11
66.570899999999995
 21
188.6159999999999
 31
0.0
  0
LINE
  5
551
  8
0
 62
     7
 10
66.570899999999995
 20
188.6159999999999
 30
0.0
 11
66.570899999999995
 21
189.80000000000001
 31
0.0
  0
LINE
  5
552
  8
0
 62
     7
 10
51.018900000000002
 20
188.62299999999991
 30
0.0
 11
48.808500000000002
 21
189.21499999999989
 31
0.0
  0
LINE
  5
553
  8
0
 62
     7
 10
48.808500000000002
 20
189.21499999999989
 30
0.0
 11
51.018900000000002
 21
189.80799999999999
 31
0.0
  0
LINE
  5
554
  8
0
 62
     7
 10
51.018900000000002
 20
189.80799999999999
 30
0.0
 11
51.018900000000002
 21
188.62299999999991
 31
0.0
  0
LINE
  5
555
  8
0
 62
     7
 10
88.781499999999994
 20
217.88599999999991
 30
0.0
 11
88.781499999999994
 21
188.01499999999999
 31
0.0
  0
LINE
  5
556
  8
0
 62
     7
 10
68.781400000000005
 20
195.89699999999999
 30
0.0
 11
68.781400000000005
 21
188.01499999999999
 31
0.0
  0
LINE
  5
557
  8
0
 62
     7
 10
48.781300000000002
 20
217.88599999999991
 30
0.0
 11
48.781300000000002
 21
188.01499999999999
 31
0.0
  0
ARC
  5
558
  8
0
 62
     7
 10
129.53188499999999
 20
151.166437
 30
0.0
 40
12.331818
 50
243.3278399999999
 51
284.15599199999991
  0
LINE
  5
559
  8
0
 62
     7
 10
172.8179999999999
 20
123.03100000000001
 30
0.0
 11
172.8179999999999
 21
165.03099999999989
 31
0.0
  0
LINE
  5
55A
  8
0
 62
     7
 10
173.3959999999999
 20
125.242
 30
0.0
 11
172.804
 21
123.03100000000001
 31
0.0
  0
LINE
  5
55B
  8
0
 62
     7
 10
172.804
 20
123.03100000000001
 30
0.0
 11
172.2109999999999
 21
125.242
 31
0.0
  0
LINE
  5
55C
  8
0
 62
     7
 10
172.2109999999999
 20
125.242
 30
0.0
 11
173.3959999999999
 21
125.242
 31
0.0
  0
LINE
  5
55D
  8
0
 62
     7
 10
172.226
 20
162.81999999999991
 30
0.0
 11
172.8179999999999
 21
165.03099999999989
 31
0.0
  0
LINE
  5
55E
  8
0
 62
     7
 10
172.8179999999999
 20
165.03099999999989
 30
0.0
 11
173.41099999999989
 21
162.81999999999991
 31
0.0
  0
LINE
  5
55F
  8
0
 62
     7
 10
173.41099999999989
 20
162.81999999999991
 30
0.0
 11
172.226
 21
162.81999999999991
 31
0.0
  0
LINE
  5
560
  8
0
 62
     7
 10
165.73400000000001
 20
123.03100000000001
 30
0.0
 11
173.59200000000001
 21
123.03100000000001
 31
0.0
  0
LINE
  5
561
  8
0
 62
     7
 10
138.30999999999989
 20
123.03100000000001
 30
0.0
 11
138.30999999999989
 21
150.62299999999991
 31
0.0
  0
LINE
  5
562
  8
0
 62
     7
 10
138.887
 20
125.242
 30
0.0
 11
138.29599999999991
 21
123.03100000000001
 31
0.0
  0
LINE
  5
563
  8
0
 62
     7
 10
138.29599999999991
 20
123.03100000000001
 30
0.0
 11
137.70299999999989
 21
125.242
 31
0.0
  0
LINE
  5
564
  8
0
 62
     7
 10
137.70299999999989
 20
125.242
 30
0.0
 11
138.887
 21
125.242
 31
0.0
  0
LINE
  5
565
  8
0
 62
     7
 10
137.7179999999999
 20
148.46600000000001
 30
0.0
 11
138.30999999999989
 21
150.67699999999999
 31
0.0
  0
LINE
  5
566
  8
0
 62
     7
 10
138.30999999999989
 20
150.67699999999999
 30
0.0
 11
138.90299999999991
 21
148.46600000000001
 31
0.0
  0
LINE
  5
567
  8
0
 62
     7
 10
138.90299999999991
 20
148.46600000000001
 30
0.0
 11
137.7179999999999
 21
148.46600000000001
 31
0.0
  0
LINE
  5
568
  8
0
 62
     7
 10
121.7239999999999
 20
123.03100000000001
 30
0.0
 11
121.7239999999999
 21
150.97599999999991
 31
0.0
  0
LINE
  5
569
  8
0
 62
     7
 10
158.49000000000001
 20
168.9199999999999
 30
0.0
 11
129.51699999999991
 21
168.9199999999999
 31
0.0
  0
LINE
  5
56A
  8
0
 62
     7
 10
128.93399999999991
 20
148.28999999999991
 30
0.0
 11
126.7889999999999
 21
138.19799999999989
 31
0.0
  0
LINE
  5
56B
  8
0
 62
     7
 10
129.51699999999991
 20
148.286
 30
0.0
 11
129.51699999999991
 21
137.67500000000001
 31
0.0
  0
LINE
  5
56C
  8
0
 62
     7
 10
131.67099999999999
 20
139.602
 30
0.0
 11
129.51699999999991
 21
138.82900000000001
 31
0.0
  0
LINE
  5
56D
  8
0
 62
     7
 10
129.51699999999991
 20
138.82900000000001
 30
0.0
 11
131.76900000000001
 21
138.422
 31
0.0
  0
LINE
  5
56E
  8
0
 62
     7
 10
131.76900000000001
 20
138.422
 30
0.0
 11
131.67099999999999
 21
139.602
 31
0.0
  0
LINE
  5
56F
  8
0
 62
     7
 10
124.69199999999999
 20
139.14699999999999
 30
0.0
 11
126.98
 21
139.09599999999989
 31
0.0
  0
LINE
  5
570
  8
0
 62
     7
 10
126.98
 20
139.09599999999989
 30
0.0
 11
125.024
 21
140.2829999999999
 31
0.0
  0
LINE
  5
571
  8
0
 62
     7
 10
125.024
 20
140.2829999999999
 30
0.0
 11
124.69199999999999
 21
139.14699999999999
 31
0.0
  0
LINE
  5
572
  8
0
 62
     7
 10
139.00999999999991
 20
150.67699999999999
 30
0.0
 11
131.87899999999991
 21
150.67699999999999
 31
0.0
  0
LINE
  5
573
  8
0
 62
     7
 10
127.64699999999991
 20
151.03100000000001
 30
0.0
 11
120.517
 21
151.03100000000001
 31
0.0
  0
LINE
  5
574
  8
0
 62
     7
 10
122.301
 20
125.242
 30
0.0
 11
121.709
 21
123.03100000000001
 31
0.0
  0
LINE
  5
575
  8
0
 62
     7
 10
121.709
 20
123.03100000000001
 30
0.0
 11
121.117
 21
125.242
 31
0.0
  0
LINE
  5
576
  8
0
 62
     7
 10
121.117
 20
125.242
 30
0.0
 11
122.301
 21
125.242
 31
0.0
  0
LINE
  5
577
  8
0
 62
     7
 10
121.131
 20
148.81999999999991
 30
0.0
 11
121.7239999999999
 21
151.03100000000001
 31
0.0
  0
LINE
  5
578
  8
0
 62
     7
 10
121.7239999999999
 20
151.03100000000001
 30
0.0
 11
122.316
 21
148.81999999999991
 31
0.0
  0
LINE
  5
579
  8
0
 62
     7
 10
122.316
 20
148.81999999999991
 30
0.0
 11
121.131
 21
148.81999999999991
 31
0.0
  0
LINE
  5
57A
  8
0
 62
     7
 10
143.18999999999991
 20
165.03099999999989
 30
0.0
 11
173.744
 21
165.03099999999989
 31
0.0
  0
LINE
  5
57B
  8
0
 62
     7
 10
120.517
 20
123.03100000000001
 30
0.0
 11
151.11600000000001
 21
123.03100000000001
 31
0.0
  0
LINE
  5
57C
  8
0
 62
     7
 10
129.51699999999991
 20
170.12700000000001
 30
0.0
 11
129.51699999999991
 21
152.73099999999991
 31
0.0
  0
LINE
  5
57D
  8
0
 62
     7
 10
131.727
 20
168.34200000000001
 30
0.0
 11
129.51699999999991
 21
168.934
 31
0.0
  0
LINE
  5
57E
  8
0
 62
     7
 10
129.51699999999991
 20
168.934
 30
0.0
 11
131.727
 21
169.5259999999999
 31
0.0
  0
LINE
  5
57F
  8
0
 62
     7
 10
131.727
 20
169.5259999999999
 30
0.0
 11
131.727
 21
168.34200000000001
 31
0.0
  0
LINE
  5
580
  8
0
 62
     7
 10
156.30600000000001
 20
169.512
 30
0.0
 11
158.51599999999991
 21
168.9199999999999
 31
0.0
  0
LINE
  5
581
  8
0
 62
     7
 10
158.51599999999991
 20
168.9199999999999
 30
0.0
 11
156.30600000000001
 21
168.327
 31
0.0
  0
LINE
  5
582
  8
0
 62
     7
 10
156.30600000000001
 20
168.327
 30
0.0
 11
156.30600000000001
 21
169.512
 31
0.0
  0
LINE
  5
583
  8
0
 62
     7
 10
158.51599999999991
 20
170.12700000000001
 30
0.0
 11
158.51599999999991
 21
153.74000000000001
 31
0.0
  0
LINE
  5
584
  8
0
 62
     7
 10
70.4816
 20
55.003399999999999
 30
0.0
 11
80.748400000000004
 21
55.003399999999999
 31
0.0
  0
LINE
  5
585
  8
0
 62
     7
 10
78.963499999999996
 20
120.81999999999989
 30
0.0
 11
79.555700000000002
 21
123.03100000000001
 31
0.0
  0
LINE
  5
586
  8
0
 62
     7
 10
79.555700000000002
 20
123.03100000000001
 30
0.0
 11
80.148099999999999
 21
120.81999999999989
 31
0.0
  0
LINE
  5
587
  8
0
 62
     7
 10
80.148099999999999
 20
120.81999999999989
 30
0.0
 11
78.963499999999996
 21
120.81999999999989
 31
0.0
  0
LINE
  5
588
  8
0
 62
     7
 10
80.147900000000007
 20
57.240600000000001
 30
0.0
 11
79.555700000000002
 21
55.030200000000001
 31
0.0
  0
LINE
  5
589
  8
0
 62
     7
 10
79.555700000000002
 20
55.030200000000001
 30
0.0
 11
78.963300000000004
 21
57.240600000000001
 31
0.0
  0
LINE
  5
58A
  8
0
 62
     7
 10
78.963300000000004
 20
57.240600000000001
 30
0.0
 11
80.147900000000007
 21
57.240600000000001
 31
0.0
  0
LINE
  5
58B
  8
0
 62
     7
 10
80.748400000000004
 20
123.03100000000001
 30
0.0
 11
76.181700000000006
 21
123.03100000000001
 31
0.0
  0
LINE
  5
58C
  8
0
 62
     7
 10
74.981800000000007
 20
145.69499999999991
 30
0.0
 11
74.981800000000007
 21
124.5
 31
0.0
  0
LINE
  5
58D
  8
0
 62
     7
 10
62.6265
 20
145.69499999999991
 30
0.0
 11
62.6265
 21
124.5
 31
0.0
  0
LINE
  5
58E
  8
0
 62
     7
 10
82.897599999999997
 20
144.495
 30
0.0
 11
74.981800000000007
 21
144.495
 31
0.0
  0
LINE
  5
58F
  8
0
 62
     7
 10
72.771000000000001
 20
143.91
 30
0.0
 11
74.981800000000007
 21
144.50200000000001
 31
0.0
  0
LINE
  5
590
  8
0
 62
     7
 10
74.981800000000007
 20
144.50200000000001
 30
0.0
 11
72.771000000000001
 21
145.09399999999991
 31
0.0
  0
LINE
  5
591
  8
0
 62
     7
 10
72.771000000000001
 20
145.09399999999991
 30
0.0
 11
72.771000000000001
 21
143.91
 31
0.0
  0
LINE
  5
592
  8
0
 62
     7
 10
64.837299999999999
 20
145.08000000000001
 30
0.0
 11
62.626699999999992
 21
144.48799999999989
 31
0.0
  0
LINE
  5
593
  8
0
 62
     7
 10
62.626699999999992
 20
144.48799999999989
 30
0.0
 11
64.837299999999999
 21
143.89500000000001
 31
0.0
  0
LINE
  5
594
  8
0
 62
     7
 10
64.837299999999999
 20
143.89500000000001
 30
0.0
 11
64.837299999999999
 21
145.08000000000001
 31
0.0
  0
LINE
  5
595
  8
0
 62
     7
 10
74.954599999999999
 20
144.495
 30
0.0
 11
62.653100000000002
 21
144.495
 31
0.0
  0
LINE
  5
596
  8
0
 62
     7
 10
54.981999999999999
 20
145.69499999999991
 30
0.0
 11
54.981999999999999
 21
124.157
 31
0.0
  0
LINE
  5
597
  8
0
 62
     7
 10
42.494500000000002
 20
145.69499999999991
 30
0.0
 11
42.494500000000002
 21
124.157
 31
0.0
  0
LINE
  5
598
  8
0
 62
     7
 10
52.744399999999999
 20
143.90299999999991
 30
0.0
 11
54.954999999999991
 21
144.495
 31
0.0
  0
LINE
  5
599
  8
0
 62
     7
 10
54.954999999999991
 20
144.495
 30
0.0
 11
52.744399999999999
 21
145.08699999999999
 31
0.0
  0
LINE
  5
59A
  8
0
 62
     7
 10
52.744399999999999
 20
145.08699999999999
 30
0.0
 11
52.744399999999999
 21
143.90299999999991
 31
0.0
  0
LINE
  5
59B
  8
0
 62
     7
 10
44.677999999999997
 20
145.07299999999989
 30
0.0
 11
42.467599999999997
 21
144.4799999999999
 31
0.0
  0
LINE
  5
59C
  8
0
 62
     7
 10
42.467599999999997
 20
144.4799999999999
 30
0.0
 11
44.677999999999997
 21
143.88800000000001
 31
0.0
  0
LINE
  5
59D
  8
0
 62
     7
 10
44.677999999999997
 20
143.88800000000001
 30
0.0
 11
44.677999999999997
 21
145.07299999999989
 31
0.0
  0
LINE
  5
59E
  8
0
 62
     7
 10
54.954999999999991
 20
144.495
 30
0.0
 11
42.521000000000001
 21
144.495
 31
0.0
  0
LINE
  5
59F
  8
0
 62
     7
 10
111.2139999999999
 20
201.1209999999999
 30
0.0
 11
113.19499999999999
 21
199.976
 31
0.0
  0
LINE
  5
5A0
  8
0
 62
     7
 10
113.19499999999999
 20
199.976
 30
0.0
 11
112.051
 21
201.95799999999991
 31
0.0
  0
LINE
  5
5A1
  8
0
 62
     7
 10
112.051
 20
201.95799999999991
 30
0.0
 11
111.2139999999999
 21
201.1209999999999
 31
0.0
  0
LINE
  5
5A2
  8
0
 62
     7
 10
113.19499999999999
 20
199.976
 30
0.0
 11
107.654
 21
205.518
 31
0.0
  0
LINE
  5
5A3
  8
0
 62
     7
 10
120.127
 20
193.88199999999989
 30
0.0
 11
118.1449999999999
 21
195.02699999999999
 31
0.0
  0
LINE
  5
5A4
  8
0
 62
     7
 10
118.1449999999999
 20
195.02699999999999
 30
0.0
 11
119.289
 21
193.04499999999999
 31
0.0
  0
LINE
  5
5A5
  8
0
 62
     7
 10
119.289
 20
193.04499999999999
 30
0.0
 11
120.127
 21
193.88199999999989
 31
0.0
  0
LINE
  5
5A6
  8
0
 62
     7
 10
125.246
 20
187.92500000000001
 30
0.0
 11
118.1449999999999
 21
195.02699999999999
 31
0.0
  0
LINE
  5
5A7
  8
0
 62
     7
 10
118.1449999999999
 20
195.02699999999999
 30
0.0
 11
113.19499999999999
 21
199.976
 31
0.0
  0
ARC
  5
5A8
  8
0
 62
     7
 10
115.67067299999999
 20
197.50168300000001
 30
0.0
 40
3.4997229999999999
 50
270.00283999999988
 51
0.00281
  0
ARC
  5
5A9
  8
0
 62
     7
 10
115.67067299999999
 20
197.50202599999989
 30
0.0
 40
3.5000659999999999
 50
180.00282999999999
 51
270.00283999999988
  0
ARC
  5
5AA
  8
0
 62
     7
 10
115.67076
 20
197.501768
 30
0.0
 40
3.5001540000000002
 50
89.998589999999993
 51
179.99856
  0
ARC
  5
5AB
  8
0
 62
     7
 10
115.670587
 20
197.50211299999989
 30
0.0
 40
3.4998089999999991
 50
359.99577999999991
 51
89.995750000000001
  0
LINE
  5
5AC
  8
0
 62
     7
 10
131.214
 20
201.1209999999999
 30
0.0
 11
133.19499999999991
 21
199.977
 31
0.0
  0
LINE
  5
5AD
  8
0
 62
     7
 10
133.19499999999991
 20
199.977
 30
0.0
 11
132.05099999999999
 21
201.95799999999991
 31
0.0
  0
LINE
  5
5AE
  8
0
 62
     7
 10
132.05099999999999
 20
201.95799999999991
 30
0.0
 11
131.214
 21
201.1209999999999
 31
0.0
  0
LINE
  5
5AF
  8
0
 62
     7
 10
133.19499999999991
 20
199.977
 30
0.0
 11
127.654
 21
205.518
 31
0.0
  0
LINE
  5
5B0
  8
0
 62
     7
 10
140.12700000000001
 20
193.8829999999999
 30
0.0
 11
138.14500000000001
 21
195.02699999999999
 31
0.0
  0
LINE
  5
5B1
  8
0
 62
     7
 10
138.14500000000001
 20
195.02699999999999
 30
0.0
 11
139.2889999999999
 21
193.04499999999999
 31
0.0
  0
LINE
  5
5B2
  8
0
 62
     7
 10
139.2889999999999
 20
193.04499999999999
 30
0.0
 11
140.12700000000001
 21
193.8829999999999
 31
0.0
  0
LINE
  5
5B3
  8
0
 62
     7
 10
145.24600000000001
 20
187.92599999999999
 30
0.0
 11
138.14500000000001
 21
195.02699999999999
 31
0.0
  0
LINE
  5
5B4
  8
0
 62
     7
 10
138.14500000000001
 20
195.02699999999999
 30
0.0
 11
133.19499999999991
 21
199.977
 31
0.0
  0
ARC
  5
5B5
  8
0
 62
     7
 10
135.67061200000001
 20
197.5021999999999
 30
0.0
 40
3.500067
 50
269.99720000000002
 51
359.99716999999998
  0
ARC
  5
5B6
  8
0
 62
     7
 10
135.67061200000001
 20
197.50185400000001
 30
0.0
 40
3.4997220000000002
 50
179.99715
 51
269.99720000000002
  0
ARC
  5
5B7
  8
0
 62
     7
 10
135.67069900000001
 20
197.502285
 30
0.0
 40
3.4998089999999991
 50
90.004230000000007
 51
180.0042399999999
  0
ARC
  5
5B8
  8
0
 62
     7
 10
135.670526
 20
197.50193999999991
 30
0.0
 40
3.5001540000000002
 50
0.00142
 51
90.001390000000001
  0
LINE
  5
5B9
  8
0
 62
     7
 10
151.214
 20
201.1209999999999
 30
0.0
 11
153.19599999999991
 21
199.977
 31
0.0
  0
LINE
  5
5BA
  8
0
 62
     7
 10
153.19599999999991
 20
199.977
 30
0.0
 11
152.05099999999999
 21
201.95799999999991
 31
0.0
  0
LINE
  5
5BB
  8
0
 62
     7
 10
152.05099999999999
 20
201.95799999999991
 30
0.0
 11
151.214
 21
201.1209999999999
 31
0.0
  0
LINE
  5
5BC
  8
0
 62
     7
 10
153.19599999999991
 20
199.977
 30
0.0
 11
147.655
 21
205.518
 31
0.0
  0
LINE
  5
5BD
  8
0
 62
     7
 10
160.12700000000001
 20
193.8829999999999
 30
0.0
 11
158.14599999999999
 21
195.02699999999999
 31
0.0
  0
LINE
  5
5BE
  8
0
 62
     7
 10
158.14599999999999
 20
195.02699999999999
 30
0.0
 11
159.2889999999999
 21
193.04499999999999
 31
0.0
  0
LINE
  5
5BF
  8
0
 62
     7
 10
159.2889999999999
 20
193.04499999999999
 30
0.0
 11
160.12700000000001
 21
193.8829999999999
 31
0.0
  0
LINE
  5
5C0
  8
0
 62
     7
 10
165.24700000000001
 20
187.92599999999999
 30
0.0
 11
158.14599999999999
 21
195.02699999999999
 31
0.0
  0
LINE
  5
5C1
  8
0
 62
     7
 10
153.46000000000001
 20
208.21799999999999
 30
0.0
 11
155.67099999999991
 21
208.80999999999989
 31
0.0
  0
LINE
  5
5C2
  8
0
 62
     7
 10
155.67099999999991
 20
208.80999999999989
 30
0.0
 11
153.46000000000001
 21
209.4019999999999
 31
0.0
  0
LINE
  5
5C3
  8
0
 62
     7
 10
153.46000000000001
 20
209.4019999999999
 30
0.0
 11
153.46000000000001
 21
208.21799999999999
 31
0.0
  0
LINE
  5
5C4
  8
0
 62
     7
 10
137.88200000000001
 20
209.38799999999989
 30
0.0
 11
135.67099999999991
 21
208.79599999999991
 31
0.0
  0
LINE
  5
5C5
  8
0
 62
     7
 10
135.67099999999991
 20
208.79599999999991
 30
0.0
 11
137.88200000000001
 21
208.203
 31
0.0
  0
LINE
  5
5C6
  8
0
 62
     7
 10
137.88200000000001
 20
208.203
 30
0.0
 11
137.88200000000001
 21
209.38799999999989
 31
0.0
  0
LINE
  5
5C7
  8
0
 62
     7
 10
155.64400000000001
 20
208.80299999999991
 30
0.0
 11
135.69799999999989
 21
208.80299999999991
 31
0.0
  0
LINE
  5
5C8
  8
0
 62
     7
 10
133.46000000000001
 20
208.21799999999999
 30
0.0
 11
135.6699999999999
 21
208.80999999999989
 31
0.0
  0
LINE
  5
5C9
  8
0
 62
     7
 10
135.6699999999999
 20
208.80999999999989
 30
0.0
 11
133.46000000000001
 21
209.4019999999999
 31
0.0
  0
LINE
  5
5CA
  8
0
 62
     7
 10
133.46000000000001
 20
209.4019999999999
 30
0.0
 11
133.46000000000001
 21
208.21799999999999
 31
0.0
  0
LINE
  5
5CB
  8
0
 62
     7
 10
117.9079999999999
 20
209.3949999999999
 30
0.0
 11
115.69799999999989
 21
208.80299999999991
 31
0.0
  0
LINE
  5
5CC
  8
0
 62
     7
 10
115.69799999999989
 20
208.80299999999991
 30
0.0
 11
117.9079999999999
 21
208.21000000000001
 31
0.0
  0
LINE
  5
5CD
  8
0
 62
     7
 10
117.9079999999999
 20
208.21000000000001
 30
0.0
 11
117.9079999999999
 21
209.3949999999999
 31
0.0
  0
LINE
  5
5CE
  8
0
 62
     7
 10
135.64400000000001
 20
208.80299999999991
 30
0.0
 11
115.69799999999989
 21
208.80299999999991
 31
0.0
  0
LINE
  5
5CF
  8
0
 62
     7
 10
155.67099999999991
 20
203.80199999999999
 30
0.0
 11
155.67099999999991
 21
210.0029999999999
 31
0.0
  0
LINE
  5
5D0
  8
0
 62
     7
 10
135.6699999999999
 20
203.80199999999999
 30
0.0
 11
135.6699999999999
 21
210.0029999999999
 31
0.0
  0
LINE
  5
5D1
  8
0
 62
     7
 10
115.67100000000001
 20
203.80199999999999
 30
0.0
 11
115.67100000000001
 21
210.0029999999999
 31
0.0
  0
ARC
  5
5D2
  8
0
 62
     7
 10
83.555890000000005
 20
106.898608
 30
0.0
 40
1.1745259999999991
 50
151.69524200000001
 51
179.88545999999999
  0
ARC
  5
5D3
  8
0
 62
     7
 10
83.008603000000008
 20
107.17504599999999
 30
0.0
 40
0.5618280000000001
 50
125.6358739999999
 51
150.0515959999999
  0
ARC
  5
5D4
  8
0
 62
     7
 10
83.402771999999999
 20
106.901731
 30
0.0
 40
1.021404999999999
 50
180.04356599999991
 51
203.88811200000001
  0
ARC
  5
5D5
  8
0
 62
     7
 10
83.079891000000003
 20
106.7770749999999
 30
0.0
 40
0.675911
 50
205.31007099999999
 51
233.85991299999989
  0
ARC
  5
5D6
  8
0
 62
     7
 10
86.695419999999984
 20
108.829149
 30
0.0
 40
4.3140539999999996
 50
179.98116899999999
 51
185.31603200000001
  0
ARC
  5
5D7
  8
0
 62
     7
 10
84.844976000000003
 20
108.668057
 30
0.0
 40
2.4566689999999989
 50
185.57357500000001
 51
194.1190269999999
  0
ARC
  5
5D8
  8
0
 62
     7
 10
83.793388000000007
 20
108.41392999999999
 30
0.0
 40
1.374892999999999
 50
194.53871599999991
 51
205.829274
  0
ARC
  5
5D9
  8
0
 62
     7
 10
83.270037999999985
 20
108.16917599999999
 30
0.0
 40
0.797229
 50
206.3838429999999
 51
222.394014
  0
LINE
  5
5DA
  8
0
 62
     7
 10
82.381399999999985
 20
106.901
 30
0.0
 11
82.381399999999985
 21
108.831
 31
0.0
  0
ARC
  5
5DB
  8
0
 62
     7
 10
83.408004000000005
 20
106.898608
 30
0.0
 40
1.173416999999999
 50
0.114618
 51
28.333905999999999
  0
ARC
  5
5DC
  8
0
 62
     7
 10
83.953196999999989
 20
107.174572
 30
0.0
 40
0.5627880000000001
 50
29.94783
 51
54.310749999999999
  0
ARC
  5
5DD
  8
0
 62
     7
 10
83.561571000000001
 20
106.90173
 30
0.0
 40
1.019847999999999
 50
336.07326699999987
 51
359.95649100000003
  0
ARC
  5
5DE
  8
0
 62
     7
 10
83.881587999999994
 20
106.777809
 30
0.0
 40
0.677275
 50
306.19275399999992
 51
334.67581899999999
  0
ARC
  5
5DF
  8
0
 62
     7
 10
80.267332999999994
 20
108.8291499999999
 30
0.0
 40
4.3140859999999988
 50
354.68400700000001
 51
0.018791
  0
ARC
  5
5E0
  8
0
 62
     7
 10
82.117808999999994
 20
108.668057
 30
0.0
 40
2.4566689999999989
 50
345.88099299999999
 51
354.426445
  0
ARC
  5
5E1
  8
0
 62
     7
 10
83.169397000000004
 20
108.41392999999999
 30
0.0
 40
1.374892999999999
 50
334.17074600000001
 51
345.46130399999993
  0
ARC
  5
5E2
  8
0
 62
     7
 10
83.692746999999997
 20
108.16917599999999
 30
0.0
 40
0.797229
 50
317.60600599999992
 51
333.61617699999988
  0
LINE
  5
5E3
  8
0
 62
     7
 10
82.681299999999993
 20
107.63200000000001
 30
0.0
 11
84.281499999999994
 21
107.63200000000001
 31
0.0
  0
LINE
  5
5E4
  8
0
 62
     7
 10
82.681299999999993
 20
106.23099999999999
 30
0.0
 11
84.281499999999994
 21
106.23099999999999
 31
0.0
  0
LINE
  5
5E5
  8
0
 62
     7
 10
84.581400000000002
 20
106.901
 30
0.0
 11
84.581400000000002
 21
108.831
 31
0.0
  0
ARC
  5
5E6
  8
0
 62
     7
 10
83.556414000000004
 20
110.76357
 30
0.0
 40
1.175049999999999
 50
180.11516
 51
208.298316
  0
ARC
  5
5E7
  8
0
 62
     7
 10
83.005030000000005
 20
110.484959
 30
0.0
 40
0.557714
 50
209.94999100000001
 51
234.51259899999999
  0
ARC
  5
5E8
  8
0
 62
     7
 10
83.401588000000004
 20
110.760425
 30
0.0
 40
1.0202219999999991
 50
156.09782699999991
 51
179.95593999999991
  0
ARC
  5
5E9
  8
0
 62
     7
 10
83.081182999999996
 20
110.88431199999999
 30
0.0
 40
0.6773010000000002
 50
126.189592
 51
154.69699299999991
  0
ARC
  5
5EA
  8
0
 62
     7
 10
86.701104999999984
 20
108.831987
 30
0.0
 40
4.3197390000000002
 50
174.68746899999999
 51
180.01887600000001
  0
ARC
  5
5EB
  8
0
 62
     7
 10
84.848943999999989
 20
108.99311899999989
 30
0.0
 40
2.4606400000000002
 50
165.89214799999999
 51
174.43022400000001
  0
ARC
  5
5EC
  8
0
 62
     7
 10
83.798709000000002
 20
109.24660799999999
 30
0.0
 40
1.3803309999999991
 50
154.21144200000001
 51
165.470865
  0
ARC
  5
5ED
  8
0
 62
     7
 10
83.273934999999994
 20
109.491606
 30
0.0
 40
0.8012719999999999
 50
137.702684
 51
153.66041999999999
  0
LINE
  5
5EE
  8
0
 62
     7
 10
82.381399999999985
 20
110.761
 30
0.0
 11
82.381399999999985
 21
108.831
 31
0.0
  0
ARC
  5
5EF
  8
0
 62
     7
 10
83.407481000000004
 20
110.76357
 30
0.0
 40
1.1739399999999991
 50
331.67254100000002
 51
359.88476200000002
  0
ARC
  5
5F0
  8
0
 62
     7
 10
83.956783000000001
 20
110.48542500000001
 30
0.0
 40
0.558658
 50
305.54077899999987
 51
330.05059399999988
  0
ARC
  5
5F1
  8
0
 62
     7
 10
81.679072000000005
 20
108.829007
 30
0.0
 40
4.9349660000000002
 50
354.9618099999999
 51
0.018096
  0
ARC
  5
5F2
  8
0
 62
     7
 10
84.139252999999997
 20
108.628546
 30
0.0
 40
2.4667400000000002
 50
342.045636
 51
354.581661
  0
ARC
  5
5F3
  8
0
 62
     7
 10
84.899407999999994
 20
108.41250100000001
 30
0.0
 40
1.677252
 50
319.84471400000001
 51
341.06173799999999
  0
ARC
  5
5F4
  8
0
 62
     7
 10
83.562753000000001
 20
110.76042700000001
 30
0.0
 40
1.0186660000000001
 50
0.044004
 51
23.940816000000002
  0
ARC
  5
5F5
  8
0
 62
     7
 10
83.880291
 20
110.88357600000001
 30
0.0
 40
0.67867
 50
25.317117
 51
53.757748000000007
  0
ARC
  5
5F6
  8
0
 62
     7
 10
80.261647999999994
 20
108.831986
 30
0.0
 40
4.3197710000000002
 50
359.98116299999998
 51
5.3124909999999996
  0
ARC
  5
5F7
  8
0
 62
     7
 10
82.113841000000008
 20
108.99311899999989
 30
0.0
 40
2.4606400000000002
 50
5.5697570000000001
 51
14.107832
  0
ARC
  5
5F8
  8
0
 62
     7
 10
83.164075999999994
 20
109.24660799999999
 30
0.0
 40
1.3803309999999991
 50
14.52911499999999
 51
25.788539
  0
ARC
  5
5F9
  8
0
 62
     7
 10
83.688850000000002
 20
109.491606
 30
0.0
 40
0.8012719999999999
 50
26.339559999999999
 51
42.297297
  0
ARC
  5
5FA
  8
0
 62
     7
 10
81.676559999999995
 20
108.8321209999999
 30
0.0
 40
4.9374779999999987
 50
359.98194599999988
 51
5.0369070000000002
  0
ARC
  5
5FB
  8
0
 62
     7
 10
84.135113000000004
 20
109.032426
 30
0.0
 40
2.4708860000000001
 50
5.4154189999999991
 51
17.939668000000001
  0
ARC
  5
5FC
  8
0
 62
     7
 10
84.896757999999977
 20
109.24868499999999
 30
0.0
 40
1.679908
 50
18.923801000000001
 51
40.122495000000001
  0
LINE
  5
5FD
  8
0
 62
     7
 10
80.081199999999995
 20
107.53099999999991
 30
0.0
 11
78.981200000000001
 21
107.53099999999991
 31
0.0
  0
ARC
  5
5FE
  8
0
 62
     7
 10
80.285394999999994
 20
107.626818
 30
0.0
 40
0.10415
 50
92.295420999999976
 51
177.901781
  0
ARC
  5
5FF
  8
0
 62
     7
 10
80.077960000000004
 20
107.6344399999999
 30
0.0
 40
0.103425
 50
271.81417799999991
 51
357.88921899999991
  0
ARC
  5
600
  8
0
 62
     7
 10
81.477408999999994
 20
107.62688899999991
 30
0.0
 40
0.104069
 50
2.0605340000000001
 51
87.840924999999984
  0
LINE
  5
601
  8
0
 62
     7
 10
82.181399999999996
 20
107.53099999999991
 30
0.0
 11
81.681299999999993
 21
107.53099999999991
 31
0.0
  0
ARC
  5
602
  8
0
 62
     7
 10
81.685093999999992
 20
107.6347649999999
 30
0.0
 40
0.103766
 50
182.28317799999991
 51
267.91476399999999
  0
LINE
  5
603
  8
0
 62
     7
 10
80.281199999999984
 20
107.73099999999999
 30
0.0
 11
81.481300000000005
 21
107.73099999999999
 31
0.0
  0
LINE
  5
604
  8
0
 62
     7
 10
80.081199999999995
 20
110.131
 30
0.0
 11
78.981200000000001
 21
110.131
 31
0.0
  0
ARC
  5
605
  8
0
 62
     7
 10
80.285027999999997
 20
110.0346489999999
 30
0.0
 40
0.103783
 50
182.10112099999989
 51
267.89890800000001
  0
ARC
  5
606
  8
0
 62
     7
 10
80.077569999999994
 20
110.02735800000001
 30
0.0
 40
0.103803
 50
1.9244239999999999
 51
87.977035000000001
  0
ARC
  5
607
  8
0
 62
     7
 10
81.477686000000006
 20
110.0346659999999
 30
0.0
 40
0.103795
 50
272.011707
 51
357.88960299999991
  0
LINE
  5
608
  8
0
 62
     7
 10
82.181399999999996
 20
110.131
 30
0.0
 11
81.681299999999993
 21
110.131
 31
0.0
  0
ARC
  5
609
  8
0
 62
     7
 10
81.685449999999989
 20
110.02707099999991
 30
0.0
 40
0.104108
 50
92.274129000000016
 51
177.92307199999991
  0
LINE
  5
60A
  8
0
 62
     7
 10
82.381399999999985
 20
107.631
 30
0.0
 11
82.181399999999996
 21
107.631
 31
0.0
  0
LINE
  5
60B
  8
0
 62
     7
 10
82.381399999999985
 20
110.03100000000001
 30
0.0
 11
82.181399999999996
 21
110.03100000000001
 31
0.0
  0
LINE
  5
60C
  8
0
 62
     7
 10
78.981200000000001
 20
107.631
 30
0.0
 11
75.616399999999999
 21
107.631
 31
0.0
  0
LINE
  5
60D
  8
0
 62
     7
 10
78.981200000000001
 20
110.03100000000001
 30
0.0
 11
75.616399999999999
 21
110.03100000000001
 31
0.0
  0
LINE
  5
60E
  8
0
 62
     7
 10
80.281199999999984
 20
109.931
 30
0.0
 11
81.481300000000005
 21
109.931
 31
0.0
  0
LINE
  5
60F
  8
0
 62
     7
 10
78.981200000000001
 20
110.131
 30
0.0
 11
78.981200000000001
 21
107.53099999999991
 31
0.0
  0
LINE
  5
610
  8
0
 62
     7
 10
82.181399999999996
 20
110.131
 30
0.0
 11
82.181399999999996
 21
107.53099999999991
 31
0.0
  0
LINE
  5
611
  8
0
 62
     7
 10
82.681299999999993
 20
110.03100000000001
 30
0.0
 11
84.281499999999994
 21
110.03100000000001
 31
0.0
  0
LINE
  5
612
  8
0
 62
     7
 10
82.681299999999993
 20
111.4309999999999
 30
0.0
 11
84.281499999999994
 21
111.4309999999999
 31
0.0
  0
LINE
  5
613
  8
0
 62
     7
 10
84.581400000000002
 20
107.3309999999999
 30
0.0
 11
86.181299999999979
 21
107.3309999999999
 31
0.0
  0
LINE
  5
614
  8
0
 62
     7
 10
84.581400000000002
 20
110.331
 30
0.0
 11
86.181299999999979
 21
110.331
 31
0.0
  0
LINE
  5
615
  8
0
 62
     7
 10
84.581400000000002
 20
110.761
 30
0.0
 11
84.581400000000002
 21
108.831
 31
0.0
  0
ARC
  5
616
  8
0
 62
     7
 10
54.007296999999987
 20
106.898608
 30
0.0
 40
1.1745259999999991
 50
0.11452
 51
28.304738
  0
ARC
  5
617
  8
0
 62
     7
 10
54.554583999999998
 20
107.17504599999999
 30
0.0
 40
0.5618280000000001
 50
29.948384000000001
 51
54.364106000000021
  0
ARC
  5
618
  8
0
 62
     7
 10
54.160415999999998
 20
106.901731
 30
0.0
 40
1.021404999999999
 50
336.11190800000003
 51
359.95645400000001
  0
ARC
  5
619
  8
0
 62
     7
 10
54.483297
 20
106.7770749999999
 30
0.0
 40
0.675911
 50
306.140106
 51
334.68994900000001
  0
ARC
  5
61A
  8
0
 62
     7
 10
50.867736000000001
 20
108.8291499999999
 30
0.0
 40
4.3140859999999988
 50
354.68400700000001
 51
0.018791
  0
ARC
  5
61B
  8
0
 62
     7
 10
52.718210999999997
 20
108.668057
 30
0.0
 40
2.4566689999999989
 50
345.88099299999999
 51
354.426445
  0
ARC
  5
61C
  8
0
 62
     7
 10
53.769799999999989
 20
108.41392999999999
 30
0.0
 40
1.374892999999999
 50
334.17074600000001
 51
345.46130399999993
  0
ARC
  5
61D
  8
0
 62
     7
 10
54.29314999999999
 20
108.16917599999999
 30
0.0
 40
0.797229
 50
317.60600599999992
 51
333.61617699999988
  0
LINE
  5
61E
  8
0
 62
     7
 10
55.181800000000003
 20
106.901
 30
0.0
 11
55.181800000000003
 21
108.831
 31
0.0
  0
ARC
  5
61F
  8
0
 62
     7
 10
54.155909999999999
 20
106.898608
 30
0.0
 40
1.173970999999999
 50
151.68065799999991
 51
179.885411
  0
ARC
  5
620
  8
0
 62
     7
 10
53.609774999999999
 20
107.17471499999991
 30
0.0
 40
0.562446
 50
125.6655929999999
 51
150.04882599999999
  0
ARC
  5
621
  8
0
 62
     7
 10
54.002538999999999
 20
106.901731
 30
0.0
 40
1.0205969999999991
 50
180.04354699999999
 51
203.90814900000001
  0
ARC
  5
622
  8
0
 62
     7
 10
53.680918999999989
 20
106.77727
 30
0.0
 40
0.6763360000000001
 50
205.3113479999999
 51
233.83866699999999
  0
ARC
  5
623
  8
0
 62
     7
 10
57.295994999999991
 20
108.829149
 30
0.0
 40
4.3140539999999996
 50
179.98116899999999
 51
185.31603200000001
  0
ARC
  5
624
  8
0
 62
     7
 10
55.445551000000002
 20
108.668057
 30
0.0
 40
2.4566689999999989
 50
185.57357500000001
 51
194.1190269999999
  0
ARC
  5
625
  8
0
 62
     7
 10
54.393962999999999
 20
108.41392999999999
 30
0.0
 40
1.374892999999999
 50
194.53871599999991
 51
205.829274
  0
ARC
  5
626
  8
0
 62
     7
 10
53.870612999999999
 20
108.16917599999999
 30
0.0
 40
0.797229
 50
206.3838429999999
 51
222.394014
  0
LINE
  5
627
  8
0
 62
     7
 10
54.881900000000002
 20
107.63200000000001
 30
0.0
 11
53.28179999999999
 21
107.63200000000001
 31
0.0
  0
LINE
  5
628
  8
0
 62
     7
 10
54.881900000000002
 20
106.23099999999999
 30
0.0
 11
53.28179999999999
 21
106.23099999999999
 31
0.0
  0
LINE
  5
629
  8
0
 62
     7
 10
52.981900000000003
 20
106.901
 30
0.0
 11
52.981900000000003
 21
108.831
 31
0.0
  0
ARC
  5
62A
  8
0
 62
     7
 10
54.006772999999988
 20
110.76357
 30
0.0
 40
1.175049999999999
 50
331.70170400000001
 51
359.88486
  0
ARC
  5
62B
  8
0
 62
     7
 10
54.558157999999992
 20
110.484959
 30
0.0
 40
0.557714
 50
305.48742099999993
 51
330.050028
  0
ARC
  5
62C
  8
0
 62
     7
 10
54.1616
 20
110.760425
 30
0.0
 40
1.0202219999999991
 50
0.04404
 51
23.902152999999991
  0
ARC
  5
62D
  8
0
 62
     7
 10
54.482005000000008
 20
110.88431199999999
 30
0.0
 40
0.6773010000000002
 50
25.302987999999999
 51
53.81038800000001
  0
ARC
  5
62E
  8
0
 62
     7
 10
50.862051000000001
 20
108.831986
 30
0.0
 40
4.3197710000000002
 50
359.98116299999998
 51
5.3124909999999996
  0
ARC
  5
62F
  8
0
 62
     7
 10
52.714243000000003
 20
108.99311899999989
 30
0.0
 40
2.4606400000000002
 50
5.5697570000000001
 51
14.107832
  0
ARC
  5
630
  8
0
 62
     7
 10
53.764479000000001
 20
109.24660799999999
 30
0.0
 40
1.3803309999999991
 50
14.52911499999999
 51
25.788539
  0
ARC
  5
631
  8
0
 62
     7
 10
54.289253000000002
 20
109.491606
 30
0.0
 40
0.8012719999999999
 50
26.339559999999999
 51
42.297297
  0
LINE
  5
632
  8
0
 62
     7
 10
55.181800000000003
 20
110.761
 30
0.0
 11
55.181800000000003
 21
108.831
 31
0.0
  0
ARC
  5
633
  8
0
 62
     7
 10
54.156433999999997
 20
110.76357
 30
0.0
 40
1.1744950000000001
 50
180.11520899999999
 51
208.31289799999999
  0
ARC
  5
634
  8
0
 62
     7
 10
53.606194000000002
 20
110.485286
 30
0.0
 40
0.558322
 50
209.95275599999999
 51
234.48287899999991
  0
ARC
  5
635
  8
0
 62
     7
 10
55.889952999999998
 20
108.82901099999999
 30
0.0
 40
4.9406299999999996
 50
179.98195899999999
 51
185.03247300000001
  0
ARC
  5
636
  8
0
 62
     7
 10
53.423609999999996
 20
108.628232
 30
0.0
 40
2.466237
 50
185.41214400000001
 51
197.95050499999999
  0
ARC
  5
637
  8
0
 62
     7
 10
52.661943000000008
 20
108.4115679999999
 30
0.0
 40
1.6751149999999999
 50
198.92963700000001
 51
220.17524599999999
  0
ARC
  5
638
  8
0
 62
     7
 10
54.001356000000008
 20
110.760426
 30
0.0
 40
1.019414
 50
156.07777899999999
 51
179.95595900000001
  0
ARC
  5
639
  8
0
 62
     7
 10
53.682212999999997
 20
110.88411599999991
 30
0.0
 40
0.6777280000000001
 50
126.210836
 51
154.69571499999989
  0
ARC
  5
63A
  8
0
 62
     7
 10
57.301679999999998
 20
108.831987
 30
0.0
 40
4.3197390000000002
 50
174.68746899999999
 51
180.01887600000001
  0
ARC
  5
63B
  8
0
 62
     7
 10
55.449519999999993
 20
108.99311899999989
 30
0.0
 40
2.4606400000000002
 50
165.89214799999999
 51
174.43022400000001
  0
ARC
  5
63C
  8
0
 62
     7
 10
54.399283999999987
 20
109.24660799999999
 30
0.0
 40
1.3803309999999991
 50
154.21144200000001
 51
165.470865
  0
ARC
  5
63D
  8
0
 62
     7
 10
53.874510000000001
 20
109.491606
 30
0.0
 40
0.8012719999999999
 50
137.702684
 51
153.66041999999999
  0
ARC
  5
63E
  8
0
 62
     7
 10
55.892467000000003
 20
108.8321169999999
 30
0.0
 40
4.9431449999999986
 50
174.968808
 51
180.017999
  0
ARC
  5
63F
  8
0
 62
     7
 10
53.427748999999999
 20
109.0327399999999
 30
0.0
 40
2.4703829999999991
 50
162.064188
 51
174.5907719999999
  0
ARC
  5
640
  8
0
 62
     7
 10
52.664588000000002
 20
109.249619
 30
0.0
 40
1.6777669999999989
 50
139.85755499999991
 51
161.0848189999999
  0
LINE
  5
641
  8
0
 62
     7
 10
57.482100000000003
 20
107.53099999999991
 30
0.0
 11
58.582000000000001
 21
107.53099999999991
 31
0.0
  0
ARC
  5
642
  8
0
 62
     7
 10
57.27796
 20
107.626806
 30
0.0
 40
0.104155
 50
2.1047910000000001
 51
87.796668000000011
  0
ARC
  5
643
  8
0
 62
     7
 10
57.485399999999998
 20
107.6344399999999
 30
0.0
 40
0.103425
 50
182.110783
 51
268.18585899999999
  0
ARC
  5
644
  8
0
 62
     7
 10
56.085845999999997
 20
107.6269939999999
 30
0.0
 40
0.10396
 50
92.103482
 51
177.9950199999999
  0
LINE
  5
645
  8
0
 62
     7
 10
55.381999999999991
 20
107.53099999999991
 30
0.0
 11
55.881900000000002
 21
107.53099999999991
 31
0.0
  0
ARC
  5
646
  8
0
 62
     7
 10
55.878443999999988
 20
107.634592
 30
0.0
 40
0.103581
 50
271.89475599999997
 51
357.80864200000002
  0
LINE
  5
647
  8
0
 62
     7
 10
57.281999999999996
 20
107.73099999999999
 30
0.0
 11
56.082000000000001
 21
107.73099999999999
 31
0.0
  0
LINE
  5
648
  8
0
 62
     7
 10
57.482100000000003
 20
110.131
 30
0.0
 11
58.582000000000001
 21
110.131
 31
0.0
  0
ARC
  5
649
  8
0
 62
     7
 10
57.278176000000002
 20
110.034812
 30
0.0
 40
0.103945
 50
272.08889599999992
 51
357.81241399999988
  0
ARC
  5
64A
  8
0
 62
     7
 10
57.485942000000001
 20
110.027207
 30
0.0
 40
0.10396
 50
92.103482
 51
177.9950199999999
  0
ARC
  5
64B
  8
0
 62
     7
 10
56.085673999999997
 20
110.0346659999999
 30
0.0
 40
0.103795
 50
182.1104
 51
267.98833100000002
  0
LINE
  5
64C
  8
0
 62
     7
 10
55.381999999999991
 20
110.131
 30
0.0
 11
55.881900000000002
 21
110.131
 31
0.0
  0
ARC
  5
64D
  8
0
 62
     7
 10
55.877904999999998
 20
110.02705899999999
 30
0.0
 40
0.104114
 50
2.0835059999999999
 51
87.817953000000003
  0
LINE
  5
64E
  8
0
 62
     7
 10
55.181800000000003
 20
107.631
 30
0.0
 11
55.381999999999991
 21
107.631
 31
0.0
  0
LINE
  5
64F
  8
0
 62
     7
 10
55.181800000000003
 20
110.03100000000001
 30
0.0
 11
55.381999999999991
 21
110.03100000000001
 31
0.0
  0
LINE
  5
650
  8
0
 62
     7
 10
58.582000000000001
 20
107.631
 30
0.0
 11
61.947000000000003
 21
107.631
 31
0.0
  0
LINE
  5
651
  8
0
 62
     7
 10
58.582000000000001
 20
110.03100000000001
 30
0.0
 11
61.947000000000003
 21
110.03100000000001
 31
0.0
  0
LINE
  5
652
  8
0
 62
     7
 10
57.281999999999996
 20
109.931
 30
0.0
 11
56.082000000000001
 21
109.931
 31
0.0
  0
LINE
  5
653
  8
0
 62
     7
 10
58.582000000000001
 20
110.131
 30
0.0
 11
58.582000000000001
 21
107.53099999999991
 31
0.0
  0
LINE
  5
654
  8
0
 62
     7
 10
55.381999999999991
 20
110.131
 30
0.0
 11
55.381999999999991
 21
107.53099999999991
 31
0.0
  0
LINE
  5
655
  8
0
 62
     7
 10
54.881900000000002
 20
110.03100000000001
 30
0.0
 11
53.28179999999999
 21
110.03100000000001
 31
0.0
  0
LINE
  5
656
  8
0
 62
     7
 10
54.881900000000002
 20
111.4309999999999
 30
0.0
 11
53.28179999999999
 21
111.4309999999999
 31
0.0
  0
LINE
  5
657
  8
0
 62
     7
 10
52.981900000000003
 20
107.3309999999999
 30
0.0
 11
51.381999999999998
 21
107.3309999999999
 31
0.0
  0
LINE
  5
658
  8
0
 62
     7
 10
52.981900000000003
 20
110.331
 30
0.0
 11
51.381999999999998
 21
110.331
 31
0.0
  0
LINE
  5
659
  8
0
 62
     7
 10
52.981900000000003
 20
110.761
 30
0.0
 11
52.981900000000003
 21
108.831
 31
0.0
  0
ARC
  5
65A
  8
0
 62
     7
 10
86.199329000000006
 20
127.9594019999999
 30
0.0
 40
1.2714350000000001
 50
89.778643000000002
 51
102.539162
  0
ARC
  5
65B
  8
0
 62
     7
 10
86.203633999999994
 20
127.953479
 30
0.0
 40
1.277347999999999
 50
63.010304000000012
 51
89.972752999999997
  0
ARC
  5
65C
  8
0
 62
     7
 10
86.377397000000002
 20
128.33573200000001
 30
0.0
 40
0.8580709999999999
 50
34.253771999999991
 51
61.765613000000009
  0
ARC
  5
65D
  8
0
 62
     7
 10
86.613151999999999
 20
128.5214389999999
 30
0.0
 40
0.559067
 50
0.921997
 51
32.121617999999998
  0
ARC
  5
65E
  8
0
 62
     7
 10
86.637636999999998
 20
128.53189099999989
 30
0.0
 40
0.534511
 50
325.22614099999998
 51
359.84390999999999
  0
ARC
  5
65F
  8
0
 62
     7
 10
86.461946999999995
 20
128.641066
 30
0.0
 40
0.741167
 50
302.81134899999989
 51
326.03983099999988
  0
ARC
  5
660
  8
0
 62
     7
 10
86.264116999999999
 20
128.91765399999991
 30
0.0
 40
1.0809500000000001
 50
277.81411799999989
 51
303.68026200000003
  0
ARC
  5
661
  8
0
 62
     7
 10
86.205465000000004
 20
129.15915000000001
 30
0.0
 40
1.328419
 50
269.94721600000003
 51
278.90425899999991
  0
ARC
  5
662
  8
0
 62
     7
 10
86.203222999999994
 20
129.16220599999991
 30
0.0
 40
1.3314749999999991
 50
257.74976499999991
 51
270.04383100000001
  0
ARC
  5
663
  8
0
 62
     7
 10
85.657364999999984
 20
127.3770649999999
 30
0.0
 40
0.5259000000000002
 50
352.22877499999993
 51
44.520752000000002
  0
ARC
  5
664
  8
0
 62
     7
 10
85.583260999999993
 20
127.37494599999989
 30
0.0
 40
0.5991590000000001
 50
322.67507499999999
 51
353.38786800000003
  0
ARC
  5
665
  8
0
 62
     7
 10
86.743162999999996
 20
128.533998
 30
0.0
 40
1.0613790000000001
 50
180.17377200000001
 51
227.9540649999999
  0
ARC
  5
666
  8
0
 62
     7
 10
86.834354000000005
 20
128.4479639999999
 30
0.0
 40
1.1795869999999999
 50
123.584435
 51
152.50213400000001
  0
ARC
  5
667
  8
0
 62
     7
 10
86.730907999999999
 20
128.53256399999989
 30
0.0
 40
1.0491200000000001
 50
153.99212099999991
 51
180.09748200000001
  0
ARC
  5
668
  8
0
 62
     7
 10
86.252900999999994
 20
126.821242
 30
0.0
 40
0.27125
 50
135.41374999999991
 51
179.07553100000001
  0
LINE
  5
669
  8
0
 62
     7
 10
85.981700000000004
 20
126.82599999999999
 30
0.0
 11
85.981700000000004
 21
126.23099999999999
 31
0.0
  0
ARC
  5
66A
  8
0
 62
     7
 10
91.363737
 20
127.9594019999999
 30
0.0
 40
1.2714350000000001
 50
77.460818000000003
 51
90.221337000000034
  0
ARC
  5
66B
  8
0
 62
     7
 10
91.359430000000003
 20
127.95429900000001
 30
0.0
 40
1.2765280000000001
 50
90.027107999999998
 51
116.998508
  0
ARC
  5
66C
  8
0
 62
     7
 10
91.185838000000004
 20
128.33605299999991
 30
0.0
 40
0.8577759999999999
 50
118.24305699999989
 51
145.75875999999991
  0
ARC
  5
66D
  8
0
 62
     7
 10
90.950683999999995
 20
128.52137500000001
 30
0.0
 40
0.5594940000000001
 50
147.89800600000001
 51
179.07210799999999
  0
ARC
  5
66E
  8
0
 62
     7
 10
90.924925000000002
 20
128.5315699999999
 30
0.0
 40
0.533662
 50
180.121847
 51
214.79519099999999
  0
ARC
  5
66F
  8
0
 62
     7
 10
91.101348000000002
 20
128.64084199999991
 30
0.0
 40
0.740976
 50
213.9491589999999
 51
237.179441
  0
ARC
  5
670
  8
0
 62
     7
 10
91.298903999999993
 20
128.916786
 30
0.0
 40
1.080074999999999
 50
236.3064279999999
 51
262.18567999999988
  0
ARC
  5
671
  8
0
 62
     7
 10
91.357597999999996
 20
129.1582019999999
 30
0.0
 40
1.327470999999999
 50
261.09257300000002
 51
270.05300699999992
  0
ARC
  5
672
  8
0
 62
     7
 10
91.359852000000004
 20
129.163735
 30
0.0
 40
1.3330040000000001
 50
269.95588800000002
 51
282.2432
  0
ARC
  5
673
  8
0
 62
     7
 10
88.774321999999984
 20
116.2135149999999
 30
0.0
 40
23.017282999999999
 50
89.981611000000001
 51
90.955205000000007
  0
ARC
  5
674
  8
0
 62
     7
 10
88.498599999999996
 20
134.18277
 30
0.0
 40
5.0459849999999991
 50
91.226347000000004
 51
111.1060649999999
  0
ARC
  5
675
  8
0
 62
     7
 10
91.904630000000012
 20
127.3776009999999
 30
0.0
 40
0.5246370000000001
 50
135.42571199999989
 51
187.15896799999999
  0
ARC
  5
676
  8
0
 62
     7
 10
91.979573000000002
 20
127.3748409999999
 30
0.0
 40
0.5987740000000001
 50
186.0031469999999
 51
217.34046000000001
  0
LINE
  5
677
  8
0
 62
     7
 10
86.199899999999985
 20
126.9309999999999
 30
0.0
 11
88.781700000000001
 21
126.9309999999999
 31
0.0
  0
LINE
  5
678
  8
0
 62
     7
 10
86.199899999999985
 20
127.631
 30
0.0
 11
88.781700000000001
 21
127.631
 31
0.0
  0
ARC
  5
679
  8
0
 62
     7
 10
90.819084000000004
 20
128.5344409999999
 30
0.0
 40
1.062371999999999
 50
312.06966499999987
 51
359.80253799999991
  0
ARC
  5
67A
  8
0
 62
     7
 10
90.728705000000005
 20
128.4483679999999
 30
0.0
 40
1.17954
 50
27.476912999999989
 51
56.383502
  0
ARC
  5
67B
  8
0
 62
     7
 10
90.831209999999999
 20
128.532262
 30
0.0
 40
1.0502409999999991
 50
359.91911399999998
 51
25.99635799999999
  0
LINE
  5
67C
  8
0
 62
     7
 10
86.531700000000015
 20
129.93100000000001
 30
0.0
 11
86.587199999999996
 21
129.93100000000001
 31
0.0
  0
LINE
  5
67D
  8
0
 62
     7
 10
86.181799999999996
 20
129.58099999999999
 30
0.0
 11
86.181799999999996
 21
129.43100000000001
 31
0.0
  0
ARC
  5
67E
  8
0
 62
     7
 10
86.545385999999993
 20
129.56734399999991
 30
0.0
 40
0.363789
 50
92.156089000000009
 51
177.872085
  0
LINE
  5
67F
  8
0
 62
     7
 10
87.381600000000006
 20
132.73099999999991
 30
0.0
 11
87.381600000000006
 21
130.83099999999999
 31
0.0
  0
ARC
  5
680
  8
0
 62
     7
 10
86.571132999999975
 20
130.7258249999999
 30
0.0
 40
0.795111
 50
271.155441
 51
342.78720399999997
  0
ARC
  5
681
  8
0
 62
     7
 10
86.288785000000004
 20
130.82056900000001
 30
0.0
 40
1.092871999999999
 50
342.422957
 51
0.5332460000000001
  0
LINE
  5
682
  8
0
 62
     7
 10
83.978399999999993
 20
135.25700000000001
 30
0.0
 11
84.244699999999995
 21
134.93399999999991
 31
0.0
  0
LINE
  5
683
  8
0
 62
     7
 10
84.244699999999995
 20
137.18700000000001
 30
0.0
 11
83.978399999999993
 21
136.864
 31
0.0
  0
LINE
  5
684
  8
0
 62
     7
 10
85.627999999999986
 20
134.952
 30
0.0
 11
85.627999999999986
 21
135.19099999999989
 31
0.0
  0
LINE
  5
685
  8
0
 62
     7
 10
86.028000000000006
 20
134.55199999999999
 30
0.0
 11
86.743600000000001
 21
134.55199999999999
 31
0.0
  0
ARC
  5
686
  8
0
 62
     7
 10
86.043320999999978
 20
134.967431
 30
0.0
 40
0.415558
 50
182.10972899999999
 51
267.89030000000002
  0
ARC
  5
687
  8
0
 62
     7
 10
85.099352999999994
 20
134.1839699999999
 30
0.0
 40
1.1368119999999999
 50
62.285532000000003
 51
138.74951200000001
  0
LINE
  5
688
  8
0
 62
     7
 10
84.244699999999995
 20
136.06
 30
0.0
 11
84.244699999999995
 21
134.93399999999991
 31
0.0
  0
ARC
  5
689
  8
0
 62
     7
 10
83.810202000000004
 20
136.06439900000001
 30
0.0
 40
2.0169759999999992
 50
334.32574899999997
 51
359.87741099999988
  0
ARC
  5
68A
  8
0
 62
     7
 10
83.823341999999997
 20
136.0586689999999
 30
0.0
 40
2.003830999999999
 50
0.040437
 51
25.702768999999989
  0
ARC
  5
68B
  8
0
 62
     7
 10
85.096129999999988
 20
137.945684
 30
0.0
 40
1.142633999999999
 50
221.8251459999999
 51
307.62863799999991
  0
ARC
  5
68C
  8
0
 62
     7
 10
86.069931000000025
 20
136.72777500000001
 30
0.0
 40
0.417394
 50
128.859588
 51
131.427176
  0
LINE
  5
68D
  8
0
 62
     7
 10
83.978399999999993
 20
136.864
 30
0.0
 11
83.978399999999993
 21
135.25700000000001
 31
0.0
  0
ARC
  5
68E
  8
0
 62
     7
 10
88.803038000000001
 20
136.06008299999999
 30
0.0
 40
7.0744590000000001
 50
173.93815599999991
 51
186.06184400000001
  0
ARC
  5
68F
  8
0
 62
     7
 10
82.907746000000003
 20
136.13198700000001
 30
0.0
 40
1.403063999999999
 50
215.68567799999991
 51
301.45324299999999
  0
ARC
  5
690
  8
0
 62
     7
 10
82.891969999999986
 20
136.061161
 30
0.0
 40
1.351817
 50
303.59051499999998
 51
323.479556
  0
ARC
  5
691
  8
0
 62
     7
 10
82.882534000000007
 20
135.9879949999999
 30
0.0
 40
1.402711
 50
38.628191999999999
 51
124.406874
  0
ARC
  5
692
  8
0
 62
     7
 10
82.887001999999995
 20
136.0653639999999
 30
0.0
 40
1.342239999999999
 50
126.430858
 51
146.46841000000001
  0
LINE
  5
693
  8
0
 62
     7
 10
84.244699999999995
 20
137.18700000000001
 30
0.0
 11
84.244699999999995
 21
136.06
 31
0.0
  0
LINE
  5
694
  8
0
 62
     7
 10
87.681700000000006
 20
133.142
 30
0.0
 11
88.781700000000001
 21
133.142
 31
0.0
  0
LINE
  5
695
  8
0
 62
     7
 10
87.493700000000004
 20
133.33099999999999
 30
0.0
 11
87.681700000000006
 21
133.142
 31
0.0
  0
LINE
  5
696
  8
0
 62
     7
 10
87.381600000000006
 20
132.73099999999991
 30
0.0
 11
88.781700000000001
 21
132.73099999999991
 31
0.0
  0
LINE
  5
697
  8
0
 62
     7
 10
87.493700000000004
 20
133.33099999999999
 30
0.0
 11
88.781700000000001
 21
133.33099999999999
 31
0.0
  0
LINE
  5
698
  8
0
 62
     7
 10
87.493700000000004
 20
133.80199999999999
 30
0.0
 11
87.493700000000004
 21
133.33099999999999
 31
0.0
  0
LINE
  5
699
  8
0
 62
     7
 10
86.743600000000001
 20
134.55199999999999
 30
0.0
 11
88.781700000000001
 21
134.55199999999999
 31
0.0
  0
ARC
  5
69A
  8
0
 62
     7
 10
86.714814000000004
 20
133.7732279999999
 30
0.0
 40
0.779458
 50
2.1013790000000001
 51
87.885456999999974
  0
LINE
  5
69B
  8
0
 62
     7
 10
87.681700000000006
 20
133.142
 30
0.0
 11
87.681700000000006
 21
132.73099999999991
 31
0.0
  0
ARC
  5
69C
  8
0
 62
     7
 10
89.548304000000002
 20
128.528897
 30
0.0
 40
0.442984
 50
0.198973
 51
38.241588
  0
ARC
  5
69D
  8
0
 62
     7
 10
89.321828999999994
 20
128.37857500000001
 30
0.0
 40
0.714248
 50
36.466941999999989
 51
53.069905000000013
  0
ARC
  5
69E
  8
0
 62
     7
 10
89.056341000000003
 20
128.04207
 30
0.0
 40
1.1428
 50
52.566662000000008
 51
71.374821999999995
  0
ARC
  5
69F
  8
0
 62
     7
 10
88.809805000000011
 20
127.4145169999999
 30
0.0
 40
1.816527999999999
 50
70.327601999999999
 51
90.886323999999988
  0
ARC
  5
6A0
  8
0
 62
     7
 10
88.781323999999998
 20
127.228235
 30
0.0
 40
2.002591999999999
 50
89.989064999999997
 51
107.10734100000001
  0
ARC
  5
6A1
  8
0
 62
     7
 10
88.606600000000014
 20
127.84751199999999
 30
0.0
 40
1.3594019999999989
 50
107.7469479999999
 51
124.378495
  0
ARC
  5
6A2
  8
0
 62
     7
 10
88.282387999999983
 20
128.34478799999991
 30
0.0
 40
0.766033
 50
125.366586
 51
147.61319999999989
  0
ARC
  5
6A3
  8
0
 62
     7
 10
88.03013399999999
 20
128.5221389999999
 30
0.0
 40
0.458257
 50
149.44514599999999
 51
178.962692
  0
ARC
  5
6A4
  8
0
 62
     7
 10
88.014181999999977
 20
128.53197800000001
 30
0.0
 40
0.442232
 50
180.19989000000001
 51
218.27651399999999
  0
ARC
  5
6A5
  8
0
 62
     7
 10
88.240535999999992
 20
128.68224399999991
 30
0.0
 40
0.7133580000000001
 50
216.48885899999999
 51
233.10493999999991
  0
ARC
  5
6A6
  8
0
 62
     7
 10
88.506574999999998
 20
129.019769
 30
0.0
 40
1.143051
 50
232.597343
 51
251.39841799999999
  0
ARC
  5
6A7
  8
0
 62
     7
 10
88.753263000000004
 20
129.64745400000001
 30
0.0
 40
1.816945
 50
250.33949399999989
 51
270.8969689999999
  0
ARC
  5
6A8
  8
0
 62
     7
 10
88.78207900000001
 20
129.83468899999991
 30
0.0
 40
2.0039569999999989
 50
269.98933999999991
 51
287.09206699999987
  0
ARC
  5
6A9
  8
0
 62
     7
 10
88.956811999999999
 20
129.21463399999999
 30
0.0
 40
1.360017
 50
287.73339099999998
 51
304.35250000000002
  0
ARC
  5
6AA
  8
0
 62
     7
 10
89.281392000000025
 20
128.71637899999999
 30
0.0
 40
0.7656260000000001
 50
305.33961099999988
 51
327.58573799999999
  0
ARC
  5
6AB
  8
0
 62
     7
 10
89.534120000000001
 20
128.53865500000001
 30
0.0
 40
0.45724
 50
329.41068200000001
 51
358.96984399999991
  0
LINE
  5
6AC
  8
0
 62
     7
 10
88.781700000000001
 20
137.68700000000001
 30
0.0
 11
88.781700000000001
 21
138.27199999999999
 31
0.0
  0
LINE
  5
6AD
  8
0
 62
     7
 10
88.458399999999997
 20
137.68700000000001
 30
0.0
 11
88.458399999999997
 21
138.27199999999999
 31
0.0
  0
LINE
  5
6AE
  8
0
 62
     7
 10
88.168599999999998
 20
137.68700000000001
 30
0.0
 11
88.168599999999998
 21
138.27199999999999
 31
0.0
  0
LINE
  5
6AF
  8
0
 62
     7
 10
87.879400000000004
 20
137.68700000000001
 30
0.0
 11
87.879400000000004
 21
138.27199999999999
 31
0.0
  0
LINE
  5
6B0
  8
0
 62
     7
 10
87.583500000000001
 20
137.68700000000001
 30
0.0
 11
87.583500000000001
 21
138.27199999999999
 31
0.0
  0
LINE
  5
6B1
  8
0
 62
     7
 10
87.340299999999999
 20
137.68700000000001
 30
0.0
 11
87.340299999999999
 21
138.27199999999999
 31
0.0
  0
LINE
  5
6B2
  8
0
 62
     7
 10
86.071900000000014
 20
137.68700000000001
 30
0.0
 11
86.071900000000014
 21
138.27199999999999
 31
0.0
  0
LINE
  5
6B3
  8
0
 62
     7
 10
86.171899999999994
 20
137.68700000000001
 30
0.0
 11
86.171899999999994
 21
138.27199999999999
 31
0.0
  0
LINE
  5
6B4
  8
0
 62
     7
 10
86.901399999999995
 20
137.68700000000001
 30
0.0
 11
86.901399999999995
 21
138.27199999999999
 31
0.0
  0
LINE
  5
6B5
  8
0
 62
     7
 10
87.109800000000007
 20
137.68700000000001
 30
0.0
 11
87.109800000000007
 21
138.27199999999999
 31
0.0
  0
LINE
  5
6B6
  8
0
 62
     7
 10
86.687899999999985
 20
137.68700000000001
 30
0.0
 11
86.687899999999985
 21
138.27199999999999
 31
0.0
  0
LINE
  5
6B7
  8
0
 62
     7
 10
86.495199999999997
 20
137.68700000000001
 30
0.0
 11
86.495199999999997
 21
138.27199999999999
 31
0.0
  0
LINE
  5
6B8
  8
0
 62
     7
 10
86.318299999999994
 20
137.68700000000001
 30
0.0
 11
86.318299999999994
 21
138.27199999999999
 31
0.0
  0
LINE
  5
6B9
  8
0
 62
     7
 10
85.979399999999984
 20
137.68700000000001
 30
0.0
 11
85.808099999999996
 21
137.053
 31
0.0
  0
LINE
  5
6BA
  8
0
 62
     7
 10
85.979399999999984
 20
137.68700000000001
 30
0.0
 11
88.781700000000001
 21
137.68700000000001
 31
0.0
  0
LINE
  5
6BB
  8
0
 62
     7
 10
85.979399999999984
 20
137.68700000000001
 30
0.0
 11
85.979399999999984
 21
138.27199999999999
 31
0.0
  0
LINE
  5
6BC
  8
0
 62
     7
 10
85.979399999999984
 20
138.27199999999999
 30
0.0
 11
88.781700000000001
 21
138.27199999999999
 31
0.0
  0
LINE
  5
6BD
  8
0
 62
     7
 10
86.610200000000006
 20
138.8899999999999
 30
0.0
 11
88.781700000000001
 21
138.8899999999999
 31
0.0
  0
LINE
  5
6BE
  8
0
 62
     7
 10
86.120000000000005
 20
138.27199999999999
 30
0.0
 11
86.120000000000005
 21
138.40000000000001
 31
0.0
  0
ARC
  5
6BF
  8
0
 62
     7
 10
86.629231000000004
 20
138.38101099999989
 30
0.0
 40
0.5095900000000001
 50
92.134818999999993
 51
177.824873
  0
ARC
  5
6C0
  8
0
 62
     7
 10
88.789089000000004
 20
116.209639
 30
0.0
 40
23.02115899999999
 50
89.044854999999984
 51
90.018366
  0
ARC
  5
6C1
  8
0
 62
     7
 10
89.064841000000001
 20
134.18385900000001
 30
0.0
 40
5.0448959999999987
 50
68.891602000000006
 51
88.773340000000005
  0
LINE
  5
6C2
  8
0
 62
     7
 10
88.781700000000001
 20
126.2299999999999
 30
0.0
 11
85.980999999999995
 21
126.2299999999999
 31
0.0
  0
LINE
  5
6C3
  8
0
 62
     7
 10
91.581900000000005
 20
126.23099999999999
 30
0.0
 11
88.781700000000001
 21
126.2299999999999
 31
0.0
  0
LINE
  5
6C4
  8
0
 62
     7
 10
88.781700000000001
 20
129.43100000000001
 30
0.0
 11
86.199899999999985
 21
129.43100000000001
 31
0.0
  0
LINE
  5
6C5
  8
0
 62
     7
 10
91.363299999999995
 20
126.9309999999999
 30
0.0
 11
88.781700000000001
 21
126.9309999999999
 31
0.0
  0
LINE
  5
6C6
  8
0
 62
     7
 10
91.363299999999995
 20
127.631
 30
0.0
 11
88.781700000000001
 21
127.631
 31
0.0
  0
LINE
  5
6C7
  8
0
 62
     7
 10
91.363299999999995
 20
129.43100000000001
 30
0.0
 11
88.781700000000001
 21
129.43100000000001
 31
0.0
  0
ARC
  5
6C8
  8
0
 62
     7
 10
91.310451999999998
 20
126.82078799999999
 30
0.0
 40
0.271488
 50
1.0195689999999991
 51
44.67145
  0
LINE
  5
6C9
  8
0
 62
     7
 10
91.031400000000005
 20
129.93100000000001
 30
0.0
 11
90.976100000000017
 21
129.93100000000001
 31
0.0
  0
LINE
  5
6CA
  8
0
 62
     7
 10
91.581900000000005
 20
126.82599999999999
 30
0.0
 11
91.581900000000005
 21
126.23099999999999
 31
0.0
  0
LINE
  5
6CB
  8
0
 62
     7
 10
91.381699999999995
 20
129.58099999999999
 30
0.0
 11
91.381699999999995
 21
129.43100000000001
 31
0.0
  0
ARC
  5
6CC
  8
0
 62
     7
 10
91.017694000000006
 20
129.56682000000001
 30
0.0
 40
0.364312
 50
2.207301999999999
 51
87.84905400000001
  0
LINE
  5
6CD
  8
0
 62
     7
 10
90.1815
 20
132.73099999999991
 30
0.0
 11
90.1815
 21
130.83099999999999
 31
0.0
  0
LINE
  5
6CE
  8
0
 62
     7
 10
88.781700000000001
 20
129.93100000000001
 30
0.0
 11
86.959199999999996
 21
129.93100000000001
 31
0.0
  0
LINE
  5
6CF
  8
0
 62
     7
 10
90.603999999999985
 20
129.93100000000001
 30
0.0
 11
88.781700000000001
 21
129.93100000000001
 31
0.0
  0
ARC
  5
6D0
  8
0
 62
     7
 10
90.992103999999998
 20
130.7260489999999
 30
0.0
 40
0.7953350000000001
 50
197.22470100000001
 51
268.84505000000001
  0
ARC
  5
6D1
  8
0
 62
     7
 10
91.273624999999996
 20
130.82048700000001
 30
0.0
 40
1.0922160000000001
 50
179.4621159999999
 51
197.58345399999999
  0
LINE
  5
6D2
  8
0
 62
     7
 10
93.5852
 20
135.25700000000001
 30
0.0
 11
93.318399999999997
 21
134.93399999999991
 31
0.0
  0
LINE
  5
6D3
  8
0
 62
     7
 10
93.318399999999997
 20
137.18700000000001
 30
0.0
 11
93.5852
 21
136.864
 31
0.0
  0
LINE
  5
6D4
  8
0
 62
     7
 10
91.935199999999995
 20
134.952
 30
0.0
 11
91.935199999999995
 21
135.19099999999989
 31
0.0
  0
LINE
  5
6D5
  8
0
 62
     7
 10
91.535200000000003
 20
134.55199999999999
 30
0.0
 11
90.819699999999997
 21
134.55199999999999
 31
0.0
  0
ARC
  5
6D6
  8
0
 62
     7
 10
91.519917000000007
 20
134.967432
 30
0.0
 40
0.415558
 50
272.10973699999988
 51
357.89027299999992
  0
ARC
  5
6D7
  8
0
 62
     7
 10
92.463806999999989
 20
134.1841169999999
 30
0.0
 40
1.1366459999999989
 50
41.248002
 51
117.7143529999999
  0
LINE
  5
6D8
  8
0
 62
     7
 10
93.318399999999997
 20
136.06
 30
0.0
 11
93.318399999999997
 21
134.93399999999991
 31
0.0
  0
ARC
  5
6D9
  8
0
 62
     7
 10
93.743828000000008
 20
136.06149500000001
 30
0.0
 40
2.0074190000000001
 50
180.04030299999999
 51
205.713435
  0
ARC
  5
6DA
  8
0
 62
     7
 10
93.744945999999999
 20
136.058672
 30
0.0
 40
2.008535999999999
 50
154.361895
 51
179.959731
  0
ARC
  5
6DB
  8
0
 62
     7
 10
92.467060000000004
 20
137.94518600000001
 30
0.0
 40
1.142209
 50
232.358046
 51
318.18937599999992
  0
ARC
  5
6DC
  8
0
 62
     7
 10
90.267814999999999
 20
135.317193
 30
0.0
 40
2.2859590000000001
 50
48.935394000000002
 51
49.397605000000013
  0
LINE
  5
6DD
  8
0
 62
     7
 10
93.5852
 20
136.864
 30
0.0
 11
93.5852
 21
135.25700000000001
 31
0.0
  0
ARC
  5
6DE
  8
0
 62
     7
 10
88.759832999999986
 20
136.06008299999999
 30
0.0
 40
7.0744819999999997
 50
353.938196
 51
6.0618039999999986
  0
ARC
  5
6DF
  8
0
 62
     7
 10
94.655490000000015
 20
136.130965
 30
0.0
 40
1.40219
 50
238.52508900000001
 51
324.340127
  0
ARC
  5
6E0
  8
0
 62
     7
 10
94.672555999999986
 20
136.06309899999991
 30
0.0
 40
1.354144
 50
216.5496
 51
236.40947999999989
  0
ARC
  5
6E1
  8
0
 62
     7
 10
94.680698000000007
 20
135.98785499999991
 30
0.0
 40
1.402928
 50
55.590310000000002
 51
141.37153499999999
  0
ARC
  5
6E2
  8
0
 62
     7
 10
94.675759999999997
 20
136.06645599999999
 30
0.0
 40
1.3417479999999991
 50
33.489587
 51
53.519137000000001
  0
LINE
  5
6E3
  8
0
 62
     7
 10
93.318399999999997
 20
137.18700000000001
 30
0.0
 11
93.318399999999997
 21
136.06
 31
0.0
  0
LINE
  5
6E4
  8
0
 62
     7
 10
89.881600000000006
 20
133.142
 30
0.0
 11
88.781700000000001
 21
133.142
 31
0.0
  0
LINE
  5
6E5
  8
0
 62
     7
 10
90.069500000000005
 20
133.33099999999999
 30
0.0
 11
89.881600000000006
 21
133.142
 31
0.0
  0
LINE
  5
6E6
  8
0
 62
     7
 10
90.1815
 20
132.73099999999991
 30
0.0
 11
88.781700000000001
 21
132.73099999999991
 31
0.0
  0
LINE
  5
6E7
  8
0
 62
     7
 10
90.069500000000005
 20
133.33099999999999
 30
0.0
 11
88.781700000000001
 21
133.33099999999999
 31
0.0
  0
LINE
  5
6E8
  8
0
 62
     7
 10
90.069500000000005
 20
133.80199999999999
 30
0.0
 11
90.069500000000005
 21
133.33099999999999
 31
0.0
  0
LINE
  5
6E9
  8
0
 62
     7
 10
90.819699999999997
 20
134.55199999999999
 30
0.0
 11
88.781700000000001
 21
134.55199999999999
 31
0.0
  0
ARC
  5
6EA
  8
0
 62
     7
 10
90.819750999999997
 20
133.801895
 30
0.0
 40
0.750261
 50
90.006577000000007
 51
180.006587
  0
LINE
  5
6EB
  8
0
 62
     7
 10
89.881600000000006
 20
133.142
 30
0.0
 11
89.881600000000006
 21
132.73099999999991
 31
0.0
  0
ARC
  5
6EC
  8
0
 62
     7
 10
88.833462999999995
 20
136.0081459999999
 30
0.0
 40
1.4030329999999991
 50
92.114112000000006
 51
177.87854799999991
  0
ARC
  5
6ED
  8
0
 62
     7
 10
88.730172999999979
 20
136.00855100000001
 30
0.0
 40
1.402620999999999
 50
2.105534
 51
87.894456000000005
  0
ARC
  5
6EE
  8
0
 62
     7
 10
88.781705000000017
 20
136.06008299999999
 30
0.0
 40
1.3501419999999991
 50
270.00002000000001
 51
359.99998999999991
  0
ARC
  5
6EF
  8
0
 62
     7
 10
88.781619000000006
 20
136.06016899999989
 30
0.0
 40
1.3502270000000001
 50
180.00366500000001
 51
270.00367499999987
  0
ARC
  5
6F0
  8
0
 62
     7
 10
88.811963000000006
 20
136.02982600000001
 30
0.0
 40
0.8204360000000001
 50
92.113515000000021
 51
177.88645600000001
  0
ARC
  5
6F1
  8
0
 62
     7
 10
88.751438000000007
 20
136.0299949999999
 30
0.0
 40
0.820268
 50
2.102142999999999
 51
87.885345999999998
  0
ARC
  5
6F2
  8
0
 62
     7
 10
88.751619999999988
 20
136.09034800000001
 30
0.0
 40
0.8200930000000001
 50
272.102418
 51
357.88508899999999
  0
ARC
  5
6F3
  8
0
 62
     7
 10
88.811938999999995
 20
136.09067400000001
 30
0.0
 40
0.820425
 50
182.13689500000001
 51
267.88813900000002
  0
LINE
  5
6F4
  8
0
 62
     7
 10
89.104900000000015
 20
137.68700000000001
 30
0.0
 11
89.104900000000015
 21
138.27199999999999
 31
0.0
  0
LINE
  5
6F5
  8
0
 62
     7
 10
89.394599999999997
 20
137.68700000000001
 30
0.0
 11
89.394599999999997
 21
138.27199999999999
 31
0.0
  0
LINE
  5
6F6
  8
0
 62
     7
 10
89.683599999999998
 20
137.68700000000001
 30
0.0
 11
89.683599999999998
 21
138.27199999999999
 31
0.0
  0
LINE
  5
6F7
  8
0
 62
     7
 10
89.979699999999994
 20
137.68700000000001
 30
0.0
 11
89.979699999999994
 21
138.27199999999999
 31
0.0
  0
LINE
  5
6F8
  8
0
 62
     7
 10
90.223299999999995
 20
137.68700000000001
 30
0.0
 11
90.223299999999995
 21
138.27199999999999
 31
0.0
  0
LINE
  5
6F9
  8
0
 62
     7
 10
91.491100000000003
 20
137.68700000000001
 30
0.0
 11
91.491100000000003
 21
138.27199999999999
 31
0.0
  0
LINE
  5
6FA
  8
0
 62
     7
 10
91.391400000000004
 20
137.68700000000001
 30
0.0
 11
91.391400000000004
 21
138.27199999999999
 31
0.0
  0
LINE
  5
6FB
  8
0
 62
     7
 10
90.661900000000003
 20
137.68700000000001
 30
0.0
 11
90.661900000000003
 21
138.27199999999999
 31
0.0
  0
LINE
  5
6FC
  8
0
 62
     7
 10
90.453400000000016
 20
137.68700000000001
 30
0.0
 11
90.453400000000016
 21
138.27199999999999
 31
0.0
  0
LINE
  5
6FD
  8
0
 62
     7
 10
90.875099999999989
 20
137.68700000000001
 30
0.0
 11
90.875099999999989
 21
138.27199999999999
 31
0.0
  0
LINE
  5
6FE
  8
0
 62
     7
 10
91.068100000000015
 20
137.68700000000001
 30
0.0
 11
91.068100000000015
 21
138.27199999999999
 31
0.0
  0
LINE
  5
6FF
  8
0
 62
     7
 10
91.2453
 20
137.68700000000001
 30
0.0
 11
91.2453
 21
138.27199999999999
 31
0.0
  0
LINE
  5
700
  8
0
 62
     7
 10
91.583799999999997
 20
137.68700000000001
 30
0.0
 11
91.755200000000002
 21
137.053
 31
0.0
  0
LINE
  5
701
  8
0
 62
     7
 10
91.583799999999997
 20
137.68700000000001
 30
0.0
 11
88.781700000000001
 21
137.68700000000001
 31
0.0
  0
LINE
  5
702
  8
0
 62
     7
 10
91.583799999999997
 20
137.68700000000001
 30
0.0
 11
91.583799999999997
 21
138.27199999999999
 31
0.0
  0
LINE
  5
703
  8
0
 62
     7
 10
91.583799999999997
 20
138.27199999999999
 30
0.0
 11
88.781700000000001
 21
138.27199999999999
 31
0.0
  0
LINE
  5
704
  8
0
 62
     7
 10
90.952799999999996
 20
138.8899999999999
 30
0.0
 11
88.781700000000001
 21
138.8899999999999
 31
0.0
  0
LINE
  5
705
  8
0
 62
     7
 10
91.443100000000001
 20
138.27199999999999
 30
0.0
 11
91.443100000000001
 21
138.40000000000001
 31
0.0
  0
ARC
  5
706
  8
0
 62
     7
 10
90.933846000000003
 20
138.381021
 30
0.0
 40
0.509579
 50
2.1739820000000001
 51
87.866286999999986
  0
LINE
  5
707
  8
0
  6
AIGENLINE001
 62
     7
 10
97.245800000000017
 20
136.06
 30
0.0
 11
80.680899999999994
 21
136.06
 31
0.0
  0
ARC
  5
708
  8
0
 62
     7
 10
46.199128000000002
 20
127.966274
 30
0.0
 40
1.265255
 50
89.747348999999986
 51
102.57045699999991
  0
ARC
  5
709
  8
0
 62
     7
 10
46.204098000000002
 20
127.95525600000001
 30
0.0
 40
1.2762610000000001
 50
62.995394999999988
 51
89.972662999999983
  0
ARC
  5
70A
  8
0
 62
     7
 10
46.378132999999998
 20
128.3373939999999
 30
0.0
 40
0.856963
 50
34.214203999999988
 51
61.761473000000002
  0
ARC
  5
70B
  8
0
 62
     7
 10
46.612559999999988
 20
128.52183600000001
 30
0.0
 40
0.5597800000000001
 50
0.9154560000000001
 51
32.094208999999999
  0
ARC
  5
70C
  8
0
 62
     7
 10
46.637794999999997
 20
128.53223499999999
 30
0.0
 40
0.5344750000000001
 50
325.23200899999989
 51
359.84400899999991
  0
ARC
  5
70D
  8
0
 62
     7
 10
46.462465000000002
 20
128.64130800000001
 30
0.0
 40
0.740776
 50
302.80529300000001
 51
326.03510999999997
  0
ARC
  5
70E
  8
0
 62
     7
 10
46.26464399999999
 20
128.91823099999991
 30
0.0
 40
1.080832
 50
277.80795399999988
 51
303.666133
  0
ARC
  5
70F
  8
0
 62
     7
 10
46.206099000000002
 20
129.15765400000001
 30
0.0
 40
1.326233999999999
 50
269.9398799999999
 51
278.90864900000003
  0
ARC
  5
710
  8
0
 62
     7
 10
46.20368599999999
 20
129.16447500000001
 30
0.0
 40
1.333054
 50
257.75705299999998
 51
270.04389900000001
  0
ARC
  5
711
  8
0
 62
     7
 10
45.648842999999999
 20
127.3729
 30
0.0
 40
0.535596
 50
343.97407599999991
 51
44.229742999999992
  0
ARC
  5
712
  8
0
 62
     7
 10
45.575272999999989
 20
127.3796719999999
 30
0.0
 40
0.6083330000000001
 50
322.85549800000001
 51
345.27411599999988
  0
ARC
  5
713
  8
0
 62
     7
 10
46.743456999999992
 20
128.53468699999999
 30
0.0
 40
1.0613790000000001
 50
180.17377200000001
 51
227.9540649999999
  0
ARC
  5
714
  8
0
 62
     7
 10
46.834392000000001
 20
128.449037
 30
0.0
 40
1.1791249999999991
 50
123.584407
 51
152.51150699999999
  0
ARC
  5
715
  8
0
 62
     7
 10
46.73146899999999
 20
128.53305999999989
 30
0.0
 40
1.0493879999999991
 50
153.9874889999999
 51
180.08689099999989
  0
ARC
  5
716
  8
0
 62
     7
 10
46.252822999999999
 20
126.82190900000001
 30
0.0
 40
0.270878
 50
135.32953699999999
 51
179.06954400000001
  0
LINE
  5
717
  8
0
 62
     7
 10
45.981999999999999
 20
126.82599999999999
 30
0.0
 11
45.981999999999999
 21
126.232
 31
0.0
  0
ARC
  5
718
  8
0
 62
     7
 10
51.36420300000001
 20
127.96009099999991
 30
0.0
 40
1.2714350000000001
 50
77.460818000000003
 51
90.221337000000034
  0
ARC
  5
719
  8
0
 62
     7
 10
51.359898000000001
 20
127.95443400000001
 30
0.0
 40
1.2770820000000001
 50
90.027210999999994
 51
116.99573599999999
  0
ARC
  5
71A
  8
0
 62
     7
 10
51.185836999999999
 20
128.33690999999999
 30
0.0
 40
0.85747
 50
118.233298
 51
145.769744
  0
ARC
  5
71B
  8
0
 62
     7
 10
50.950866999999988
 20
128.52185
 30
0.0
 40
0.5595530000000001
 50
147.8928929999999
 51
179.08560800000001
  0
ARC
  5
71C
  8
0
 62
     7
 10
50.925684000000011
 20
128.53223399999999
 30
0.0
 40
0.5343
 50
180.15599900000001
 51
214.7809759999999
  0
ARC
  5
71D
  8
0
 62
     7
 10
51.101270999999997
 20
128.64150799999999
 30
0.0
 40
0.7409240000000001
 50
213.9758479999999
 51
237.20549600000001
  0
ARC
  5
71E
  8
0
 62
     7
 10
51.299205999999998
 20
128.9185719999999
 30
0.0
 40
1.0811599999999999
 50
236.3404459999999
 51
262.198598
  0
ARC
  5
71F
  8
0
 62
     7
 10
51.357903
 20
129.158601
 30
0.0
 40
1.327181999999999
 50
261.094559
 51
270.059934
  0
ARC
  5
720
  8
0
 62
     7
 10
51.360312
 20
129.16286999999991
 30
0.0
 40
1.33145
 50
269.95607200000001
 51
282.25037200000003
  0
ARC
  5
721
  8
0
 62
     7
 10
48.774616000000002
 20
116.207571
 30
0.0
 40
23.023744000000001
 50
89.981617
 51
90.955071000000004
  0
ARC
  5
722
  8
0
 62
     7
 10
48.498443000000002
 20
134.18318199999999
 30
0.0
 40
5.0460820000000002
 50
91.221820999999991
 51
111.10016
  0
ARC
  5
723
  8
0
 62
     7
 10
51.916696999999999
 20
127.372316
 30
0.0
 40
0.537232
 50
135.85308499999999
 51
197.3046139999999
  0
ARC
  5
724
  8
0
 62
     7
 10
51.990025000000003
 20
127.38081799999991
 30
0.0
 40
0.609924
 50
196.018001
 51
217.166358
  0
LINE
  5
725
  8
0
 62
     7
 10
46.200200000000002
 20
126.932
 30
0.0
 11
48.781999999999989
 21
126.932
 31
0.0
  0
LINE
  5
726
  8
0
 62
     7
 10
46.200200000000002
 20
127.63200000000001
 30
0.0
 11
48.781999999999989
 21
127.63200000000001
 31
0.0
  0
ARC
  5
727
  8
0
 62
     7
 10
50.820368000000002
 20
128.53468699999999
 30
0.0
 40
1.0613799999999991
 50
312.045974
 51
359.8262279999999
  0
ARC
  5
728
  8
0
 62
     7
 10
50.729730000000004
 20
128.44955999999999
 30
0.0
 40
1.178715999999999
 50
27.470186000000002
 51
56.399581000000012
  0
ARC
  5
729
  8
0
 62
     7
 10
50.831771999999987
 20
128.53314499999991
 30
0.0
 40
1.049973
 50
359.90852399999989
 51
25.991724999999992
  0
LINE
  5
72A
  8
0
 62
     7
 10
46.532200000000003
 20
129.93100000000001
 30
0.0
 11
46.587499999999999
 21
129.93100000000001
 31
0.0
  0
LINE
  5
72B
  8
0
 62
     7
 10
46.182099999999998
 20
129.58199999999991
 30
0.0
 11
46.182099999999998
 21
129.43100000000001
 31
0.0
  0
ARC
  5
72C
  8
0
 62
     7
 10
46.54581799999999
 20
129.56753
 30
0.0
 40
0.363946
 50
92.149796999999978
 51
177.79375200000001
  0
LINE
  5
72D
  8
0
 62
     7
 10
47.382100000000001
 20
132.73099999999991
 30
0.0
 11
47.382100000000001
 21
130.83099999999999
 31
0.0
  0
ARC
  5
72E
  8
0
 62
     7
 10
46.57141699999999
 20
130.72628599999999
 30
0.0
 40
0.7952280000000001
 50
271.15592500000002
 51
342.802954
  0
ARC
  5
72F
  8
0
 62
     7
 10
46.289479999999998
 20
130.82118799999989
 30
0.0
 40
1.0926439999999991
 50
342.42005499999999
 51
0.537032
  0
LINE
  5
730
  8
0
 62
     7
 10
43.9786
 20
135.25700000000001
 30
0.0
 11
44.245100000000001
 21
134.93399999999991
 31
0.0
  0
LINE
  5
731
  8
0
 62
     7
 10
44.245100000000001
 20
137.18700000000001
 30
0.0
 11
43.9786
 21
136.864
 31
0.0
  0
LINE
  5
732
  8
0
 62
     7
 10
45.628300000000003
 20
134.953
 30
0.0
 11
45.628300000000003
 21
135.19099999999989
 31
0.0
  0
LINE
  5
733
  8
0
 62
     7
 10
46.028299999999987
 20
134.55299999999991
 30
0.0
 11
46.743899999999989
 21
134.55299999999991
 31
0.0
  0
ARC
  5
734
  8
0
 62
     7
 10
46.043615000000003
 20
134.96812
 30
0.0
 40
0.415558
 50
182.10972899999999
 51
267.89030000000002
  0
ARC
  5
735
  8
0
 62
     7
 10
45.099663
 20
134.1851419999999
 30
0.0
 40
1.1363769999999991
 50
62.274951999999992
 51
138.762653
  0
LINE
  5
736
  8
0
 62
     7
 10
44.245100000000001
 20
136.06100000000001
 30
0.0
 11
44.245100000000001
 21
134.93399999999991
 31
0.0
  0
ARC
  5
737
  8
0
 62
     7
 10
43.812072000000001
 20
136.064154
 30
0.0
 40
2.015225
 50
334.32582599999989
 51
359.90383800000001
  0
ARC
  5
738
  8
0
 62
     7
 10
43.821088000000003
 20
136.059361
 30
0.0
 40
2.006206999999999
 50
0.040317
 51
25.664576
  0
ARC
  5
739
  8
0
 62
     7
 10
45.096431000000003
 20
137.9463439999999
 30
0.0
 40
1.142606
 50
221.8359899999999
 51
307.62926399999998
  0
ARC
  5
73A
  8
0
 62
     7
 10
44.941412
 20
138.081602
 30
0.0
 40
1.344975
 50
309.341589
 51
310.13363199999998
  0
LINE
  5
73B
  8
0
 62
     7
 10
43.9786
 20
136.864
 30
0.0
 11
43.9786
 21
135.25700000000001
 31
0.0
  0
ARC
  5
73C
  8
0
 62
     7
 10
48.80333199999999
 20
136.0607719999999
 30
0.0
 40
7.0744590000000001
 50
173.93815599999991
 51
186.06184400000001
  0
ARC
  5
73D
  8
0
 62
     7
 10
42.908039000000002
 20
136.132676
 30
0.0
 40
1.403063999999999
 50
215.68567799999991
 51
301.45324299999999
  0
ARC
  5
73E
  8
0
 62
     7
 10
42.892263999999997
 20
136.06184999999991
 30
0.0
 40
1.351817
 50
303.59051499999998
 51
323.479556
  0
ARC
  5
73F
  8
0
 62
     7
 10
42.893431999999997
 20
136.0607719999999
 30
0.0
 40
1.3502369999999999
 50
36.513197999999988
 51
126.513169
  0
ARC
  5
740
  8
0
 62
     7
 10
42.904021999999991
 20
136.050566
 30
0.0
 40
1.364741999999999
 50
126.615559
 51
146.31434899999999
  0
LINE
  5
741
  8
0
 62
     7
 10
44.245100000000001
 20
137.18700000000001
 30
0.0
 11
44.245100000000001
 21
136.06100000000001
 31
0.0
  0
LINE
  5
742
  8
0
 62
     7
 10
47.681999999999988
 20
133.143
 30
0.0
 11
48.781999999999989
 21
133.143
 31
0.0
  0
LINE
  5
743
  8
0
 62
     7
 10
47.494
 20
133.33099999999999
 30
0.0
 11
47.681999999999988
 21
133.143
 31
0.0
  0
LINE
  5
744
  8
0
 62
     7
 10
47.382100000000001
 20
132.73099999999991
 30
0.0
 11
48.781999999999989
 21
132.73099999999991
 31
0.0
  0
LINE
  5
745
  8
0
 62
     7
 10
47.494
 20
133.33099999999999
 30
0.0
 11
48.781999999999989
 21
133.33099999999999
 31
0.0
  0
LINE
  5
746
  8
0
 62
     7
 10
47.494
 20
133.80199999999999
 30
0.0
 11
47.494
 21
133.33099999999999
 31
0.0
  0
LINE
  5
747
  8
0
 62
     7
 10
46.743899999999989
 20
134.55299999999991
 30
0.0
 11
48.781999999999989
 21
134.55299999999991
 31
0.0
  0
ARC
  5
748
  8
0
 62
     7
 10
46.743782000000003
 20
133.802584
 30
0.0
 40
0.750261
 50
359.99343299999998
 51
89.993403000000015
  0
LINE
  5
749
  8
0
 62
     7
 10
47.681999999999988
 20
133.143
 30
0.0
 11
47.681999999999988
 21
132.73099999999991
 31
0.0
  0
ARC
  5
74A
  8
0
 62
     7
 10
49.548248999999998
 20
128.52924699999991
 30
0.0
 40
0.4435060000000001
 50
0.197946
 51
38.219328999999988
  0
ARC
  5
74B
  8
0
 62
     7
 10
49.322187999999997
 20
128.37928899999989
 30
0.0
 40
0.7142260000000001
 50
36.45067499999999
 51
53.058816
  0
ARC
  5
74C
  8
0
 62
     7
 10
49.056670000000011
 20
128.04271
 30
0.0
 40
1.142855999999999
 50
52.560795999999989
 51
71.370767000000001
  0
ARC
  5
74D
  8
0
 62
     7
 10
48.810290000000002
 20
127.415961
 30
0.0
 40
1.8157759999999989
 50
70.321183000000005
 51
90.892716000000007
  0
ARC
  5
74E
  8
0
 62
     7
 10
48.781618999999999
 20
127.22993200000001
 30
0.0
 40
2.0015849999999991
 50
89.989112000000006
 51
107.1127259999999
  0
ARC
  5
74F
  8
0
 62
     7
 10
48.60740100000001
 20
127.847936
 30
0.0
 40
1.3597639999999991
 50
107.75929600000001
 51
124.38575400000001
  0
ARC
  5
750
  8
0
 62
     7
 10
48.282709999999987
 20
128.345776
 30
0.0
 40
0.765659
 50
125.3742679999999
 51
147.63727399999991
  0
ARC
  5
751
  8
0
 62
     7
 10
48.030768000000002
 20
128.52261499999989
 30
0.0
 40
0.4584220000000001
 50
149.4513739999999
 51
178.97946200000001
  0
ARC
  5
752
  8
0
 62
     7
 10
48.014508999999997
 20
128.532321
 30
0.0
 40
0.4420930000000001
 50
180.1997759999999
 51
218.281654
  0
ARC
  5
753
  8
0
 62
     7
 10
48.240248000000001
 20
128.682176
 30
0.0
 40
0.712479
 50
216.49456599999999
 51
233.12663199999989
  0
ARC
  5
754
  8
0
 62
     7
 10
48.506723000000001
 20
129.02032999999989
 30
0.0
 40
1.1429329999999991
 50
232.61222599999991
 51
251.41097599999989
  0
ARC
  5
755
  8
0
 62
     7
 10
48.753610999999999
 20
129.6492969999999
 30
0.0
 40
1.8180979999999991
 50
250.3549669999999
 51
270.89467200000001
  0
ARC
  5
756
  8
0
 62
     7
 10
48.78237
 20
129.8378139999999
 30
0.0
 40
2.0063930000000001
 50
269.989418
 51
287.07427999999999
  0
ARC
  5
757
  8
0
 62
     7
 10
48.957700000000003
 20
129.21537599999991
 30
0.0
 40
1.3599950000000001
 50
287.71265499999993
 51
304.33106600000002
  0
ARC
  5
758
  8
0
 62
     7
 10
49.282353000000001
 20
128.71656899999991
 30
0.0
 40
0.7651020000000001
 50
305.320966
 51
327.57833599999992
  0
ARC
  5
759
  8
0
 62
     7
 10
49.534564000000003
 20
128.539051
 30
0.0
 40
0.4572630000000001
 50
329.41123199999993
 51
358.96352999999988
  0
LINE
  5
75A
  8
0
 62
     7
 10
48.781999999999989
 20
137.68700000000001
 30
0.0
 11
48.781999999999989
 21
138.27199999999999
 31
0.0
  0
LINE
  5
75B
  8
0
 62
     7
 10
48.4587
 20
137.68700000000001
 30
0.0
 11
48.4587
 21
138.27199999999999
 31
0.0
  0
LINE
  5
75C
  8
0
 62
     7
 10
48.168900000000001
 20
137.68700000000001
 30
0.0
 11
48.168900000000001
 21
138.27199999999999
 31
0.0
  0
LINE
  5
75D
  8
0
 62
     7
 10
47.879899999999992
 20
137.68700000000001
 30
0.0
 11
47.879899999999992
 21
138.27199999999999
 31
0.0
  0
LINE
  5
75E
  8
0
 62
     7
 10
47.583799999999989
 20
137.68700000000001
 30
0.0
 11
47.583799999999989
 21
138.27199999999999
 31
0.0
  0
LINE
  5
75F
  8
0
 62
     7
 10
47.340400000000002
 20
137.68700000000001
 30
0.0
 11
47.340400000000002
 21
138.27199999999999
 31
0.0
  0
LINE
  5
760
  8
0
 62
     7
 10
46.072400000000002
 20
137.68700000000001
 30
0.0
 11
46.072400000000002
 21
138.27199999999999
 31
0.0
  0
LINE
  5
761
  8
0
 62
     7
 10
46.172199999999989
 20
137.68700000000001
 30
0.0
 11
46.172199999999989
 21
138.27199999999999
 31
0.0
  0
LINE
  5
762
  8
0
 62
     7
 10
46.901800000000001
 20
137.68700000000001
 30
0.0
 11
46.901800000000001
 21
138.27199999999999
 31
0.0
  0
LINE
  5
763
  8
0
 62
     7
 10
47.110300000000002
 20
137.68700000000001
 30
0.0
 11
47.110300000000002
 21
138.27199999999999
 31
0.0
  0
LINE
  5
764
  8
0
 62
     7
 10
46.688400000000001
 20
137.68700000000001
 30
0.0
 11
46.688400000000001
 21
138.27199999999999
 31
0.0
  0
LINE
  5
765
  8
0
 62
     7
 10
46.4955
 20
137.68700000000001
 30
0.0
 11
46.4955
 21
138.27199999999999
 31
0.0
  0
LINE
  5
766
  8
0
 62
     7
 10
46.318600000000004
 20
137.68700000000001
 30
0.0
 11
46.318600000000004
 21
138.27199999999999
 31
0.0
  0
LINE
  5
767
  8
0
 62
     7
 10
45.979900000000001
 20
137.68700000000001
 30
0.0
 11
45.808300000000003
 21
137.053
 31
0.0
  0
LINE
  5
768
  8
0
 62
     7
 10
45.979900000000001
 20
137.68700000000001
 30
0.0
 11
48.781999999999989
 21
137.68700000000001
 31
0.0
  0
LINE
  5
769
  8
0
 62
     7
 10
45.979900000000001
 20
137.68700000000001
 30
0.0
 11
45.979900000000001
 21
138.27199999999999
 31
0.0
  0
LINE
  5
76A
  8
0
 62
     7
 10
45.979900000000001
 20
138.27199999999999
 30
0.0
 11
48.781999999999989
 21
138.27199999999999
 31
0.0
  0
LINE
  5
76B
  8
0
 62
     7
 10
46.610700000000001
 20
138.89099999999991
 30
0.0
 11
48.781999999999989
 21
138.89099999999991
 31
0.0
  0
LINE
  5
76C
  8
0
 62
     7
 10
46.120499999999993
 20
138.27199999999999
 30
0.0
 11
46.120499999999993
 21
138.40100000000001
 31
0.0
  0
ARC
  5
76D
  8
0
 62
     7
 10
46.629691999999999
 20
138.38170500000001
 30
0.0
 40
0.5095850000000001
 50
92.134255999999993
 51
177.825436
  0
ARC
  5
76E
  8
0
 62
     7
 10
48.789382000000003
 20
116.20821699999991
 30
0.0
 40
23.023096999999989
 50
89.044895999999994
 51
90.018364000000005
  0
ARC
  5
76F
  8
0
 62
     7
 10
49.065598000000001
 20
134.18432399999989
 30
0.0
 40
5.0449390000000003
 50
68.897427000000008
 51
88.778428000000005
  0
LINE
  5
770
  8
0
 62
     7
 10
48.781999999999989
 20
126.23099999999999
 30
0.0
 11
45.98149999999999
 21
126.23099999999999
 31
0.0
  0
LINE
  5
771
  8
0
 62
     7
 10
51.582000000000001
 20
126.232
 30
0.0
 11
48.781999999999989
 21
126.23099999999999
 31
0.0
  0
LINE
  5
772
  8
0
 62
     7
 10
48.781999999999989
 20
129.43100000000001
 30
0.0
 11
46.200200000000002
 21
129.43100000000001
 31
0.0
  0
LINE
  5
773
  8
0
 62
     7
 10
51.363599999999991
 20
126.932
 30
0.0
 11
48.781999999999989
 21
126.932
 31
0.0
  0
LINE
  5
774
  8
0
 62
     7
 10
51.363599999999991
 20
127.63200000000001
 30
0.0
 11
48.781999999999989
 21
127.63200000000001
 31
0.0
  0
LINE
  5
775
  8
0
 62
     7
 10
51.363599999999991
 20
129.43100000000001
 30
0.0
 11
48.781999999999989
 21
129.43100000000001
 31
0.0
  0
ARC
  5
776
  8
0
 62
     7
 10
51.310803
 20
126.82193100000001
 30
0.0
 40
0.27125
 50
0.9244489999999999
 51
44.586230999999991
  0
LINE
  5
777
  8
0
 62
     7
 10
51.031799999999997
 20
129.93100000000001
 30
0.0
 11
50.976399999999998
 21
129.93100000000001
 31
0.0
  0
LINE
  5
778
  8
0
 62
     7
 10
51.582000000000001
 20
126.82599999999999
 30
0.0
 11
51.582000000000001
 21
126.232
 31
0.0
  0
LINE
  5
779
  8
0
 62
     7
 10
51.381999999999998
 20
129.58199999999991
 30
0.0
 11
51.381999999999998
 21
129.43100000000001
 31
0.0
  0
ARC
  5
77A
  8
0
 62
     7
 10
51.018180000000001
 20
129.56734900000001
 30
0.0
 40
0.364126
 50
2.233508
 51
87.851093999999989
  0
LINE
  5
77B
  8
0
 62
     7
 10
50.181899999999999
 20
132.73099999999991
 30
0.0
 11
50.181899999999999
 21
130.83099999999999
 31
0.0
  0
LINE
  5
77C
  8
0
 62
     7
 10
48.781999999999989
 20
129.93100000000001
 30
0.0
 11
46.959499999999991
 21
129.93100000000001
 31
0.0
  0
LINE
  5
77D
  8
0
 62
     7
 10
50.604300000000002
 20
129.93100000000001
 30
0.0
 11
48.781999999999989
 21
129.93100000000001
 31
0.0
  0
ARC
  5
77E
  8
0
 62
     7
 10
50.992415999999999
 20
130.72606899999991
 30
0.0
 40
0.7950109999999999
 50
197.185519
 51
268.84328299999987
  0
ARC
  5
77F
  8
0
 62
     7
 10
51.275170000000003
 20
130.82126899999989
 30
0.0
 40
1.0932949999999999
 50
179.46752599999991
 51
197.57361399999999
  0
LINE
  5
780
  8
0
 62
     7
 10
53.58550000000001
 20
135.25700000000001
 30
0.0
 11
53.318899999999999
 21
134.93399999999991
 31
0.0
  0
LINE
  5
781
  8
0
 62
     7
 10
53.318899999999999
 20
137.18700000000001
 30
0.0
 11
53.58550000000001
 21
136.864
 31
0.0
  0
LINE
  5
782
  8
0
 62
     7
 10
51.935499999999998
 20
134.953
 30
0.0
 11
51.935499999999998
 21
135.19099999999989
 31
0.0
  0
LINE
  5
783
  8
0
 62
     7
 10
51.535499999999999
 20
134.55299999999991
 30
0.0
 11
50.82
 21
134.55299999999991
 31
0.0
  0
ARC
  5
784
  8
0
 62
     7
 10
51.520210999999989
 20
134.96812099999991
 30
0.0
 40
0.415558
 50
272.10973699999988
 51
357.89027299999992
  0
ARC
  5
785
  8
0
 62
     7
 10
52.464179000000001
 20
134.18465900000001
 30
0.0
 40
1.1368119999999999
 50
41.250469000000002
 51
117.714448
  0
LINE
  5
786
  8
0
 62
     7
 10
53.318899999999999
 20
136.06100000000001
 30
0.0
 11
53.318899999999999
 21
134.93399999999991
 31
0.0
  0
ARC
  5
787
  8
0
 62
     7
 10
53.750178000000012
 20
136.0633949999999
 30
0.0
 40
2.0134759999999989
 50
180.07465999999999
 51
205.67414699999989
  0
ARC
  5
788
  8
0
 62
     7
 10
53.742907999999993
 20
136.059361
 30
0.0
 40
2.006203999999999
 50
154.335385
 51
179.95968199999999
  0
ARC
  5
789
  8
0
 62
     7
 10
52.467443999999993
 20
137.94684299999989
 30
0.0
 40
1.143030999999999
 50
232.384097
 51
318.14952399999999
  0
ARC
  5
78A
  8
0
 62
     7
 10
51.44567399999999
 20
136.67059399999991
 30
0.0
 40
0.4925020000000001
 50
48.846746000000003
 51
50.994475000000001
  0
LINE
  5
78B
  8
0
 62
     7
 10
53.58550000000001
 20
136.864
 30
0.0
 11
53.58550000000001
 21
135.25700000000001
 31
0.0
  0
ARC
  5
78C
  8
0
 62
     7
 10
48.760298999999989
 20
136.0607719999999
 30
0.0
 40
7.0744819999999997
 50
353.938196
 51
6.0618039999999986
  0
ARC
  5
78D
  8
0
 62
     7
 10
54.655784999999987
 20
136.1321649999999
 30
0.0
 40
1.4026270000000001
 50
238.53593499999991
 51
324.32723299999998
  0
ARC
  5
78E
  8
0
 62
     7
 10
54.672849999999997
 20
136.0637879999999
 30
0.0
 40
1.354144
 50
216.5496
 51
236.40947999999989
  0
ARC
  5
78F
  8
0
 62
     7
 10
54.670228000000002
 20
136.0607259999999
 30
0.0
 40
1.3502689999999991
 50
53.488191
 51
143.48540299999991
  0
ARC
  5
790
  8
0
 62
     7
 10
54.664667000000001
 20
136.055351
 30
0.0
 40
1.3578989999999991
 50
33.635498999999989
 51
53.434553000000008
  0
LINE
  5
791
  8
0
 62
     7
 10
53.318899999999999
 20
137.18700000000001
 30
0.0
 11
53.318899999999999
 21
136.06100000000001
 31
0.0
  0
LINE
  5
792
  8
0
 62
     7
 10
49.881900000000002
 20
133.143
 30
0.0
 11
48.781999999999989
 21
133.143
 31
0.0
  0
LINE
  5
793
  8
0
 62
     7
 10
50.069800000000001
 20
133.33099999999999
 30
0.0
 11
49.881900000000002
 21
133.143
 31
0.0
  0
LINE
  5
794
  8
0
 62
     7
 10
50.181899999999999
 20
132.73099999999991
 30
0.0
 11
48.781999999999989
 21
132.73099999999991
 31
0.0
  0
LINE
  5
795
  8
0
 62
     7
 10
50.069800000000001
 20
133.33099999999999
 30
0.0
 11
48.781999999999989
 21
133.33099999999999
 31
0.0
  0
LINE
  5
796
  8
0
 62
     7
 10
50.069800000000001
 20
133.80199999999999
 30
0.0
 11
50.069800000000001
 21
133.33099999999999
 31
0.0
  0
LINE
  5
797
  8
0
 62
     7
 10
50.82
 20
134.55299999999991
 30
0.0
 11
48.781999999999989
 21
134.55299999999991
 31
0.0
  0
ARC
  5
798
  8
0
 62
     7
 10
50.848717999999998
 20
133.7739169999999
 30
0.0
 40
0.779458
 50
92.114506000000006
 51
177.89861899999991
  0
LINE
  5
799
  8
0
 62
     7
 10
49.881900000000002
 20
133.143
 30
0.0
 11
49.881900000000002
 21
132.73099999999991
 31
0.0
  0
ARC
  5
79A
  8
0
 62
     7
 10
48.833923999999989
 20
136.00884799999989
 30
0.0
 40
1.4030269999999989
 50
92.120934000000005
 51
177.87903700000001
  0
ARC
  5
79B
  8
0
 62
     7
 10
48.730476000000003
 20
136.00907000000001
 30
0.0
 40
1.4027899999999991
 50
2.112201999999999
 51
87.895098000000004
  0
ARC
  5
79C
  8
0
 62
     7
 10
48.782084999999988
 20
136.06085899999999
 30
0.0
 40
1.3502279999999991
 50
269.99636499999991
 51
359.99633499999987
  0
ARC
  5
79D
  8
0
 62
     7
 10
48.781998999999999
 20
136.0607719999999
 30
0.0
 40
1.350141
 50
179.99996999999991
 51
270.00002000000001
  0
ARC
  5
79E
  8
0
 62
     7
 10
48.78191300000001
 20
136.060686
 30
0.0
 40
0.789535
 50
89.993750000000006
 51
179.99372
  0
ARC
  5
79F
  8
0
 62
     7
 10
48.781998999999999
 20
136.0607719999999
 30
0.0
 40
0.789449
 50
0.00001
 51
89.999980000000008
  0
ARC
  5
7A0
  8
0
 62
     7
 10
48.781998999999999
 20
136.0607719999999
 30
0.0
 40
0.789449
 50
270.00002000000001
 51
359.99998999999991
  0
ARC
  5
7A1
  8
0
 62
     7
 10
48.78191300000001
 20
136.060858
 30
0.0
 40
0.789535
 50
180.00626
 51
270.00627000000009
  0
LINE
  5
7A2
  8
0
 62
     7
 10
49.1053
 20
137.68700000000001
 30
0.0
 11
49.1053
 21
138.27199999999999
 31
0.0
  0
LINE
  5
7A3
  8
0
 62
     7
 10
49.3949
 20
137.68700000000001
 30
0.0
 11
49.3949
 21
138.27199999999999
 31
0.0
  0
LINE
  5
7A4
  8
0
 62
     7
 10
49.684100000000001
 20
137.68700000000001
 30
0.0
 11
49.684100000000001
 21
138.27199999999999
 31
0.0
  0
LINE
  5
7A5
  8
0
 62
     7
 10
49.979999999999997
 20
137.68700000000001
 30
0.0
 11
49.979999999999997
 21
138.27199999999999
 31
0.0
  0
LINE
  5
7A6
  8
0
 62
     7
 10
50.22359999999999
 20
137.68700000000001
 30
0.0
 11
50.22359999999999
 21
138.27199999999999
 31
0.0
  0
LINE
  5
7A7
  8
0
 62
     7
 10
51.491599999999998
 20
137.68700000000001
 30
0.0
 11
51.491599999999998
 21
138.27199999999999
 31
0.0
  0
LINE
  5
7A8
  8
0
 62
     7
 10
51.3917
 20
137.68700000000001
 30
0.0
 11
51.3917
 21
138.27199999999999
 31
0.0
  0
LINE
  5
7A9
  8
0
 62
     7
 10
50.662199999999999
 20
137.68700000000001
 30
0.0
 11
50.662199999999999
 21
138.27199999999999
 31
0.0
  0
LINE
  5
7AA
  8
0
 62
     7
 10
50.453899999999997
 20
137.68700000000001
 30
0.0
 11
50.453899999999997
 21
138.27199999999999
 31
0.0
  0
LINE
  5
7AB
  8
0
 62
     7
 10
50.875599999999991
 20
137.68700000000001
 30
0.0
 11
50.875599999999991
 21
138.27199999999999
 31
0.0
  0
LINE
  5
7AC
  8
0
 62
     7
 10
51.068399999999997
 20
137.68700000000001
 30
0.0
 11
51.068399999999997
 21
138.27199999999999
 31
0.0
  0
LINE
  5
7AD
  8
0
 62
     7
 10
51.245600000000003
 20
137.68700000000001
 30
0.0
 11
51.245600000000003
 21
138.27199999999999
 31
0.0
  0
LINE
  5
7AE
  8
0
 62
     7
 10
51.584099999999992
 20
137.68700000000001
 30
0.0
 11
51.755499999999998
 21
137.053
 31
0.0
  0
LINE
  5
7AF
  8
0
 62
     7
 10
51.584099999999992
 20
137.68700000000001
 30
0.0
 11
48.781999999999989
 21
137.68700000000001
 31
0.0
  0
LINE
  5
7B0
  8
0
 62
     7
 10
51.584099999999992
 20
137.68700000000001
 30
0.0
 11
51.584099999999992
 21
138.27199999999999
 31
0.0
  0
LINE
  5
7B1
  8
0
 62
     7
 10
51.584099999999992
 20
138.27199999999999
 30
0.0
 11
48.781999999999989
 21
138.27199999999999
 31
0.0
  0
LINE
  5
7B2
  8
0
 62
     7
 10
50.953299999999999
 20
138.89099999999991
 30
0.0
 11
48.781999999999989
 21
138.89099999999991
 31
0.0
  0
LINE
  5
7B3
  8
0
 62
     7
 10
51.4435
 20
138.27199999999999
 30
0.0
 11
51.4435
 21
138.40100000000001
 31
0.0
  0
ARC
  5
7B4
  8
0
 62
     7
 10
50.934306999999997
 20
138.38170500000001
 30
0.0
 40
0.5095850000000001
 50
2.174544
 51
87.865724
  0
LINE
  5
7B5
  8
0
  6
AIGENLINE001
 62
     7
 10
57.246299999999998
 20
136.06100000000001
 30
0.0
 11
40.68119999999999
 21
136.06100000000001
 31
0.0
  0
LINE
  5
7B6
  8
0
  6
AIGENLINE001
 62
     7
 10
40.432899999999989
 20
228.69399999999999
 30
0.0
 11
96.998500000000007
 21
228.69399999999999
 31
0.0
  0
LINE
  5
7B7
  8
0
  6
AIGENLINE001
 62
     7
 10
68.781400000000005
 20
196.95500000000001
 30
0.0
 11
68.781400000000005
 21
238.27199999999999
 31
0.0
  0
LINE
  5
7B8
  8
0
 62
     7
 10
87.978300000000004
 20
223.89099999999999
 30
0.0
 11
87.655199999999994
 21
224.1579999999999
 31
0.0
  0
LINE
  5
7B9
  8
0
 62
     7
 10
89.908299999999997
 20
224.1579999999999
 30
0.0
 11
89.585099999999997
 21
223.89099999999999
 31
0.0
  0
LINE
  5
7BA
  8
0
 62
     7
 10
88.781700000000001
 20
224.1579999999999
 30
0.0
 11
87.655199999999994
 21
224.1579999999999
 31
0.0
  0
ARC
  5
7BB
  8
0
 62
     7
 10
88.776405000000011
 20
223.33292
 30
0.0
 40
2.5577399999999999
 50
70.507570000000001
 51
89.881256000000008
  0
ARC
  5
7BC
  8
0
 62
     7
 10
89.136778000000007
 20
224.40780799999999
 30
0.0
 40
1.4243349999999999
 50
64.454581000000005
 51
69.745186000000004
  0
ARC
  5
7BD
  8
0
 62
     7
 10
86.894874000000002
 20
225.00914999999989
 30
0.0
 40
1.1415699999999991
 50
311.75863600000002
 51
36.871057999999998
  0
ARC
  5
7BE
  8
0
 62
     7
 10
90.666038999999998
 20
225.00947599999989
 30
0.0
 40
1.142099999999999
 50
143.2448379999999
 51
228.23617200000001
  0
LINE
  5
7BF
  8
0
 62
     7
 10
89.585099999999997
 20
223.89099999999999
 30
0.0
 11
87.978300000000004
 21
223.89099999999999
 31
0.0
  0
ARC
  5
7C0
  8
0
 62
     7
 10
88.78179200000001
 20
228.7153459999999
 30
0.0
 40
7.0736600000000003
 50
263.93819999999988
 51
276.06181900000001
  0
ARC
  5
7C1
  8
0
 62
     7
 10
88.781385999999983
 20
222.80614299999999
 30
0.0
 40
1.350014
 50
146.4307169999999
 51
236.43448000000001
  0
ARC
  5
7C2
  8
0
 62
     7
 10
88.790081999999984
 20
222.79777300000001
 30
0.0
 40
1.361888999999999
 50
126.588757
 51
146.3396239999999
  0
ARC
  5
7C3
  8
0
 62
     7
 10
88.781572999999995
 20
222.8059759999999
 30
0.0
 40
1.3503899999999991
 50
323.48743899999988
 51
53.48464899999999
  0
ARC
  5
7C4
  8
0
 62
     7
 10
88.783067000000017
 20
222.805916
 30
0.0
 40
1.349154999999999
 50
303.52789100000001
 51
323.45174100000003
  0
LINE
  5
7C5
  8
0
 62
     7
 10
89.908299999999997
 20
224.1579999999999
 30
0.0
 11
88.781700000000001
 21
224.1579999999999
 31
0.0
  0
ARC
  5
7C6
  8
0
 62
     7
 10
88.787008
 20
223.3322509999999
 30
0.0
 40
2.5584090000000002
 50
90.118735999999984
 51
109.489836
  0
ARC
  5
7C7
  8
0
 62
     7
 10
88.426882999999975
 20
224.40623600000001
 30
0.0
 40
1.4259349999999991
 50
110.24663099999999
 51
115.53348699999999
  0
LINE
  5
7C8
  8
0
 62
     7
 10
83.978399999999993
 20
229.49799999999991
 30
0.0
 11
84.244799999999998
 21
229.821
 31
0.0
  0
LINE
  5
7C9
  8
0
 62
     7
 10
84.244799999999998
 20
227.5679999999999
 30
0.0
 11
83.978399999999993
 21
227.89099999999991
 31
0.0
  0
LINE
  5
7CA
  8
0
 62
     7
 10
84.244799999999998
 20
228.69399999999999
 30
0.0
 11
84.244799999999998
 21
229.821
 31
0.0
  0
ARC
  5
7CB
  8
0
 62
     7
 10
83.444580000000016
 20
228.69583900000001
 30
0.0
 40
2.5333179999999991
 50
340.40891499999992
 51
359.96889199999993
  0
ARC
  5
7CC
  8
0
 62
     7
 10
84.499183000000002
 20
228.339169
 30
0.0
 40
1.420280999999999
 50
334.394024
 51
339.699231
  0
ARC
  5
7CD
  8
0
 62
     7
 10
85.096551000000005
 20
230.581862
 30
0.0
 40
1.142066
 50
221.77456499999991
 51
306.84242899999992
  0
ARC
  5
7CE
  8
0
 62
     7
 10
85.096706999999995
 20
226.80964999999989
 30
0.0
 40
1.142525999999999
 50
53.27088599999999
 51
138.21138400000001
  0
LINE
  5
7CF
  8
0
 62
     7
 10
83.978399999999993
 20
227.89099999999991
 30
0.0
 11
83.978399999999993
 21
229.49799999999991
 31
0.0
  0
ARC
  5
7D0
  8
0
 62
     7
 10
88.810300999999995
 20
228.69454899999999
 30
0.0
 40
7.0816910000000002
 50
173.94366899999989
 51
186.056331
  0
ARC
  5
7D1
  8
0
 62
     7
 10
82.907869999999988
 20
228.622119
 30
0.0
 40
1.403521999999999
 50
58.564137000000002
 51
144.296942
  0
ARC
  5
7D2
  8
0
 62
     7
 10
82.878656000000007
 20
228.67954499999999
 30
0.0
 40
1.3708599999999991
 50
36.659960999999988
 51
56.269967999999999
  0
ARC
  5
7D3
  8
0
 62
     7
 10
82.882318999999995
 20
228.76746099999991
 30
0.0
 40
1.403338999999999
 50
235.621362
 51
321.35379699999999
  0
ARC
  5
7D4
  8
0
 62
     7
 10
82.899353000000005
 20
228.70054099999999
 30
0.0
 40
1.3587169999999991
 50
213.63708699999989
 51
233.43453199999999
  0
LINE
  5
7D5
  8
0
 62
     7
 10
84.244799999999998
 20
227.5679999999999
 30
0.0
 11
84.244799999999998
 21
228.69399999999999
 31
0.0
  0
ARC
  5
7D6
  8
0
 62
     7
 10
83.442945999999992
 20
228.69308599999999
 30
0.0
 40
2.5349509999999991
 50
0.031136
 51
19.584707999999988
  0
ARC
  5
7D7
  8
0
 62
     7
 10
84.492718000000011
 20
229.04762899999989
 30
0.0
 40
1.427179999999999
 50
20.301431999999998
 51
25.58336499999999
  0
LINE
  5
7D8
  8
0
 62
     7
 10
89.585300000000004
 20
233.49799999999991
 30
0.0
 11
89.908299999999997
 21
233.23099999999999
 31
0.0
  0
LINE
  5
7D9
  8
0
 62
     7
 10
87.655199999999994
 20
233.23099999999999
 30
0.0
 11
87.978300000000004
 21
233.49799999999991
 31
0.0
  0
LINE
  5
7DA
  8
0
 62
     7
 10
88.781700000000001
 20
233.23099999999999
 30
0.0
 11
89.908299999999997
 21
233.23099999999999
 31
0.0
  0
ARC
  5
7DB
  8
0
 62
     7
 10
88.78700400000001
 20
234.0548189999999
 30
0.0
 40
2.556551999999999
 50
250.49579199999991
 51
269.88126999999997
  0
ARC
  5
7DC
  8
0
 62
     7
 10
88.430109000000016
 20
232.98891099999989
 30
0.0
 40
1.432782999999999
 50
244.45436099999989
 51
249.71733599999999
  0
ARC
  5
7DD
  8
0
 62
     7
 10
90.668614000000005
 20
232.37966599999999
 30
0.0
 40
1.1417029999999999
 50
131.757802
 51
216.859173
  0
ARC
  5
7DE
  8
0
 62
     7
 10
86.897412000000003
 20
232.37971899999999
 30
0.0
 40
1.1419870000000001
 50
323.23459500000001
 51
48.222234999999991
  0
LINE
  5
7DF
  8
0
 62
     7
 10
87.978300000000004
 20
233.49799999999991
 30
0.0
 11
89.585300000000004
 21
233.49799999999991
 31
0.0
  0
ARC
  5
7E0
  8
0
 62
     7
 10
88.78179200000001
 20
228.67375299999989
 30
0.0
 40
7.0736600000000003
 50
83.938181
 51
96.061800000000005
  0
ARC
  5
7E1
  8
0
 62
     7
 10
88.710878000000008
 20
234.568791
 30
0.0
 40
1.402339
 50
328.51100600000001
 51
54.329828000000013
  0
ARC
  5
7E2
  8
0
 62
     7
 10
88.779195000000001
 20
234.58515
 30
0.0
 40
1.3535369999999991
 50
306.55109399999992
 51
326.4095109999999
  0
ARC
  5
7E3
  8
0
 62
     7
 10
88.781705000000017
 20
234.58302999999989
 30
0.0
 40
1.3502359999999991
 50
143.48678200000001
 51
233.486831
  0
ARC
  5
7E4
  8
0
 62
     7
 10
88.791910999999985
 20
234.57243999999989
 30
0.0
 40
1.364741999999999
 50
123.685621
 51
143.384411
  0
LINE
  5
7E5
  8
0
 62
     7
 10
87.655199999999994
 20
233.23099999999999
 30
0.0
 11
88.781700000000001
 21
233.23099999999999
 31
0.0
  0
LINE
  5
7E6
  8
0
 62
     7
 10
93.5852
 20
227.89099999999991
 30
0.0
 11
93.318799999999996
 21
227.5679999999999
 31
0.0
  0
LINE
  5
7E7
  8
0
 62
     7
 10
93.318799999999996
 20
229.821
 30
0.0
 11
93.5852
 21
229.49799999999991
 31
0.0
  0
LINE
  5
7E8
  8
0
 62
     7
 10
93.318799999999996
 20
228.69399999999999
 30
0.0
 11
93.318799999999996
 21
227.5679999999999
 31
0.0
  0
ARC
  5
7E9
  8
0
 62
     7
 10
88.776406000000009
 20
234.0552009999999
 30
0.0
 40
2.5569349999999988
 50
270.11875600000002
 51
289.50275599999998
  0
ARC
  5
7EA
  8
0
 62
     7
 10
89.134201000000004
 20
232.9861589999999
 30
0.0
 40
1.4299129999999991
 50
290.28954900000002
 51
295.56070999999997
  0
ARC
  5
7EB
  8
0
 62
     7
 10
94.117530000000002
 20
228.6958379999999
 30
0.0
 40
2.5321880000000001
 50
180.03113400000001
 51
199.602779
  0
ARC
  5
7EC
  8
0
 62
     7
 10
93.080182999999977
 20
228.34436199999999
 30
0.0
 40
1.4371449999999999
 50
200.27740800000001
 51
205.52101799999991
  0
ARC
  5
7ED
  8
0
 62
     7
 10
94.117530000000002
 20
228.6930879999999
 30
0.0
 40
2.5321880000000001
 50
160.397221
 51
179.96886599999991
  0
ARC
  5
7EE
  8
0
 62
     7
 10
93.080182999999977
 20
229.04456499999989
 30
0.0
 40
1.4371449999999999
 50
154.478982
 51
159.72259199999991
  0
ARC
  5
7EF
  8
0
 62
     7
 10
92.466921999999997
 20
226.80698699999999
 30
0.0
 40
1.1422000000000001
 50
41.773747999999991
 51
126.83048599999999
  0
ARC
  5
7F0
  8
0
 62
     7
 10
92.466817000000006
 20
230.57935699999999
 30
0.0
 40
1.1426229999999991
 50
233.25664699999999
 51
318.21037599999988
  0
LINE
  5
7F1
  8
0
 62
     7
 10
93.5852
 20
229.49799999999991
 30
0.0
 11
93.5852
 21
227.89099999999991
 31
0.0
  0
ARC
  5
7F2
  8
0
 62
     7
 10
88.753732999999997
 20
228.6944629999999
 30
0.0
 40
7.0808910000000003
 50
353.94370299999991
 51
6.056296999999998
  0
ARC
  5
7F3
  8
0
 62
     7
 10
94.655868999999996
 20
228.76569199999989
 30
0.0
 40
1.402504999999999
 50
238.53130499999989
 51
324.331863
  0
ARC
  5
7F4
  8
0
 62
     7
 10
94.679562000000004
 20
228.7055169999999
 30
0.0
 40
1.3645249999999991
 50
216.655644
 51
236.36318799999989
  0
ARC
  5
7F5
  8
0
 62
     7
 10
94.670119000000014
 20
228.694333
 30
0.0
 40
1.3504320000000001
 50
53.484875000000002
 51
143.47696999999991
  0
ARC
  5
7F6
  8
0
 62
     7
 10
94.659681999999975
 20
228.684258
 30
0.0
 40
1.364741999999999
 50
33.685631000000001
 51
53.384420999999989
  0
LINE
  5
7F7
  8
0
 62
     7
 10
93.318799999999996
 20
229.821
 30
0.0
 11
93.318799999999996
 21
228.69399999999999
 31
0.0
  0
ARC
  5
7F8
  8
0
 62
     7
 10
88.742041999999984
 20
228.73541399999999
 30
0.0
 40
3.205109999999999
 50
288.358069
 51
341.56901199999987
  0
ARC
  5
7F9
  8
0
 62
     7
 10
88.823840000000004
 20
228.735568
 30
0.0
 40
3.2064710000000001
 50
198.3739019999999
 51
251.55805799999999
  0
ARC
  5
7FA
  8
0
 62
     7
 10
88.822112000000004
 20
228.65337199999999
 30
0.0
 40
3.2055869999999991
 50
108.365967
 51
161.56593299999989
  0
ARC
  5
7FB
  8
0
 62
     7
 10
88.739676999999986
 20
228.65234699999999
 30
0.0
 40
3.2076689999999992
 50
18.385813999999989
 51
71.550970999999976
  0
ARC
  5
7FC
  8
0
 62
     7
 10
88.781790999999998
 20
228.694377
 30
0.0
 40
2.6614399999999998
 50
0.001864
 51
90.001834000000017
  0
ARC
  5
7FD
  8
0
 62
     7
 10
88.781706
 20
228.6944629999999
 30
0.0
 40
2.6613540000000002
 50
90.0
 51
179.99996999999991
  0
ARC
  5
7FE
  8
0
 62
     7
 10
88.781705000000017
 20
228.6944629999999
 30
0.0
 40
2.6613530000000001
 50
179.99996999999991
 51
270.00002000000001
  0
ARC
  5
7FF
  8
0
 62
     7
 10
88.781790999999998
 20
228.69454999999991
 30
0.0
 40
2.6614399999999998
 50
269.99816600000003
 51
359.99813599999999
  0
ARC
  5
800
  8
0
 62
     7
 10
88.701376999999994
 20
228.613956
 30
0.0
 40
2.1819570000000001
 50
2.1145019999999999
 51
87.890187000000012
  0
ARC
  5
801
  8
0
 62
     7
 10
88.781706
 20
228.6944629999999
 30
0.0
 40
2.0999720000000002
 50
90.0
 51
179.99996999999991
  0
ARC
  5
802
  8
0
 62
     7
 10
88.781705000000017
 20
228.6944629999999
 30
0.0
 40
2.099971
 50
179.99996999999991
 51
270.00002000000001
  0
ARC
  5
803
  8
0
 62
     7
 10
88.7012
 20
228.775147
 30
0.0
 40
2.1821410000000001
 50
272.11429100000009
 51
357.88101899999998
  0
LINE
  5
804
  8
0
  6
AIGENLINE001
 62
     7
 10
88.715699999999998
 20
219.1209999999999
 30
0.0
 11
88.715699999999998
 21
238.27199999999999
 31
0.0
  0
LINE
  5
805
  8
0
 62
     7
 10
47.978299999999997
 20
223.89099999999999
 30
0.0
 11
47.65509999999999
 21
224.1579999999999
 31
0.0
  0
LINE
  5
806
  8
0
 62
     7
 10
49.908200000000001
 20
224.1579999999999
 30
0.0
 11
49.584899999999998
 21
223.89099999999999
 31
0.0
  0
LINE
  5
807
  8
0
 62
     7
 10
48.781500000000001
 20
224.1579999999999
 30
0.0
 11
47.65509999999999
 21
224.1579999999999
 31
0.0
  0
ARC
  5
808
  8
0
 62
     7
 10
48.776189000000002
 20
223.33226999999999
 30
0.0
 40
2.5583900000000002
 50
70.510072999999991
 51
89.881437000000005
  0
ARC
  5
809
  8
0
 62
     7
 10
49.135984999999991
 20
224.40552899999989
 30
0.0
 40
1.4267110000000001
 50
64.467118999999997
 51
69.750899000000004
  0
ARC
  5
80A
  8
0
 62
     7
 10
46.894822999999988
 20
225.00914999999989
 30
0.0
 40
1.1415699999999991
 50
311.75863600000002
 51
36.871057999999998
  0
ARC
  5
80B
  8
0
 62
     7
 10
50.666468999999999
 20
225.00943899999999
 30
0.0
 40
1.1425069999999991
 50
143.25776200000001
 51
228.21051900000001
  0
LINE
  5
80C
  8
0
 62
     7
 10
49.584899999999998
 20
223.89099999999999
 30
0.0
 11
47.978299999999997
 21
223.89099999999999
 31
0.0
  0
ARC
  5
80D
  8
0
 62
     7
 10
48.781655000000001
 20
228.7193859999999
 30
0.0
 40
7.077685999999999
 50
263.9409609999999
 51
276.05905899999999
  0
ARC
  5
80E
  8
0
 62
     7
 10
48.852294000000001
 20
222.820382
 30
0.0
 40
1.402048999999999
 50
148.51555200000001
 51
234.33951099999999
  0
ARC
  5
80F
  8
0
 62
     7
 10
48.791657999999991
 20
222.79680499999989
 30
0.0
 40
1.3636360000000001
 50
126.619383
 51
146.33963799999989
  0
ARC
  5
810
  8
0
 62
     7
 10
48.708063000000003
 20
222.79493599999989
 30
0.0
 40
1.403846999999999
 50
325.63398799999999
 51
51.348322000000003
  0
ARC
  5
811
  8
0
 62
     7
 10
48.777962999999993
 20
222.811645
 30
0.0
 40
1.356627
 50
303.56608799999998
 51
323.38444900000002
  0
LINE
  5
812
  8
0
 62
     7
 10
49.908200000000001
 20
224.1579999999999
 30
0.0
 11
48.781500000000001
 21
224.1579999999999
 31
0.0
  0
ARC
  5
813
  8
0
 62
     7
 10
48.786783
 20
223.33292
 30
0.0
 40
2.5577399999999999
 50
90.118724999999998
 51
109.49241000000001
  0
ARC
  5
814
  8
0
 62
     7
 10
48.426409
 20
224.40780799999999
 30
0.0
 40
1.4243349999999999
 50
110.254794
 51
115.545399
  0
LINE
  5
815
  8
0
 62
     7
 10
43.978099999999991
 20
229.49799999999991
 30
0.0
 11
44.244599999999991
 21
229.821
 31
0.0
  0
LINE
  5
816
  8
0
 62
     7
 10
44.244599999999991
 20
227.5679999999999
 30
0.0
 11
43.978099999999991
 21
227.89099999999991
 31
0.0
  0
LINE
  5
817
  8
0
 62
     7
 10
44.244599999999991
 20
228.69399999999999
 30
0.0
 11
44.244599999999991
 21
229.821
 31
0.0
  0
ARC
  5
818
  8
0
 62
     7
 10
43.441698999999993
 20
228.6958129999999
 30
0.0
 40
2.5359750000000001
 50
340.60118299999999
 51
359.96949899999998
  0
ARC
  5
819
  8
0
 62
     7
 10
44.485654999999987
 20
228.34559400000001
 30
0.0
 40
1.435055999999999
 50
334.39227599999992
 51
339.94623100000001
  0
ARC
  5
81A
  8
0
 62
     7
 10
45.096455999999989
 20
230.582368
 30
0.0
 40
1.142498
 50
221.789232
 51
306.82902999999999
  0
ARC
  5
81B
  8
0
 62
     7
 10
45.096483999999997
 20
226.80964999999989
 30
0.0
 40
1.142525999999999
 50
53.27088599999999
 51
138.21138400000001
  0
LINE
  5
81C
  8
0
 62
     7
 10
43.978099999999991
 20
227.89099999999991
 30
0.0
 11
43.978099999999991
 21
229.49799999999991
 31
0.0
  0
ARC
  5
81D
  8
0
 62
     7
 10
48.810250000000011
 20
228.69454899999999
 30
0.0
 40
7.0816910000000002
 50
173.94366899999989
 51
186.056331
  0
ARC
  5
81E
  8
0
 62
     7
 10
42.893174000000002
 20
228.69454899999999
 30
0.0
 40
1.350296999999999
 50
56.430554000000001
 51
146.4305249999999
  0
ARC
  5
81F
  8
0
 62
     7
 10
42.884411999999998
 20
228.68624199999991
 30
0.0
 40
1.362066999999999
 50
36.584130000000002
 51
56.316670999999992
  0
ARC
  5
820
  8
0
 62
     7
 10
42.893002000000003
 20
228.694377
 30
0.0
 40
1.3501160000000001
 50
233.48759399999989
 51
323.48756400000002
  0
ARC
  5
821
  8
0
 62
     7
 10
42.897683999999998
 20
228.69859199999991
 30
0.0
 40
1.3562899999999991
 50
213.60642200000001
 51
233.4345569999999
  0
LINE
  5
822
  8
0
 62
     7
 10
44.244599999999991
 20
227.5679999999999
 30
0.0
 11
44.244599999999991
 21
228.69399999999999
 31
0.0
  0
ARC
  5
823
  8
0
 62
     7
 10
43.44004799999999
 20
228.6931109999999
 30
0.0
 40
2.537625999999999
 50
0.03053
 51
19.392446
  0
ARC
  5
824
  8
0
 62
     7
 10
44.487031000000002
 20
229.04450399999999
 30
0.0
 40
1.4334569999999991
 50
20.039155999999998
 51
25.601690999999999
  0
LINE
  5
825
  8
0
 62
     7
 10
49.5852
 20
233.49799999999991
 30
0.0
 11
49.908200000000001
 21
233.23099999999999
 31
0.0
  0
LINE
  5
826
  8
0
 62
     7
 10
47.65509999999999
 20
233.23099999999999
 30
0.0
 11
47.978299999999997
 21
233.49799999999991
 31
0.0
  0
LINE
  5
827
  8
0
 62
     7
 10
48.781500000000001
 20
233.23099999999999
 30
0.0
 11
49.908200000000001
 21
233.23099999999999
 31
0.0
  0
ARC
  5
828
  8
0
 62
     7
 10
48.786786999999997
 20
234.054169
 30
0.0
 40
2.5559029999999989
 50
250.49328799999989
 51
269.88108799999992
  0
ARC
  5
829
  8
0
 62
     7
 10
48.428514
 20
232.98473799999991
 30
0.0
 40
1.4283520000000001
 50
244.43805599999999
 51
249.71537799999999
  0
ARC
  5
82A
  8
0
 62
     7
 10
50.668562999999999
 20
232.37966599999999
 30
0.0
 40
1.1417029999999999
 50
131.757802
 51
216.859173
  0
ARC
  5
82B
  8
0
 62
     7
 10
46.897360999999997
 20
232.37971899999999
 30
0.0
 40
1.1419870000000001
 50
323.23459500000001
 51
48.222234999999991
  0
LINE
  5
82C
  8
0
 62
     7
 10
47.978299999999997
 20
233.49799999999991
 30
0.0
 11
49.5852
 21
233.49799999999991
 31
0.0
  0
ARC
  5
82D
  8
0
 62
     7
 10
48.781655000000001
 20
228.66971299999989
 30
0.0
 40
7.077685999999999
 50
83.940941000000024
 51
96.059039000000013
  0
ARC
  5
82E
  8
0
 62
     7
 10
48.710590000000003
 20
234.5688529999999
 30
0.0
 40
1.4024259999999991
 50
328.51020399999987
 51
54.320498000000001
  0
ARC
  5
82F
  8
0
 62
     7
 10
48.784452999999999
 20
234.57953699999999
 30
0.0
 40
1.345866999999999
 50
306.51182999999992
 51
326.47944699999999
  0
ARC
  5
830
  8
0
 62
     7
 10
48.781654000000003
 20
234.58302999999989
 30
0.0
 40
1.3502359999999991
 50
143.48678200000001
 51
233.486831
  0
ARC
  5
831
  8
0
 62
     7
 10
48.785451000000002
 20
234.57918599999991
 30
0.0
 40
1.3555749999999991
 50
123.6183399999999
 51
143.45169199999989
  0
LINE
  5
832
  8
0
 62
     7
 10
47.65509999999999
 20
233.23099999999999
 30
0.0
 11
48.781500000000001
 21
233.23099999999999
 31
0.0
  0
LINE
  5
833
  8
0
 62
     7
 10
53.585000000000001
 20
227.89099999999991
 30
0.0
 11
53.3187
 21
227.5679999999999
 31
0.0
  0
LINE
  5
834
  8
0
 62
     7
 10
53.3187
 20
229.821
 30
0.0
 11
53.585000000000001
 21
229.49799999999991
 31
0.0
  0
LINE
  5
835
  8
0
 62
     7
 10
53.3187
 20
228.69399999999999
 30
0.0
 11
53.3187
 21
227.5679999999999
 31
0.0
  0
ARC
  5
836
  8
0
 62
     7
 10
48.776189000000002
 20
234.056138
 30
0.0
 40
2.557871
 50
270.11857900000001
 51
289.49914899999999
  0
ARC
  5
837
  8
0
 62
     7
 10
49.134473
 20
232.98544799999991
 30
0.0
 40
1.4291320000000001
 50
290.28709500000002
 51
295.56133699999998
  0
ARC
  5
838
  8
0
 62
     7
 10
54.118357000000003
 20
228.69583900000001
 30
0.0
 40
2.5330669999999991
 50
180.031136
 51
199.5957149999999
  0
ARC
  5
839
  8
0
 62
     7
 10
53.073090000000001
 20
228.341983
 30
0.0
 40
1.4297660000000001
 50
200.28505199999989
 51
205.55658600000001
  0
ARC
  5
83A
  8
0
 62
     7
 10
54.118357000000003
 20
228.6930879999999
 30
0.0
 40
2.5330669999999991
 50
160.40428499999999
 51
179.968864
  0
ARC
  5
83B
  8
0
 62
     7
 10
53.073090000000001
 20
229.046943
 30
0.0
 40
1.4297660000000001
 50
154.4434139999999
 51
159.71494799999991
  0
ARC
  5
83C
  8
0
 62
     7
 10
52.466785999999999
 20
226.80690799999999
 30
0.0
 40
1.1423149999999991
 50
41.773864000000003
 51
126.83163999999999
  0
ARC
  5
83D
  8
0
 62
     7
 10
52.466766
 20
230.57935699999999
 30
0.0
 40
1.1426229999999991
 50
233.25664699999999
 51
318.21037599999988
  0
LINE
  5
83E
  8
0
 62
     7
 10
53.585000000000001
 20
229.49799999999991
 30
0.0
 11
53.585000000000001
 21
227.89099999999991
 31
0.0
  0
ARC
  5
83F
  8
0
 62
     7
 10
48.753681999999998
 20
228.6944629999999
 30
0.0
 40
7.0808910000000003
 50
353.94370299999991
 51
6.056296999999998
  0
ARC
  5
840
  8
0
 62
     7
 10
54.655647999999999
 20
228.7662029999999
 30
0.0
 40
1.402941999999999
 50
238.54213899999999
 51
324.3189799999999
  0
ARC
  5
841
  8
0
 62
     7
 10
54.681181999999993
 20
228.7062839999999
 30
0.0
 40
1.3661849999999991
 50
216.643947
 51
236.31667799999991
  0
ARC
  5
842
  8
0
 62
     7
 10
54.670127999999998
 20
228.69459499999999
 30
0.0
 40
1.3501860000000001
 50
53.480317999999997
 51
143.48305199999999
  0
ARC
  5
843
  8
0
 62
     7
 10
54.659632000000002
 20
228.684258
 30
0.0
 40
1.364741999999999
 50
33.685631000000001
 51
53.384420999999989
  0
LINE
  5
844
  8
0
 62
     7
 10
53.3187
 20
229.821
 30
0.0
 11
53.3187
 21
228.69399999999999
 31
0.0
  0
ARC
  5
845
  8
0
 62
     7
 10
48.741818999999992
 20
228.73541399999999
 30
0.0
 40
3.205109999999999
 50
288.358069
 51
341.56901199999987
  0
ARC
  5
846
  8
0
 62
     7
 10
48.823380999999998
 20
228.73550299999991
 30
0.0
 40
3.206226
 50
198.37414200000001
 51
251.56754699999999
  0
ARC
  5
847
  8
0
 62
     7
 10
48.821715999999988
 20
228.65371699999989
 30
0.0
 40
3.205150999999999
 50
108.3620589999999
 51
161.569841
  0
ARC
  5
848
  8
0
 62
     7
 10
48.740380999999992
 20
228.65335899999991
 30
0.0
 40
3.2064710000000001
 50
18.373881999999998
 51
71.558037999999996
  0
ARC
  5
849
  8
0
 62
     7
 10
48.781568
 20
228.694377
 30
0.0
 40
2.6614399999999998
 50
0.001864
 51
90.001834000000017
  0
ARC
  5
84A
  8
0
 62
     7
 10
48.781568999999998
 20
228.69454899999999
 30
0.0
 40
2.6612669999999992
 50
90.001854000000023
 51
180.0018639999999
  0
ARC
  5
84B
  8
0
 62
     7
 10
48.781568
 20
228.694377
 30
0.0
 40
2.661265999999999
 50
179.9981159999999
 51
269.99816600000003
  0
ARC
  5
84C
  8
0
 62
     7
 10
48.781568
 20
228.69454999999991
 30
0.0
 40
2.6614399999999998
 50
269.99816600000003
 51
359.99813599999999
  0
ARC
  5
84D
  8
0
 62
     7
 10
48.781568
 20
228.694377
 30
0.0
 40
2.1000580000000002
 50
0.00236
 51
90.002329999999986
  0
ARC
  5
84E
  8
0
 62
     7
 10
48.781568999999998
 20
228.69454899999999
 30
0.0
 40
2.099885
 50
90.002349999999993
 51
180.00236000000001
  0
ARC
  5
84F
  8
0
 62
     7
 10
48.781568
 20
228.694377
 30
0.0
 40
2.099885
 50
179.9976199999999
 51
269.99767000000003
  0
ARC
  5
850
  8
0
 62
     7
 10
48.781568
 20
228.69454999999991
 30
0.0
 40
2.1000580000000002
 50
269.99767000000003
 51
359.99763999999999
  0
LINE
  5
851
  8
0
  6
AIGENLINE001
 62
     7
 10
48.715699999999998
 20
219.1209999999999
 30
0.0
 11
48.715699999999998
 21
238.27199999999999
 31
0.0
  0
LINE
  5
852
  8
0
  6
AIGENLINE001
 62
     7
 10
155.67099999999991
 20
192.00200000000001
 30
0.0
 11
155.67099999999991
 21
203.0019999999999
 31
0.0
  0
LINE
  5
853
  8
0
 62
     7
 10
158.14599999999999
 20
195.02699999999999
 30
0.0
 11
153.19599999999991
 21
199.977
 31
0.0
  0
LINE
  5
854
  8
0
  6
AIGENLINE001
 62
     7
 10
135.6699999999999
 20
192.00200000000001
 30
0.0
 11
135.6699999999999
 21
203.0019999999999
 31
0.0
  0
LINE
  5
855
  8
0
  6
AIGENLINE001
 62
     7
 10
161.15299999999991
 20
197.50200000000001
 30
0.0
 11
110.17
 21
197.50200000000001
 31
0.0
  0
LINE
  5
856
  8
0
  6
AIGENLINE001
 62
     7
 10
115.67100000000001
 20
192.00200000000001
 30
0.0
 11
115.67100000000001
 21
203.0019999999999
 31
0.0
  0
ARC
  5
857
  8
0
 62
     7
 10
155.6712399999999
 20
197.50185500000001
 30
0.0
 40
3.4997229999999999
 50
270.00283999999988
 51
0.00281
  0
ARC
  5
858
  8
0
 62
     7
 10
155.6712399999999
 20
197.50219899999991
 30
0.0
 40
3.5000659999999999
 50
180.00282999999999
 51
270.00283999999988
  0
ARC
  5
859
  8
0
 62
     7
 10
155.67132799999999
 20
197.50193999999991
 30
0.0
 40
3.5001540000000002
 50
89.998589999999993
 51
179.99856
  0
ARC
  5
85A
  8
0
 62
     7
 10
155.671154
 20
197.502285
 30
0.0
 40
3.4998089999999991
 50
359.99577999999991
 51
89.995750000000001
  0
TEXT
  5
85B
  8
_________2
 62
     7
 10
137.15448749999999
 20
-0.8926299999999999
 30
0.0
 40
3.9357000000000002
  1
HR2260S
 41
0.5
 72
     1
 11
143.55000000000001
 21
-0.8926299999999999
 31
0.0
  0
TEXT
  5
85C
  8
_________2
 62
     7
 10
109.179
 20
24.2257
 30
0.0
 40
3.9357000000000002
  1
エロイーズ　洗面器用湯水混合水栓
 41
0.5
  0
LINE
  5
85D
  8
_________2
 62
     7
 10
130.45299999999989
 20
258.911
 30
0.0
 11
130.45299999999989
 21
230.91099999999989
 31
0.0
  0
LINE
  5
85E
  8
_________2
 62
     7
 10
155.76900000000001
 20
258.911
 30
0.0
 11
155.76900000000001
 21
230.91099999999989
 31
0.0
  0
TEXT
  5
85F
  8
_________2
 62
     7
 10
166.65033466666659
 20
233.06099999999989
 30
0.0
 40
3.3734599999999988
  1
クロム
 41
0.5
 72
     1
 11
169.57400000000001
 21
233.06099999999989
 31
0.0
  0
TEXT
  5
860
  8
_________2
 62
     7
 10
135.30103249999991
 20
233.06200000000001
 30
0.0
 40
3.3734599999999988
  1
HR2260S-CH
 41
0.5
 72
     1
 11
143.31299999999999
 21
233.06200000000001
 31
0.0
  0
LINE
  5
861
  8
_________2
 62
     7
 10
130.45299999999989
 20
230.91099999999989
 30
0.0
 11
183.55099999999999
 21
230.91099999999989
 31
0.0
  0
TEXT
  5
862
  8
_________2
 62
     7
 10
166.76278333333329
 20
240.06099999999989
 30
0.0
 40
3.3734599999999988
  1
ブラス
 41
0.5
 72
     1
 11
169.57400000000001
 21
240.06099999999989
 31
0.0
  0
TEXT
  5
863
  8
_________2
 62
     7
 10
160.69055533333329
 20
247.06099999999989
 30
0.0
 40
3.3734599999999988
  1
アンティークブラス
 41
0.5
 72
     1
 11
169.57400000000001
 21
247.06099999999989
 31
0.0
  0
TEXT
  5
864
  8
_________2
 62
     7
 10
167.77482133333331
 20
254.06200000000001
 30
0.0
 40
3.3734599999999988
  1
仕上
 41
0.5
 72
     1
 11
169.57400000000001
 21
254.06200000000001
 31
0.0
  0
TEXT
  5
865
  8
_________2
 62
     7
 10
135.30103249999991
 20
240.0619999999999
 30
0.0
 40
3.3734599999999988
  1
HR2260S-PB
 41
0.5
 72
     1
 11
143.31299999999999
 21
240.0619999999999
 31
0.0
  0
TEXT
  5
866
  8
_________2
 62
     7
 10
135.30103249999991
 20
247.06200000000001
 30
0.0
 40
3.3734599999999988
  1
HR2260S-AB
 41
0.5
 72
     1
 11
143.31299999999999
 21
247.06200000000001
 31
0.0
  0
TEXT
  5
867
  8
_________2
 62
     7
 10
141.51382133333331
 20
254.06200000000001
 30
0.0
 40
3.3734599999999988
  1
品番
 41
0.5
 72
     1
 11
143.31299999999999
 21
254.06200000000001
 31
0.0
  0
LINE
  5
868
  8
_________2
 62
     7
 10
130.45299999999989
 20
237.91099999999989
 30
0.0
 11
183.55099999999999
 21
237.91099999999989
 31
0.0
  0
LINE
  5
869
  8
_________2
 62
     7
 10
130.45299999999989
 20
244.91099999999989
 30
0.0
 11
183.55099999999999
 21
244.91099999999989
 31
0.0
  0
LINE
  5
86A
  8
_________2
 62
     7
 10
130.45299999999989
 20
251.91099999999989
 30
0.0
 11
183.55099999999999
 21
251.91099999999989
 31
0.0
  0
LINE
  5
86B
  8
_________2
 62
     7
 10
205.30099999999999
 20
127.411
 30
0.0
 11
183.55000000000001
 21
127.411
 31
0.0
  0
LINE
  5
86C
  8
_________2
 62
     7
 10
100.2999999999999
 20
-4.0910799999999998
 30
0.0
 11
100.2999999999999
 21
-21.071400000000001
 31
0.0
  0
LINE
  5
86D
  8
_________2
 62
     7
 10
100.2999999999999
 20
275.93099999999993
 30
0.0
 11
100.2999999999999
 21
258.911
 31
0.0
  0
LINE
  5
86E
  8
_________2
 62
     7
 10
17.049499999999998
 20
127.411
 30
0.0
 11
-4.70052
 21
127.411
 31
0.0
  0
LINE
  5
86F
  8
_________2
 62
     7
 10
76.741
 20
29.8047
 30
0.0
 11
74.554699999999997
 21
29.8047
 31
0.0
  0
LINE
  5
870
  8
_________2
 62
     7
 10
77.233699999999999
 20
29.8047
 30
0.0
 11
76.981499999999997
 21
29.8047
 31
0.0
  0
LINE
  5
871
  8
_________2
 62
     7
 10
77.726299999999995
 20
29.8047
 30
0.0
 11
80.651200000000003
 21
29.8047
 31
0.0
  0
LINE
  5
872
  8
_________2
 62
     7
 10
77.233699999999999
 20
29.8047
 30
0.0
 11
77.485500000000002
 21
29.8047
 31
0.0
  0
LINE
  5
873
  8
_________2
 62
     7
 10
70.837100000000007
 20
29.8047
 30
0.0
 11
68.650499999999994
 21
29.8047
 31
0.0
  0
LINE
  5
874
  8
_________2
 62
     7
 10
71.329400000000007
 20
29.8047
 30
0.0
 11
71.077600000000004
 21
29.8047
 31
0.0
  0
LINE
  5
875
  8
_________2
 62
     7
 10
71.329400000000007
 20
30.2974
 30
0.0
 11
71.329400000000007
 21
32.484400000000001
 31
0.0
  0
LINE
  5
876
  8
_________2
 62
     7
 10
71.329400000000007
 20
29.8047
 30
0.0
 11
71.329400000000007
 21
30.056899999999992
 31
0.0
  0
LINE
  5
877
  8
_________2
 62
     7
 10
71.822100000000006
 20
29.8047
 30
0.0
 11
74.009
 21
29.8047
 31
0.0
  0
LINE
  5
878
  8
_________2
 62
     7
 10
71.329400000000007
 20
29.8047
 30
0.0
 11
71.581599999999995
 21
29.8047
 31
0.0
  0
LINE
  5
879
  8
_________2
 62
     7
 10
71.329400000000007
 20
29.312799999999999
 30
0.0
 11
71.329400000000007
 21
27.125800000000002
 31
0.0
  0
LINE
  5
87A
  8
_________2
 62
     7
 10
71.329400000000007
 20
29.8047
 30
0.0
 11
71.329400000000007
 21
29.5532
 31
0.0
  0
LINE
  5
87B
  8
_________2
 62
     7
 10
75.040499999999994
 20
28.5852
 30
0.0
 11
80.218500000000006
 21
27.720400000000001
 31
0.0
  0
LINE
  5
87C
  8
_________2
 62
     7
 10
75.040499999999994
 20
31.0243
 30
0.0
 11
80.218500000000006
 21
31.889700000000001
 31
0.0
  0
LINE
  5
87D
  8
_________2
 62
     7
 10
80.218500000000006
 20
27.720400000000001
 30
0.0
 11
80.218500000000006
 21
31.889700000000001
 31
0.0
  0
LINE
  5
87E
  8
_________2
 62
     7
 10
75.040499999999994
 20
28.5852
 30
0.0
 11
75.040499999999994
 21
31.0243
 31
0.0
  0
ARC
  5
87F
  8
_________2
 62
     7
 10
71.28285600000001
 20
29.757811
 30
0.0
 40
1.2673589999999999
 50
2.122214
 51
87.893958999999995
  0
ARC
  5
880
  8
_________2
 62
     7
 10
71.375959999999992
 20
29.758213000000001
 30
0.0
 40
1.2669559999999991
 50
92.104701000000006
 51
177.8952689999999
  0
ARC
  5
881
  8
_________2
 62
     7
 10
71.376357999999996
 20
29.851671
 30
0.0
 40
1.2673680000000001
 50
182.12203600000001
 51
267.877993
  0
ARC
  5
882
  8
_________2
 62
     7
 10
71.282531999999989
 20
29.851998999999989
 30
0.0
 40
1.267695999999999
 50
272.12015300000002
 51
357.863674
  0
ARC
  5
883
  8
_________2
 62
     7
 10
71.329430000000002
 20
29.804742999999998
 30
0.0
 40
2.0849849999999992
 50
0.00001
 51
89.999980000000008
  0
ARC
  5
884
  8
_________2
 62
     7
 10
71.329603000000006
 20
29.804915000000001
 30
0.0
 40
2.084813
 50
90.004733999999999
 51
180.00474399999999
  0
ARC
  5
885
  8
_________2
 62
     7
 10
71.409106000000008
 20
29.884775999999999
 30
0.0
 40
2.1657950000000001
 50
182.11776599999999
 51
267.89173399999999
  0
ARC
  5
886
  8
_________2
 62
     7
 10
71.249459000000002
 20
29.885429999999989
 30
0.0
 40
2.1664590000000001
 50
272.11546800000002
 51
357.86560400000002
  0
TEXT
  5
887
  8
_________2
 62
     7
 10
104.605
 20
1.6794899999999999
 30
0.0
 40
3.0923400000000001
  1
図番
 41
0.5
  0
LINE
  5
888
  8
_________2
 62
     7
 10
103.55
 20
5.9087199999999989
 30
0.0
 11
183.55099999999999
 21
5.9087199999999989
 31
0.0
  0
TEXT
  5
889
  8
_________2
 62
     7
 10
104.605
 20
11.679299999999991
 30
0.0
 40
3.0923400000000001
  1
品番
 41
0.5
  0
TEXT
  5
88A
  8
_________2
 62
     7
 10
104.605
 20
31.818100000000001
 30
0.0
 40
3.0923400000000001
  1
名称
 41
0.5
  0
TEXT
  5
88B
  8
_________2
 62
     7
 10
91.845058333333341
 20
26.821999999999989
 30
0.0
 40
3.6545800000000002
  1
mm
 41
0.5
 72
     1
 11
93.367800000000003
 21
26.821999999999989
 31
0.0
  0
TEXT
  5
88C
  8
_________2
 62
     7
 10
85.643199999999993
 20
31.818100000000001
 30
0.0
 40
3.0923400000000001
  1
単位
 41
0.5
  0
TEXT
  5
88D
  8
_________2
 62
     7
 10
85.643199999999993
 20
19.410799999999991
 30
0.0
 40
3.0923400000000001
  1
尺度
 41
0.5
  0
TEXT
  5
88E
  8
_________2
 62
     7
 10
90.548758666666686
 20
13.2179
 30
0.0
 40
3.6545800000000002
  1
1 ： 5
 41
0.5
 72
     1
 11
93.959699999999998
 21
13.2179
 31
0.0
  0
TEXT
  5
88F
  8
_________2
 62
     7
 10
136.66252499999999
 20
9.1078600000000005
 30
0.0
 40
3.9357000000000002
  1
図中の表参照
 41
0.5
 72
     1
 11
143.55000000000001
 21
9.1078600000000005
 31
0.0
  0
TEXT
  5
890
  8
_________2
 62
     7
 10
24.5868
 20
0.707283
 30
0.0
 40
3.9357000000000002
  1
（社）日本水道協会認証品
 41
0.5
  0
TEXT
  5
891
  8
_________2
 62
     7
 10
39.425300333333333
 20
13.603
 30
0.0
 40
3.6545800000000002
  1
早川
 41
0.5
 72
     1
 11
41.313499999999998
 21
13.603
 31
0.0
  0
TEXT
  5
892
  8
_________2
 62
     7
 10
20.790090666666661
 20
13.603
 30
0.0
 40
3.6545800000000002
  1
石原
 41
0.5
 72
     1
 11
22.73919999999999
 21
13.603
 31
0.0
  0
TEXT
  5
893
  8
_________2
 62
     7
 10
67.785399999999996
 20
13.2179
 30
0.0
 40
3.6545800000000002
  1
14.01.13
 41
0.5
  0
TEXT
  5
894
  8
_________2
 62
     7
 10
66.593100000000007
 20
19.410799999999991
 30
0.0
 40
3.0923400000000001
  1
日付
 41
0.5
  0
TEXT
  5
895
  8
_________2
 62
     7
 10
29.639399999999998
 20
19.410799999999991
 30
0.0
 40
3.0923400000000001
  1
検図
 41
0.5
  0
TEXT
  5
896
  8
_________2
 62
     7
 10
18.021100000000001
 20
5.21143
 30
0.0
 40
3.0923400000000001
  1
備考
 41
0.5
  0
TEXT
  5
897
  8
_________2
 62
     7
 10
18.021100000000001
 20
19.410799999999991
 30
0.0
 40
3.0923400000000001
  1
製図
 41
0.5
  0
TEXT
  5
898
  8
_________2
 62
     7
 10
23.788465333333338
 20
27.936800000000002
 30
0.0
 40
4.4979399999999989
  1
セラトレーディング株式会社
 41
0.5
 72
     1
 11
41.180500000000002
 21
27.936800000000002
 31
0.0
  0
LINE
  5
899
  8
_________2
 62
     7
 10
183.55099999999999
 20
-4.0910799999999998
 30
0.0
 11
17.049499999999998
 21
-4.0910799999999998
 31
0.0
  0
LINE
  5
89A
  8
_________2
 62
     7
 10
17.049499999999998
 20
-4.0910799999999998
 30
0.0
 11
17.049499999999998
 21
258.911
 31
0.0
  0
LINE
  5
89B
  8
_________2
 62
     7
 10
17.049499999999998
 20
258.911
 30
0.0
 11
183.55099999999999
 21
258.911
 31
0.0
  0
LINE
  5
89C
  8
_________2
 62
     7
 10
183.55099999999999
 20
258.911
 30
0.0
 11
183.55099999999999
 21
-4.0910799999999998
 31
0.0
  0
LINE
  5
89D
  8
_________2
 62
     7
 10
65.549599999999998
 20
9.4089600000000004
 30
0.0
 11
65.549599999999998
 21
35.908799999999999
 31
0.0
  0
LINE
  5
89E
  8
_________2
 62
     7
 10
84.549700000000016
 20
9.4089600000000004
 30
0.0
 11
84.549700000000016
 21
35.908799999999999
 31
0.0
  0
LINE
  5
89F
  8
_________2
 62
     7
 10
103.55
 20
-4.0910799999999998
 30
0.0
 11
103.55
 21
35.908799999999999
 31
0.0
  0
LINE
  5
8A0
  8
_________2
 62
     7
 10
28.549299999999992
 20
9.4089600000000004
 30
0.0
 11
28.549299999999992
 21
23.409199999999998
 31
0.0
  0
LINE
  5
8A1
  8
_________2
 62
     7
 10
17.049499999999998
 20
9.4089600000000004
 30
0.0
 11
103.55
 21
9.4089600000000004
 31
0.0
  0
LINE
  5
8A2
  8
_________2
 62
     7
 10
17.049499999999998
 20
23.409199999999998
 30
0.0
 11
103.55
 21
23.409199999999998
 31
0.0
  0
LINE
  5
8A3
  8
_________2
 62
     7
 10
103.55
 20
15.9085
 30
0.0
 11
183.55099999999999
 21
15.9085
 31
0.0
  0
LINE
  5
8A4
  8
_________2
 62
     7
 10
17.049499999999998
 20
35.908799999999999
 30
0.0
 11
183.55099999999999
 21
35.908799999999999
 31
0.0
  0
ENDSEC
  0
EOF
