  0
SECTION
  2
HEADER
  9
$ACADVER
  1
AC1009
  9
$INSBASE
 10
0.0
 20
0.0
 30
0.0
  9
$EXTMIN
 10
-104.794
 20
0.176045
 30
0.0
  9
$EXTMAX
 10
315.209
 20
297.178
 30
0.0
  9
$LIMMIN
 10
0.0
 20
0.0
  9
$LIMMAX
 10
12.0
 20
9.0
  9
$ORTHOMODE
 70
     0
  9
$REGENMODE
 70
     1
  9
$FILLMODE
 70
     1
  9
$QTEXTMODE
 70
     0
  9
$MIRRTEXT
 70
     1
  9
$DRAGMODE
 70
     2
  9
$LTSCALE
 40
1.0
  9
$OSMODE
 70
    37
  9
$ATTMODE
 70
     1
  9
$TEXTSIZE
 40
0.0
  9
$TRACEWID
 40
0.05
  9
$TEXTSTYLE
  7
STANDARD
  9
$CLAYER
  8
0
  9
$CELTYPE
  6
CONTINUOUS
  9
$CECOLOR
 62
   256
  9
$DIMSCALE
 40
1.0
  9
$DIMASZ
 40
0.18
  9
$DIMEXO
 40
0.0625
  9
$DIMDLI
 40
0.38
  9
$DIMRND
 40
0.0
  9
$DIMDLE
 40
0.0
  9
$DIMEXE
 40
0.18
  9
$DIMTP
 40
0.0
  9
$DIMTM
 40
0.0
  9
$DIMTXT
 40
0.18
  9
$DIMCEN
 40
0.09
  9
$DIMTSZ
 40
0.0
  9
$DIMTOL
 70
     0
  9
$DIMLIM
 70
     0
  9
$DIMTIH
 70
     1
  9
$DIMTOH
 70
     1
  9
$DIMSE1
 70
     0
  9
$DIMSE2
 70
     0
  9
$DIMTAD
 70
     0
  9
$DIMZIN
 70
     0
  9
$DIMBLK
  1

  9
$DIMASO
 70
     1
  9
$DIMSHO
 70
     1
  9
$DIMPOST
  1

  9
$DIMAPOST
  1

  9
$DIMALT
 70
     0
  9
$DIMALTD
 70
     2
  9
$DIMALTF
 40
25.399999999999999
  9
$DIMLFAC
 40
1.0
  9
$DIMTOFL
 70
     0
  9
$DIMTVP
 40
0.0
  9
$DIMTIX
 70
     0
  9
$DIMSOXD
 70
     0
  9
$DIMSAH
 70
     0
  9
$DIMBLK1
  1

  9
$DIMBLK2
  1

  9
$DIMSTYLE
  2
STANDARD
  9
$DIMCLRD
 70
     0
  9
$DIMCLRE
 70
     0
  9
$DIMCLRT
 70
     0
  9
$DIMTFAC
 40
1.0
  9
$DIMGAP
 40
0.09
  9
$LUNITS
 70
     2
  9
$LUPREC
 70
     4
  9
$SKETCHINC
 40
0.1
  9
$FILLETRAD
 40
0.0
  9
$AUNITS
 70
     0
  9
$AUPREC
 70
     0
  9
$MENU
  1
.
  9
$ELEVATION
 40
0.0
  9
$PELEVATION
 40
0.0
  9
$THICKNESS
 40
0.0
  9
$LIMCHECK
 70
     0
  9
$BLIPMODE
 70
     0
  9
$CHAMFERA
 40
0.0
  9
$CHAMFERB
 40
0.0
  9
$SKPOLY
 70
     0
  9
$TDCREATE
 40
2444972.375
  9
$TDUPDATE
 40
2458574.2465354982
  9
$TDINDWG
 40
0.0000440394
  9
$TDUSRTIMER
 40
0.0000440394
  9
$USRTIMER
 70
     1
  9
$ANGBASE
 50
0.0
  9
$ANGDIR
 70
     0
  9
$PDMODE
 70
     0
  9
$PDSIZE
 40
0.0
  9
$PLINEWID
 40
0.0
  9
$COORDS
 70
     1
  9
$SPLFRAME
 70
     0
  9
$SPLINETYPE
 70
     6
  9
$SPLINESEGS
 70
     8
  9
$ATTDIA
 70
     1
  9
$ATTREQ
 70
     1
  9
$HANDLING
 70
     1
  9
$HANDSEED
  5
A64
  9
$SURFTAB1
 70
     6
  9
$SURFTAB2
 70
     6
  9
$SURFTYPE
 70
     6
  9
$SURFU
 70
     6
  9
$SURFV
 70
     6
  9
$UCSNAME
  2

  9
$UCSORG
 10
0.0
 20
0.0
 30
0.0
  9
$UCSXDIR
 10
1.0
 20
0.0
 30
0.0
  9
$UCSYDIR
 10
0.0
 20
1.0
 30
0.0
  9
$PUCSNAME
  2

  9
$PUCSORG
 10
0.0
 20
0.0
 30
0.0
  9
$PUCSXDIR
 10
1.0
 20
0.0
 30
0.0
  9
$PUCSYDIR
 10
0.0
 20
1.0
 30
0.0
  9
$USERI1
 70
     0
  9
$USERI2
 70
     0
  9
$USERI3
 70
     0
  9
$USERI4
 70
     0
  9
$USERI5
 70
     0
  9
$USERR1
 40
0.0
  9
$USERR2
 40
0.0
  9
$USERR3
 40
0.0
  9
$USERR4
 40
0.0
  9
$USERR5
 40
0.0
  9
$WORLDVIEW
 70
     1
  9
$SHADEDGE
 70
     3
  9
$SHADEDIF
 70
    70
  9
$TILEMODE
 70
     1
  9
$MAXACTVP
 70
    48
  9
$PLIMCHECK
 70
     0
  9
$PEXTMIN
 10
1.0000000000000000E+020
 20
1.0000000000000000E+020
 30
1.0000000000000000E+020
  9
$PEXTMAX
 10
-1.0000000000000000E+020
 20
-1.0000000000000000E+020
 30
-1.0000000000000000E+020
  9
$PLIMMIN
 10
0.0
 20
0.0
  9
$PLIMMAX
 10
12.0
 20
9.0
  9
$UNITMODE
 70
     0
  9
$VISRETAIN
 70
     1
  9
$PLINEGEN
 70
     0
  9
$PSLTSCALE
 70
     1
  0
ENDSEC
  0
SECTION
  2
TABLES
  0
TABLE
  2
VPORT
 70
     1
  0
VPORT
  2
*ACTIVE
 70
     0
 10
0.0
 20
0.0
 11
1.0
 21
1.0
 12
235.80375567344251
 22
148.589
 13
0.0
 23
0.0
 14
1.0
 24
1.0
 15
0.0
 25
0.0
 16
0.0
 26
0.0
 36
1.0
 17
0.0
 27
0.0
 37
0.0
 40
285.48563927085848
 41
2.5432937181663831
 42
50.0
 43
0.0
 44
0.0
 50
0.0
 51
0.0
 71
     0
 72
   100
 73
     1
 74
     1
 75
     0
 76
     0
 77
     0
 78
     0
  0
ENDTAB
  0
TABLE
  2
LTYPE
 70
     4
  0
LTYPE
  2
CONTINUOUS
 70
     0
  3
Solid line
 72
    65
 73
     0
 40
0.0
  0
LTYPE
  2
AIGENLINE001
 70
     0
  3
generate AI->DXF Converter
 72
    65
 73
     4
 40
5.8561449999999988
 49
3.5278
 49
-0.776115
 49
0.776115
 49
-0.776115
  0
LTYPE
  2
AIGENLINE002
 70
     0
  3
generate AI->DXF Converter
 72
    65
 73
     4
 40
9.4368800000000004
 49
4.9389199999999986
 49
-1.4993199999999991
 49
1.4993199999999991
 49
-1.4993199999999991
  0
LTYPE
  2
AIGENLINE003
 70
     0
  3
generate AI->DXF Converter
 72
    65
 73
     4
 40
10.300112
 49
8.0000600000000013
 49
-0.700021
 49
0.9000100000000001
 49
-0.700021
  0
ENDTAB
  0
TABLE
  2
LAYER
 70
     4
  0
LAYER
  2
0
 70
     0
 62
     7
  6
CONTINUOUS
  0
LAYER
  2
____
 70
     0
 62
     7
  6
CONTINUOUS
  0
LAYER
  2
_________1
 70
     0
 62
     7
  6
CONTINUOUS
  0
LAYER
  2
_________2
 70
     0
 62
     7
  6
CONTINUOUS
  0
ENDTAB
  0
TABLE
  2
STYLE
 70
     1
  0
STYLE
  2
STANDARD
 70
     0
 40
0.0
 41
0.0
 50
0.0
 71
     0
 42
0.0
  3
TXT
  4
EXTFONT.SHX
  0
ENDTAB
  0
TABLE
  2
VIEW
 70
     0
  0
ENDTAB
  0
TABLE
  2
UCS
 70
     0
  0
ENDTAB
  0
TABLE
  2
APPID
 70
     3
  0
APPID
  2
ACAD
 70
     0
  0
APPID
  2
ACAD_NAV_VCDISPLAY
 70
     0
  0
APPID
  2
ACAD_MLEADERVER
 70
     0
  0
ENDTAB
  0
TABLE
  2
DIMSTYLE
 70
     1
  0
DIMSTYLE
  2
STANDARD
 70
     0
  3

  4

  5

  6

  7

 40
1.0
 41
0.18
 42
0.0625
 43
0.38
 44
0.18
 45
0.0
 46
0.0
 47
0.0
 48
0.0
140
0.18
141
0.09
142
0.0
143
25.399999999999999
144
1.0
145
0.0
146
1.0
147
0.09
 71
     0
 72
     0
 73
     1
 74
     1
 75
     0
 76
     0
 77
     0
 78
     0
170
     0
171
     2
172
     0
173
     0
174
     0
175
     0
176
     0
177
     0
178
     0
  0
ENDTAB
  0
ENDSEC
  0
SECTION
  2
BLOCKS
  0
BLOCK
  8
0
  2
$MODEL_SPACE
 70
     0
 10
0.0
 20
0.0
 30
0.0
  3
$MODEL_SPACE
  1

  0
ENDBLK
  5
1A
  8
0
  0
BLOCK
 67
     1
  8
0
  2
$PAPER_SPACE
 70
     0
 10
0.0
 20
0.0
 30
0.0
  3
$PAPER_SPACE
  1

  0
ENDBLK
  5
17
 67
     1
  8
0
  0
BLOCK
  8
_________1
  2
AIGNBL02020005
 70
     0
 10
0.0
 20
0.0
 30
0.0
  3
AIGNBL02020005
  1

  0
LINE
  5
28
  8
_________1
 62
     7
 10
-38.443899999999999
 20
125.812
 30
0.0
 11
-40.654299999999999
 21
126.404
 31
0.0
  0
LINE
  5
29
  8
_________1
 62
     7
 10
-40.654299999999999
 20
126.404
 30
0.0
 11
-38.443899999999999
 21
126.996
 31
0.0
  0
LINE
  5
2A
  8
_________1
 62
     7
 10
-38.443899999999999
 20
126.996
 30
0.0
 11
-38.443899999999999
 21
125.812
 31
0.0
  0
LINE
  5
2B
  8
_________1
 62
     7
 10
-47.011200000000002
 20
126.997
 30
0.0
 11
-44.800800000000002
 21
126.404
 31
0.0
  0
LINE
  5
2C
  8
_________1
 62
     7
 10
-44.800800000000002
 20
126.404
 30
0.0
 11
-47.011200000000002
 21
125.812
 31
0.0
  0
LINE
  5
2D
  8
_________1
 62
     7
 10
-47.011200000000002
 20
125.812
 30
0.0
 11
-47.011200000000002
 21
126.997
 31
0.0
  0
LINE
  5
2E
  8
_________1
 62
     7
 10
-44.800800000000002
 20
126.404
 30
0.0
 11
-40.654299999999999
 21
126.404
 31
0.0
  0
ENDBLK
  5
2F
  8
_________1
  0
BLOCK
  8
_________1
  2
AIGNBL0202000B
 70
     0
 10
0.0
 20
0.0
 30
0.0
  3
AIGNBL0202000B
  1

  0
LINE
  5
32
  8
_________1
 62
     7
 10
-61.913800000000002
 20
140.86500000000001
 30
0.0
 11
-61.321899999999999
 21
138.655
 31
0.0
  0
LINE
  5
33
  8
_________1
 62
     7
 10
-61.321899999999999
 20
138.655
 30
0.0
 11
-60.729300000000002
 21
140.86500000000001
 31
0.0
  0
LINE
  5
34
  8
_________1
 62
     7
 10
-60.729300000000002
 20
140.86500000000001
 30
0.0
 11
-61.913800000000002
 21
140.86500000000001
 31
0.0
  0
LINE
  5
35
  8
_________1
 62
     7
 10
-60.7438
 20
155.64400000000001
 30
0.0
 11
-61.33639999999999
 21
157.85499999999999
 31
0.0
  0
LINE
  5
36
  8
_________1
 62
     7
 10
-61.33639999999999
 20
157.85499999999999
 30
0.0
 11
-61.928600000000003
 21
155.64400000000001
 31
0.0
  0
LINE
  5
37
  8
_________1
 62
     7
 10
-61.928600000000003
 20
155.64400000000001
 30
0.0
 11
-60.7438
 21
155.64400000000001
 31
0.0
  0
LINE
  5
38
  8
_________1
 62
     7
 10
-61.328800000000001
 20
138.655
 30
0.0
 11
-61.328800000000001
 21
157.828
 31
0.0
  0
ENDBLK
  5
39
  8
_________1
  0
BLOCK
  8
_________1
  2
AIGNBL0202000D
 70
     0
 10
0.0
 20
0.0
 30
0.0
  3
AIGNBL0202000D
  1

  0
LINE
  5
3C
  8
_________1
 62
     7
 10
-55.728400000000001
 20
160.065
 30
0.0
 11
-55.136200000000002
 21
157.85499999999999
 31
0.0
  0
LINE
  5
3D
  8
_________1
 62
     7
 10
-55.136200000000002
 20
157.85499999999999
 30
0.0
 11
-54.54399999999999
 21
160.065
 31
0.0
  0
LINE
  5
3E
  8
_________1
 62
     7
 10
-54.54399999999999
 20
160.065
 30
0.0
 11
-55.728400000000001
 21
160.065
 31
0.0
  0
LINE
  5
3F
  8
_________1
 62
     7
 10
-55.128900000000002
 20
151.881
 30
0.0
 11
-55.128900000000002
 21
157.828
 31
0.0
  0
ENDBLK
  5
40
  8
_________1
  0
BLOCK
  8
_________1
  2
AIGNBL02020018
 70
     0
 10
0.0
 20
0.0
 30
0.0
  3
AIGNBL02020018
  1

  0
LINE
  5
43
  8
_________1
 62
     7
 10
-4.9383999999999988
 20
215.34999999999999
 30
0.0
 11
-2.728019999999999
 21
214.75800000000001
 31
0.0
  0
LINE
  5
44
  8
_________1
 62
     7
 10
-2.728019999999999
 20
214.75800000000001
 30
0.0
 11
-4.9383999999999988
 21
214.166
 31
0.0
  0
LINE
  5
45
  8
_________1
 62
     7
 10
-4.9383999999999988
 20
214.166
 30
0.0
 11
-4.9383999999999988
 21
215.34999999999999
 31
0.0
  0
LINE
  5
46
  8
_________1
 62
     7
 10
-20.517199999999999
 20
214.18000000000001
 30
0.0
 11
-22.727599999999999
 21
214.77199999999999
 31
0.0
  0
LINE
  5
47
  8
_________1
 62
     7
 10
-22.727599999999999
 20
214.77199999999999
 30
0.0
 11
-20.517199999999999
 21
215.36500000000001
 31
0.0
  0
LINE
  5
48
  8
_________1
 62
     7
 10
-20.517199999999999
 20
215.36500000000001
 30
0.0
 11
-20.517199999999999
 21
214.18000000000001
 31
0.0
  0
LINE
  5
49
  8
_________1
 62
     7
 10
-2.7548900000000001
 20
214.76499999999999
 30
0.0
 11
-22.700700000000001
 21
214.76499999999999
 31
0.0
  0
LINE
  5
4A
  8
_________1
 62
     7
 10
-22.755199999999999
 20
214.76499999999999
 30
0.0
 11
-42.701000000000001
 21
214.76499999999999
 31
0.0
  0
ENDBLK
  5
4B
  8
_________1
  0
BLOCK
  8
_________1
  2
AIGNBL0202001A
 70
     0
 10
0.0
 20
0.0
 30
0.0
  3
AIGNBL0202001A
  1

  0
LINE
  5
4E
  8
_________1
 62
     7
 10
-24.938700000000001
 20
215.34999999999999
 30
0.0
 11
-22.728300000000001
 21
214.75800000000001
 31
0.0
  0
LINE
  5
4F
  8
_________1
 62
     7
 10
-22.728300000000001
 20
214.75800000000001
 30
0.0
 11
-24.938700000000001
 21
214.166
 31
0.0
  0
LINE
  5
50
  8
_________1
 62
     7
 10
-24.938700000000001
 20
214.166
 30
0.0
 11
-24.938700000000001
 21
215.34999999999999
 31
0.0
  0
LINE
  5
51
  8
_________1
 62
     7
 10
-40.490599999999993
 20
214.173
 30
0.0
 11
-42.701000000000001
 21
214.76499999999999
 31
0.0
  0
LINE
  5
52
  8
_________1
 62
     7
 10
-42.701000000000001
 20
214.76499999999999
 30
0.0
 11
-40.490599999999993
 21
215.358
 31
0.0
  0
LINE
  5
53
  8
_________1
 62
     7
 10
-40.490599999999993
 20
215.358
 30
0.0
 11
-40.490599999999993
 21
214.173
 31
0.0
  0
ENDBLK
  5
54
  8
_________1
  0
BLOCK
  8
_________1
  2
AIGNBL02020022
 70
     0
 10
0.0
 20
0.0
 30
0.0
  3
AIGNBL02020022
  1

  0
LINE
  5
57
  8
_________1
 62
     7
 10
43.894799999999989
 20
203.166
 30
0.0
 11
41.684399999999989
 21
203.75800000000001
 31
0.0
  0
LINE
  5
58
  8
_________1
 62
     7
 10
41.684399999999989
 20
203.75800000000001
 30
0.0
 11
43.894799999999989
 21
204.34999999999999
 31
0.0
  0
LINE
  5
59
  8
_________1
 62
     7
 10
43.894799999999989
 20
204.34999999999999
 30
0.0
 11
43.894799999999989
 21
203.166
 31
0.0
  0
LINE
  5
5A
  8
_________1
 62
     7
 10
68.473600000000005
 20
204.33600000000001
 30
0.0
 11
70.683999999999997
 21
203.744
 31
0.0
  0
LINE
  5
5B
  8
_________1
 62
     7
 10
70.683999999999997
 20
203.744
 30
0.0
 11
68.473600000000005
 21
203.15100000000001
 31
0.0
  0
LINE
  5
5C
  8
_________1
 62
     7
 10
68.473600000000005
 20
203.15100000000001
 30
0.0
 11
68.473600000000005
 21
204.33600000000001
 31
0.0
  0
ENDBLK
  5
5D
  8
_________1
  0
BLOCK
  8
_________1
  2
AIGNBL02020024
 70
     0
 10
0.0
 20
0.0
 30
0.0
  3
AIGNBL02020024
  1

  0
LINE
  5
60
  8
_________1
 62
     7
 10
-12.5459
 20
155.64400000000001
 30
0.0
 11
-11.9537
 21
157.85499999999999
 31
0.0
  0
LINE
  5
61
  8
_________1
 62
     7
 10
-11.9537
 20
157.85499999999999
 30
0.0
 11
-11.361499999999999
 21
155.64400000000001
 31
0.0
  0
LINE
  5
62
  8
_________1
 62
     7
 10
-11.361499999999999
 20
155.64400000000001
 30
0.0
 11
-12.5459
 21
155.64400000000001
 31
0.0
  0
LINE
  5
63
  8
_________1
 62
     7
 10
-11.361499999999999
 20
92.064599999999984
 30
0.0
 11
-11.9537
 21
89.854200000000006
 31
0.0
  0
LINE
  5
64
  8
_________1
 62
     7
 10
-11.9537
 20
89.854200000000006
 30
0.0
 11
-12.5459
 21
92.064599999999984
 31
0.0
  0
LINE
  5
65
  8
_________1
 62
     7
 10
-12.5459
 20
92.064599999999984
 30
0.0
 11
-11.361499999999999
 21
92.064599999999984
 31
0.0
  0
ENDBLK
  5
66
  8
_________1
  0
BLOCK
  8
_________1
  2
AIGNBL02020026
 70
     0
 10
0.0
 20
0.0
 30
0.0
  3
AIGNBL02020026
  1

  0
LINE
  5
69
  8
_________1
 62
     7
 10
-18.738199999999999
 20
178.73400000000001
 30
0.0
 11
-16.527799999999999
 21
179.32599999999999
 31
0.0
  0
LINE
  5
6A
  8
_________1
 62
     7
 10
-16.527799999999999
 20
179.32599999999999
 30
0.0
 11
-18.738199999999999
 21
179.91800000000001
 31
0.0
  0
LINE
  5
6B
  8
_________1
 62
     7
 10
-18.738199999999999
 20
179.91800000000001
 30
0.0
 11
-18.738199999999999
 21
178.73400000000001
 31
0.0
  0
LINE
  5
6C
  8
_________1
 62
     7
 10
-26.6723
 20
179.904
 30
0.0
 11
-28.8827
 21
179.31200000000001
 31
0.0
  0
LINE
  5
6D
  8
_________1
 62
     7
 10
-28.8827
 20
179.31200000000001
 30
0.0
 11
-26.6723
 21
178.71899999999999
 31
0.0
  0
LINE
  5
6E
  8
_________1
 62
     7
 10
-26.6723
 20
178.71899999999999
 30
0.0
 11
-26.6723
 21
179.904
 31
0.0
  0
LINE
  5
6F
  8
_________1
 62
     7
 10
-16.554600000000001
 20
179.31899999999999
 30
0.0
 11
-28.8565
 21
179.31899999999999
 31
0.0
  0
ENDBLK
  5
70
  8
_________1
  0
BLOCK
  8
_________1
  2
AIGNBL02020028
 70
     0
 10
0.0
 20
0.0
 30
0.0
  3
AIGNBL02020028
  1

  0
LINE
  5
73
  8
_________1
 62
     7
 10
-38.765000000000001
 20
178.726
 30
0.0
 11
-36.554200000000002
 21
179.31899999999999
 31
0.0
  0
LINE
  5
74
  8
_________1
 62
     7
 10
-36.554200000000002
 20
179.31899999999999
 30
0.0
 11
-38.765000000000001
 21
179.91099999999989
 31
0.0
  0
LINE
  5
75
  8
_________1
 62
     7
 10
-38.765000000000001
 20
179.91099999999989
 30
0.0
 11
-38.765000000000001
 21
178.726
 31
0.0
  0
LINE
  5
76
  8
_________1
 62
     7
 10
-46.831400000000002
 20
179.89599999999999
 30
0.0
 11
-49.041800000000002
 21
179.304
 31
0.0
  0
LINE
  5
77
  8
_________1
 62
     7
 10
-49.041800000000002
 20
179.304
 30
0.0
 11
-46.831400000000002
 21
178.71199999999999
 31
0.0
  0
LINE
  5
78
  8
_________1
 62
     7
 10
-46.831400000000002
 20
178.71199999999999
 30
0.0
 11
-46.831400000000002
 21
179.89599999999999
 31
0.0
  0
LINE
  5
79
  8
_________1
 62
     7
 10
-36.554200000000002
 20
179.31899999999999
 30
0.0
 11
-48.988399999999992
 21
179.31899999999999
 31
0.0
  0
ENDBLK
  5
7A
  8
_________1
  0
BLOCK
  8
_________1
  2
AIGNBL0202002A
 70
     0
 10
0.0
 20
0.0
 30
0.0
  3
AIGNBL0202002A
  1

  0
LINE
  5
7D
  8
_________1
 62
     7
 10
74.5839
 20
257.863
 30
0.0
 11
76.5655
 21
256.71899999999999
 31
0.0
  0
LINE
  5
7E
  8
_________1
 62
     7
 10
76.5655
 20
256.71899999999999
 30
0.0
 11
75.421000000000006
 21
258.70100000000002
 31
0.0
  0
LINE
  5
7F
  8
_________1
 62
     7
 10
75.421000000000006
 20
258.70100000000002
 30
0.0
 11
74.5839
 21
257.863
 31
0.0
  0
LINE
  5
80
  8
_________1
 62
     7
 10
76.5655
 20
256.71899999999999
 30
0.0
 11
73.286799999999999
 21
259.99700000000001
 31
0.0
  0
ENDBLK
  5
81
  8
_________1
  0
BLOCK
  8
_________1
  2
AIGNBL0202002C
 70
     0
 10
0.0
 20
0.0
 30
0.0
  3
AIGNBL0202002C
  1

  0
LINE
  5
84
  8
_________1
 62
     7
 10
83.497099999999989
 20
250.625
 30
0.0
 11
81.5154
 21
251.76900000000001
 31
0.0
  0
LINE
  5
85
  8
_________1
 62
     7
 10
81.5154
 20
251.76900000000001
 30
0.0
 11
82.659199999999984
 21
249.78700000000001
 31
0.0
  0
LINE
  5
86
  8
_________1
 62
     7
 10
82.659199999999984
 20
249.78700000000001
 30
0.0
 11
83.497099999999989
 21
250.625
 31
0.0
  0
LINE
  5
87
  8
_________1
 62
     7
 10
81.5154
 20
251.76900000000001
 30
0.0
 11
85.833399999999983
 21
247.45099999999999
 31
0.0
  0
LINE
  5
88
  8
_________1
 62
     7
 10
85.833399999999983
 20
247.45099999999999
 30
0.0
 11
92.206699999999998
 21
247.45099999999999
 31
0.0
  0
ENDBLK
  5
89
  8
_________1
  0
BLOCK
  8
_________1
  2
AIGNBL0202002E
 70
     0
 10
0.0
 20
0.0
 30
0.0
  3
AIGNBL0202002E
  1

  0
LINE
  5
8C
  8
_________1
 62
     7
 10
54.584299999999992
 20
257.863
 30
0.0
 11
56.565899999999999
 21
256.71899999999999
 31
0.0
  0
LINE
  5
8D
  8
_________1
 62
     7
 10
56.565899999999999
 20
256.71899999999999
 30
0.0
 11
55.421399999999991
 21
258.70100000000002
 31
0.0
  0
LINE
  5
8E
  8
_________1
 62
     7
 10
55.421399999999991
 20
258.70100000000002
 30
0.0
 11
54.584299999999992
 21
257.863
 31
0.0
  0
LINE
  5
8F
  8
_________1
 62
     7
 10
56.565899999999999
 20
256.71899999999999
 30
0.0
 11
53.287199999999999
 21
259.99700000000001
 31
0.0
  0
ENDBLK
  5
90
  8
_________1
  0
BLOCK
  8
_________1
  2
AIGNBL02020030
 70
     0
 10
0.0
 20
0.0
 30
0.0
  3
AIGNBL02020030
  1

  0
LINE
  5
93
  8
_________1
 62
     7
 10
63.497500000000002
 20
250.625
 30
0.0
 11
61.515799999999999
 21
251.76900000000001
 31
0.0
  0
LINE
  5
94
  8
_________1
 62
     7
 10
61.515799999999999
 20
251.76900000000001
 30
0.0
 11
62.65959999999999
 21
249.78700000000001
 31
0.0
  0
LINE
  5
95
  8
_________1
 62
     7
 10
62.65959999999999
 20
249.78700000000001
 30
0.0
 11
63.497500000000002
 21
250.625
 31
0.0
  0
LINE
  5
96
  8
_________1
 62
     7
 10
61.515799999999999
 20
251.76900000000001
 30
0.0
 11
65.833799999999997
 21
247.45099999999999
 31
0.0
  0
LINE
  5
97
  8
_________1
 62
     7
 10
65.833799999999997
 20
247.45099999999999
 30
0.0
 11
72.207099999999997
 21
247.45099999999999
 31
0.0
  0
ENDBLK
  5
98
  8
_________1
  0
BLOCK
  8
_________1
  2
AIGNBL02020032
 70
     0
 10
0.0
 20
0.0
 30
0.0
  3
AIGNBL02020032
  1

  0
LINE
  5
9B
  8
_________1
 62
     7
 10
34.584699999999998
 20
257.863
 30
0.0
 11
36.566299999999998
 21
256.71899999999999
 31
0.0
  0
LINE
  5
9C
  8
_________1
 62
     7
 10
36.566299999999998
 20
256.71899999999999
 30
0.0
 11
35.421799999999998
 21
258.70100000000002
 31
0.0
  0
LINE
  5
9D
  8
_________1
 62
     7
 10
35.421799999999998
 20
258.70100000000002
 30
0.0
 11
34.584699999999998
 21
257.863
 31
0.0
  0
LINE
  5
9E
  8
_________1
 62
     7
 10
36.566299999999998
 20
256.71899999999999
 30
0.0
 11
33.287599999999998
 21
259.99700000000001
 31
0.0
  0
ENDBLK
  5
9F
  8
_________1
  0
BLOCK
  8
_________1
  2
AIGNBL02020034
 70
     0
 10
0.0
 20
0.0
 30
0.0
  3
AIGNBL02020034
  1

  0
LINE
  5
A2
  8
_________1
 62
     7
 10
43.497900000000001
 20
250.625
 30
0.0
 11
41.516199999999998
 21
251.76900000000001
 31
0.0
  0
LINE
  5
A3
  8
_________1
 62
     7
 10
41.516199999999998
 20
251.76900000000001
 30
0.0
 11
42.659999999999997
 21
249.78700000000001
 31
0.0
  0
LINE
  5
A4
  8
_________1
 62
     7
 10
42.659999999999997
 20
249.78700000000001
 30
0.0
 11
43.497900000000001
 21
250.625
 31
0.0
  0
LINE
  5
A5
  8
_________1
 62
     7
 10
41.516199999999998
 20
251.76900000000001
 30
0.0
 11
45.834200000000003
 21
247.45099999999999
 31
0.0
  0
LINE
  5
A6
  8
_________1
 62
     7
 10
45.834200000000003
 20
247.45099999999999
 30
0.0
 11
52.207500000000003
 21
247.45099999999999
 31
0.0
  0
ENDBLK
  5
A7
  8
_________1
  0
BLOCK
  8
_________1
  2
AIGNBL02020036
 70
     0
 10
0.0
 20
0.0
 30
0.0
  3
AIGNBL02020036
  1

  0
LINE
  5
AA
  8
_________1
 62
     7
 10
76.831500000000005
 20
264.96100000000001
 30
0.0
 11
79.041799999999995
 21
265.553
 31
0.0
  0
LINE
  5
AB
  8
_________1
 62
     7
 10
79.041799999999995
 20
265.553
 30
0.0
 11
76.831500000000005
 21
266.14499999999998
 31
0.0
  0
LINE
  5
AC
  8
_________1
 62
     7
 10
76.831500000000005
 20
266.14499999999998
 30
0.0
 11
76.831500000000005
 21
264.96100000000001
 31
0.0
  0
LINE
  5
AD
  8
_________1
 62
     7
 10
61.252600000000001
 20
266.13
 30
0.0
 11
59.042200000000001
 21
265.53800000000001
 31
0.0
  0
LINE
  5
AE
  8
_________1
 62
     7
 10
59.042200000000001
 20
265.53800000000001
 30
0.0
 11
61.252600000000001
 21
264.94600000000003
 31
0.0
  0
LINE
  5
AF
  8
_________1
 62
     7
 10
61.252600000000001
 20
264.94600000000003
 30
0.0
 11
61.252600000000001
 21
266.13
 31
0.0
  0
LINE
  5
B0
  8
_________1
 62
     7
 10
79.015000000000001
 20
265.54599999999999
 30
0.0
 11
59.069099999999992
 21
265.54599999999999
 31
0.0
  0
ENDBLK
  5
B1
  8
_________1
  0
BLOCK
  8
_________1
  2
AIGNBL02020038
 70
     0
 10
0.0
 20
0.0
 30
0.0
  3
AIGNBL02020038
  1

  0
LINE
  5
B4
  8
_________1
 62
     7
 10
56.831200000000003
 20
264.96100000000001
 30
0.0
 11
59.041600000000003
 21
265.553
 31
0.0
  0
LINE
  5
B5
  8
_________1
 62
     7
 10
59.041600000000003
 20
265.553
 30
0.0
 11
56.831200000000003
 21
266.14499999999998
 31
0.0
  0
LINE
  5
B6
  8
_________1
 62
     7
 10
56.831200000000003
 20
266.14499999999998
 30
0.0
 11
56.831200000000003
 21
264.96100000000001
 31
0.0
  0
LINE
  5
B7
  8
_________1
 62
     7
 10
41.279200000000003
 20
266.13799999999998
 30
0.0
 11
39.06880000000001
 21
265.54599999999999
 31
0.0
  0
LINE
  5
B8
  8
_________1
 62
     7
 10
39.06880000000001
 20
265.54599999999999
 30
0.0
 11
41.279200000000003
 21
264.95299999999997
 31
0.0
  0
LINE
  5
B9
  8
_________1
 62
     7
 10
41.279200000000003
 20
264.95299999999997
 30
0.0
 11
41.279200000000003
 21
266.13799999999998
 31
0.0
  0
LINE
  5
BA
  8
_________1
 62
     7
 10
59.014699999999991
 20
265.54599999999999
 30
0.0
 11
39.06880000000001
 21
265.54599999999999
 31
0.0
  0
ENDBLK
  5
BB
  8
_________1
  0
BLOCK
  8
_________1
  2
AIGNBL02010002
 70
     0
 10
0.0
 20
0.0
 30
0.0
  3
AIGNBL02010002
  1

  0
LINE
  5
BE
  8
_________1
 62
     7
 10
68.783999999999992
 20
138.655
 30
0.0
 11
68.583799999999997
 21
138.85499999999999
 31
0.0
  0
LINE
  5
BF
  8
_________1
 62
     7
 10
68.783999999999992
 20
138.655
 30
0.0
 11
70.684299999999993
 21
138.655
 31
0.0
  0
LINE
  5
C0
  8
_________1
 62
     7
 10
68.583799999999997
 20
138.85499999999999
 30
0.0
 11
70.683999999999997
 21
138.85499999999999
 31
0.0
  0
LINE
  5
C1
  8
_________1
 62
     7
 10
68.084000000000003
 20
147.05500000000001
 30
0.0
 11
68.283799999999999
 21
147.255
 31
0.0
  0
LINE
  5
C2
  8
_________1
 62
     7
 10
68.084000000000003
 20
140.655
 30
0.0
 11
68.084000000000003
 21
147.05500000000001
 31
0.0
  0
LINE
  5
C3
  8
_________1
 62
     7
 10
68.783999999999992
 20
138.655
 30
0.0
 11
68.783999999999992
 21
140.655
 31
0.0
  0
LINE
  5
C4
  8
_________1
 62
     7
 10
68.583799999999997
 20
138.85499999999999
 30
0.0
 11
68.583799999999997
 21
140.655
 31
0.0
  0
LINE
  5
C5
  8
_________1
 62
     7
 10
68.084000000000003
 20
140.655
 30
0.0
 11
70.683999999999997
 21
140.655
 31
0.0
  0
LINE
  5
C6
  8
_________1
 62
     7
 10
68.084000000000003
 20
147.255
 30
0.0
 11
70.684299999999993
 21
147.255
 31
0.0
  0
LINE
  5
C7
  8
_________1
 62
     7
 10
68.283799999999999
 20
147.255
 30
0.0
 11
68.283799999999999
 21
150.45400000000001
 31
0.0
  0
LINE
  5
C8
  8
_________1
 62
     7
 10
68.084000000000003
 20
147.05500000000001
 30
0.0
 11
68.084000000000003
 21
150.45400000000001
 31
0.0
  0
LINE
  5
C9
  8
_________1
 62
     7
 10
68.084000000000003
 20
147.05500000000001
 30
0.0
 11
70.683999999999997
 21
147.05500000000001
 31
0.0
  0
LINE
  5
CA
  8
_________1
 62
     7
 10
68.883899999999997
 20
147.05500000000001
 30
0.0
 11
70.683999999999997
 21
147.05500000000001
 31
0.0
  0
LINE
  5
CB
  8
_________1
 62
     7
 10
67.566500000000005
 20
150.45400000000001
 30
0.0
 11
70.683999999999997
 21
150.45400000000001
 31
0.0
  0
LINE
  5
CC
  8
_________1
 62
     7
 10
66.283900000000003
 20
151.45500000000001
 30
0.0
 11
66.283900000000003
 21
151.85499999999999
 31
0.0
  0
LINE
  5
CD
  8
_________1
 62
     7
 10
66.283900000000003
 20
151.45500000000001
 30
0.0
 11
70.683999999999997
 21
151.45500000000001
 31
0.0
  0
LINE
  5
CE
  8
_________1
 62
     7
 10
66.283900000000003
 20
151.655
 30
0.0
 11
70.683999999999997
 21
151.655
 31
0.0
  0
LINE
  5
CF
  8
_________1
 62
     7
 10
66.283900000000003
 20
151.85499999999999
 30
0.0
 11
70.683999999999997
 21
151.85499999999999
 31
0.0
  0
LINE
  5
D0
  8
_________1
 62
     7
 10
68.283799999999999
 20
151.85499999999999
 30
0.0
 11
68.283799999999999
 21
157.85499999999999
 31
0.0
  0
LINE
  5
D1
  8
_________1
 62
     7
 10
68.084000000000003
 20
151.85499999999999
 30
0.0
 11
68.084000000000003
 21
157.85499999999999
 31
0.0
  0
LINE
  5
D2
  8
_________1
 62
     7
 10
72.584999999999994
 20
138.655
 30
0.0
 11
72.784800000000004
 21
138.85499999999999
 31
0.0
  0
LINE
  5
D3
  8
_________1
 62
     7
 10
72.584999999999994
 20
138.655
 30
0.0
 11
70.684299999999993
 21
138.655
 31
0.0
  0
LINE
  5
D4
  8
_________1
 62
     7
 10
72.784800000000004
 20
138.85499999999999
 30
0.0
 11
70.684700000000007
 21
138.85499999999999
 31
0.0
  0
LINE
  5
D5
  8
_________1
 62
     7
 10
73.284700000000001
 20
147.05500000000001
 30
0.0
 11
73.084900000000005
 21
147.255
 31
0.0
  0
LINE
  5
D6
  8
_________1
 62
     7
 10
73.284700000000001
 20
140.655
 30
0.0
 11
73.284700000000001
 21
147.05500000000001
 31
0.0
  0
LINE
  5
D7
  8
_________1
 62
     7
 10
72.584999999999994
 20
138.655
 30
0.0
 11
72.584999999999994
 21
140.655
 31
0.0
  0
LINE
  5
D8
  8
_________1
 62
     7
 10
72.784800000000004
 20
138.85499999999999
 30
0.0
 11
72.784800000000004
 21
140.655
 31
0.0
  0
LINE
  5
D9
  8
_________1
 62
     7
 10
73.284700000000001
 20
140.655
 30
0.0
 11
70.684700000000007
 21
140.655
 31
0.0
  0
LINE
  5
DA
  8
_________1
 62
     7
 10
73.284700000000001
 20
147.255
 30
0.0
 11
70.684299999999993
 21
147.255
 31
0.0
  0
LINE
  5
DB
  8
_________1
 62
     7
 10
73.084900000000005
 20
147.255
 30
0.0
 11
73.084900000000005
 21
150.45400000000001
 31
0.0
  0
LINE
  5
DC
  8
_________1
 62
     7
 10
73.284700000000001
 20
147.05500000000001
 30
0.0
 11
73.284700000000001
 21
150.45400000000001
 31
0.0
  0
LINE
  5
DD
  8
_________1
 62
     7
 10
73.284700000000001
 20
147.05500000000001
 30
0.0
 11
70.684700000000007
 21
147.05500000000001
 31
0.0
  0
LINE
  5
DE
  8
_________1
 62
     7
 10
72.484800000000007
 20
147.05500000000001
 30
0.0
 11
70.684700000000007
 21
147.05500000000001
 31
0.0
  0
LINE
  5
DF
  8
_________1
 62
     7
 10
70.683999999999997
 20
150.45400000000001
 30
0.0
 11
70.683999999999997
 21
151.45500000000001
 31
0.0
  0
LINE
  5
E0
  8
_________1
 62
     7
 10
67.566500000000005
 20
150.45400000000001
 30
0.0
 11
67.566500000000005
 21
151.45500000000001
 31
0.0
  0
LINE
  5
E1
  8
_________1
 62
     7
 10
73.801500000000004
 20
150.45400000000001
 30
0.0
 11
73.801500000000004
 21
151.45500000000001
 31
0.0
  0
LINE
  5
E2
  8
_________1
 62
     7
 10
73.801500000000004
 20
150.45400000000001
 30
0.0
 11
70.684700000000007
 21
150.45400000000001
 31
0.0
  0
LINE
  5
E3
  8
_________1
 62
     7
 10
75.084800000000001
 20
151.45500000000001
 30
0.0
 11
75.084800000000001
 21
151.85499999999999
 31
0.0
  0
LINE
  5
E4
  8
_________1
 62
     7
 10
75.084800000000001
 20
151.45500000000001
 30
0.0
 11
70.684700000000007
 21
151.45500000000001
 31
0.0
  0
LINE
  5
E5
  8
_________1
 62
     7
 10
75.084800000000001
 20
151.655
 30
0.0
 11
70.684700000000007
 21
151.655
 31
0.0
  0
LINE
  5
E6
  8
_________1
 62
     7
 10
75.084800000000001
 20
151.85499999999999
 30
0.0
 11
70.684700000000007
 21
151.85499999999999
 31
0.0
  0
LINE
  5
E7
  8
_________1
 62
     7
 10
73.084900000000005
 20
151.85499999999999
 30
0.0
 11
73.084900000000005
 21
157.85499999999999
 31
0.0
  0
LINE
  5
E8
  8
_________1
 62
     7
 10
73.284700000000001
 20
151.85499999999999
 30
0.0
 11
73.284700000000001
 21
157.85499999999999
 31
0.0
  0
ENDBLK
  5
E9
  8
_________1
  0
BLOCK
  8
_________1
  2
AIGNBL02010003
 70
     0
 10
0.0
 20
0.0
 30
0.0
  3
AIGNBL02010003
  1

  0
LINE
  5
EC
  8
_________1
 62
     7
 10
65.611699999999999
 20
159.114
 30
0.0
 11
65.236599999999996
 21
159.03899999999999
 31
0.0
  0
ARC
  5
ED
  8
_________1
 62
     7
 10
65.238190000000003
 20
160.822326
 30
0.0
 40
1.748238
 50
282.33769999999998
 51
347.76571899999999
  0
LINE
  5
EE
  8
_________1
 62
     7
 10
64.561000000000007
 20
158.33600000000001
 30
0.0
 11
64.483800000000002
 21
157.85499999999999
 31
0.0
  0
ARC
  5
EF
  8
_________1
 62
     7
 10
65.425083999999998
 20
158.18168600000001
 30
0.0
 40
0.8778109999999999
 50
102.401222
 51
169.86107200000001
  0
ARC
  5
F0
  8
_________1
 62
     7
 10
67.611457999999999
 20
160.38765100000001
 30
0.0
 40
0.667794
 50
91.847543000000016
 51
174.51230799999999
  0
LINE
  5
F1
  8
_________1
 62
     7
 10
75.756900000000002
 20
159.114
 30
0.0
 11
76.132099999999994
 21
159.03899999999999
 31
0.0
  0
ARC
  5
F2
  8
_________1
 62
     7
 10
76.129048999999995
 20
160.82046399999999
 30
0.0
 40
1.7461150000000001
 50
192.186893
 51
257.69494099999997
  0
LINE
  5
F3
  8
_________1
 62
     7
 10
76.807699999999997
 20
158.33600000000001
 30
0.0
 11
76.884900000000002
 21
157.85499999999999
 31
0.0
  0
ARC
  5
F4
  8
_________1
 62
     7
 10
75.943945999999997
 20
158.18203700000001
 30
0.0
 40
0.8773899999999999
 50
10.120535
 51
77.617131999999984
  0
ARC
  5
F5
  8
_________1
 62
     7
 10
73.756218999999973
 20
160.38621900000001
 30
0.0
 40
0.6692580000000001
 50
5.5988329999999991
 51
88.071894999999984
  0
LINE
  5
F6
  8
_________1
 62
     7
 10
67.5899
 20
161.05500000000001
 30
0.0
 11
70.683999999999997
 21
161.05500000000001
 31
0.0
  0
LINE
  5
F7
  8
_________1
 62
     7
 10
67.078999999999994
 20
159.45400000000001
 30
0.0
 11
70.683999999999997
 21
159.45400000000001
 31
0.0
  0
LINE
  5
F8
  8
_________1
 62
     7
 10
64.483800000000002
 20
157.85499999999999
 30
0.0
 11
70.683999999999997
 21
157.85499999999999
 31
0.0
  0
LINE
  5
F9
  8
_________1
 62
     7
 10
73.778700000000001
 20
161.05500000000001
 30
0.0
 11
70.685000000000002
 21
161.05500000000001
 31
0.0
  0
LINE
  5
FA
  8
_________1
 62
     7
 10
74.290000000000006
 20
159.45400000000001
 30
0.0
 11
70.685000000000002
 21
159.45400000000001
 31
0.0
  0
LINE
  5
FB
  8
_________1
 62
     7
 10
76.884900000000002
 20
157.85499999999999
 30
0.0
 11
70.685000000000002
 21
157.85499999999999
 31
0.0
  0
ARC
  5
FC
  8
_________1
 62
     7
 10
68.102620999999999
 20
162.77714800000001
 30
0.0
 40
1.2776199999999991
 50
89.817271999999988
 51
102.508032
  0
ARC
  5
FD
  8
_________1
 62
     7
 10
68.106091000000006
 20
162.77686499999999
 30
0.0
 40
1.277896999999999
 50
63.016205000000006
 51
89.972898999999998
  0
ARC
  5
FE
  8
_________1
 62
     7
 10
68.280146999999999
 20
163.159761
 30
0.0
 40
0.8579120000000001
 50
34.253382000000002
 51
61.772069999999992
  0
ARC
  5
FF
  8
_________1
 62
     7
 10
68.515736000000004
 20
163.34535199999999
 30
0.0
 40
0.55911
 50
0.9241229999999998
 51
32.121456999999999
  0
ARC
  5
100
  8
_________1
 62
     7
 10
68.540264000000008
 20
163.35582500000001
 30
0.0
 40
0.534511
 50
325.22614099999998
 51
359.84390999999999
  0
ARC
  5
101
  8
_________1
 62
     7
 10
68.364467000000005
 20
163.46516199999999
 30
0.0
 40
0.741346
 50
302.80981700000001
 51
326.03413
  0
ARC
  5
102
  8
_________1
 62
     7
 10
68.166684000000004
 20
163.741749
 30
0.0
 40
1.081102
 50
277.81016299999999
 51
303.67699199999998
  0
ARC
  5
103
  8
_________1
 62
     7
 10
68.107923
 20
163.98379700000001
 30
0.0
 40
1.329130999999999
 50
269.94708300000002
 51
278.90186899999998
  0
ARC
  5
104
  8
_________1
 62
     7
 10
68.105677
 20
163.982933
 30
0.0
 40
1.328268
 50
257.73492900000002
 51
270.04392999999999
  0
ARC
  5
105
  8
_________1
 62
     7
 10
67.561144999999996
 20
162.201605
 30
0.0
 40
0.524655
 50
352.83373599999999
 51
44.535404
  0
ARC
  5
106
  8
_________1
 62
     7
 10
67.486983999999993
 20
162.19854900000001
 30
0.0
 40
0.5979820000000001
 50
322.64974000000001
 51
354.01074399999999
  0
ARC
  5
107
  8
_________1
 62
     7
 10
68.645319000000001
 20
163.35770500000001
 30
0.0
 40
1.060907
 50
180.16156599999999
 51
227.97787099999999
  0
ARC
  5
108
  8
_________1
 62
     7
 10
68.736035999999999
 20
163.272389
 30
0.0
 40
1.1785600000000001
 50
123.552379
 51
152.50304700000001
  0
ARC
  5
109
  8
_________1
 62
     7
 10
68.633503000000005
 20
163.356593
 30
0.0
 40
1.0490889999999991
 50
153.99707000000001
 51
180.10268199999999
  0
ARC
  5
10A
  8
_________1
 62
     7
 10
68.154983000000001
 20
161.64532700000001
 30
0.0
 40
0.270878
 50
135.32953699999999
 51
179.06954400000001
  0
LINE
  5
10B
  8
_________1
 62
     7
 10
67.884100000000004
 20
161.65000000000001
 30
0.0
 11
67.884100000000004
 21
161.05500000000001
 31
0.0
  0
ARC
  5
10C
  8
_________1
 62
     7
 10
73.267023999999992
 20
162.78948600000001
 30
0.0
 40
1.2652879999999991
 50
77.429535999999985
 51
90.260107999999988
  0
ARC
  5
10D
  8
_________1
 62
     7
 10
73.261891000000006
 20
162.77910199999999
 30
0.0
 40
1.27566
 50
90.027433999999985
 51
117.007869
  0
ARC
  5
10E
  8
_________1
 62
     7
 10
73.088573999999994
 20
163.15987200000001
 30
0.0
 40
0.857909
 50
118.243307
 51
145.75547499999999
  0
ARC
  5
10F
  8
_________1
 62
     7
 10
72.853042000000002
 20
163.34534500000001
 30
0.0
 40
0.5592240000000001
 50
147.884963
 51
179.07531700000001
  0
ARC
  5
110
  8
_________1
 62
     7
 10
72.828474999999983
 20
163.35582600000001
 30
0.0
 40
0.534586
 50
180.156115
 51
214.76832400000001
  0
ARC
  5
111
  8
_________1
 62
     7
 10
73.004450000000006
 20
163.46527
 30
0.0
 40
0.741628
 50
213.96122199999999
 51
237.17171999999999
  0
ARC
  5
112
  8
_________1
 62
     7
 10
73.201746999999983
 20
163.741107
 30
0.0
 40
1.0804949999999991
 50
236.30994699999999
 51
262.17402499999997
  0
ARC
  5
113
  8
_________1
 62
     7
 10
73.260071999999994
 20
163.98094800000001
 30
0.0
 40
1.3262830000000001
 50
261.08858199999997
 51
270.05217400000009
  0
ARC
  5
114
  8
_________1
 62
     7
 10
73.262306000000009
 20
163.98927499999999
 30
0.0
 40
1.3346100000000001
 50
269.955938
 51
282.23580400000009
  0
ARC
  5
115
  8
_________1
 62
     7
 10
70.676948999999993
 20
151.03744900000001
 30
0.0
 40
23.017282999999999
 50
89.981611000000001
 51
90.955205000000007
  0
ARC
  5
116
  8
_________1
 62
     7
 10
70.401225999999994
 20
169.00670500000001
 30
0.0
 40
5.0459849999999991
 50
91.226347000000004
 51
111.106065
  0
ARC
  5
117
  8
_________1
 62
     7
 10
73.806087000000005
 20
162.20158599999999
 30
0.0
 40
0.523649
 50
135.35323199999999
 51
187.17804000000001
  0
ARC
  5
118
  8
_________1
 62
     7
 10
73.881357999999992
 20
162.19870700000001
 30
0.0
 40
0.598096
 50
186.00335999999999
 51
217.36102299999999
  0
LINE
  5
119
  8
_________1
 62
     7
 10
68.102599999999995
 20
161.755
 30
0.0
 11
70.684299999999993
 21
161.755
 31
0.0
  0
LINE
  5
11A
  8
_________1
 62
     7
 10
68.102599999999995
 20
162.45500000000001
 30
0.0
 11
70.684299999999993
 21
162.45500000000001
 31
0.0
  0
ARC
  5
11B
  8
_________1
 62
     7
 10
72.722356000000005
 20
163.358147
 30
0.0
 40
1.061898
 50
312.04583500000001
 51
359.81476800000002
  0
ARC
  5
11C
  8
_________1
 62
     7
 10
72.630256000000003
 20
163.27128400000001
 30
0.0
 40
1.180984
 50
27.496161000000001
 51
56.367370999999999
  0
ARC
  5
11D
  8
_________1
 62
     7
 10
72.734560999999999
 20
163.35601600000001
 30
0.0
 40
1.0496879999999991
 50
359.92893800000002
 51
26.02205
  0
LINE
  5
11E
  8
_________1
 62
     7
 10
68.434299999999993
 20
164.755
 30
0.0
 11
68.489800000000002
 21
164.755
 31
0.0
  0
LINE
  5
11F
  8
_________1
 62
     7
 10
68.084599999999995
 20
164.405
 30
0.0
 11
68.084599999999995
 21
164.255
 31
0.0
  0
ARC
  5
120
  8
_________1
 62
     7
 10
68.448017000000007
 20
164.39145300000001
 30
0.0
 40
0.363615
 50
92.157797000000016
 51
177.898595
  0
LINE
  5
121
  8
_________1
 62
     7
 10
69.284199999999998
 20
167.55500000000001
 30
0.0
 11
69.284199999999998
 21
165.655
 31
0.0
  0
ARC
  5
122
  8
_________1
 62
     7
 10
68.473759000000001
 20
165.54975899999999
 30
0.0
 40
0.795111
 50
271.155441
 51
342.78720399999997
  0
ARC
  5
123
  8
_________1
 62
     7
 10
68.191412
 20
165.64450299999999
 30
0.0
 40
1.092871999999999
 50
342.422957
 51
0.5332460000000001
  0
LINE
  5
124
  8
_________1
 62
     7
 10
65.881100000000004
 20
170.08099999999999
 30
0.0
 11
66.147099999999995
 21
169.75700000000001
 31
0.0
  0
LINE
  5
125
  8
_________1
 62
     7
 10
66.147099999999995
 20
172.011
 30
0.0
 11
65.881100000000004
 21
171.68799999999999
 31
0.0
  0
LINE
  5
126
  8
_________1
 62
     7
 10
67.530699999999996
 20
169.77600000000001
 30
0.0
 11
67.530699999999996
 21
170.01400000000001
 31
0.0
  0
LINE
  5
127
  8
_________1
 62
     7
 10
67.930599999999998
 20
169.37599999999989
 30
0.0
 11
68.646199999999993
 21
169.37599999999989
 31
0.0
  0
ARC
  5
128
  8
_________1
 62
     7
 10
67.945948000000001
 20
169.79136600000001
 30
0.0
 40
0.415558
 50
182.10972899999999
 51
267.89030000000002
  0
ARC
  5
129
  8
_________1
 62
     7
 10
67.001900000000006
 20
169.007758
 30
0.0
 40
1.136979
 50
62.285437999999992
 51
138.74704600000001
  0
LINE
  5
12A
  8
_________1
 62
     7
 10
66.147099999999995
 20
170.88399999999999
 30
0.0
 11
66.147099999999995
 21
169.75700000000001
 31
0.0
  0
ARC
  5
12B
  8
_________1
 62
     7
 10
65.718898999999993
 20
170.886943
 30
0.0
 40
2.010902999999999
 50
334.28650900000002
 51
359.91665
  0
ARC
  5
12C
  8
_________1
 62
     7
 10
65.727531999999997
 20
170.88260199999999
 30
0.0
 40
2.002267999999999
 50
0.040493
 51
25.724332
  0
ARC
  5
12D
  8
_________1
 62
     7
 10
66.998707999999993
 20
172.770117
 30
0.0
 40
1.143059
 50
221.839643
 51
307.61530800000003
  0
ARC
  5
12E
  8
_________1
 62
     7
 10
67.881357999999992
 20
171.66228699999999
 30
0.0
 40
0.274181
 50
128.545153
 51
132.426841
  0
LINE
  5
12F
  8
_________1
 62
     7
 10
65.881100000000004
 20
171.68799999999999
 30
0.0
 11
65.881100000000004
 21
170.08099999999999
 31
0.0
  0
ARC
  5
130
  8
_________1
 62
     7
 10
70.674996999999991
 20
170.884018
 30
0.0
 40
7.0439629999999998
 50
173.91181399999999
 51
186.08818600000001
  0
ARC
  5
131
  8
_________1
 62
     7
 10
64.810372000000001
 20
170.95592099999999
 30
0.0
 40
1.403063999999999
 50
215.685678
 51
301.45324299999999
  0
ARC
  5
132
  8
_________1
 62
     7
 10
64.793308999999994
 20
170.887034
 30
0.0
 40
1.354144
 50
303.59053899999998
 51
323.45042000000001
  0
ARC
  5
133
  8
_________1
 62
     7
 10
64.785250000000005
 20
170.811859
 30
0.0
 40
1.402819
 50
38.628318999999998
 51
124.408272
  0
ARC
  5
134
  8
_________1
 62
     7
 10
64.794538000000003
 20
170.88463100000001
 30
0.0
 40
1.3489109999999991
 50
126.48091100000001
 51
146.41835699999999
  0
LINE
  5
135
  8
_________1
 62
     7
 10
66.147099999999995
 20
172.011
 30
0.0
 11
66.147099999999995
 21
170.88399999999999
 31
0.0
  0
LINE
  5
136
  8
_________1
 62
     7
 10
69.584299999999985
 20
167.96600000000001
 30
0.0
 11
70.684299999999993
 21
167.96600000000001
 31
0.0
  0
LINE
  5
137
  8
_________1
 62
     7
 10
69.396500000000003
 20
168.154
 30
0.0
 11
69.584299999999985
 21
167.96600000000001
 31
0.0
  0
LINE
  5
138
  8
_________1
 62
     7
 10
69.284199999999998
 20
167.55500000000001
 30
0.0
 11
70.684299999999993
 21
167.55500000000001
 31
0.0
  0
LINE
  5
139
  8
_________1
 62
     7
 10
69.396500000000003
 20
168.154
 30
0.0
 11
70.684299999999993
 21
168.154
 31
0.0
  0
LINE
  5
13A
  8
_________1
 62
     7
 10
69.396500000000003
 20
168.626
 30
0.0
 11
69.396500000000003
 21
168.154
 31
0.0
  0
LINE
  5
13B
  8
_________1
 62
     7
 10
68.646199999999993
 20
169.37599999999989
 30
0.0
 11
70.684299999999993
 21
169.37599999999989
 31
0.0
  0
ARC
  5
13C
  8
_________1
 62
     7
 10
68.617607999999976
 20
168.59715
 30
0.0
 40
0.7794640000000001
 50
2.1022579999999991
 51
87.897731999999991
  0
LINE
  5
13D
  8
_________1
 62
     7
 10
69.584299999999985
 20
167.96600000000001
 30
0.0
 11
69.584299999999985
 21
167.55500000000001
 31
0.0
  0
ARC
  5
13E
  8
_________1
 62
     7
 10
71.450931000000011
 20
163.35283100000001
 30
0.0
 40
0.442984
 50
0.198973
 51
38.241588
  0
ARC
  5
13F
  8
_________1
 62
     7
 10
71.224456000000004
 20
163.20250899999999
 30
0.0
 40
0.714248
 50
36.466942000000003
 51
53.069905000000013
  0
ARC
  5
140
  8
_________1
 62
     7
 10
70.958967999999999
 20
162.866004
 30
0.0
 40
1.1428
 50
52.566662000000008
 51
71.374821999999995
  0
ARC
  5
141
  8
_________1
 62
     7
 10
70.712431999999993
 20
162.238451
 30
0.0
 40
1.816527999999999
 50
70.327601999999999
 51
90.886323999999988
  0
ARC
  5
142
  8
_________1
 62
     7
 10
70.683948000000001
 20
162.051399
 30
0.0
 40
2.0033629999999998
 50
89.988997999999995
 51
107.10402499999999
  0
ARC
  5
143
  8
_________1
 62
     7
 10
70.509167000000005
 20
162.67115899999999
 30
0.0
 40
1.3596939999999991
 50
107.74561
 51
124.37500900000001
  0
ARC
  5
144
  8
_________1
 62
     7
 10
70.184776999999997
 20
163.16875099999999
 30
0.0
 40
0.7659630000000001
 50
125.362855
 51
147.61239
  0
ARC
  5
145
  8
_________1
 62
     7
 10
69.932587999999996
 20
163.34607299999999
 30
0.0
 40
0.458257
 50
149.44514599999999
 51
178.962692
  0
ARC
  5
146
  8
_________1
 62
     7
 10
69.916635999999997
 20
163.35591199999999
 30
0.0
 40
0.442232
 50
180.19989000000001
 51
218.27651399999999
  0
ARC
  5
147
  8
_________1
 62
     7
 10
70.142832999999996
 20
163.50605300000001
 30
0.0
 40
0.7131560000000001
 50
216.48831000000001
 51
233.109735
  0
ARC
  5
148
  8
_________1
 62
     7
 10
70.409094999999994
 20
163.843886
 30
0.0
 40
1.1432290000000001
 50
232.60069200000001
 51
251.400497
  0
ARC
  5
149
  8
_________1
 62
     7
 10
70.655866000000003
 20
164.47196500000001
 30
0.0
 40
1.8175220000000001
 50
250.34261699999999
 51
270.89741199999997
  0
ARC
  5
14A
  8
_________1
 62
     7
 10
70.684704999999994
 20
164.65862300000001
 30
0.0
 40
2.0039569999999989
 50
269.98934000000003
 51
287.09206699999999
  0
ARC
  5
14B
  8
_________1
 62
     7
 10
70.859438999999995
 20
164.038568
 30
0.0
 40
1.360017
 50
287.73339099999998
 51
304.35250000000002
  0
ARC
  5
14C
  8
_________1
 62
     7
 10
71.184018999999992
 20
163.540313
 30
0.0
 40
0.7656260000000001
 50
305.33961099999999
 51
327.58573800000011
  0
ARC
  5
14D
  8
_________1
 62
     7
 10
71.436746999999997
 20
163.36259000000001
 30
0.0
 40
0.45724
 50
329.41068200000001
 51
358.96984400000002
  0
LINE
  5
14E
  8
_________1
 62
     7
 10
70.684299999999993
 20
172.50999999999999
 30
0.0
 11
70.684299999999993
 21
173.095
 31
0.0
  0
LINE
  5
14F
  8
_________1
 62
     7
 10
70.361199999999997
 20
172.50999999999999
 30
0.0
 11
70.361199999999997
 21
173.095
 31
0.0
  0
LINE
  5
150
  8
_________1
 62
     7
 10
70.071100000000001
 20
172.50999999999999
 30
0.0
 11
70.071100000000001
 21
173.095
 31
0.0
  0
LINE
  5
151
  8
_________1
 62
     7
 10
69.7821
 20
172.50999999999999
 30
0.0
 11
69.7821
 21
173.095
 31
0.0
  0
LINE
  5
152
  8
_________1
 62
     7
 10
69.486099999999993
 20
172.50999999999999
 30
0.0
 11
69.486099999999993
 21
173.095
 31
0.0
  0
LINE
  5
153
  8
_________1
 62
     7
 10
69.242900000000006
 20
172.50999999999999
 30
0.0
 11
69.242900000000006
 21
173.095
 31
0.0
  0
LINE
  5
154
  8
_________1
 62
     7
 10
67.974400000000003
 20
172.50999999999999
 30
0.0
 11
67.974400000000003
 21
173.095
 31
0.0
  0
LINE
  5
155
  8
_________1
 62
     7
 10
68.074299999999994
 20
172.50999999999999
 30
0.0
 11
68.074299999999994
 21
173.095
 31
0.0
  0
LINE
  5
156
  8
_________1
 62
     7
 10
68.804000000000002
 20
172.50999999999999
 30
0.0
 11
68.804000000000002
 21
173.095
 31
0.0
  0
LINE
  5
157
  8
_________1
 62
     7
 10
69.0124
 20
172.50999999999999
 30
0.0
 11
69.0124
 21
173.095
 31
0.0
  0
LINE
  5
158
  8
_________1
 62
     7
 10
68.590400000000002
 20
172.50999999999999
 30
0.0
 11
68.590400000000002
 21
173.095
 31
0.0
  0
LINE
  5
159
  8
_________1
 62
     7
 10
68.397800000000004
 20
172.50999999999999
 30
0.0
 11
68.397800000000004
 21
173.095
 31
0.0
  0
LINE
  5
15A
  8
_________1
 62
     7
 10
68.221100000000007
 20
172.50999999999999
 30
0.0
 11
68.221100000000007
 21
173.095
 31
0.0
  0
LINE
  5
15B
  8
_________1
 62
     7
 10
67.882099999999994
 20
172.50999999999999
 30
0.0
 11
67.710499999999996
 21
171.87700000000001
 31
0.0
  0
LINE
  5
15C
  8
_________1
 62
     7
 10
67.882099999999994
 20
172.50999999999999
 30
0.0
 11
70.684299999999993
 21
172.50999999999999
 31
0.0
  0
LINE
  5
15D
  8
_________1
 62
     7
 10
67.882099999999994
 20
172.50999999999999
 30
0.0
 11
67.882099999999994
 21
173.095
 31
0.0
  0
LINE
  5
15E
  8
_________1
 62
     7
 10
67.882099999999994
 20
173.095
 30
0.0
 11
70.684299999999993
 21
173.095
 31
0.0
  0
LINE
  5
15F
  8
_________1
 62
     7
 10
68.512900000000002
 20
173.714
 30
0.0
 11
70.684299999999993
 21
173.714
 31
0.0
  0
LINE
  5
160
  8
_________1
 62
     7
 10
68.022599999999997
 20
173.095
 30
0.0
 11
68.022599999999997
 21
173.22399999999999
 31
0.0
  0
ARC
  5
161
  8
_________1
 62
     7
 10
68.531858
 20
173.20494500000001
 30
0.0
 40
0.5095900000000001
 50
92.134818999999993
 51
177.824873
  0
ARC
  5
162
  8
_________1
 62
     7
 10
70.691715000000002
 20
151.041325
 30
0.0
 40
23.013407000000001
 50
89.044693999999993
 51
90.018371999999999
  0
ARC
  5
163
  8
_________1
 62
     7
 10
70.967340000000007
 20
169.00619699999999
 30
0.0
 40
5.046494
 50
68.894951000000006
 51
88.773008999999988
  0
LINE
  5
164
  8
_________1
 62
     7
 10
70.684299999999993
 20
161.054
 30
0.0
 11
67.883499999999998
 21
161.054
 31
0.0
  0
LINE
  5
165
  8
_________1
 62
     7
 10
73.484499999999997
 20
161.05500000000001
 30
0.0
 11
70.684299999999993
 21
161.054
 31
0.0
  0
LINE
  5
166
  8
_________1
 62
     7
 10
70.684299999999993
 20
164.255
 30
0.0
 11
68.102599999999995
 21
164.255
 31
0.0
  0
LINE
  5
167
  8
_________1
 62
     7
 10
73.266099999999994
 20
161.755
 30
0.0
 11
70.684299999999993
 21
161.755
 31
0.0
  0
LINE
  5
168
  8
_________1
 62
     7
 10
73.266099999999994
 20
162.45500000000001
 30
0.0
 11
70.684299999999993
 21
162.45500000000001
 31
0.0
  0
LINE
  5
169
  8
_________1
 62
     7
 10
73.266099999999994
 20
164.255
 30
0.0
 11
70.684299999999993
 21
164.255
 31
0.0
  0
ARC
  5
16A
  8
_________1
 62
     7
 10
73.213448999999983
 20
161.64487199999999
 30
0.0
 40
0.271118
 50
1.0256780000000001
 51
44.755419999999987
  0
LINE
  5
16B
  8
_________1
 62
     7
 10
72.933999999999997
 20
164.755
 30
0.0
 11
72.878900000000002
 21
164.755
 31
0.0
  0
LINE
  5
16C
  8
_________1
 62
     7
 10
73.484499999999997
 20
161.65000000000001
 30
0.0
 11
73.484499999999997
 21
161.05500000000001
 31
0.0
  0
LINE
  5
16D
  8
_________1
 62
     7
 10
73.284400000000005
 20
164.405
 30
0.0
 11
73.284400000000005
 21
164.255
 31
0.0
  0
ARC
  5
16E
  8
_________1
 62
     7
 10
72.920331000000004
 20
164.39076499999999
 30
0.0
 40
0.364301
 50
2.2056869999999988
 51
87.850668999999996
  0
LINE
  5
16F
  8
_________1
 62
     7
 10
72.084100000000007
 20
167.55500000000001
 30
0.0
 11
72.084100000000007
 21
165.655
 31
0.0
  0
LINE
  5
170
  8
_________1
 62
     7
 10
70.684299999999993
 20
164.755
 30
0.0
 11
68.861900000000006
 21
164.755
 31
0.0
  0
LINE
  5
171
  8
_________1
 62
     7
 10
72.506799999999998
 20
164.755
 30
0.0
 11
70.684299999999993
 21
164.755
 31
0.0
  0
ARC
  5
172
  8
_________1
 62
     7
 10
72.894891000000001
 20
165.55020099999999
 30
0.0
 40
0.795553
 50
197.23628600000001
 51
268.84621700000002
  0
ARC
  5
173
  8
_________1
 62
     7
 10
73.177033999999992
 20
165.64453800000001
 30
0.0
 40
1.0929969999999991
 50
179.46864600000001
 51
197.57692299999999
  0
LINE
  5
174
  8
_________1
 62
     7
 10
75.487899999999996
 20
170.08099999999999
 30
0.0
 11
75.2209
 21
169.75700000000001
 31
0.0
  0
LINE
  5
175
  8
_________1
 62
     7
 10
75.2209
 20
172.011
 30
0.0
 11
75.487899999999996
 21
171.68799999999999
 31
0.0
  0
LINE
  5
176
  8
_________1
 62
     7
 10
73.837999999999994
 20
169.77600000000001
 30
0.0
 11
73.837999999999994
 21
170.01400000000001
 31
0.0
  0
LINE
  5
177
  8
_________1
 62
     7
 10
73.437700000000007
 20
169.37599999999989
 30
0.0
 11
72.722499999999997
 21
169.37599999999989
 31
0.0
  0
ARC
  5
178
  8
_________1
 62
     7
 10
73.422705000000008
 20
169.79139000000001
 30
0.0
 40
0.41557
 50
272.06370600000002
 51
357.88697500000001
  0
ARC
  5
179
  8
_________1
 62
     7
 10
74.366509999999991
 20
169.008681
 30
0.0
 40
1.1360440000000001
 50
41.232393000000002
 51
117.7248389999999
  0
LINE
  5
17A
  8
_________1
 62
     7
 10
75.2209
 20
170.88399999999999
 30
0.0
 11
75.2209
 21
169.75700000000001
 31
0.0
  0
ARC
  5
17B
  8
_________1
 62
     7
 10
75.649765000000002
 20
170.886943
 30
0.0
 40
2.010902999999999
 50
180.08337
 51
205.71351100000001
  0
ARC
  5
17C
  8
_________1
 62
     7
 10
75.647400000000005
 20
170.88260700000001
 30
0.0
 40
2.008535999999999
 50
154.361895
 51
179.959731
  0
ARC
  5
17D
  8
_________1
 62
     7
 10
74.369552999999996
 20
172.76870099999999
 30
0.0
 40
1.1419010000000001
 50
232.34364900000011
 51
318.20377300000001
  0
ARC
  5
17E
  8
_________1
 62
     7
 10
73.194730000000007
 20
171.33319299999999
 30
0.0
 40
0.7142800000000001
 50
48.079640999999988
 51
49.548498000000002
  0
LINE
  5
17F
  8
_________1
 62
     7
 10
75.487899999999996
 20
171.68799999999999
 30
0.0
 11
75.487899999999996
 21
170.08099999999999
 31
0.0
  0
ARC
  5
180
  8
_________1
 62
     7
 10
70.692954999999984
 20
170.884018
 30
0.0
 40
7.0439860000000003
 50
353.91185400000001
 51
6.0881460000000001
  0
ARC
  5
181
  8
_________1
 62
     7
 10
76.557943999999992
 20
170.95489900000001
 30
0.0
 40
1.40219
 50
238.52508900000001
 51
324.340127
  0
ARC
  5
182
  8
_________1
 62
     7
 10
76.581293000000002
 20
170.89247700000001
 30
0.0
 40
1.362155999999999
 50
216.58480499999999
 51
236.316035
  0
ARC
  5
183
  8
_________1
 62
     7
 10
76.583414000000005
 20
170.811859
 30
0.0
 40
1.402819
 50
55.591707999999997
 51
141.37166199999999
  0
ARC
  5
184
  8
_________1
 62
     7
 10
76.579798999999994
 20
170.89229900000001
 30
0.0
 40
1.339372999999999
 50
33.458877000000001
 51
53.519157999999997
  0
LINE
  5
185
  8
_________1
 62
     7
 10
75.2209
 20
172.011
 30
0.0
 11
75.2209
 21
170.88399999999999
 31
0.0
  0
LINE
  5
186
  8
_________1
 62
     7
 10
71.783999999999992
 20
167.96600000000001
 30
0.0
 11
70.684299999999993
 21
167.96600000000001
 31
0.0
  0
LINE
  5
187
  8
_________1
 62
     7
 10
71.972099999999998
 20
168.154
 30
0.0
 11
71.783999999999992
 21
167.96600000000001
 31
0.0
  0
LINE
  5
188
  8
_________1
 62
     7
 10
72.084100000000007
 20
167.55500000000001
 30
0.0
 11
70.684299999999993
 21
167.55500000000001
 31
0.0
  0
LINE
  5
189
  8
_________1
 62
     7
 10
71.972099999999998
 20
168.154
 30
0.0
 11
70.684299999999993
 21
168.154
 31
0.0
  0
LINE
  5
18A
  8
_________1
 62
     7
 10
71.972099999999998
 20
168.626
 30
0.0
 11
71.972099999999998
 21
168.154
 31
0.0
  0
LINE
  5
18B
  8
_________1
 62
     7
 10
72.722499999999997
 20
169.37599999999989
 30
0.0
 11
70.684299999999993
 21
169.37599999999989
 31
0.0
  0
ARC
  5
18C
  8
_________1
 62
     7
 10
72.722464000000002
 20
168.625743
 30
0.0
 40
0.750347
 50
90.0
 51
179.99996999999999
  0
LINE
  5
18D
  8
_________1
 62
     7
 10
71.783999999999992
 20
167.96600000000001
 30
0.0
 11
71.783999999999992
 21
167.55500000000001
 31
0.0
  0
ARC
  5
18E
  8
_________1
 62
     7
 10
70.735923
 20
170.83206899999999
 30
0.0
 40
1.403038999999999
 50
92.107291999999987
 51
177.87806
  0
ARC
  5
18F
  8
_________1
 62
     7
 10
70.632795000000002
 20
170.83248
 30
0.0
 40
1.402625999999999
 50
2.1057290000000002
 51
87.894261000000014
  0
ARC
  5
190
  8
_________1
 62
     7
 10
70.684331999999998
 20
170.884018
 30
0.0
 40
1.3501419999999991
 50
270.00002000000001
 51
359.99999000000003
  0
ARC
  5
191
  8
_________1
 62
     7
 10
70.684159999999991
 20
170.88418999999999
 30
0.0
 40
1.350312999999999
 50
180.007319
 51
270.00732900000003
  0
ARC
  5
192
  8
_________1
 62
     7
 10
70.714590000000001
 20
170.85375999999999
 30
0.0
 40
0.8204360000000001
 50
92.113515000000021
 51
177.88645600000001
  0
ARC
  5
193
  8
_________1
 62
     7
 10
70.654075000000006
 20
170.85375999999999
 30
0.0
 40
0.820437
 50
2.1135419999999989
 51
87.886448000000001
  0
ARC
  5
194
  8
_________1
 62
     7
 10
70.654413000000005
 20
170.9142939999999
 30
0.0
 40
0.820099
 50
272.09075300000001
 51
357.884253
  0
ARC
  5
195
  8
_________1
 62
     7
 10
70.714564999999993
 20
170.91460900000001
 30
0.0
 40
0.820425
 50
182.13689500000001
 51
267.88813900000002
  0
LINE
  5
196
  8
_________1
 62
     7
 10
71.007499999999993
 20
172.50999999999999
 30
0.0
 11
71.007499999999993
 21
173.095
 31
0.0
  0
LINE
  5
197
  8
_________1
 62
     7
 10
71.297200000000004
 20
172.50999999999999
 30
0.0
 11
71.297200000000004
 21
173.095
 31
0.0
  0
LINE
  5
198
  8
_________1
 62
     7
 10
71.586299999999994
 20
172.50999999999999
 30
0.0
 11
71.586299999999994
 21
173.095
 31
0.0
  0
LINE
  5
199
  8
_________1
 62
     7
 10
71.882499999999993
 20
172.50999999999999
 30
0.0
 11
71.882499999999993
 21
173.095
 31
0.0
  0
LINE
  5
19A
  8
_________1
 62
     7
 10
72.125799999999984
 20
172.50999999999999
 30
0.0
 11
72.125799999999984
 21
173.095
 31
0.0
  0
LINE
  5
19B
  8
_________1
 62
     7
 10
73.393600000000006
 20
172.50999999999999
 30
0.0
 11
73.393600000000006
 21
173.095
 31
0.0
  0
LINE
  5
19C
  8
_________1
 62
     7
 10
73.293999999999997
 20
172.50999999999999
 30
0.0
 11
73.293999999999997
 21
173.095
 31
0.0
  0
LINE
  5
19D
  8
_________1
 62
     7
 10
72.564700000000002
 20
172.50999999999999
 30
0.0
 11
72.564700000000002
 21
173.095
 31
0.0
  0
LINE
  5
19E
  8
_________1
 62
     7
 10
72.355900000000005
 20
172.50999999999999
 30
0.0
 11
72.355900000000005
 21
173.095
 31
0.0
  0
LINE
  5
19F
  8
_________1
 62
     7
 10
72.777600000000007
 20
172.50999999999999
 30
0.0
 11
72.777600000000007
 21
173.095
 31
0.0
  0
LINE
  5
1A0
  8
_________1
 62
     7
 10
72.970500000000001
 20
172.50999999999999
 30
0.0
 11
72.970500000000001
 21
173.095
 31
0.0
  0
LINE
  5
1A1
  8
_________1
 62
     7
 10
73.147900000000007
 20
172.50999999999999
 30
0.0
 11
73.147900000000007
 21
173.095
 31
0.0
  0
LINE
  5
1A2
  8
_________1
 62
     7
 10
73.486599999999996
 20
172.50999999999999
 30
0.0
 11
73.657799999999995
 21
171.87700000000001
 31
0.0
  0
LINE
  5
1A3
  8
_________1
 62
     7
 10
73.486599999999996
 20
172.50999999999999
 30
0.0
 11
70.684299999999993
 21
172.50999999999999
 31
0.0
  0
LINE
  5
1A4
  8
_________1
 62
     7
 10
73.486599999999996
 20
172.50999999999999
 30
0.0
 11
73.486599999999996
 21
173.095
 31
0.0
  0
LINE
  5
1A5
  8
_________1
 62
     7
 10
73.486599999999996
 20
173.095
 30
0.0
 11
70.684299999999993
 21
173.095
 31
0.0
  0
LINE
  5
1A6
  8
_________1
 62
     7
 10
72.855400000000003
 20
173.714
 30
0.0
 11
70.684299999999993
 21
173.714
 31
0.0
  0
LINE
  5
1A7
  8
_________1
 62
     7
 10
73.345699999999994
 20
173.095
 30
0.0
 11
73.345699999999994
 21
173.22399999999999
 31
0.0
  0
ARC
  5
1A8
  8
_________1
 62
     7
 10
72.836466999999999
 20
173.20495
 30
0.0
 40
0.5095850000000001
 50
2.174544
 51
87.865724
  0
ENDBLK
  5
1A9
  8
_________1
  0
BLOCK
  8
_________1
  2
AIGNBL02010004
 70
     0
 10
0.0
 20
0.0
 30
0.0
  3
AIGNBL02010004
  1

  0
INSERT
  5
1AC
  8
_________1
 62
     7
  2
AIGNBL02020005
 10
0.0
 20
0.0
 30
0.0
  0
ENDBLK
  5
1AD
  8
_________1
  0
BLOCK
  8
_________1
  2
AIGNBL02010006
 70
     0
 10
0.0
 20
0.0
 30
0.0
  3
AIGNBL02010006
  1

  0
LINE
  5
1B0
  8
_________1
 62
     7
 10
-30.697500000000002
 20
154.63900000000001
 30
0.0
 11
-31.290099999999999
 21
152.42699999999999
 31
0.0
  0
LINE
  5
1B1
  8
_________1
 62
     7
 10
-31.290099999999999
 20
152.42699999999999
 30
0.0
 11
-31.8827
 21
154.63900000000001
 31
0.0
  0
LINE
  5
1B2
  8
_________1
 62
     7
 10
-31.8827
 20
154.63900000000001
 30
0.0
 11
-30.697500000000002
 21
154.63900000000001
 31
0.0
  0
ENDBLK
  5
1B3
  8
_________1
  0
BLOCK
  8
_________1
  2
AIGNBL02010007
 70
     0
 10
0.0
 20
0.0
 30
0.0
  3
AIGNBL02010007
  1

  0
LINE
  5
1B6
  8
_________1
 62
     7
 10
-31.874400000000001
 20
155.64400000000001
 30
0.0
 11
-31.282499999999999
 21
157.85499999999999
 31
0.0
  0
LINE
  5
1B7
  8
_________1
 62
     7
 10
-31.282499999999999
 20
157.85499999999999
 30
0.0
 11
-30.690000000000001
 21
155.64400000000001
 31
0.0
  0
LINE
  5
1B8
  8
_________1
 62
     7
 10
-30.690000000000001
 20
155.64400000000001
 30
0.0
 11
-31.874400000000001
 21
155.64400000000001
 31
0.0
  0
ENDBLK
  5
1B9
  8
_________1
  0
BLOCK
  8
_________1
  2
AIGNBL02010008
 70
     0
 10
0.0
 20
0.0
 30
0.0
  3
AIGNBL02010008
  1

  0
LINE
  5
1BC
  8
_________1
 62
     7
 10
-55.7136
 20
149.64400000000001
 30
0.0
 11
-55.121699999999997
 21
151.85499999999999
 31
0.0
  0
LINE
  5
1BD
  8
_________1
 62
     7
 10
-55.121699999999997
 20
151.85499999999999
 30
0.0
 11
-54.5291
 21
149.64400000000001
 31
0.0
  0
LINE
  5
1BE
  8
_________1
 62
     7
 10
-54.5291
 20
149.64400000000001
 30
0.0
 11
-55.7136
 21
149.64400000000001
 31
0.0
  0
LINE
  5
1BF
  8
_________1
 62
     7
 10
-57.22529999999999
 20
126.404
 30
0.0
 11
-44.800800000000002
 21
126.404
 31
0.0
  0
LINE
  5
1C0
  8
_________1
 62
     7
 10
-40.654299999999999
 20
126.404
 30
0.0
 11
-36.145099999999999
 21
126.404
 31
0.0
  0
LINE
  5
1C1
  8
_________1
 62
     7
 10
-55.128599999999992
 20
151.828
 30
0.0
 11
-55.128599999999992
 21
147.672
 31
0.0
  0
ENDBLK
  5
1C2
  8
_________1
  0
BLOCK
  8
_________1
  2
AIGNBL02010009
 70
     0
 10
0.0
 20
0.0
 30
0.0
  3
AIGNBL02010009
  1

  0
LINE
  5
1C5
  8
_________1
 62
     7
 10
-31.282499999999999
 20
157.85499999999999
 30
0.0
 11
-31.282499999999999
 21
152.45500000000001
 31
0.0
  0
ENDBLK
  5
1C6
  8
_________1
  0
BLOCK
  8
_________1
  2
AIGNBL0201000A
 70
     0
 10
0.0
 20
0.0
 30
0.0
  3
AIGNBL0201000A
  1

  0
INSERT
  5
1C9
  8
_________1
 62
     7
  2
AIGNBL0202000B
 10
0.0
 20
0.0
 30
0.0
  0
ENDBLK
  5
1CA
  8
_________1
  0
BLOCK
  8
_________1
  2
AIGNBL0201000C
 70
     0
 10
0.0
 20
0.0
 30
0.0
  3
AIGNBL0201000C
  1

  0
INSERT
  5
1CD
  8
_________1
 62
     7
  2
AIGNBL0202000D
 10
0.0
 20
0.0
 30
0.0
  0
ENDBLK
  5
1CE
  8
_________1
  0
BLOCK
  8
_________1
  2
AIGNBL0201000E
 70
     0
 10
0.0
 20
0.0
 30
0.0
  3
AIGNBL0201000E
  1

  0
LINE
  5
1D1
  8
_________1
 62
     7
 10
-25.4389
 20
101.381
 30
0.0
 11
-23.227799999999998
 21
101.973
 31
0.0
  0
LINE
  5
1D2
  8
_________1
 62
     7
 10
-23.227799999999998
 20
101.973
 30
0.0
 11
-25.4389
 21
102.566
 31
0.0
  0
LINE
  5
1D3
  8
_________1
 62
     7
 10
-25.4389
 20
102.566
 30
0.0
 11
-25.4389
 21
101.381
 31
0.0
  0
LINE
  5
1D4
  8
_________1
 62
     7
 10
-23.255400000000002
 20
101.96599999999999
 30
0.0
 11
-28.8048
 21
101.96599999999999
 31
0.0
  0
ENDBLK
  5
1D5
  8
_________1
  0
BLOCK
  8
_________1
  2
AIGNBL0201000F
 70
     0
 10
0.0
 20
0.0
 30
0.0
  3
AIGNBL0201000F
  1

  0
LINE
  5
1D8
  8
_________1
 62
     7
 10
-20.016999999999999
 20
102.551
 30
0.0
 11
-22.227699999999999
 21
101.959
 31
0.0
  0
LINE
  5
1D9
  8
_________1
 62
     7
 10
-22.227699999999999
 20
101.959
 30
0.0
 11
-20.016999999999999
 21
101.366
 31
0.0
  0
LINE
  5
1DA
  8
_________1
 62
     7
 10
-20.016999999999999
 20
101.366
 30
0.0
 11
-20.016999999999999
 21
102.551
 31
0.0
  0
LINE
  5
1DB
  8
_________1
 62
     7
 10
-14.624000000000001
 20
101.96599999999999
 30
0.0
 11
-22.2012
 21
101.96599999999999
 31
0.0
  0
ENDBLK
  5
1DC
  8
_________1
  0
BLOCK
  8
_________1
  2
AIGNBL02010010
 70
     0
 10
0.0
 20
0.0
 30
0.0
  3
AIGNBL02010010
  1

  0
LINE
  5
1DF
  8
_________1
 62
     7
 10
-7.53878
 20
153.69799999999989
 30
0.0
 11
-5.3280500000000002
 21
154.28999999999999
 31
0.0
  0
LINE
  5
1E0
  8
_________1
 62
     7
 10
-5.3280500000000002
 20
154.28999999999999
 30
0.0
 11
-7.53878
 21
154.88300000000001
 31
0.0
  0
LINE
  5
1E1
  8
_________1
 62
     7
 10
-7.53878
 20
154.88300000000001
 30
0.0
 11
-7.53878
 21
153.69799999999989
 31
0.0
  0
LINE
  5
1E2
  8
_________1
 62
     7
 10
-5.3552599999999986
 20
154.28299999999999
 30
0.0
 11
-10.904999999999999
 21
154.28299999999999
 31
0.0
  0
ENDBLK
  5
1E3
  8
_________1
  0
BLOCK
  8
_________1
  2
AIGNBL02010011
 70
     0
 10
0.0
 20
0.0
 30
0.0
  3
AIGNBL02010011
  1

  0
LINE
  5
1E6
  8
_________1
 62
     7
 10
2.083429999999999
 20
154.86799999999999
 30
0.0
 11
-0.127297
 21
154.27600000000001
 31
0.0
  0
LINE
  5
1E7
  8
_________1
 62
     7
 10
-0.127297
 20
154.27600000000001
 30
0.0
 11
2.083429999999999
 21
153.68299999999999
 31
0.0
  0
LINE
  5
1E8
  8
_________1
 62
     7
 10
2.083429999999999
 20
153.68299999999999
 30
0.0
 11
2.083429999999999
 21
154.86799999999999
 31
0.0
  0
LINE
  5
1E9
  8
_________1
 62
     7
 10
12.1394
 20
154.28299999999999
 30
0.0
 11
-0.10077
 21
154.28299999999999
 31
0.0
  0
ENDBLK
  5
1EA
  8
_________1
  0
BLOCK
  8
_________1
  2
AIGNBL02010012
 70
     0
 10
0.0
 20
0.0
 30
0.0
  3
AIGNBL02010012
  1

  0
LINE
  5
1ED
  8
_________1
 62
     7
 10
-3.2854399999999999
 20
52.685499999999998
 30
0.0
 11
-3.7594799999999999
 21
54.454900000000002
 31
0.0
  0
LINE
  5
1EE
  8
_________1
 62
     7
 10
-3.7594799999999999
 20
54.454900000000002
 30
0.0
 11
-4.2342199999999988
 21
52.685499999999998
 31
0.0
  0
LINE
  5
1EF
  8
_________1
 62
     7
 10
-4.2342199999999988
 20
52.685499999999998
 30
0.0
 11
-3.2854399999999999
 21
52.685499999999998
 31
0.0
  0
LINE
  5
1F0
  8
_________1
 62
     7
 10
-4.2225099999999989
 20
57.305399999999999
 30
0.0
 11
-3.7484599999999988
 21
55.536000000000001
 31
0.0
  0
LINE
  5
1F1
  8
_________1
 62
     7
 10
-3.7484599999999988
 20
55.536000000000001
 30
0.0
 11
-3.27441
 21
57.305399999999999
 31
0.0
  0
LINE
  5
1F2
  8
_________1
 62
     7
 10
-3.27441
 20
57.305399999999999
 30
0.0
 11
-4.2225099999999989
 21
57.305399999999999
 31
0.0
  0
LINE
  5
1F3
  8
_________1
 62
     7
 10
-3.7539699999999989
 20
61.686500000000002
 30
0.0
 11
-3.7539699999999989
 21
51.103499999999997
 31
0.0
  0
ENDBLK
  5
1F4
  8
_________1
  0
BLOCK
  8
_________1
  2
AIGNBL02010013
 70
     0
 10
0.0
 20
0.0
 30
0.0
  3
AIGNBL02010013
  1

  0
LINE
  5
1F7
  8
_________1
 62
     7
 10
-27.291399999999999
 20
49.607599999999998
 30
0.0
 11
-26.6692
 21
51.330500000000001
 31
0.0
  0
LINE
  5
1F8
  8
_________1
 62
     7
 10
-26.6692
 20
51.330500000000001
 30
0.0
 11
-28.068899999999999
 21
50.148800000000001
 31
0.0
  0
LINE
  5
1F9
  8
_________1
 62
     7
 10
-28.068899999999999
 20
50.148800000000001
 30
0.0
 11
-27.291399999999999
 21
49.607599999999998
 31
0.0
  0
ARC
  5
1FA
  8
_________1
 62
     7
 10
4122.4911159999992
 20
-2839.8974979999998
 30
0.0
 40
5057.0941950000006
 50
145.13113000000001
 51
145.17095399999999
  0
ENDBLK
  5
1FB
  8
_________1
  0
BLOCK
  8
_________1
  2
AIGNBL02010014
 70
     0
 10
0.0
 20
0.0
 30
0.0
  3
AIGNBL02010014
  1

  0
LINE
  5
1FE
  8
_________1
 62
     7
 10
-18.199300000000001
 20
73.848200000000006
 30
0.0
 11
-16.4299
 21
74.322199999999995
 31
0.0
  0
LINE
  5
1FF
  8
_________1
 62
     7
 10
-16.4299
 20
74.322199999999995
 30
0.0
 11
-18.199300000000001
 21
74.796300000000002
 31
0.0
  0
LINE
  5
200
  8
_________1
 62
     7
 10
-18.199300000000001
 20
74.796300000000002
 30
0.0
 11
-18.199300000000001
 21
73.848200000000006
 31
0.0
  0
LINE
  5
201
  8
_________1
 62
     7
 10
-27.2562
 20
74.784899999999993
 30
0.0
 11
-29.025300000000001
 21
74.3108
 31
0.0
  0
LINE
  5
202
  8
_________1
 62
     7
 10
-29.025300000000001
 20
74.3108
 30
0.0
 11
-27.2562
 21
73.836100000000002
 31
0.0
  0
LINE
  5
203
  8
_________1
 62
     7
 10
-27.2562
 20
73.836100000000002
 30
0.0
 11
-27.2562
 21
74.784899999999993
 31
0.0
  0
LINE
  5
204
  8
_________1
 62
     7
 10
-16.427499999999998
 20
74.316299999999998
 30
0.0
 11
-29.027699999999999
 21
74.316299999999998
 31
0.0
  0
ENDBLK
  5
205
  8
_________1
  0
BLOCK
  8
_________1
  2
AIGNBL02010015
 70
     0
 10
0.0
 20
0.0
 30
0.0
  3
AIGNBL02010015
  1

  0
LINE
  5
208
  8
_________1
 62
     7
 10
-33.10840000000001
 20
67.419600000000003
 30
0.0
 11
-33.582500000000003
 21
69.188999999999993
 31
0.0
  0
LINE
  5
209
  8
_________1
 62
     7
 10
-33.582500000000003
 20
69.188999999999993
 30
0.0
 11
-34.0565
 21
67.419600000000003
 31
0.0
  0
LINE
  5
20A
  8
_________1
 62
     7
 10
-34.0565
 20
67.419600000000003
 30
0.0
 11
-33.10840000000001
 21
67.419600000000003
 31
0.0
  0
LINE
  5
20B
  8
_________1
 62
     7
 10
-34.044800000000002
 20
63.735399999999998
 30
0.0
 11
-33.570799999999998
 21
61.965899999999998
 31
0.0
  0
LINE
  5
20C
  8
_________1
 62
     7
 10
-33.570799999999998
 20
61.965899999999998
 30
0.0
 11
-33.096699999999998
 21
63.735399999999998
 31
0.0
  0
LINE
  5
20D
  8
_________1
 62
     7
 10
-33.096699999999998
 20
63.735399999999998
 30
0.0
 11
-34.044800000000002
 21
63.735399999999998
 31
0.0
  0
LINE
  5
20E
  8
_________1
 62
     7
 10
-33.576999999999998
 20
69.191000000000003
 30
0.0
 11
-33.576999999999998
 21
61.8705
 31
0.0
  0
ENDBLK
  5
20F
  8
_________1
  0
BLOCK
  8
_________1
  2
AIGNBL02010016
 70
     0
 10
0.0
 20
0.0
 30
0.0
  3
AIGNBL02010016
  1

  0
LINE
  5
212
  8
_________1
 62
     7
 10
-20.9193
 20
43.7072
 30
0.0
 11
-22.688700000000001
 21
43.2331
 31
0.0
  0
LINE
  5
213
  8
_________1
 62
     7
 10
-22.688700000000001
 20
43.2331
 30
0.0
 11
-20.9193
 21
42.759099999999989
 31
0.0
  0
LINE
  5
214
  8
_________1
 62
     7
 10
-20.9193
 20
42.759099999999989
 30
0.0
 11
-20.9193
 21
43.7072
 31
0.0
  0
LINE
  5
215
  8
_________1
 62
     7
 10
17.504100000000001
 20
42.770800000000001
 30
0.0
 11
19.273499999999999
 21
43.244799999999998
 31
0.0
  0
LINE
  5
216
  8
_________1
 62
     7
 10
19.273499999999999
 20
43.244799999999998
 30
0.0
 11
17.504100000000001
 21
43.718899999999991
 31
0.0
  0
LINE
  5
217
  8
_________1
 62
     7
 10
17.504100000000001
 20
43.718899999999991
 30
0.0
 11
17.504100000000001
 21
42.770800000000001
 31
0.0
  0
LINE
  5
218
  8
_________1
 62
     7
 10
-22.667000000000002
 20
43.239299999999993
 30
0.0
 11
19.276299999999999
 21
43.239299999999993
 31
0.0
  0
ENDBLK
  5
219
  8
_________1
  0
BLOCK
  8
_________1
  2
AIGNBL02010017
 70
     0
 10
0.0
 20
0.0
 30
0.0
  3
AIGNBL02010017
  1

  0
INSERT
  5
21C
  8
_________1
 62
     7
  2
AIGNBL02020018
 10
0.0
 20
0.0
 30
0.0
  0
ENDBLK
  5
21D
  8
_________1
  0
BLOCK
  8
_________1
  2
AIGNBL02010019
 70
     0
 10
0.0
 20
0.0
 30
0.0
  3
AIGNBL02010019
  1

  0
INSERT
  5
220
  8
_________1
 62
     7
  2
AIGNBL0202001A
 10
0.0
 20
0.0
 30
0.0
  0
ENDBLK
  5
221
  8
_________1
  0
BLOCK
  8
_________1
  2
AIGNBL0201001B
 70
     0
 10
0.0
 20
0.0
 30
0.0
  3
AIGNBL0201001B
  1

  0
LINE
  5
224
  8
_________1
 62
     7
 10
85.563400000000001
 20
160.066
 30
0.0
 11
84.971599999999995
 21
157.85499999999999
 31
0.0
  0
LINE
  5
225
  8
_________1
 62
     7
 10
84.971599999999995
 20
157.85499999999999
 30
0.0
 11
84.378999999999991
 21
160.066
 31
0.0
  0
LINE
  5
226
  8
_________1
 62
     7
 10
84.378999999999991
 20
160.066
 30
0.0
 11
85.563400000000001
 21
160.066
 31
0.0
  0
LINE
  5
227
  8
_________1
 62
     7
 10
84.393500000000003
 20
197.64400000000001
 30
0.0
 11
84.986000000000004
 21
199.85499999999999
 31
0.0
  0
LINE
  5
228
  8
_________1
 62
     7
 10
84.986000000000004
 20
199.85499999999999
 30
0.0
 11
85.578599999999994
 21
197.64400000000001
 31
0.0
  0
LINE
  5
229
  8
_________1
 62
     7
 10
85.578599999999994
 20
197.64400000000001
 30
0.0
 11
84.393500000000003
 21
197.64400000000001
 31
0.0
  0
ENDBLK
  5
22A
  8
_________1
  0
BLOCK
  8
_________1
  2
AIGNBL0201001C
 70
     0
 10
0.0
 20
0.0
 30
0.0
  3
AIGNBL0201001C
  1

  0
LINE
  5
22D
  8
_________1
 62
     7
 10
77.901899999999983
 20
157.85499999999999
 30
0.0
 11
85.759500000000003
 21
157.85499999999999
 31
0.0
  0
ENDBLK
  5
22E
  8
_________1
  0
BLOCK
  8
_________1
  2
AIGNBL0201001D
 70
     0
 10
0.0
 20
0.0
 30
0.0
  3
AIGNBL0201001D
  1

  0
LINE
  5
231
  8
_________1
 62
     7
 10
51.055100000000003
 20
160.066
 30
0.0
 11
50.463200000000001
 21
157.85499999999999
 31
0.0
  0
LINE
  5
232
  8
_________1
 62
     7
 10
50.463200000000001
 20
157.85499999999999
 30
0.0
 11
49.870699999999999
 21
160.066
 31
0.0
  0
LINE
  5
233
  8
_________1
 62
     7
 10
49.870699999999999
 20
160.066
 30
0.0
 11
51.055100000000003
 21
160.066
 31
0.0
  0
LINE
  5
234
  8
_________1
 62
     7
 10
49.885100000000001
 20
183.28999999999999
 30
0.0
 11
50.477699999999992
 21
185.501
 31
0.0
  0
LINE
  5
235
  8
_________1
 62
     7
 10
50.477699999999992
 20
185.501
 30
0.0
 11
51.0702
 21
183.28999999999999
 31
0.0
  0
LINE
  5
236
  8
_________1
 62
     7
 10
51.0702
 20
183.28999999999999
 30
0.0
 11
49.885100000000001
 21
183.28999999999999
 31
0.0
  0
ENDBLK
  5
237
  8
_________1
  0
BLOCK
  8
_________1
  2
AIGNBL0201001E
 70
     0
 10
0.0
 20
0.0
 30
0.0
  3
AIGNBL0201001E
  1

  0
LINE
  5
23A
  8
_________1
 62
     7
 10
34.468899999999998
 20
160.066
 30
0.0
 11
33.877000000000002
 21
157.85499999999999
 31
0.0
  0
LINE
  5
23B
  8
_________1
 62
     7
 10
33.877000000000002
 20
157.85499999999999
 30
0.0
 11
33.284500000000001
 21
160.066
 31
0.0
  0
LINE
  5
23C
  8
_________1
 62
     7
 10
33.284500000000001
 20
160.066
 30
0.0
 11
34.468899999999998
 21
160.066
 31
0.0
  0
LINE
  5
23D
  8
_________1
 62
     7
 10
33.298999999999999
 20
183.64400000000001
 30
0.0
 11
33.891500000000001
 21
185.85499999999999
 31
0.0
  0
LINE
  5
23E
  8
_________1
 62
     7
 10
33.891500000000001
 20
185.85499999999999
 30
0.0
 11
34.484099999999998
 21
183.64400000000001
 31
0.0
  0
LINE
  5
23F
  8
_________1
 62
     7
 10
34.484099999999998
 20
183.64400000000001
 30
0.0
 11
33.298999999999999
 21
183.64400000000001
 31
0.0
  0
ENDBLK
  5
240
  8
_________1
  0
BLOCK
  8
_________1
  2
AIGNBL0201001F
 70
     0
 10
0.0
 20
0.0
 30
0.0
  3
AIGNBL0201001F
  1

  0
LINE
  5
243
  8
_________1
 62
     7
 10
55.357300000000002
 20
199.85499999999999
 30
0.0
 11
85.911799999999985
 21
199.85499999999999
 31
0.0
  0
ENDBLK
  5
244
  8
_________1
  0
BLOCK
  8
_________1
  2
AIGNBL02010020
 70
     0
 10
0.0
 20
0.0
 30
0.0
  3
AIGNBL02010020
  1

  0
LINE
  5
247
  8
_________1
 62
     7
 10
32.6843
 20
157.85499999999999
 30
0.0
 11
63.283900000000003
 21
157.85499999999999
 31
0.0
  0
ENDBLK
  5
248
  8
_________1
  0
BLOCK
  8
_________1
  2
AIGNBL02010021
 70
     0
 10
0.0
 20
0.0
 30
0.0
  3
AIGNBL02010021
  1

  0
INSERT
  5
24B
  8
_________1
 62
     7
  2
AIGNBL02020022
 10
0.0
 20
0.0
 30
0.0
  0
ENDBLK
  5
24C
  8
_________1
  0
BLOCK
  8
_________1
  2
AIGNBL02010023
 70
     0
 10
0.0
 20
0.0
 30
0.0
  3
AIGNBL02010023
  1

  0
INSERT
  5
24F
  8
_________1
 62
     7
  2
AIGNBL02020024
 10
0.0
 20
0.0
 30
0.0
  0
ENDBLK
  5
250
  8
_________1
  0
BLOCK
  8
_________1
  2
AIGNBL02010025
 70
     0
 10
0.0
 20
0.0
 30
0.0
  3
AIGNBL02010025
  1

  0
INSERT
  5
253
  8
_________1
 62
     7
  2
AIGNBL02020026
 10
0.0
 20
0.0
 30
0.0
  0
ENDBLK
  5
254
  8
_________1
  0
BLOCK
  8
_________1
  2
AIGNBL02010027
 70
     0
 10
0.0
 20
0.0
 30
0.0
  3
AIGNBL02010027
  1

  0
INSERT
  5
257
  8
_________1
 62
     7
  2
AIGNBL02020028
 10
0.0
 20
0.0
 30
0.0
  0
ENDBLK
  5
258
  8
_________1
  0
BLOCK
  8
_________1
  2
AIGNBL02010029
 70
     0
 10
0.0
 20
0.0
 30
0.0
  3
AIGNBL02010029
  1

  0
INSERT
  5
25B
  8
_________1
 62
     7
  2
AIGNBL0202002A
 10
0.0
 20
0.0
 30
0.0
  0
ENDBLK
  5
25C
  8
_________1
  0
BLOCK
  8
_________1
  2
AIGNBL0201002B
 70
     0
 10
0.0
 20
0.0
 30
0.0
  3
AIGNBL0201002B
  1

  0
INSERT
  5
25F
  8
_________1
 62
     7
  2
AIGNBL0202002C
 10
0.0
 20
0.0
 30
0.0
  0
ENDBLK
  5
260
  8
_________1
  0
BLOCK
  8
_________1
  2
AIGNBL0201002D
 70
     0
 10
0.0
 20
0.0
 30
0.0
  3
AIGNBL0201002D
  1

  0
INSERT
  5
263
  8
_________1
 62
     7
  2
AIGNBL0202002E
 10
0.0
 20
0.0
 30
0.0
  0
ENDBLK
  5
264
  8
_________1
  0
BLOCK
  8
_________1
  2
AIGNBL0201002F
 70
     0
 10
0.0
 20
0.0
 30
0.0
  3
AIGNBL0201002F
  1

  0
INSERT
  5
267
  8
_________1
 62
     7
  2
AIGNBL02020030
 10
0.0
 20
0.0
 30
0.0
  0
ENDBLK
  5
268
  8
_________1
  0
BLOCK
  8
_________1
  2
AIGNBL02010031
 70
     0
 10
0.0
 20
0.0
 30
0.0
  3
AIGNBL02010031
  1

  0
INSERT
  5
26B
  8
_________1
 62
     7
  2
AIGNBL02020032
 10
0.0
 20
0.0
 30
0.0
  0
ENDBLK
  5
26C
  8
_________1
  0
BLOCK
  8
_________1
  2
AIGNBL02010033
 70
     0
 10
0.0
 20
0.0
 30
0.0
  3
AIGNBL02010033
  1

  0
INSERT
  5
26F
  8
_________1
 62
     7
  2
AIGNBL02020034
 10
0.0
 20
0.0
 30
0.0
  0
ENDBLK
  5
270
  8
_________1
  0
BLOCK
  8
_________1
  2
AIGNBL02010035
 70
     0
 10
0.0
 20
0.0
 30
0.0
  3
AIGNBL02010035
  1

  0
INSERT
  5
273
  8
_________1
 62
     7
  2
AIGNBL02020036
 10
0.0
 20
0.0
 30
0.0
  0
ENDBLK
  5
274
  8
_________1
  0
BLOCK
  8
_________1
  2
AIGNBL02010037
 70
     0
 10
0.0
 20
0.0
 30
0.0
  3
AIGNBL02010037
  1

  0
INSERT
  5
277
  8
_________1
 62
     7
  2
AIGNBL02020038
 10
0.0
 20
0.0
 30
0.0
  0
ENDBLK
  5
278
  8
_________1
  0
BLOCK
  8
_________2
  2
AIGNBL03010002
 70
     0
 10
0.0
 20
0.0
 30
0.0
  3
AIGNBL03010002
  1

  0
LINE
  5
27B
  8
_________2
 62
     7
 10
186.649
 20
51.052199999999999
 30
0.0
 11
184.46299999999999
 21
51.052199999999999
 31
0.0
  0
LINE
  5
27C
  8
_________2
 62
     7
 10
187.142
 20
51.052199999999999
 30
0.0
 11
186.88900000000001
 21
51.052199999999999
 31
0.0
  0
LINE
  5
27D
  8
_________2
 62
     7
 10
187.63399999999999
 20
51.052199999999999
 30
0.0
 11
190.559
 21
51.052199999999999
 31
0.0
  0
LINE
  5
27E
  8
_________2
 62
     7
 10
187.142
 20
51.052199999999999
 30
0.0
 11
187.39400000000001
 21
51.052199999999999
 31
0.0
  0
LINE
  5
27F
  8
_________2
 62
     7
 10
180.745
 20
51.052199999999999
 30
0.0
 11
178.55799999999999
 21
51.052199999999999
 31
0.0
  0
LINE
  5
280
  8
_________2
 62
     7
 10
181.23699999999999
 20
51.052199999999999
 30
0.0
 11
180.98599999999999
 21
51.052199999999999
 31
0.0
  0
LINE
  5
281
  8
_________2
 62
     7
 10
181.23699999999999
 20
51.544800000000002
 30
0.0
 11
181.23699999999999
 21
53.7318
 31
0.0
  0
LINE
  5
282
  8
_________2
 62
     7
 10
181.23699999999999
 20
51.052199999999999
 30
0.0
 11
181.23699999999999
 21
51.304299999999998
 31
0.0
  0
LINE
  5
283
  8
_________2
 62
     7
 10
181.72999999999999
 20
51.052199999999999
 30
0.0
 11
183.917
 21
51.052199999999999
 31
0.0
  0
LINE
  5
284
  8
_________2
 62
     7
 10
181.23699999999999
 20
51.052199999999999
 30
0.0
 11
181.489
 21
51.052199999999999
 31
0.0
  0
LINE
  5
285
  8
_________2
 62
     7
 10
181.23699999999999
 20
50.560200000000002
 30
0.0
 11
181.23699999999999
 21
48.373199999999997
 31
0.0
  0
LINE
  5
286
  8
_________2
 62
     7
 10
181.23699999999999
 20
51.052199999999999
 30
0.0
 11
181.23699999999999
 21
50.800699999999999
 31
0.0
  0
LINE
  5
287
  8
_________2
 62
     7
 10
184.94799999999989
 20
49.832599999999999
 30
0.0
 11
190.12599999999989
 21
48.9679
 31
0.0
  0
LINE
  5
288
  8
_________2
 62
     7
 10
184.94799999999989
 20
52.271700000000003
 30
0.0
 11
190.12599999999989
 21
53.137099999999997
 31
0.0
  0
LINE
  5
289
  8
_________2
 62
     7
 10
190.12599999999989
 20
48.9679
 30
0.0
 11
190.12599999999989
 21
53.137099999999997
 31
0.0
  0
LINE
  5
28A
  8
_________2
 62
     7
 10
184.94799999999989
 20
49.832599999999999
 30
0.0
 11
184.94799999999989
 21
52.271700000000003
 31
0.0
  0
ARC
  5
28B
  8
_________2
 62
     7
 10
181.190651
 20
51.004810999999989
 30
0.0
 40
1.2677780000000001
 50
2.1403449999999991
 51
87.892005999999995
  0
ARC
  5
28C
  8
_________2
 62
     7
 10
181.28420199999999
 20
51.005241999999988
 30
0.0
 40
1.2673579999999991
 50
92.121564999999975
 51
177.87840600000001
  0
ARC
  5
28D
  8
_________2
 62
     7
 10
181.28381400000001
 20
51.098689
 30
0.0
 40
1.2669559999999991
 50
182.10473099999999
 51
267.89529900000002
  0
ARC
  5
28E
  8
_________2
 62
     7
 10
181.19038399999999
 20
51.099775000000001
 30
0.0
 40
1.268054
 50
272.11960599999998
 51
357.84804300000002
  0
ARC
  5
28F
  8
_________2
 62
     7
 10
181.23728399999999
 20
51.05215900000001
 30
0.0
 40
2.0849849999999992
 50
0.00001
 51
89.999980000000008
  0
ARC
  5
290
  8
_________2
 62
     7
 10
181.317331
 20
50.972827000000002
 30
0.0
 40
2.1657969999999991
 50
92.118111999999996
 51
177.90079600000001
  0
ARC
  5
291
  8
_________2
 62
     7
 10
181.31728799999999
 20
51.132162999999998
 30
0.0
 40
2.1657779999999991
 50
182.11700400000001
 51
267.88302499999998
  0
ARC
  5
292
  8
_________2
 62
     7
 10
181.15730300000001
 20
51.132855999999997
 30
0.0
 40
2.166469999999999
 50
272.115725
 51
357.86534699999999
  0
ENDBLK
  5
293
  8
_________2
  0
ENDSEC
  0
SECTION
  2
ENTITIES
  0
TEXT
  5
294
  8
____
 62
     7
 10
-57.22529999999999
 20
127.104
 30
0.0
 40
3.0923400000000001
  1
NPT 1/2
 41
0.5
  0
TEXT
  5
295
  8
____
 62
     7
 10
-32.199599999999997
 20
151.524575
 30
0.0
 40
3.0923400000000001
  1
max.27
 50
90.0
 41
0.5
 72
     1
 11
-32.199599999999997
 21
155.38999999999999
 31
0.0
  0
TEXT
  5
296
  8
____
 62
     7
 10
-56.135899999999999
 20
161.38714999999999
 30
0.0
 40
3.0923400000000001
  1
max.45
 50
90.0
 41
0.5
 72
     2
 11
-56.135899999999999
 21
169.11799999999999
 31
0.0
  0
TEXT
  5
297
  8
____
 62
     7
 10
-62.444299999999998
 20
146.96652499999999
 30
0.0
 40
3.0923400000000001
  1
96
 50
90.0
 41
0.5
 72
     1
 11
-62.444299999999998
 21
148.255
 31
0.0
  0
TEXT
  5
298
  8
____
 62
     7
 10
-17.200949999999999
 20
102.666
 30
0.0
 40
3.0923400000000001
  1
%%c5
 41
0.5
 72
     2
 11
-14.624000000000001
 21
102.666
 31
0.0
  0
TEXT
  5
299
  8
____
 62
     7
 10
8.0162800000000001
 20
154.983
 30
0.0
 40
3.0923400000000001
  1
%%c26
 41
0.5
 72
     2
 11
12.1394
 21
154.983
 31
0.0
  0
TEXT
  5
29A
  8
____
 62
     7
 10
-3.3818975
 20
44.122999999999998
 30
0.0
 40
3.0923400000000001
  1
210
 41
0.5
 72
     1
 11
-1.7068799999999991
 21
44.122999999999998
 31
0.0
  0
TEXT
  5
29B
  8
____
 62
     7
 10
-34.638100000000001
 20
62.186422499999999
 30
0.0
 40
3.0923400000000001
  1
max.50
 50
90.0
 41
0.5
 72
     1
 11
-34.638100000000001
 21
65.923000000000002
 31
0.0
  0
TEXT
  5
29C
  8
____
 62
     7
 10
-38.331899999999997
 20
49.015099999999997
 30
0.0
 40
3.0923400000000001
  1
G1 1/4
 41
0.5
  0
TEXT
  5
29D
  8
____
 62
     7
 10
-24.95966
 20
75.016400000000004
 30
0.0
 40
3.0923400000000001
  1
%%c63
 41
0.5
 72
     1
 11
-22.898099999999999
 21
75.016400000000004
 31
0.0
  0
TEXT
  5
29E
  8
____
 62
     7
 10
-4.454019999999999
 20
59.109549999999999
 30
0.0
 40
3.0923400000000001
  1
%%c5
 50
90.0
 41
0.5
 72
     2
 11
-4.454019999999999
 21
61.686500000000002
 31
0.0
  0
TEXT
  5
29F
  8
____
 62
     7
 10
-14.27397
 20
215.965
 30
0.0
 40
3.0923400000000001
  1
100
 41
0.5
 72
     1
 11
-12.7278
 21
215.965
 31
0.0
  0
TEXT
  5
2A0
  8
____
 62
     7
 10
-34.274270000000001
 20
215.91
 30
0.0
 40
3.0923400000000001
  1
100
 41
0.5
 72
     1
 11
-32.728099999999998
 21
215.91
 31
0.0
  0
TEXT
  5
2A1
  8
____
 62
     7
 10
40.055529999999997
 20
168.50299999999999
 30
0.0
 40
3.0923400000000001
  1
12%%d
 41
0.5
 72
     1
 11
41.601699999999987
 21
168.50299999999999
 31
0.0
  0
TEXT
  5
2A2
  8
____
 62
     7
 10
83.985600000000005
 20
176.9719825
 30
0.0
 40
3.0923400000000001
  1
210
 50
90.0
 41
0.5
 72
     1
 11
83.985600000000005
 21
178.64699999999999
 31
0.0
  0
TEXT
  5
2A3
  8
____
 62
     7
 10
49.777599999999993
 20
169.84713500000001
 30
0.0
 40
3.0923400000000001
  1
138
 50
90.0
 41
0.5
 72
     1
 11
49.777599999999993
 21
171.6509999999999
 31
0.0
  0
TEXT
  5
2A4
  8
____
 62
     7
 10
32.691200000000002
 20
170.1519825
 30
0.0
 40
3.0923400000000001
  1
140
 50
90.0
 41
0.5
 72
     1
 11
32.691200000000002
 21
171.827
 31
0.0
  0
TEXT
  5
2A5
  8
____
 62
     7
 10
54.367235000000001
 20
204.94399999999999
 30
0.0
 40
3.0923400000000001
  1
145
 41
0.5
 72
     1
 11
56.171100000000003
 21
204.94399999999999
 31
0.0
  0
TEXT
  5
2A6
  8
____
 62
     7
 10
-13.153600000000001
 20
121.92128750000001
 30
0.0
 40
3.0923400000000001
  1
340
 50
90.0
 41
0.5
 72
     1
 11
-13.153600000000001
 21
123.854
 31
0.0
  0
TEXT
  5
2A7
  8
____
 62
     7
 10
-12.73471
 20
180.01900000000001
 30
0.0
 40
3.0923400000000001
  1
%%c62
 41
0.5
 72
     2
 11
-8.6115899999999996
 21
180.01900000000001
 31
0.0
  0
TEXT
  5
2A8
  8
____
 62
     7
 10
-44.832559999999987
 20
180.01900000000001
 30
0.0
 40
3.0923400000000001
  1
%%c62
 41
0.5
 72
     1
 11
-42.770999999999987
 21
180.01900000000001
 31
0.0
  0
TEXT
  5
2A9
  8
____
 62
     7
 10
67.495829999999998
 20
266.24599999999998
 30
0.0
 40
3.0923400000000001
  1
100
 41
0.5
 72
     1
 11
69.042000000000002
 21
266.24599999999998
 31
0.0
  0
TEXT
  5
2AA
  8
____
 62
     7
 10
88.083579999999998
 20
248.15100000000001
 30
0.0
 40
3.0923400000000001
  1
%%c35
 41
0.5
 72
     2
 11
92.206699999999998
 21
248.15100000000001
 31
0.0
  0
TEXT
  5
2AB
  8
____
 62
     7
 10
68.083979999999997
 20
248.15100000000001
 30
0.0
 40
3.0923400000000001
  1
%%c35
 41
0.5
 72
     2
 11
72.207099999999997
 21
248.15100000000001
 31
0.0
  0
TEXT
  5
2AC
  8
____
 62
     7
 10
48.084380000000003
 20
248.15100000000001
 30
0.0
 40
3.0923400000000001
  1
%%c35
 41
0.5
 72
     2
 11
52.207500000000003
 21
248.15100000000001
 31
0.0
  0
TEXT
  5
2AD
  8
____
 62
     7
 10
47.495630000000013
 20
266.19099999999997
 30
0.0
 40
3.0923400000000001
  1
100
 41
0.5
 72
     1
 11
49.041800000000002
 21
266.19099999999997
 31
0.0
  0
TEXT
  5
2AE
  8
____
 62
     7
 10
-14.591713
 20
231.28100000000001
 30
0.0
 40
3.0923400000000001
  1
スパウト
 41
0.5
 72
     1
 11
-11.1386
 21
231.28100000000001
 31
0.0
  0
TEXT
  5
2AF
  8
____
 62
     7
 10
-15.4936455
 20
227.41499999999999
 30
0.0
 40
3.0923400000000001
  1
回転360%%d
 41
0.5
 72
     1
 11
-11.1386
 21
227.41499999999999
 31
0.0
  0
TEXT
  5
2B0
  8
____
 62
     7
 10
52.982541999999988
 20
236.84999999999999
 30
0.0
 40
3.0923400000000001
  1
水栓金具取付穴
 41
0.5
 72
     1
 11
59.270299999999999
 21
236.84999999999999
 31
0.0
  0
TEXT
  5
2B1
  8
____
 62
     7
 10
-77.847200000000001
 20
27.7056
 30
0.0
 40
3.6545800000000002
  1
※国産洗面器とのセットの場合は、国産の排水ヘッド部を別途準備してください。
 41
0.5
  0
TEXT
  5
2B2
  8
____
 62
     7
 10
-77.847200000000001
 20
23.1374
 30
0.0
 40
3.6545800000000002
  1
※止水栓への接続は、別途フレキ管（2本）と接続アダプター（CET19・2個）が必要になります。
 41
0.5
  0
TEXT
  5
2B3
  8
____
 62
     7
 10
-48.819896
 20
134.023
 30
0.0
 40
3.0923400000000001
  1
湯側
 41
0.5
 72
     2
 11
-45.5214
 21
134.023
 31
0.0
  0
TEXT
  5
2B4
  8
____
 62
     7
 10
-4.3519379999999996
 20
134.023
 30
0.0
 40
3.0923400000000001
  1
水側
 41
0.5
 72
     1
 11
-2.70269
 21
134.023
 31
0.0
  0
INSERT
  5
2B5
  8
_________1
 62
     7
  2
AIGNBL02010002
 10
0.0
 20
0.0
 30
0.0
  0
INSERT
  5
2B6
  8
_________1
 62
     7
  2
AIGNBL02010003
 10
0.0
 20
0.0
 30
0.0
  0
LINE
  5
2B7
  8
_________1
 62
     7
 10
68.884299999999996
 20
178.07900000000001
 30
0.0
 11
68.884299999999996
 21
173.81599999999989
 31
0.0
  0
LINE
  5
2B8
  8
_________1
  6
AIGENLINE001
 62
     7
 10
-19.732399999999998
 20
143.654
 30
0.0
 11
-31.2636
 21
143.654
 31
0.0
  0
ARC
  5
2B9
  8
_________1
  6
AIGENLINE001
 62
     7
 10
-28.858360000000001
 20
137.22292400000001
 30
0.0
 40
8.1302950000000003
 50
338.33518800000002
 51
359.97977500000002
  0
ARC
  5
2BA
  8
_________1
  6
AIGENLINE001
 62
     7
 10
-27.550692999999999
 20
136.77744999999999
 30
0.0
 40
6.7508939999999997
 50
320.78290500000003
 51
337.75165800000008
  0
ARC
  5
2BB
  8
_________1
  6
AIGENLINE001
 62
     7
 10
-26.449964999999999
 20
135.94791699999999
 30
0.0
 40
5.373882
 50
303.25517500000001
 51
320.21502299999997
  0
ARC
  5
2BC
  8
_________1
  6
AIGENLINE001
 62
     7
 10
-25.810138999999999
 20
135.057649
 30
0.0
 40
4.2788040000000001
 50
275.46905500000003
 51
302.62780900000001
  0
ARC
  5
2BD
  8
_________1
  6
AIGENLINE001
 62
     7
 10
-25.722605999999999
 20
134.719041
 30
0.0
 40
3.9337769999999992
 50
269.99222700000001
 51
274.66994599999998
  0
ARC
  5
2BE
  8
_________1
  6
AIGENLINE001
 62
     7
 10
-25.715579000000002
 20
134.819232
 30
0.0
 40
4.033974999999999
 50
238.32092399999999
 51
269.89261699999997
  0
ARC
  5
2BF
  8
_________1
  6
AIGENLINE001
 62
     7
 10
-25.274944000000001
 20
135.62825699999999
 30
0.0
 40
4.9541129999999987
 50
220.58451099999999
 51
238.89788899999999
  0
ARC
  5
2C0
  8
_________1
  6
AIGENLINE001
 62
     7
 10
-24.329249000000001
 20
136.51392100000001
 30
0.0
 40
6.2487669999999991
 50
202.877351
 51
221.11059800000001
  0
ARC
  5
2C1
  8
_________1
  6
AIGENLINE001
 62
     7
 10
-23.070965000000001
 20
137.119643
 30
0.0
 40
7.6438639999999989
 50
182.345787
 51
203.393854
  0
ARC
  5
2C2
  8
_________1
  6
AIGENLINE001
 62
     7
 10
-22.323592999999999
 20
137.21919199999999
 30
0.0
 40
8.3949679999999987
 50
179.99409800000001
 51
182.81587200000001
  0
ARC
  5
2C3
  8
_________1
  6
AIGENLINE001
 62
     7
 10
-22.590558999999999
 20
137.217197
 30
0.0
 40
8.1280020000000004
 50
158.330636
 51
179.979837
  0
ARC
  5
2C4
  8
_________1
  6
AIGENLINE001
 62
     7
 10
-23.897276000000002
 20
137.66277600000001
 30
0.0
 40
6.7494469999999991
 50
140.77744300000001
 51
157.74985799999999
  0
ARC
  5
2C5
  8
_________1
  6
AIGENLINE001
 62
     7
 10
-24.995010000000001
 20
138.48985200000001
 30
0.0
 40
5.3763139999999989
 50
123.25569299999999
 51
140.20831799999999
  0
ARC
  5
2C6
  8
_________1
  6
AIGENLINE001
 62
     7
 10
-25.636296000000002
 20
139.38226
 30
0.0
 40
4.278645
 50
95.467231999999996
 51
122.627809
  0
ARC
  5
2C7
  8
_________1
  6
AIGENLINE001
 62
     7
 10
-25.723666999999999
 20
139.720393
 30
0.0
 40
3.934107
 50
89.992324999999994
 51
94.669730000000015
  0
ARC
  5
2C8
  8
_________1
  6
AIGENLINE001
 62
     7
 10
-16.598576999999999
 20
137.22291799999999
 30
0.0
 40
8.1292699999999982
 50
180.02020099999999
 51
201.667654
  0
ARC
  5
2C9
  8
_________1
  6
AIGENLINE001
 62
     7
 10
-17.905633000000002
 20
136.77748700000001
 30
0.0
 40
6.7504549999999997
 50
202.25023100000001
 51
219.22056900000001
  0
ARC
  5
2CA
  8
_________1
  6
AIGENLINE001
 62
     7
 10
-19.005153
 20
135.948857
 30
0.0
 40
5.3749519999999986
 50
219.788532
 51
236.74571399999999
  0
ARC
  5
2CB
  8
_________1
  6
AIGENLINE001
 62
     7
 10
-19.645392000000001
 20
135.05799200000001
 30
0.0
 40
4.2791480000000002
 50
237.37350599999999
 51
264.53087199999999
  0
ARC
  5
2CC
  8
_________1
  6
AIGENLINE001
 62
     7
 10
-19.732952000000001
 20
134.719371
 30
0.0
 40
3.934107
 50
265.3302700000001
 51
270.00767500000001
  0
ARC
  5
2CD
  8
_________1
  6
AIGENLINE001
 62
     7
 10
-19.739986999999999
 20
134.81921299999999
 30
0.0
 40
4.033955999999999
 50
270.10740099999998
 51
301.67917399999999
  0
ARC
  5
2CE
  8
_________1
  6
AIGENLINE001
 62
     7
 10
-20.180183
 20
135.62775199999999
 30
0.0
 40
4.9534519999999986
 50
301.10074700000001
 51
319.41663999999997
  0
ARC
  5
2CF
  8
_________1
  6
AIGENLINE001
 62
     7
 10
-21.126317
 20
136.51392100000001
 30
0.0
 40
6.2487669999999991
 50
318.88942200000002
 51
337.12266899999997
  0
ARC
  5
2D0
  8
_________1
  6
AIGENLINE001
 62
     7
 10
-22.384601
 20
137.119643
 30
0.0
 40
7.6438639999999989
 50
336.60616599999997
 51
357.65423300000009
  0
ARC
  5
2D1
  8
_________1
  6
AIGENLINE001
 62
     7
 10
-23.150639999999999
 20
137.21965
 30
0.0
 40
8.4136340000000001
 50
357.18727799999999
 51
0.002752
  0
ARC
  5
2D2
  8
_________1
  6
AIGENLINE001
 62
     7
 10
-22.865022
 20
137.21719400000001
 30
0.0
 40
8.1280160000000006
 50
0.020163
 51
21.669325000000001
  0
ARC
  5
2D3
  8
_________1
  6
AIGENLINE001
 62
     7
 10
-21.55829
 20
137.66277600000001
 30
0.0
 40
6.7494469999999991
 50
22.250122000000001
 51
39.222537000000003
  0
ARC
  5
2D4
  8
_________1
  6
AIGENLINE001
 62
     7
 10
-20.460556
 20
138.48985200000001
 30
0.0
 40
5.3763139999999989
 50
39.791662000000002
 51
56.744287
  0
ARC
  5
2D5
  8
_________1
  6
AIGENLINE001
 62
     7
 10
-19.819405
 20
139.38186999999999
 30
0.0
 40
4.2790460000000001
 50
57.373468999999993
 51
84.531448999999995
  0
ARC
  5
2D6
  8
_________1
  6
AIGENLINE001
 62
     7
 10
-19.7319
 20
139.720393
 30
0.0
 40
3.934107
 50
85.330250000000007
 51
90.007654999999986
  0
LINE
  5
2D7
  8
_________1
  6
AIGENLINE001
 62
     7
 10
-14.192
 20
143.654
 30
0.0
 11
-25.723099999999999
 21
143.654
 31
0.0
  0
LINE
  5
2D8
  8
_________1
 62
     7
 10
-25.427199999999999
 20
157.85499999999999
 30
0.0
 11
-25.427199999999999
 21
152.45500000000001
 31
0.0
  0
LINE
  5
2D9
  8
_________1
 62
     7
 10
-25.427199999999999
 20
151.55500000000001
 30
0.0
 11
-25.427199999999999
 21
145.88999999999999
 31
0.0
  0
ARC
  5
2DA
  8
_________1
 62
     7
 10
-23.626051
 20
147.22687500000001
 30
0.0
 40
1.514262999999999
 50
269.94609600000001
 51
284.70673500000009
  0
ARC
  5
2DB
  8
_________1
 62
     7
 10
-24.107958
 20
145.960183
 30
0.0
 40
0.138877
 50
210.50277800000001
 51
223.9862
  0
ARC
  5
2DC
  8
_________1
 62
     7
 10
-24.035705
 20
146.02912499999999
 30
0.0
 40
0.238743
 50
223.84829400000001
 51
237.105177
  0
ARC
  5
2DD
  8
_________1
 62
     7
 10
-23.927499000000001
 20
146.193814
 30
0.0
 40
0.4357960000000001
 50
236.91918000000001
 51
246.69149200000001
  0
ARC
  5
2DE
  8
_________1
 62
     7
 10
-23.807310999999999
 20
146.469707
 30
0.0
 40
0.7367300000000001
 50
246.59713400000001
 51
254.166067
  0
ARC
  5
2DF
  8
_________1
 62
     7
 10
-23.654771
 20
147.02260899999999
 30
0.0
 40
1.310281
 50
254.345676
 51
271.19365800000003
  0
ARC
  5
2E0
  8
_________1
 62
     7
 10
-24.827020999999998
 20
147.24532400000001
 30
0.0
 40
1.5327120000000001
 50
269.97261200000003
 51
283.988586
  0
ARC
  5
2E1
  8
_________1
 62
     7
 10
-24.61994
 20
146.37747899999999
 30
0.0
 40
0.640607
 50
284.77948099999998
 51
301.04990600000002
  0
ARC
  5
2E2
  8
_________1
 62
     7
 10
-24.400091
 20
146.00273200000001
 30
0.0
 40
0.206218
 50
302.42274099999997
 51
326.75945300000001
  0
ARC
  5
2E3
  8
_________1
 62
     7
 10
-25.308617999999999
 20
145.958754
 30
0.0
 40
0.137231
 50
210.21545699999999
 51
223.82037399999999
  0
ARC
  5
2E4
  8
_________1
 62
     7
 10
-25.236698000000001
 20
146.02696800000001
 30
0.0
 40
0.236355
 50
223.67991000000001
 51
237.03793999999999
  0
ARC
  5
2E5
  8
_________1
 62
     7
 10
-25.128833
 20
146.19053600000001
 30
0.0
 40
0.432283
 50
236.838112
 51
246.67426
  0
ARC
  5
2E6
  8
_________1
 62
     7
 10
-25.008101
 20
146.46740399999999
 30
0.0
 40
0.734329
 50
246.57780099999999
 51
254.16835499999999
  0
ARC
  5
2E7
  8
_________1
 62
     7
 10
-24.854721000000001
 20
147.02354500000001
 30
0.0
 40
1.3112239999999991
 50
254.35015300000001
 51
271.20856900000013
  0
ARC
  5
2E8
  8
_________1
 62
     7
 10
-24.827020000000001
 20
144.53582599999999
 30
0.0
 40
1.531288999999999
 50
75.998223999999993
 51
90.027481999999992
  0
ARC
  5
2E9
  8
_________1
 62
     7
 10
-24.619676999999999
 20
145.403829
 30
0.0
 40
0.638971
 50
58.889246
 51
75.206176999999997
  0
ARC
  5
2EA
  8
_________1
 62
     7
 10
-24.400178
 20
145.77705499999999
 30
0.0
 40
0.20607
 50
33.133720000000011
 51
57.522618000000008
  0
ARC
  5
2EB
  8
_________1
 62
     7
 10
-25.308637000000001
 20
145.82095899999999
 30
0.0
 40
0.137049
 50
136.24726799999999
 51
149.89929900000001
  0
ARC
  5
2EC
  8
_________1
 62
     7
 10
-25.236709000000001
 20
145.75300100000001
 30
0.0
 40
0.236002
 50
123.01436200000001
 51
136.40588600000001
  0
ARC
  5
2ED
  8
_________1
 62
     7
 10
-25.129090999999999
 20
145.59035
 30
0.0
 40
0.4310290000000001
 50
113.360303
 51
123.22991500000001
  0
ARC
  5
2EE
  8
_________1
 62
     7
 10
-25.008572000000001
 20
145.31470899999999
 30
0.0
 40
0.7318640000000001
 50
105.84801299999999
 51
113.465585
  0
ARC
  5
2EF
  8
_________1
 62
     7
 10
-24.854894000000002
 20
144.758667
 30
0.0
 40
1.3087439999999999
 50
88.781590000000008
 51
105.67242299999999
  0
LINE
  5
2F0
  8
_________1
 62
     7
 10
-21.928000000000001
 20
157.85499999999999
 30
0.0
 11
-21.928000000000001
 21
152.45500000000001
 31
0.0
  0
LINE
  5
2F1
  8
_________1
 62
     7
 10
-21.928000000000001
 20
151.55500000000001
 30
0.0
 11
-21.928000000000001
 21
145.88999999999999
 31
0.0
  0
LINE
  5
2F2
  8
_________1
 62
     7
 10
-19.527799999999999
 20
157.85499999999999
 30
0.0
 11
-19.527799999999999
 21
152.45500000000001
 31
0.0
  0
LINE
  5
2F3
  8
_________1
 62
     7
 10
-19.527799999999999
 20
151.55500000000001
 30
0.0
 11
-19.527799999999999
 21
145.88999999999999
 31
0.0
  0
ARC
  5
2F4
  8
_________1
 62
     7
 10
-23.485745000000001
 20
163.908523
 30
0.0
 40
0.440769
 50
180.202416
 51
218.18653900000001
  0
ARC
  5
2F5
  8
_________1
 62
     7
 10
-23.262142999999998
 20
164.05652599999999
 30
0.0
 40
0.708359
 50
216.414433
 51
233.03605300000001
  0
ARC
  5
2F6
  8
_________1
 62
     7
 10
-22.998785000000002
 20
164.38938400000001
 30
0.0
 40
1.1327240000000001
 50
232.51632599999999
 51
251.34499299999999
  0
ARC
  5
2F7
  8
_________1
 62
     7
 10
-22.754860000000001
 20
165.008094
 30
0.0
 40
1.7972589999999991
 50
250.28642400000001
 51
270.89070299999997
  0
ARC
  5
2F8
  8
_________1
 62
     7
 10
-22.726596000000001
 20
165.19558699999999
 30
0.0
 40
1.984534999999999
 50
269.990612
 51
287.12870099999992
  0
ARC
  5
2F9
  8
_________1
 62
     7
 10
-22.553716999999999
 20
164.583169
 30
0.0
 40
1.348449
 50
287.77277099999998
 51
304.412935
  0
ARC
  5
2FA
  8
_________1
 62
     7
 10
-22.232223000000001
 20
164.090608
 30
0.0
 40
0.7605140000000001
 50
305.403234
 51
327.65414399999997
  0
ARC
  5
2FB
  8
_________1
 62
     7
 10
-21.982212000000001
 20
163.91513399999999
 30
0.0
 40
0.4556430000000001
 50
329.47570400000001
 51
358.97280499999999
  0
ARC
  5
2FC
  8
_________1
 62
     7
 10
-22.726921999999998
 20
163.90696600000001
 30
0.0
 40
1.2002790000000001
 50
0.00001
 51
89.999980000000008
  0
ARC
  5
2FD
  8
_________1
 62
     7
 10
-22.680990000000001
 20
163.861749
 30
0.0
 40
1.2463429999999991
 50
92.112027000000012
 51
177.92084299999999
  0
ARC
  5
2FE
  8
_________1
 62
     7
 10
-22.954048
 20
163.64274399999999
 30
0.0
 40
1.2619610000000001
 50
121.148319
 51
142.361321
  0
ARC
  5
2FF
  8
_________1
 62
     7
 10
-23.236218000000001
 20
163.908197
 30
0.0
 40
0.8772289999999999
 50
144.836917
 51
219.87075100000001
  0
ARC
  5
300
  8
_________1
 62
     7
 10
-23.050151
 20
164.07590200000001
 30
0.0
 40
1.127583
 50
220.350043
 51
227.24834300000001
  0
ARC
  5
301
  8
_________1
 62
     7
 10
-22.917480000000001
 20
164.21841900000001
 30
0.0
 40
1.3222929999999991
 50
227.219021
 51
248.486323
  0
ARC
  5
302
  8
_________1
 62
     7
 10
-22.731708999999999
 20
164.66264000000001
 30
0.0
 40
1.803718999999999
 50
248.171133
 51
299.39659799999998
  0
ARC
  5
303
  8
_________1
 62
     7
 10
-22.500672000000002
 20
164.16846000000001
 30
0.0
 40
1.260438999999999
 50
301.273416
 51
323.00751300000002
  0
ARC
  5
304
  8
_________1
 62
     7
 10
-22.214634
 20
163.92897099999999
 30
0.0
 40
0.8880809999999998
 50
324.24445500000002
 51
358.58018600000003
  0
ARC
  5
305
  8
_________1
 62
     7
 10
-22.153355999999999
 20
163.904653
 30
0.0
 40
0.8265329999999999
 50
0.160371
 51
34.450566000000002
  0
ARC
  5
306
  8
_________1
 62
     7
 10
-22.404819
 20
163.75065699999999
 30
0.0
 40
1.1211120000000001
 50
33.670452000000012
 51
60.123058
  0
LINE
  5
307
  8
_________1
 62
     7
 10
-22.026900000000001
 20
162.999
 30
0.0
 11
-22.026900000000001
 21
162.352
 31
0.0
  0
LINE
  5
308
  8
_________1
 62
     7
 10
-23.426300000000001
 20
162.999
 30
0.0
 11
-23.426300000000001
 21
162.352
 31
0.0
  0
ARC
  5
309
  8
_________1
 62
     7
 10
-22.962933
 20
160.701539
 30
0.0
 40
0.264909
 50
180.129549
 51
216.506846
  0
ARC
  5
30A
  8
_________1
 62
     7
 10
-22.863444000000001
 20
160.76672099999999
 30
0.0
 40
0.383716
 50
215.49206100000001
 51
236.93402
  0
ARC
  5
30B
  8
_________1
 62
     7
 10
-22.746490999999999
 20
160.93958799999999
 30
0.0
 40
0.5924070000000001
 50
236.57673700000001
 51
271.79301299999997
  0
ARC
  5
30C
  8
_________1
 62
     7
 10
-22.729023000000002
 20
161.01486199999999
 30
0.0
 40
0.667392
 50
270.09169100000003
 51
299.940608
  0
ARC
  5
30D
  8
_________1
 62
     7
 10
-22.604279999999999
 20
160.77395100000001
 30
0.0
 40
0.396558
 50
301.69541199999998
 51
332.65173900000008
  0
ARC
  5
30E
  8
_________1
 62
     7
 10
-22.491312000000001
 20
160.70237
 30
0.0
 40
0.263592
 50
335.19214799999997
 51
359.68922099999997
  0
ARC
  5
30F
  8
_________1
 62
     7
 10
-23.048759
 20
162.35334
 30
0.0
 40
0.377524
 50
180.22765899999999
 51
221.989744
  0
ARC
  5
310
  8
_________1
 62
     7
 10
-22.873072000000001
 20
162.48811499999999
 30
0.0
 40
0.598522
 50
220.32757699999999
 51
246.58557200000001
  0
ARC
  5
311
  8
_________1
 62
     7
 10
-22.740212
 20
162.744809
 30
0.0
 40
0.8870989999999999
 50
245.29920899999999
 51
270.8584140000001
  0
ARC
  5
312
  8
_________1
 62
     7
 10
-22.727791
 20
162.80679900000001
 30
0.0
 40
0.9489889999999999
 50
270.05251299999998
 51
295.8021589999999
  0
ARC
  5
313
  8
_________1
 62
     7
 10
-22.602436000000001
 20
162.51683499999999
 30
0.0
 40
0.633512
 50
297.00996700000002
 51
321.40233599999999
  0
ARC
  5
314
  8
_________1
 62
     7
 10
-22.427112000000001
 20
162.362527
 30
0.0
 40
0.400381
 50
323.00865199999998
 51
358.47046699999999
  0
LINE
  5
315
  8
_________1
 62
     7
 10
-22.227399999999999
 20
162.005
 30
0.0
 11
-22.227399999999999
 21
160.702
 31
0.0
  0
LINE
  5
316
  8
_________1
 62
     7
 10
-23.227799999999998
 20
162.00700000000001
 30
0.0
 11
-23.227799999999998
 21
160.70099999999999
 31
0.0
  0
ARC
  5
317
  8
_________1
 62
     7
 10
-22.690670000000001
 20
254.177268
 30
0.0
 40
32.128802
 50
269.93351799999999
 51
290.211546
  0
ARC
  5
318
  8
_________1
 62
     7
 10
-22.713740999999999
 20
254.46561
 30
0.0
 40
32.417126000000003
 50
249.84598700000001
 51
269.97488600000003
  0
ARC
  5
319
  8
_________1
 62
     7
 10
-22.707713999999999
 20
254.24457200000001
 30
0.0
 40
6.1801110000000001
 50
89.999201999999997
 51
179.99917199999999
  0
ARC
  5
31A
  8
_________1
 62
     7
 10
-22.707716000000001
 20
254.244744
 30
0.0
 40
6.1799390000000001
 50
359.999211
 51
89.99918199999999
  0
ARC
  5
31B
  8
_________1
 62
     7
 10
67.236454000000009
 20
160.126656
 30
0.0
 40
0.927786
 50
90.489025999999996
 51
143.58014600000001
  0
ARC
  5
31C
  8
_________1
 62
     7
 10
67.018687999999983
 20
160.32602800000001
 30
0.0
 40
0.63495
 50
146.39167800000001
 51
179.246364
  0
ARC
  5
31D
  8
_________1
 62
     7
 10
74.131171999999992
 20
160.127318
 30
0.0
 40
0.927125
 50
36.399197999999998
 51
89.510281999999989
  0
ARC
  5
31E
  8
_________1
 62
     7
 10
74.348879000000011
 20
160.326123
 30
0.0
 40
0.6346689999999999
 50
0.7453840000000001
 51
33.614893000000009
  0
ARC
  5
31F
  8
_________1
 62
     7
 10
66.991584000000003
 20
165.6227669999999
 30
0.0
 40
0.827068
 50
300.78688199999999
 51
329.23995200000002
  0
ARC
  5
320
  8
_________1
 62
     7
 10
66.682399000000004
 20
165.83516399999999
 30
0.0
 40
1.2016329999999991
 50
328.07711599999999
 51
1.1351539999999991
  0
ARC
  5
321
  8
_________1
 62
     7
 10
68.181434999999993
 20
163.5470399999999
 30
0.0
 40
1.563652
 50
120.54913500000001
 51
146.403704
  0
ARC
  5
322
  8
_________1
 62
     7
 10
68.652043999999989
 20
163.18977100000001
 30
0.0
 40
2.153661
 50
145.41440700000001
 51
169.12696299999999
  0
ARC
  5
323
  8
_________1
 62
     7
 10
69.050122999999999
 20
163.076525
 30
0.0
 40
2.5662090000000002
 50
168.32042899999999
 51
198.775724
  0
ARC
  5
324
  8
_________1
 62
     7
 10
68.64592900000001
 20
162.95556099999999
 30
0.0
 40
2.1446480000000001
 50
199.191655
 51
220.19390799999999
  0
ARC
  5
325
  8
_________1
 62
     7
 10
68.209824999999995
 20
162.62427500000001
 30
0.0
 40
1.5979709999999989
 50
221.21202400000001
 51
238.87866099999999
  0
LINE
  5
326
  8
_________1
 62
     7
 10
67.883799999999994
 20
167.05500000000001
 30
0.0
 11
67.883799999999994
 21
165.85900000000001
 31
0.0
  0
LINE
  5
327
  8
_________1
 62
     7
 10
73.483800000000002
 20
167.05500000000001
 30
0.0
 11
73.483800000000002
 21
165.85900000000001
 31
0.0
  0
ARC
  5
328
  8
_________1
 62
     7
 10
74.375247999999999
 20
165.62062900000001
 30
0.0
 40
0.8261829999999999
 50
210.73527999999999
 51
239.21323699999999
  0
ARC
  5
329
  8
_________1
 62
     7
 10
74.685137999999995
 20
165.83341899999999
 30
0.0
 40
1.201546999999999
 50
178.84723399999999
 51
211.904831
  0
ARC
  5
32A
  8
_________1
 62
     7
 10
73.185805000000002
 20
163.54558399999999
 30
0.0
 40
1.5637439999999989
 50
33.597504999999998
 51
59.450830000000003
  0
ARC
  5
32B
  8
_________1
 62
     7
 10
72.714753000000002
 20
163.18805800000001
 30
0.0
 40
2.1542629999999998
 50
10.879016999999999
 51
34.585359000000011
  0
ARC
  5
32C
  8
_________1
 62
     7
 10
72.316344000000001
 20
163.07468600000001
 30
0.0
 40
2.567164
 50
341.24240200000003
 51
11.685651999999999
  0
ARC
  5
32D
  8
_________1
 62
     7
 10
72.723285000000004
 20
162.95363
 30
0.0
 40
2.1429709999999988
 50
319.78756900000002
 51
340.808402
  0
ARC
  5
32E
  8
_________1
 62
     7
 10
73.155489000000003
 20
162.62510700000001
 30
0.0
 40
1.601059999999999
 50
301.151455
 51
318.779698
  0
ARC
  5
32F
  8
_________1
 62
     7
 10
-19.035551999999999
 20
165.6227669999999
 30
0.0
 40
0.827068
 50
210.76006799999999
 51
239.2131379999999
  0
ARC
  5
330
  8
_________1
 62
     7
 10
-18.726714000000001
 20
165.835069
 30
0.0
 40
1.201287999999999
 50
178.859949
 51
211.92778100000001
  0
ARC
  5
331
  8
_________1
 62
     7
 10
-20.222729000000001
 20
163.551267
 30
0.0
 40
1.5586530000000001
 50
34.327444999999997
 51
59.456522000000007
  0
ARC
  5
332
  8
_________1
 62
     7
 10
-20.691237000000001
 20
163.191666
 30
0.0
 40
2.1485979999999989
 50
10.845751
 51
35.201250999999999
  0
ARC
  5
333
  8
_________1
 62
     7
 10
-21.094442999999998
 20
163.0763
 30
0.0
 40
2.566581999999999
 50
341.22429799999998
 51
11.681479
  0
ARC
  5
334
  8
_________1
 62
     7
 10
-20.690283999999998
 20
162.956096
 30
0.0
 40
2.1453029999999988
 50
319.80143500000008
 51
340.789582
  0
ARC
  5
335
  8
_________1
 62
     7
 10
-20.253844999999998
 20
162.62440900000001
 30
0.0
 40
1.598112999999999
 50
301.120474
 51
318.78502600000002
  0
LINE
  5
336
  8
_________1
 62
     7
 10
73.808000000000007
 20
168.46299999999999
 30
0.0
 11
73.808000000000007
 21
169.624
 31
0.0
  0
LINE
  5
337
  8
_________1
 62
     7
 10
67.560299999999984
 20
168.46299999999999
 30
0.0
 11
67.560299999999984
 21
169.625
 31
0.0
  0
LINE
  5
338
  8
_________1
 62
     7
 10
73.584100000000007
 20
168.05500000000001
 30
0.0
 11
73.808000000000007
 21
168.46299999999999
 31
0.0
  0
LINE
  5
339
  8
_________1
 62
     7
 10
67.784199999999998
 20
168.05500000000001
 30
0.0
 11
67.560299999999984
 21
168.46299999999999
 31
0.0
  0
ARC
  5
33A
  8
_________1
 62
     7
 10
-20.635930999999999
 20
169.65310700000001
 30
0.0
 40
1.1075829999999991
 50
346.53527600000001
 51
29.700946000000009
  0
LINE
  5
33B
  8
_________1
 62
     7
 10
-19.827500000000001
 20
168.05500000000001
 30
0.0
 11
-19.540199999999999
 21
169.489
 31
0.0
  0
LINE
  5
33C
  8
_________1
 62
     7
 10
-20.727699999999999
 20
171.655
 30
0.0
 11
-19.6739
 21
170.202
 31
0.0
  0
ARC
  5
33D
  8
_________1
 62
     7
 10
-24.822298
 20
169.653077
 30
0.0
 40
1.1049869999999999
 50
150.220437
 51
193.49538100000001
  0
LINE
  5
33E
  8
_________1
 62
     7
 10
-44.828400000000002
 20
137.45599999999999
 30
0.0
 11
-44.828400000000002
 21
125.428
 31
0.0
  0
LINE
  5
33F
  8
_________1
 62
     7
 10
-40.627400000000002
 20
137.45599999999999
 30
0.0
 11
-40.627400000000002
 21
125.383
 31
0.0
  0
INSERT
  5
340
  8
_________1
 62
     7
  2
AIGNBL02010004
 10
0.0
 20
0.0
 30
0.0
  0
LINE
  5
341
  8
_________1
 62
     7
 10
-11.9537
 20
157.85499999999999
 30
0.0
 11
-11.9537
 21
89.854200000000006
 31
0.0
  0
INSERT
  5
342
  8
_________1
 62
     7
  2
AIGNBL02010006
 10
0.0
 20
0.0
 30
0.0
  0
INSERT
  5
343
  8
_________1
 62
     7
  2
AIGNBL02010007
 10
0.0
 20
0.0
 30
0.0
  0
INSERT
  5
344
  8
_________1
 62
     7
  2
AIGNBL02010008
 10
0.0
 20
0.0
 30
0.0
  0
INSERT
  5
345
  8
_________1
 62
     7
  2
AIGNBL02010009
 10
0.0
 20
0.0
 30
0.0
  0
LINE
  5
346
  8
_________1
 62
     7
 10
-31.7821
 20
152.45500000000001
 30
0.0
 11
-29.040400000000002
 21
152.45500000000001
 31
0.0
  0
LINE
  5
347
  8
_________1
 62
     7
 10
-31.7821
 20
157.85499999999999
 30
0.0
 11
-29.741199999999999
 21
157.85499999999999
 31
0.0
  0
LINE
  5
348
  8
_________1
 62
     7
 10
-55.136200000000002
 20
157.85499999999999
 30
0.0
 11
-55.136200000000002
 21
169.136
 31
0.0
  0
INSERT
  5
349
  8
_________1
 62
     7
  2
AIGNBL0201000A
 10
0.0
 20
0.0
 30
0.0
  0
LINE
  5
34A
  8
_________1
 62
     7
 10
-45.6404
 20
138.655
 30
0.0
 11
-62.529099999999993
 21
138.655
 31
0.0
  0
INSERT
  5
34B
  8
_________1
 62
     7
  2
AIGNBL0201000C
 10
0.0
 20
0.0
 30
0.0
  0
LINE
  5
34C
  8
_________1
 62
     7
 10
-56.32889999999999
 20
151.85499999999999
 30
0.0
 11
-48.100900000000003
 21
151.85499999999999
 31
0.0
  0
LINE
  5
34D
  8
_________1
 62
     7
 10
-62.529099999999993
 20
157.85499999999999
 30
0.0
 11
-49.828299999999992
 21
157.85499999999999
 31
0.0
  0
ARC
  5
34E
  8
_________1
 62
     7
 10
-20.127537
 20
147.242254
 30
0.0
 40
1.5296419999999991
 50
269.972556
 51
284.00268699999998
  0
ARC
  5
34F
  8
_________1
 62
     7
 10
-19.921465000000001
 20
146.37930499999999
 30
0.0
 40
0.6425340000000001
 50
284.792528
 51
301.01964400000003
  0
ARC
  5
350
  8
_________1
 62
     7
 10
-19.701964
 20
146.00467
 30
0.0
 40
0.208418
 50
302.38071200000002
 51
326.51826
  0
ARC
  5
351
  8
_________1
 62
     7
 10
-20.608751999999999
 20
145.960183
 30
0.0
 40
0.138877
 50
210.50277800000001
 51
223.9862
  0
ARC
  5
352
  8
_________1
 62
     7
 10
-20.536284999999999
 20
146.029404
 30
0.0
 40
0.239092
 50
223.86106100000001
 51
237.09953100000001
  0
ARC
  5
353
  8
_________1
 62
     7
 10
-20.428477000000001
 20
146.193434
 30
0.0
 40
0.435375
 50
236.91278600000001
 51
246.69396
  0
ARC
  5
354
  8
_________1
 62
     7
 10
-20.308105000000001
 20
146.469707
 30
0.0
 40
0.7367300000000001
 50
246.59713400000001
 51
254.166067
  0
ARC
  5
355
  8
_________1
 62
     7
 10
-20.155564999999999
 20
147.02260899999999
 30
0.0
 40
1.310281
 50
254.345676
 51
271.19365800000003
  0
ARC
  5
356
  8
_________1
 62
     7
 10
-21.327472
 20
147.242964
 30
0.0
 40
1.530351999999999
 50
269.97260899999998
 51
283.99942099999998
  0
ARC
  5
357
  8
_________1
 62
     7
 10
-21.120743000000001
 20
146.37740099999999
 30
0.0
 40
0.640547
 50
284.78669300000001
 51
301.05462
  0
ARC
  5
358
  8
_________1
 62
     7
 10
-20.900832999999999
 20
146.002668
 30
0.0
 40
0.20614
 50
302.42105700000002
 51
326.76611800000001
  0
ARC
  5
359
  8
_________1
 62
     7
 10
-21.808043000000001
 20
145.96009900000001
 30
0.0
 40
0.139092
 50
210.41027500000001
 51
223.85246900000001
  0
ARC
  5
35A
  8
_________1
 62
     7
 10
-21.736856
 20
146.027976
 30
0.0
 40
0.237453
 50
223.76314800000009
 51
237.07622799999999
  0
ARC
  5
35B
  8
_________1
 62
     7
 10
-21.628848000000001
 20
146.191982
 30
0.0
 40
0.433826
 50
236.875485
 51
246.684111
  0
ARC
  5
35C
  8
_________1
 62
     7
 10
-21.508295
 20
146.46855400000001
 30
0.0
 40
0.735528
 50
246.58747099999999
 51
254.16721000000001
  0
ARC
  5
35D
  8
_________1
 62
     7
 10
-21.355322000000001
 20
147.02318299999999
 30
0.0
 40
1.3108580000000001
 50
254.348602
 51
271.20043199999998
  0
ARC
  5
35E
  8
_________1
 62
     7
 10
-21.327470999999999
 20
144.538184
 30
0.0
 40
1.528931
 50
75.987379000000004
 51
90.027484999999999
  0
ARC
  5
35F
  8
_________1
 62
     7
 10
-21.120480000000001
 20
145.403907
 30
0.0
 40
0.6389110000000001
 50
58.884525999999987
 51
75.198956999999993
  0
ARC
  5
360
  8
_________1
 62
     7
 10
-20.900918999999998
 20
145.777118
 30
0.0
 40
0.205992
 50
33.12705600000001
 51
57.524299999999997
  0
ARC
  5
361
  8
_________1
 62
     7
 10
-21.808071999999999
 20
145.819626
 30
0.0
 40
0.138895
 50
136.21496400000001
 51
149.70489499999999
  0
ARC
  5
362
  8
_________1
 62
     7
 10
-21.736868999999999
 20
145.75199699999999
 30
0.0
 40
0.237096
 50
122.976023
 51
136.322642
  0
ARC
  5
363
  8
_________1
 62
     7
 10
-21.629107999999999
 20
145.588911
 30
0.0
 40
0.4325640000000001
 50
113.35043899999999
 51
123.1925
  0
ARC
  5
364
  8
_________1
 62
     7
 10
-21.508768
 20
145.31356500000001
 30
0.0
 40
0.733057
 50
105.849161
 51
113.45590300000001
  0
ARC
  5
365
  8
_________1
 62
     7
 10
-21.355495000000001
 20
144.759029
 30
0.0
 40
1.308378
 50
88.789732000000001
 51
105.67397699999999
  0
ARC
  5
366
  8
_________1
 62
     7
 10
-14.540806999999999
 20
144.25537299999999
 30
0.0
 40
1.52946
 50
165.995633
 51
180.02750499999999
  0
ARC
  5
367
  8
_________1
 62
     7
 10
-15.403599
 20
144.46149199999999
 30
0.0
 40
0.642492
 50
148.983137
 51
165.210937
  0
ARC
  5
368
  8
_________1
 62
     7
 10
-15.778257
 20
144.68097700000001
 30
0.0
 40
0.208365
 50
123.475582
 51
147.620374
  0
ARC
  5
369
  8
_________1
 62
     7
 10
-15.823396000000001
 20
143.77326199999999
 30
0.0
 40
0.137751
 50
225.963302
 51
239.55922799999999
  0
ARC
  5
36A
  8
_________1
 62
     7
 10
-15.75376
 20
143.84640999999999
 30
0.0
 40
0.238743
 50
212.89485300000001
 51
226.151736
  0
ARC
  5
36B
  8
_________1
 62
     7
 10
-15.589282000000001
 20
143.95442199999999
 30
0.0
 40
0.4355140000000001
 50
203.29609500000001
 51
213.07472100000001
  0
ARC
  5
36C
  8
_________1
 62
     7
 10
-15.315348999999999
 20
144.07403099999999
 30
0.0
 40
0.734419
 50
195.82203299999989
 51
203.41482600000001
  0
ARC
  5
36D
  8
_________1
 62
     7
 10
-14.761046
 20
144.22726800000001
 30
0.0
 40
1.3095069999999991
 50
178.80231699999999
 51
195.66016499999989
  0
ARC
  5
36E
  8
_________1
 62
     7
 10
-14.540096999999999
 20
143.05543700000001
 30
0.0
 40
1.53017
 50
165.99889899999999
 51
180.02745200000001
  0
ARC
  5
36F
  8
_________1
 62
     7
 10
-15.405697999999999
 20
143.26229599999999
 30
0.0
 40
0.640297
 50
148.945491
 51
165.219446
  0
ARC
  5
370
  8
_________1
 62
     7
 10
-15.780257000000001
 20
143.48210700000001
 30
0.0
 40
0.206088
 50
123.227728
 51
147.58002400000001
  0
ARC
  5
371
  8
_________1
 62
     7
 10
-15.824790999999999
 20
142.57221000000001
 30
0.0
 40
0.135784
 50
225.97957700000001
 51
239.75407200000001
  0
ARC
  5
372
  8
_________1
 62
     7
 10
-15.754638999999999
 20
142.64631399999999
 30
0.0
 40
0.237824
 50
212.942373
 51
226.23259100000001
  0
ARC
  5
373
  8
_________1
 62
     7
 10
-15.590116
 20
142.75438299999999
 30
0.0
 40
0.4346640000000001
 50
203.313841
 51
213.104105
  0
ARC
  5
374
  8
_________1
 62
     7
 10
-15.317273999999999
 20
142.87356600000001
 30
0.0
 40
0.732398
 50
195.81659999999991
 51
203.42877899999999
  0
ARC
  5
375
  8
_________1
 62
     7
 10
-14.760897
 20
143.027458
 30
0.0
 40
1.30966
 50
178.79279099999999
 51
195.65998999999999
  0
ARC
  5
376
  8
_________1
 62
     7
 10
-17.254759
 20
143.054204
 30
0.0
 40
1.5389949999999999
 50
0.01864
 51
13.966476999999999
  0
ARC
  5
377
  8
_________1
 62
     7
 10
-16.379128999999999
 20
143.26238000000001
 30
0.0
 40
0.639075
 50
14.801672999999999
 51
31.111692000000001
  0
ARC
  5
378
  8
_________1
 62
     7
 10
-16.005849999999999
 20
143.481887
 30
0.0
 40
0.206127
 50
32.485774999999997
 51
56.867887000000003
  0
ARC
  5
379
  8
_________1
 62
     7
 10
-15.961931
 20
142.573058
 30
0.0
 40
0.136692
 50
300.19275299999998
 51
313.90245800000002
  0
ARC
  5
37A
  8
_________1
 62
     7
 10
-16.031357
 20
142.64649800000001
 30
0.0
 40
0.237751
 50
313.684955
 51
326.99345299999999
  0
ARC
  5
37B
  8
_________1
 62
     7
 10
-16.195298000000001
 20
142.75445199999999
 30
0.0
 40
0.4340410000000001
 50
326.83141599999999
 51
336.64081800000008
  0
ARC
  5
37C
  8
_________1
 62
     7
 10
-16.469649
 20
142.874224
 30
0.0
 40
0.7333960000000001
 50
336.548901
 51
344.15198800000002
  0
ARC
  5
37D
  8
_________1
 62
     7
 10
-17.022656000000001
 20
143.027286
 30
0.0
 40
1.3071870000000001
 50
344.31746900000002
 51
1.2170069999999991
  0
ARC
  5
37E
  8
_________1
 62
     7
 10
-30.919112999999999
 20
144.25414900000001
 30
0.0
 40
1.534157999999999
 50
0.018318
 51
14.007702
  0
ARC
  5
37F
  8
_________1
 62
     7
 10
-30.052389999999999
 20
144.460757
 30
0.0
 40
0.6432660000000001
 50
14.838609999999999
 51
31.051841
  0
ARC
  5
380
  8
_________1
 62
     7
 10
-29.677531999999999
 20
144.68065200000001
 30
0.0
 40
0.208759
 50
32.416705999999998
 51
56.522652000000008
  0
ARC
  5
381
  8
_________1
 62
     7
 10
-29.632245000000001
 20
143.77338700000001
 30
0.0
 40
0.137897
 50
300.44139200000001
 51
314.024674
  0
ARC
  5
382
  8
_________1
 62
     7
 10
-29.702093000000001
 20
143.84680299999999
 30
0.0
 40
0.239229
 50
313.83344199999999
 51
327.06823100000003
  0
ARC
  5
383
  8
_________1
 62
     7
 10
-29.866658999999999
 20
143.955006
 30
0.0
 40
0.436178
 50
326.89065199999999
 51
336.65804100000003
  0
ARC
  5
384
  8
_________1
 62
     7
 10
-30.140740000000001
 20
144.07487599999999
 30
0.0
 40
0.735323
 50
336.544015
 51
344.1295740000001
  0
ARC
  5
385
  8
_________1
 62
     7
 10
-30.691434000000001
 20
144.22747200000001
 30
0.0
 40
1.3067610000000001
 50
344.29684400000002
 51
1.191262
  0
ARC
  5
386
  8
_________1
 62
     7
 10
-30.919827999999999
 20
143.054213
 30
0.0
 40
1.534872999999999
 50
0.01837
 51
14.004424999999999
  0
ARC
  5
387
  8
_________1
 62
     7
 10
-30.050287000000001
 20
143.26156399999999
 30
0.0
 40
0.6410650000000001
 50
14.830095999999999
 51
31.089535000000001
  0
ARC
  5
388
  8
_________1
 62
     7
 10
-29.675526999999999
 20
143.481786
 30
0.0
 40
0.206476
 50
32.457087999999999
 51
56.770476000000002
  0
ARC
  5
389
  8
_________1
 62
     7
 10
-29.630848
 20
142.57233199999999
 30
0.0
 40
0.135926
 50
300.24654800000002
 51
314.00841000000003
  0
ARC
  5
38A
  8
_________1
 62
     7
 10
-29.701212000000002
 20
142.64670599999999
 30
0.0
 40
0.238308
 50
313.752591
 51
327.02068500000001
  0
ARC
  5
38B
  8
_________1
 62
     7
 10
-29.865824
 20
142.754966
 30
0.0
 40
0.4353270000000001
 50
326.86125099999998
 51
336.64026699999999
  0
ARC
  5
38C
  8
_________1
 62
     7
 10
-30.138808999999998
 20
142.87440599999999
 30
0.0
 40
0.7332960000000001
 50
336.53003799999999
 51
344.13501400000001
  0
ARC
  5
38D
  8
_________1
 62
     7
 10
-30.691580999999999
 20
143.02766099999999
 30
0.0
 40
1.3069129999999991
 50
344.29701899999998
 51
1.200820999999999
  0
ARC
  5
38E
  8
_________1
 62
     7
 10
-28.214766999999998
 20
143.05544399999999
 30
0.0
 40
1.5250360000000001
 50
165.951052
 51
180.02779100000001
  0
ARC
  5
38F
  8
_________1
 62
     7
 10
-29.074635000000001
 20
143.2616129999999
 30
0.0
 40
0.6408990000000001
 50
148.90667300000001
 51
165.170524
  0
ARC
  5
390
  8
_________1
 62
     7
 10
-29.449231000000001
 20
143.481786
 30
0.0
 40
0.206476
 50
123.22950400000001
 51
147.54289199999999
  0
ARC
  5
391
  8
_________1
 62
     7
 10
-29.49391
 20
142.57233199999999
 30
0.0
 40
0.135926
 50
225.99161000000001
 51
239.75347199999999
  0
ARC
  5
392
  8
_________1
 62
     7
 10
-29.423546000000002
 20
142.64670599999999
 30
0.0
 40
0.238308
 50
212.97933499999999
 51
226.24742900000001
  0
ARC
  5
393
  8
_________1
 62
     7
 10
-29.258375000000001
 20
142.75529900000001
 30
0.0
 40
0.4359770000000001
 50
203.37055599999999
 51
213.13528700000001
  0
ARC
  5
394
  8
_________1
 62
     7
 10
-28.984838
 20
142.874764
 30
0.0
 40
0.734462
 50
195.86813900000001
 51
203.46087600000001
  0
ARC
  5
395
  8
_________1
 62
     7
 10
-28.43318
 20
143.02766
 30
0.0
 40
1.30691
 50
178.799139
 51
195.70302000000001
  0
ARC
  5
396
  8
_________1
 62
     7
 10
71.555506999999992
 20
170.01811599999999
 30
0.0
 40
1.592214999999999
 50
326.99524500000001
 51
336.21986700000002
  0
ARC
  5
397
  8
_________1
 62
     7
 10
71.012380000000007
 20
170.34671700000001
 30
0.0
 40
2.2267790000000001
 50
312.500677
 51
327.51686100000001
  0
ARC
  5
398
  8
_________1
 62
     7
 10
71.455585999999997
 20
169.87792099999999
 30
0.0
 40
1.5817529999999991
 50
303.334971
 51
312.13687399999998
  0
ARC
  5
399
  8
_________1
 62
     7
 10
71.935118000000003
 20
169.15580800000001
 30
0.0
 40
0.7149390000000001
 50
287.26189699999998
 51
303.02954699999998
  0
ARC
  5
39A
  8
_________1
 62
     7
 10
72.072024999999996
 20
168.74566100000001
 30
0.0
 40
0.282784
 50
272.44386200000008
 51
285.431218
  0
ARC
  5
39B
  8
_________1
 62
     7
 10
72.096170000000001
 20
168.76629199999999
 30
0.0
 40
0.303399
 50
246.150533
 51
267.71690300000012
  0
ARC
  5
39C
  8
_________1
 62
     7
 10
69.252223999999998
 20
168.852451
 30
0.0
 40
0.390603
 50
274.650398
 51
291.684122
  0
ARC
  5
39D
  8
_________1
 62
     7
 10
69.292602000000002
 20
168.71712099999999
 30
0.0
 40
0.254136
 50
257.55256100000003
 51
268.03595300000001
  0
ARC
  5
39E
  8
_________1
 62
     7
 10
69.325884000000002
 20
168.874674
 30
0.0
 40
0.415162
 50
247.998109
 51
257.75406400000003
  0
ARC
  5
39F
  8
_________1
 62
     7
 10
69.427511999999993
 20
169.12927199999999
 30
0.0
 40
0.689293
 50
240.16150300000001
 51
248.094167
  0
ARC
  5
3A0
  8
_________1
 62
     7
 10
69.701734999999999
 20
169.60096799999999
 30
0.0
 40
1.2349030000000001
 50
227.73129599999999
 51
240.01419899999999
  0
ARC
  5
3A1
  8
_________1
 62
     7
 10
70.295643999999996
 20
170.29710900000001
 30
0.0
 40
2.1497060000000001
 50
212.25787299999999
 51
228.49731299999999
  0
ARC
  5
3A2
  8
_________1
 62
     7
 10
70.022629000000009
 20
170.129086
 30
0.0
 40
1.8291539999999999
 50
204.34493599999999
 51
212.37148300000001
  0
LINE
  5
3A3
  8
_________1
 62
     7
 10
68.683800000000005
 20
152.45500000000001
 30
0.0
 11
68.083600000000004
 21
152.45500000000001
 31
0.0
  0
LINE
  5
3A4
  8
_________1
 62
     7
 10
68.083600000000004
 20
152.45500000000001
 30
0.0
 11
65.683700000000002
 21
152.45500000000001
 31
0.0
  0
LINE
  5
3A5
  8
_________1
 62
     7
 10
68.683800000000005
 20
152.155
 30
0.0
 11
68.084000000000003
 21
152.155
 31
0.0
  0
LINE
  5
3A6
  8
_________1
 62
     7
 10
68.084000000000003
 20
152.155
 30
0.0
 11
65.683700000000002
 21
152.155
 31
0.0
  0
LINE
  5
3A7
  8
_________1
 62
     7
 10
71.083600000000004
 20
152.45500000000001
 30
0.0
 11
68.683800000000005
 21
152.45500000000001
 31
0.0
  0
LINE
  5
3A8
  8
_________1
 62
     7
 10
71.083600000000004
 20
152.155
 30
0.0
 11
68.683800000000005
 21
152.155
 31
0.0
  0
LINE
  5
3A9
  8
_________1
 62
     7
 10
71.062299999999993
 20
151.55500000000001
 30
0.0
 11
68.661699999999996
 21
151.55500000000001
 31
0.0
  0
LINE
  5
3AA
  8
_________1
 62
     7
 10
68.683800000000005
 20
151.55500000000001
 30
0.0
 11
66.283900000000003
 21
151.55500000000001
 31
0.0
  0
LINE
  5
3AB
  8
_________1
 62
     7
 10
66.283900000000003
 20
151.55500000000001
 30
0.0
 11
65.683700000000002
 21
151.55500000000001
 31
0.0
  0
LINE
  5
3AC
  8
_________1
 62
     7
 10
69.583600000000004
 20
147.35499999999999
 30
0.0
 11
68.084000000000003
 21
147.35499999999999
 31
0.0
  0
LINE
  5
3AD
  8
_________1
 62
     7
 10
68.084000000000003
 20
147.35499999999999
 30
0.0
 11
67.783900000000003
 21
147.35499999999999
 31
0.0
  0
LINE
  5
3AE
  8
_________1
 62
     7
 10
67.783900000000003
 20
147.35499999999999
 30
0.0
 11
67.783900000000003
 21
150.45400000000001
 31
0.0
  0
LINE
  5
3AF
  8
_________1
 62
     7
 10
67.783900000000003
 20
150.45400000000001
 30
0.0
 11
67.783900000000003
 21
151.55500000000001
 31
0.0
  0
LINE
  5
3B0
  8
_________1
 62
     7
 10
69.583600000000004
 20
147.35499999999999
 30
0.0
 11
69.583600000000004
 21
151.55500000000001
 31
0.0
  0
LINE
  5
3B1
  8
_________1
 62
     7
 10
71.062299999999993
 20
152.45500000000001
 30
0.0
 11
71.062299999999993
 21
151.55500000000001
 31
0.0
  0
LINE
  5
3B2
  8
_________1
 62
     7
 10
65.683700000000002
 20
152.45500000000001
 30
0.0
 11
65.683700000000002
 21
151.55500000000001
 31
0.0
  0
LINE
  5
3B3
  8
_________1
 62
     7
 10
68.083600000000004
 20
157.85499999999999
 30
0.0
 11
68.083600000000004
 21
152.45500000000001
 31
0.0
  0
LINE
  5
3B4
  8
_________1
 62
     7
 10
69.283900000000003
 20
157.447
 30
0.0
 11
69.283900000000003
 21
152.45500000000001
 31
0.0
  0
LINE
  5
3B5
  8
_________1
  6
AIGENLINE001
 62
     7
 10
68.683800000000005
 20
145.37
 30
0.0
 11
68.683800000000005
 21
158.422
 31
0.0
  0
LINE
  5
3B6
  8
_________1
 62
     7
 10
72.374899999999997
 20
155.149
 30
0.0
 11
72.374899999999997
 21
138.655
 31
0.0
  0
LINE
  5
3B7
  8
_________1
 62
     7
 10
72.374899999999997
 20
138.655
 30
0.0
 11
72.374899999999997
 21
89.699799999999996
 31
0.0
  0
LINE
  5
3B8
  8
_________1
 62
     7
 10
70.290599999999998
 20
157.85499999999999
 30
0.0
 11
71.935299999999984
 21
156.21000000000001
 31
0.0
  0
ARC
  5
3B9
  8
_________1
 62
     7
 10
70.858769999999993
 20
155.142301
 30
0.0
 40
1.5160990000000001
 50
0.27123
 51
44.762148000000003
  0
LINE
  5
3BA
  8
_________1
 62
     7
 10
71.375100000000003
 20
155.149
 30
0.0
 11
71.375100000000003
 21
138.655
 31
0.0
  0
LINE
  5
3BB
  8
_________1
 62
     7
 10
71.375100000000003
 20
138.655
 30
0.0
 11
71.375100000000003
 21
89.699799999999996
 31
0.0
  0
LINE
  5
3BC
  8
_________1
 62
     7
 10
68.876699999999985
 20
157.85499999999999
 30
0.0
 11
71.228300000000004
 21
155.50299999999999
 31
0.0
  0
ARC
  5
3BD
  8
_________1
 62
     7
 10
70.869565000000009
 20
155.14678900000001
 30
0.0
 40
0.505521
 50
0.30477
 51
44.792132000000002
  0
LINE
  5
3BE
  8
_________1
  6
AIGENLINE001
 62
     7
 10
71.874600000000001
 20
155.149
 30
0.0
 11
71.874600000000001
 21
86.154799999999994
 31
0.0
  0
LINE
  5
3BF
  8
_________1
  6
AIGENLINE001
 62
     7
 10
61.844499999999996
 20
165.59399999999999
 30
0.0
 11
71.581800000000001
 21
155.85599999999999
 31
0.0
  0
ARC
  5
3C0
  8
_________1
  6
AIGENLINE002
 62
     7
 10
70.861972999999992
 20
155.14412899999999
 30
0.0
 40
1.012661
 50
0.302654
 51
44.698951000000001
  0
LINE
  5
3C1
  8
_________1
 62
     7
 10
64.520700000000005
 20
163.90799999999999
 30
0.0
 11
65.581800000000001
 21
162.84700000000001
 31
0.0
  0
LINE
  5
3C2
  8
_________1
 62
     7
 10
64.520700000000005
 20
164.61500000000001
 30
0.0
 11
63.672499999999999
 21
163.76599999999999
 31
0.0
  0
ARC
  5
3C3
  8
_________1
 62
     7
 10
64.901731999999996
 20
164.261124
 30
0.0
 40
0.5197560000000001
 50
137.15107900000001
 51
222.84892099999999
  0
ARC
  5
3C4
  8
_________1
 62
     7
 10
63.535463
 20
163.854434
 30
0.0
 40
1.241098
 50
56.167788999999992
 51
133.42294799999999
  0
ARC
  5
3C5
  8
_________1
 62
     7
 10
64.379699999999985
 20
164.756787
 30
0.0
 40
0.200231
 50
314.75293900000003
 51
359.72978000000001
  0
ARC
  5
3C6
  8
_________1
 62
     7
 10
64.372456999999997
 20
164.74816299999989
 30
0.0
 40
0.207614
 50
2.1200179999999991
 51
88.077203999999995
  0
ARC
  5
3C7
  8
_________1
 62
     7
 10
64.380043999999998
 20
164.754547
 30
0.0
 40
0.201113
 50
90.176982999999993
 51
134.864124
  0
LINE
  5
3C8
  8
_________1
 62
     7
 10
64.238200000000006
 20
164.89699999999999
 30
0.0
 11
63.389299999999999
 21
164.04900000000001
 31
0.0
  0
LINE
  5
3C9
  8
_________1
 62
     7
 10
65.581800000000001
 20
162.84700000000001
 30
0.0
 11
65.086399999999983
 21
162.352
 31
0.0
  0
LINE
  5
3CA
  8
_________1
 62
     7
 10
65.4405
 20
162.70500000000001
 30
0.0
 11
67.100399999999993
 21
161.04499999999999
 31
0.0
  0
LINE
  5
3CB
  8
_________1
 62
     7
 10
63.531199999999998
 20
162.91800000000001
 30
0.0
 11
64.5916
 21
161.857
 31
0.0
  0
LINE
  5
3CC
  8
_________1
 62
     7
 10
62.823599999999999
 20
162.91800000000001
 30
0.0
 11
63.672499999999999
 21
163.76599999999999
 31
0.0
  0
ARC
  5
3CD
  8
_________1
 62
     7
 10
63.177422
 20
162.53531699999999
 30
0.0
 40
0.5208350000000001
 50
47.209491
 51
132.79048900000001
  0
ARC
  5
3CE
  8
_________1
 62
     7
 10
63.582239999999999
 20
163.903175
 30
0.0
 40
1.239689
 50
136.54316
 51
213.86182299999999
  0
ARC
  5
3CF
  8
_________1
 62
     7
 10
62.693080000000002
 20
163.05877799999999
 30
0.0
 40
0.207477
 50
137.09403800000001
 51
222.90596199999999
  0
ARC
  5
3D0
  8
_________1
 62
     7
 10
62.682357999999986
 20
163.06831099999999
 30
0.0
 40
0.206608
 50
226.86965000000001
 51
313.13037000000003
  0
LINE
  5
3D1
  8
_________1
 62
     7
 10
62.5411
 20
163.19999999999999
 30
0.0
 11
63.389299999999999
 21
164.04900000000001
 31
0.0
  0
LINE
  5
3D2
  8
_________1
 62
     7
 10
64.5916
 20
161.857
 30
0.0
 11
65.086399999999983
 21
162.352
 31
0.0
  0
LINE
  5
3D3
  8
_________1
 62
     7
 10
64.732900000000001
 20
161.99799999999999
 30
0.0
 11
66.383799999999994
 21
160.34700000000001
 31
0.0
  0
ARC
  5
3D4
  8
_________1
 62
     7
 10
73.987526000000003
 20
161.15120099999999
 30
0.0
 40
0.103783
 50
92.101092000000008
 51
177.89887899999999
  0
ARC
  5
3D5
  8
_________1
 62
     7
 10
73.988235000000003
 20
161.15880300000001
 30
0.0
 40
0.104491
 50
182.08202399999999
 51
267.52422200000001
  0
ARC
  5
3D6
  8
_________1
 62
     7
 10
67.803197999999995
 20
167.573621
 30
0.0
 40
0.519211
 50
182.13137900000001
 51
267.868651
  0
ARC
  5
3D7
  8
_________1
 62
     7
 10
67.803875000000005
 20
167.53504000000001
 30
0.0
 40
0.519887
 50
92.203312999999994
 51
177.875631
  0
LINE
  5
3D8
  8
_________1
 62
     7
 10
69.284199999999998
 20
167.05500000000001
 30
0.0
 11
67.783900000000003
 21
167.05500000000001
 31
0.0
  0
LINE
  5
3D9
  8
_________1
 62
     7
 10
69.496099999999984
 20
168.05500000000001
 30
0.0
 11
67.783900000000003
 21
168.05500000000001
 31
0.0
  0
LINE
  5
3DA
  8
_________1
 62
     7
 10
74.983500000000006
 20
159.86500000000001
 30
0.0
 11
74.983500000000006
 21
160.334
 31
0.0
  0
ARC
  5
3DB
  8
_________1
 62
     7
 10
76.000419999999991
 20
159.865714
 30
0.0
 40
1.0169259999999991
 50
180.03152299999999
 51
207.011763
  0
ARC
  5
3DC
  8
_________1
 62
     7
 10
67.379659000000004
 20
161.15891300000001
 30
0.0
 40
0.104577
 50
272.14071000000001
 51
357.85930000000002
  0
ARC
  5
3DD
  8
_________1
 62
     7
 10
67.380420000000001
 20
161.15114700000001
 30
0.0
 40
0.103815
 50
2.130233
 51
88.263540000000006
  0
ARC
  5
3DE
  8
_________1
 62
     7
 10
73.584086999999997
 20
167.55431200000001
 30
0.0
 40
0.5002310000000002
 50
0.00001
 51
89.999980000000008
  0
ARC
  5
3DF
  8
_________1
 62
     7
 10
73.565443999999999
 20
167.57366999999999
 30
0.0
 40
0.5192350000000001
 50
272.05767200000003
 51
357.86336299999999
  0
LINE
  5
3E0
  8
_________1
 62
     7
 10
72.084100000000007
 20
167.05500000000001
 30
0.0
 11
73.584100000000007
 21
167.05500000000001
 31
0.0
  0
LINE
  5
3E1
  8
_________1
 62
     7
 10
71.872200000000007
 20
168.05500000000001
 30
0.0
 11
73.584100000000007
 21
168.05500000000001
 31
0.0
  0
LINE
  5
3E2
  8
_________1
 62
     7
 10
66.383799999999994
 20
159.86500000000001
 30
0.0
 11
66.383799999999994
 21
160.334
 31
0.0
  0
ARC
  5
3E3
  8
_________1
 62
     7
 10
65.369571999999991
 20
159.86572100000001
 30
0.0
 40
1.0142199999999999
 50
332.86609700000002
 51
359.96797900000001
  0
ARC
  5
3E4
  8
_________1
 62
     7
 10
-2.8475199999999998
 20
254.36461399999999
 30
0.0
 40
6.3440019999999988
 50
283.30523699999998
 51
346.690586
  0
ARC
  5
3E5
  8
_________1
 62
     7
 10
-2.6054550000000001
 20
254.36708999999999
 30
0.0
 40
6.347211999999999
 50
193.32554200000001
 51
256.682863
  0
ARC
  5
3E6
  8
_________1
 62
     7
 10
-2.6074199999999998
 20
254.124021
 30
0.0
 40
6.3448469999999988
 50
103.303957
 51
166.68763899999999
  0
ARC
  5
3E7
  8
_________1
 62
     7
 10
-2.848703
 20
254.12357399999999
 30
0.0
 40
6.3453730000000004
 50
13.315365999999999
 51
76.686717999999999
  0
ARC
  5
3E8
  8
_________1
 62
     7
 10
-2.805502999999999
 20
254.32263499999999
 30
0.0
 40
3.8298719999999991
 50
282.12440500000002
 51
347.82857799999999
  0
ARC
  5
3E9
  8
_________1
 62
     7
 10
-2.6488860000000001
 20
254.323565
 30
0.0
 40
3.8311299999999999
 50
192.142089
 51
257.81763000000001
  0
ARC
  5
3EA
  8
_________1
 62
     7
 10
-2.6501389999999989
 20
254.16663600000001
 30
0.0
 40
3.8295899999999992
 50
102.125997
 51
167.82694100000001
  0
ARC
  5
3EB
  8
_________1
 62
     7
 10
-2.8063090000000002
 20
254.16626199999999
 30
0.0
 40
3.830503999999999
 50
12.133646000000001
 51
77.812589000000003
  0
ARC
  5
3EC
  8
_________1
 62
     7
 10
-42.847155999999998
 20
254.36381299999999
 30
0.0
 40
6.3432459999999988
 50
283.307793
 51
346.69640500000003
  0
ARC
  5
3ED
  8
_________1
 62
     7
 10
-42.606811999999991
 20
254.36561
 30
0.0
 40
6.3454319999999989
 50
193.31562099999999
 51
256.6927839999999
  0
ARC
  5
3EE
  8
_________1
 62
     7
 10
-42.607469000000002
 20
254.12419199999999
 30
0.0
 40
6.3446419999999986
 50
103.302812
 51
166.688783
  0
ARC
  5
3EF
  8
_________1
 62
     7
 10
-42.848421000000002
 20
254.124292
 30
0.0
 40
6.3447170000000002
 50
13.310103
 51
76.683605
  0
ARC
  5
3F0
  8
_________1
 62
     7
 10
-42.80498
 20
254.32169999999999
 30
0.0
 40
3.8289449999999992
 50
282.12651
 51
347.83990499999999
  0
ARC
  5
3F1
  8
_________1
 62
     7
 10
-42.648666999999989
 20
254.32356799999999
 30
0.0
 40
3.831226
 50
192.141828
 51
257.81117
  0
ARC
  5
3F2
  8
_________1
 62
     7
 10
-42.65046199999999
 20
254.16717600000001
 30
0.0
 40
3.8290419999999989
 50
102.126229
 51
167.833426
  0
ARC
  5
3F3
  8
_________1
 62
     7
 10
-42.807565999999987
 20
254.164885
 30
0.0
 40
3.8321419999999988
 50
12.149447
 51
77.796788000000006
  0
ARC
  5
3F4
  8
_________1
 62
     7
 10
-22.682635999999999
 20
226.054157
 30
0.0
 40
2.2113869999999989
 50
146.56335799999999
 51
233.683706
  0
ARC
  5
3F5
  8
_________1
 62
     7
 10
-22.748857000000001
 20
226.224469
 30
0.0
 40
2.314541999999999
 50
237.50429600000001
 51
321.91083800000001
  0
ARC
  5
3F6
  8
_________1
 62
     7
 10
-22.677546
 20
226.04518400000001
 30
0.0
 40
2.1500129999999991
 50
324.49976199999998
 51
359.71955700000001
  0
ARC
  5
3F7
  8
_________1
 62
     7
 10
-22.661069999999999
 20
226.02901
 30
0.0
 40
2.1335189999999988
 50
0.151744
 51
35.672688000000001
  0
ARC
  5
3F8
  8
_________1
 62
     7
 10
-22.649743999999998
 20
225.927865
 30
0.0
 40
2.6339730000000001
 50
135.48767799999999
 51
222.097465
  0
ARC
  5
3F9
  8
_________1
 62
     7
 10
-22.725172000000001
 20
226.13243199999999
 30
0.0
 40
2.722674
 50
226.35976700000001
 51
311.29934500000002
  0
ARC
  5
3FA
  8
_________1
 62
     7
 10
-22.708181
 20
225.95513700000001
 30
0.0
 40
2.5803709999999991
 50
313.614757
 51
359.45938100000001
  0
ARC
  5
3FB
  8
_________1
 62
     7
 10
-22.684539000000001
 20
225.91633899999999
 30
0.0
 40
2.5566550000000001
 50
0.323863
 51
46.599620999999999
  0
ARC
  5
3FC
  8
_________1
 62
     7
 10
-22.70083
 20
226.20901599999999
 30
0.0
 40
1.8285579999999999
 50
182.20915400000001
 51
269.15004399999998
  0
ARC
  5
3FD
  8
_________1
 62
     7
 10
-22.778479999999998
 20
226.24705499999999
 30
0.0
 40
1.8670789999999999
 50
271.550658
 51
349.058066
  0
ARC
  5
3FE
  8
_________1
 62
     7
 10
-22.658428000000001
 20
226.13788099999999
 30
0.0
 40
1.730545999999999
 50
351.85359899999997
 51
0.021525
  0
ARC
  5
3FF
  8
_________1
 62
     7
 10
-21.623187000000001
 20
252.33557099999999
 30
0.0
 40
1.0887999999999991
 50
309.68734000000001
 51
330.04477400000002
  0
ARC
  5
400
  8
_________1
 62
     7
 10
-21.639707000000001
 20
256.129548
 30
0.0
 40
1.1151809999999991
 50
30.600977
 51
89.394886
  0
ARC
  5
401
  8
_________1
 62
     7
 10
-24.904140000000002
 20
254.24448599999999
 30
0.0
 40
1.115222999999999
 50
150.60221999999999
 51
209.39778000000001
  0
ARC
  5
402
  8
_________1
 62
     7
 10
-20.536356999999999
 20
254.246287
 30
0.0
 40
1.1033129999999991
 50
330.14541400000002
 51
359.90649000000002
  0
ARC
  5
403
  8
_________1
 62
     7
 10
-20.537095999999998
 20
254.24248800000001
 30
0.0
 40
1.104052
 50
0.103702
 51
29.844393
  0
ARC
  5
404
  8
_________1
 62
     7
 10
-23.831581
 20
252.336534
 30
0.0
 40
1.0902709999999991
 50
209.969123
 51
230.29880299999999
  0
ARC
  5
405
  8
_________1
 62
     7
 10
-23.814578999999998
 20
256.126913
 30
0.0
 40
1.1178349999999999
 50
90.686965999999984
 51
149.33274399999999
  0
LINE
  5
406
  8
_________1
 62
     7
 10
-25.325900000000001
 20
255.744
 30
0.0
 11
-25.875800000000002
 21
254.792
 31
0.0
  0
LINE
  5
407
  8
_________1
 62
     7
 10
-24.7761
 20
256.697
 30
0.0
 11
-25.325900000000001
 21
255.744
 31
0.0
  0
LINE
  5
408
  8
_________1
 62
     7
 10
-20.1296
 20
252.744
 30
0.0
 11
-20.6798
 21
251.792
 31
0.0
  0
LINE
  5
409
  8
_________1
 62
     7
 10
-19.579499999999999
 20
253.697
 30
0.0
 11
-20.1296
 21
252.744
 31
0.0
  0
LINE
  5
40A
  8
_________1
 62
     7
 10
-20.1296
 20
255.744
 30
0.0
 11
-20.6798
 21
256.697
 31
0.0
  0
LINE
  5
40B
  8
_________1
 62
     7
 10
-19.579499999999999
 20
254.792
 30
0.0
 11
-20.1296
 21
255.744
 31
0.0
  0
LINE
  5
40C
  8
_________1
 62
     7
 10
-25.325900000000001
 20
252.744
 30
0.0
 11
-25.875800000000002
 21
253.697
 31
0.0
  0
LINE
  5
40D
  8
_________1
 62
     7
 10
-24.7761
 20
251.792
 30
0.0
 11
-25.325900000000001
 21
252.744
 31
0.0
  0
LINE
  5
40E
  8
_________1
 62
     7
 10
-22.728000000000002
 20
257.245
 30
0.0
 11
-21.627600000000001
 21
257.245
 31
0.0
  0
LINE
  5
40F
  8
_________1
 62
     7
 10
-23.827999999999999
 20
257.245
 30
0.0
 11
-22.728000000000002
 21
257.245
 31
0.0
  0
LINE
  5
410
  8
_________1
 62
     7
 10
-20.927900000000001
 20
254.245
 30
0.0
 11
-20.927900000000001
 21
226.13900000000001
 31
0.0
  0
LINE
  5
411
  8
_________1
 62
     7
 10
-24.527999999999999
 20
254.245
 30
0.0
 11
-24.527999999999999
 21
226.13900000000001
 31
0.0
  0
ARC
  5
412
  8
_________1
 62
     7
 10
-22.72787000000001
 20
254.24457200000001
 30
0.0
 40
1.7999879999999999
 50
0.002751
 51
90.002722000000006
  0
ARC
  5
413
  8
_________1
 62
     7
 10
-22.658731
 20
254.17525599999999
 30
0.0
 40
1.8705860000000001
 50
92.120795999999984
 51
177.87369100000001
  0
ARC
  5
414
  8
_________1
 62
     7
 10
-22.752220000000001
 20
254.253838
 30
0.0
 40
2.4244949999999998
 50
318.80402400000003
 51
359.78307899999999
  0
ARC
  5
415
  8
_________1
 62
     7
 10
-22.819977000000002
 20
254.152458
 30
0.0
 40
2.4939399999999998
 50
2.1186979999999989
 51
87.885403999999994
  0
ARC
  5
416
  8
_________1
 62
     7
 10
-22.727868999999998
 20
254.244744
 30
0.0
 40
2.399954999999999
 50
90.00205600000001
 51
180.00206600000001
  0
ARC
  5
417
  8
_________1
 62
     7
 10
-22.702493
 20
254.25376399999999
 30
0.0
 40
2.4253480000000001
 50
180.21512999999999
 51
221.17604900000001
  0
ARC
  5
418
  8
_________1
 62
     7
 10
-22.778936000000002
 20
254.270061
 30
0.0
 40
3.0510950000000001
 50
307.35022800000002
 51
359.522966
  0
ARC
  5
419
  8
_________1
 62
     7
 10
-22.727955999999999
 20
254.24465799999999
 30
0.0
 40
3.000008999999999
 50
0.00001
 51
89.999980000000008
  0
ARC
  5
41A
  8
_________1
 62
     7
 10
-22.727955000000001
 20
254.24465799999999
 30
0.0
 40
3.000008999999999
 50
90.0
 51
179.99996999999999
  0
ARC
  5
41B
  8
_________1
 62
     7
 10
-22.678951999999999
 20
254.26907199999999
 30
0.0
 40
3.0491090000000001
 50
180.45878400000001
 51
232.66806199999999
  0
ARC
  5
41C
  8
_________1
 62
     7
 10
-22.792767000000001
 20
254.28038799999999
 30
0.0
 40
3.464982
 50
302.561823
 51
359.40918499999998
  0
ARC
  5
41D
  8
_________1
 62
     7
 10
-22.72787000000001
 20
254.24457200000001
 30
0.0
 40
3.3999009999999998
 50
0.001461
 51
90.001431999999994
  0
ARC
  5
41E
  8
_________1
 62
     7
 10
-22.728041000000001
 20
254.24457200000001
 30
0.0
 40
3.3999009999999998
 50
89.998548999999997
 51
179.99851899999999
  0
ARC
  5
41F
  8
_________1
 62
     7
 10
-22.663164999999999
 20
254.28037599999999
 30
0.0
 40
3.4649610000000002
 50
180.5906479999999
 51
237.43838400000001
  0
ARC
  5
420
  8
_________1
 62
     7
 10
-22.823319000000001
 20
254.30502000000001
 30
0.0
 40
4.2960750000000001
 50
296.18061599999999
 51
359.19494200000003
  0
ARC
  5
421
  8
_________1
 62
     7
 10
-22.727784
 20
254.24448599999999
 30
0.0
 40
4.2001150000000003
 50
0.00236
 51
90.002329999999986
  0
ARC
  5
422
  8
_________1
 62
     7
 10
-22.727955000000001
 20
254.24465799999999
 30
0.0
 40
4.1999430000000002
 50
90.0
 51
179.99996999999999
  0
ARC
  5
423
  8
_________1
 62
     7
 10
-22.631329000000001
 20
254.305429
 30
0.0
 40
4.2969989999999987
 50
180.81035600000001
 51
243.80669499999999
  0
ARC
  5
424
  8
_________1
 62
     7
 10
-22.903265999999999
 20
254.37473399999999
 30
0.0
 40
6.3768149999999997
 50
288.05225300000001
 51
358.831187
  0
ARC
  5
425
  8
_________1
 62
     7
 10
-22.816549999999999
 20
254.24186800000001
 30
0.0
 40
6.1115830000000004
 50
179.97543300000001
 51
186.55591100000001
  0
ARC
  5
426
  8
_________1
 62
     7
 10
-22.589472000000001
 20
254.36008000000001
 30
0.0
 40
6.3513320000000002
 50
187.38148000000001
 51
252.22857999999999
  0
ARC
  5
427
  8
_________1
 62
     7
 10
-20.886433
 20
189.570561
 30
0.0
 40
0.358531
 50
0.156304
 51
30.733346999999998
  0
ARC
  5
428
  8
_________1
 62
     7
 10
-21.069534000000001
 20
189.473995
 30
0.0
 40
0.565364
 50
29.662226
 51
46.519269999999999
  0
ARC
  5
429
  8
_________1
 62
     7
 10
-21.378115999999999
 20
189.16484299999999
 30
0.0
 40
1.002087999999999
 50
45.880108
 51
59.829568000000002
  0
ARC
  5
42A
  8
_________1
 62
     7
 10
-21.801257
 20
188.48433600000001
 30
0.0
 40
1.8032269999999999
 50
59.072845999999998
 51
68.955097999999992
  0
ARC
  5
42B
  8
_________1
 62
     7
 10
-22.226835000000001
 20
187.446642
 30
0.0
 40
2.9246340000000002
 50
68.474016000000006
 51
76.460543000000001
  0
ARC
  5
42C
  8
_________1
 62
     7
 10
-22.598293999999999
 20
186.0039689999999
 30
0.0
 40
4.4142390000000002
 50
76.15701700000001
 51
85.924335999999997
  0
ARC
  5
42D
  8
_________1
 62
     7
 10
-22.723755000000001
 20
184.85194200000001
 30
0.0
 40
5.572436999999999
 50
85.479480000000009
 51
90.043177999999997
  0
ARC
  5
42E
  8
_________1
 62
     7
 10
-22.729531000000001
 20
185.00724500000001
 30
0.0
 40
5.417133999999999
 50
89.983320999999975
 51
100.379572
  0
ARC
  5
42F
  8
_________1
 62
     7
 10
-23.052517000000002
 20
186.89680899999999
 30
0.0
 40
3.5003730000000002
 50
100.751791
 51
111.551064
  0
ARC
  5
430
  8
_________1
 62
     7
 10
-23.629066000000002
 20
188.43389999999999
 30
0.0
 40
1.859172
 50
112.425641
 51
121.81487199999999
  0
ARC
  5
431
  8
_________1
 62
     7
 10
-24.060396000000001
 20
189.14303799999999
 30
0.0
 40
1.029215999999999
 50
122.222161
 51
135.475403
  0
ARC
  5
432
  8
_________1
 62
     7
 10
-24.409956999999999
 20
189.49633600000001
 30
0.0
 40
0.5323020000000001
 50
136.20363599999999
 51
161.01926700000001
  0
ARC
  5
433
  8
_________1
 62
     7
 10
-24.580632999999999
 20
189.570716
 30
0.0
 40
0.34703
 50
163.467545
 51
179.86412000000001
  0
ARC
  5
434
  8
_________1
 62
     7
 10
-21.221986000000001
 20
189.796786
 30
0.0
 40
1.398277
 50
299.77734600000002
 51
309.28576600000002
  0
ARC
  5
435
  8
_________1
 62
     7
 10
-20.825526
 20
189.30148399999999
 30
0.0
 40
0.7639100000000001
 50
309.79280499999999
 51
324.90797500000008
  0
ARC
  5
436
  8
_________1
 62
     7
 10
-20.547193
 20
189.09925699999999
 30
0.0
 40
0.419947
 50
325.65258899999998
 51
357.71384399999999
  0
ARC
  5
437
  8
_________1
 62
     7
 10
-20.495317
 20
189.08144300000001
 30
0.0
 40
0.367738
 50
0.165418
 51
31.090596000000001
  0
ARC
  5
438
  8
_________1
 62
     7
 10
-20.692463
 20
188.97622699999999
 30
0.0
 40
0.591012
 50
29.956022999999998
 51
46.462555999999999
  0
ARC
  5
439
  8
_________1
 62
     7
 10
-21.005631999999999
 20
188.66531499999999
 30
0.0
 40
1.0322
 50
45.748740999999988
 51
58.873674000000001
  0
ARC
  5
43A
  8
_________1
 62
     7
 10
-21.467873999999998
 20
187.94373899999999
 30
0.0
 40
1.8889720000000001
 50
58.185403999999991
 51
68.044628000000003
  0
ARC
  5
43B
  8
_________1
 62
     7
 10
-21.965903000000001
 20
186.781778
 30
0.0
 40
3.1529869999999991
 50
67.545418999999995
 51
74.947822000000002
  0
ARC
  5
43C
  8
_________1
 62
     7
 10
-22.451174000000002
 20
185.072925
 30
0.0
 40
4.929295999999999
 50
74.659150999999994
 51
83.860685000000018
  0
ARC
  5
43D
  8
_________1
 62
     7
 10
-22.711542000000001
 20
183.20291
 30
0.0
 40
6.8166859999999989
 50
83.365750000000006
 51
90.135052000000002
  0
ARC
  5
43E
  8
_________1
 62
     7
 10
-22.726330999999998
 20
183.083339
 30
0.0
 40
6.9362380000000003
 50
90.010561999999993
 51
99.363337000000016
  0
ARC
  5
43F
  8
_________1
 62
     7
 10
-23.089234999999999
 20
185.45604399999999
 30
0.0
 40
4.5361890000000002
 50
99.716468999999975
 51
109.00030599999999
  0
ARC
  5
440
  8
_________1
 62
     7
 10
-23.736082
 20
187.415412
 30
0.0
 40
2.473117999999999
 50
109.60992299999999
 51
118.10017999999999
  0
ARC
  5
441
  8
_________1
 62
     7
 10
-24.241472000000002
 20
188.378164
 30
0.0
 40
1.3858250000000001
 50
118.416623
 51
129.51864499999999
  0
ARC
  5
442
  8
_________1
 62
     7
 10
-24.685137999999998
 20
188.921504
 30
0.0
 40
0.684374
 50
129.810902
 51
152.56691799999999
  0
ARC
  5
443
  8
_________1
 62
     7
 10
-24.951104000000001
 20
189.07802100000001
 30
0.0
 40
0.376563
 50
155.06052800000001
 51
179.31777099999999
  0
ARC
  5
444
  8
_________1
 62
     7
 10
-24.966191999999999
 20
189.082888
 30
0.0
 40
0.3614489999999999
 50
180.060811
 51
210.70604900000001
  0
ARC
  5
445
  8
_________1
 62
     7
 10
-24.759658000000002
 20
189.19077200000001
 30
0.0
 40
0.594252
 50
209.48098899999999
 51
226.96621099999999
  0
ARC
  5
446
  8
_________1
 62
     7
 10
-24.400292
 20
189.55554599999999
 30
0.0
 40
1.1062110000000001
 50
226.25421
 51
241.52756500000001
  0
LINE
  5
447
  8
_________1
 62
     7
 10
-20.527899999999999
 20
188.602
 30
0.0
 11
-20.5276
 21
188.10400000000001
 31
0.0
  0
LINE
  5
448
  8
_________1
 62
     7
 10
-24.927700000000002
 20
188.602
 30
0.0
 11
-24.927700000000002
 21
188.10400000000001
 31
0.0
  0
ARC
  5
449
  8
_________1
 62
     7
 10
-20.637049999999999
 20
188.60140999999999
 30
0.0
 40
0.109148
 50
0.353438
 51
36.444339999999997
  0
ARC
  5
44A
  8
_________1
 62
     7
 10
-20.725888000000001
 20
188.5447199999999
 30
0.0
 40
0.214409
 50
34.527884
 51
48.649778999999988
  0
ARC
  5
44B
  8
_________1
 62
     7
 10
-20.854403000000001
 20
188.400036
 30
0.0
 40
0.4079270000000001
 50
48.525067999999997
 51
58.867581999999999
  0
ARC
  5
44C
  8
_________1
 62
     7
 10
-21.041734999999999
 20
188.09246400000001
 30
0.0
 40
0.7680560000000001
 50
58.768323000000002
 51
66.331632999999997
  0
ARC
  5
44D
  8
_________1
 62
     7
 10
-21.296745999999999
 20
187.517684
 30
0.0
 40
1.3968629999999991
 50
66.215943999999993
 51
71.794048000000004
  0
ARC
  5
44E
  8
_________1
 62
     7
 10
-21.598253
 20
186.61366699999999
 30
0.0
 40
2.3498290000000002
 50
71.697288
 51
76.012519999999995
  0
ARC
  5
44F
  8
_________1
 62
     7
 10
-22.051636999999999
 20
184.778818
 30
0.0
 40
4.2398610000000003
 50
76.060632999999996
 51
82.495170999999999
  0
ARC
  5
450
  8
_________1
 62
     7
 10
-22.552422
 20
181.38856200000001
 30
0.0
 40
7.666669999999999
 50
82.093888000000007
 51
87.004776000000007
  0
ARC
  5
451
  8
_________1
 62
     7
 10
-22.719953
 20
178.884728
 30
0.0
 40
10.175903
 50
86.799427000000009
 51
90.045049000000006
  0
ARC
  5
452
  8
_________1
 62
     7
 10
-22.726804999999999
 20
178.98091299999999
 30
0.0
 40
10.079715
 50
90.006530999999995
 51
95.572096999999985
  0
ARC
  5
453
  8
_________1
 62
     7
 10
-23.088978999999998
 20
182.929946
 30
0.0
 40
6.1142190000000003
 50
95.787453999999997
 51
101.264658
  0
ARC
  5
454
  8
_________1
 62
     7
 10
-23.730217
 20
186.20372
 30
0.0
 40
2.7782729999999991
 50
101.483665
 51
109.318286
  0
ARC
  5
455
  8
_________1
 62
     7
 10
-24.343706000000001
 20
187.974266
 30
0.0
 40
0.9044909999999999
 50
109.747636
 51
123.597458
  0
ARC
  5
456
  8
_________1
 62
     7
 10
-24.706917000000001
 20
188.53087199999999
 30
0.0
 40
0.239946
 50
124.902547
 51
152.089676
  0
ARC
  5
457
  8
_________1
 62
     7
 10
-24.822368999999998
 20
188.601248
 30
0.0
 40
0.105297
 50
156.52771000000001
 51
179.54522900000001
  0
ARC
  5
458
  8
_________1
 62
     7
 10
-21.396370999999998
 20
189.428212
 30
0.0
 40
1.6554479999999989
 50
286.45167600000002
 51
294.93347999999997
  0
ARC
  5
459
  8
_________1
 62
     7
 10
-20.91254
 20
188.376847
 30
0.0
 40
0.498126
 50
295.44914399999999
 51
314.099469
  0
ARC
  5
45A
  8
_________1
 62
     7
 10
-20.666557999999998
 20
188.11562599999999
 30
0.0
 40
0.139449
 50
316.21081800000002
 51
355.39745099999999
  0
ARC
  5
45B
  8
_________1
 62
     7
 10
-20.636562000000001
 20
188.103767
 30
0.0
 40
0.109005
 50
0.351692
 51
36.469134000000011
  0
ARC
  5
45C
  8
_________1
 62
     7
 10
-20.725542999999998
 20
188.04703000000001
 30
0.0
 40
0.214409
 50
34.527884
 51
48.649778999999988
  0
ARC
  5
45D
  8
_________1
 62
     7
 10
-20.853866
 20
187.90226299999989
 30
0.0
 40
0.407862
 50
48.553089999999997
 51
58.89365999999999
  0
ARC
  5
45E
  8
_________1
 62
     7
 10
-21.039469
 20
187.598106
 30
0.0
 40
0.7641740000000001
 50
58.760264999999997
 51
66.361305000000002
  0
ARC
  5
45F
  8
_________1
 62
     7
 10
-21.302561000000001
 20
187.00388100000001
 30
0.0
 40
1.4140319999999991
 50
66.249836000000002
 51
71.760156999999992
  0
ARC
  5
460
  8
_________1
 62
     7
 10
-21.598364
 20
186.11233999999999
 30
0.0
 40
2.353364
 50
71.714072000000002
 51
76.022528000000008
  0
ARC
  5
461
  8
_________1
 62
     7
 10
-22.046780999999999
 20
184.30382900000001
 30
0.0
 40
4.2166370000000004
 50
76.045468999999997
 51
82.515428999999997
  0
ARC
  5
462
  8
_________1
 62
     7
 10
-22.552077000000001
 20
180.89074299999999
 30
0.0
 40
7.666669999999999
 50
82.093888000000007
 51
87.004776000000007
  0
ARC
  5
463
  8
_________1
 62
     7
 10
-22.719608000000001
 20
178.386909
 30
0.0
 40
10.175903
 50
86.799427000000009
 51
90.045049000000006
  0
ARC
  5
464
  8
_________1
 62
     7
 10
-22.726465000000001
 20
178.47864899999999
 30
0.0
 40
10.084160000000001
 50
90.006503000000009
 51
95.570868000000019
  0
ARC
  5
465
  8
_________1
 62
     7
 10
-23.091549000000001
 20
182.44749200000001
 30
0.0
 40
6.0986599999999989
 50
95.776840000000007
 51
101.268749
  0
ARC
  5
466
  8
_________1
 62
     7
 10
-23.731708999999999
 20
185.71008399999999
 30
0.0
 40
2.7738900000000002
 50
101.4697
 51
109.31712899999999
  0
ARC
  5
467
  8
_________1
 62
     7
 10
-24.343143999999999
 20
187.475054
 30
0.0
 40
0.9060489999999999
 50
109.74931599999989
 51
123.57428899999999
  0
ARC
  5
468
  8
_________1
 62
     7
 10
-24.707350000000002
 20
188.033491
 30
0.0
 40
0.239424
 50
124.861794
 51
152.101428
  0
ARC
  5
469
  8
_________1
 62
     7
 10
-24.822749000000002
 20
188.103646
 30
0.0
 40
0.104917
 50
156.47774799999999
 51
179.56864400000001
  0
ARC
  5
46A
  8
_________1
 62
     7
 10
-24.821232999999999
 20
188.104873
 30
0.0
 40
0.106431
 50
180.235197
 51
215.58435399999999
  0
ARC
  5
46B
  8
_________1
 62
     7
 10
-24.733827000000002
 20
188.158852
 30
0.0
 40
0.209041
 50
213.67566400000001
 51
227.749033
  0
ARC
  5
46C
  8
_________1
 62
     7
 10
-24.612347
 20
188.291731
 30
0.0
 40
0.38908
 50
227.66428999999999
 51
237.954183
  0
ARC
  5
46D
  8
_________1
 62
     7
 10
-24.432003000000002
 20
188.57724200000001
 30
0.0
 40
0.7267770000000001
 50
237.84594799999999
 51
245.67259300000009
  0
ARC
  5
46E
  8
_________1
 62
     7
 10
-24.128323000000002
 20
189.24909099999999
 30
0.0
 40
1.4640719999999989
 50
245.6747
 51
254.17056000000011
  0
ARC
  5
46F
  8
_________1
 62
     7
 10
-21.009187000000001
 20
188.10382200000001
 30
0.0
 40
0.081653
 50
0.4311930000000001
 51
41.758332999999993
  0
ARC
  5
470
  8
_________1
 62
     7
 10
-21.100587999999998
 20
188.03552500000001
 30
0.0
 40
0.195571
 50
38.849381000000001
 51
53.480311
  0
ARC
  5
471
  8
_________1
 62
     7
 10
-21.226061999999999
 20
187.868482
 30
0.0
 40
0.404487
 50
53.277678000000002
 51
63.320103999999994
  0
ARC
  5
472
  8
_________1
 62
     7
 10
-21.415752000000001
 20
187.498029
 30
0.0
 40
0.820676
 50
63.099620999999992
 51
69.957847000000001
  0
ARC
  5
473
  8
_________1
 62
     7
 10
-21.670976
 20
186.80444199999999
 30
0.0
 40
1.5597279999999989
 50
69.881889000000001
 51
75.189142000000004
  0
ARC
  5
474
  8
_________1
 62
     7
 10
-21.967831
 20
185.69894500000001
 30
0.0
 40
2.7043840000000001
 50
75.096019999999996
 51
79.062916000000001
  0
ARC
  5
475
  8
_________1
 62
     7
 10
-22.367923000000001
 20
183.615363
 30
0.0
 40
4.8260300000000003
 50
79.092542000000009
 51
85.233418999999998
  0
ARC
  5
476
  8
_________1
 62
     7
 10
-22.700371000000001
 20
180.30857599999999
 30
0.0
 40
8.1492020000000007
 50
84.836054000000004
 51
90.19150599999999
  0
ARC
  5
477
  8
_________1
 62
     7
 10
-22.731273000000002
 20
179.959237
 30
0.0
 40
8.4984960000000012
 50
89.975300000000004
 51
96.154756999999989
  0
ARC
  5
478
  8
_________1
 62
     7
 10
-23.147849999999998
 20
184.011019
 30
0.0
 40
4.4254530000000001
 50
96.416719999999984
 51
102.64561
  0
ARC
  5
479
  8
_________1
 62
     7
 10
-23.673876
 20
186.434336
 30
0.0
 40
1.945838
 50
103.153464
 51
108.09603199999999
  0
ARC
  5
47A
  8
_________1
 62
     7
 10
-23.971070000000001
 20
187.336277
 30
0.0
 40
0.9961999999999999
 50
107.961354
 51
115.163647
  0
ARC
  5
47B
  8
_________1
 62
     7
 10
-24.241952999999999
 20
187.901399
 30
0.0
 40
0.369561
 50
114.40672000000001
 51
135.027207
  0
ARC
  5
47C
  8
_________1
 62
     7
 10
-24.431827999999999
 20
188.098555
 30
0.0
 40
0.096037
 50
138.17801299999999
 51
176.488868
  0
ARC
  5
47D
  8
_________1
 62
     7
 10
-21.009637000000001
 20
185.85398499999999
 30
0.0
 40
0.081758
 50
0.4329
 51
41.735807000000001
  0
ARC
  5
47E
  8
_________1
 62
     7
 10
-21.100597
 20
185.78613200000001
 30
0.0
 40
0.195056
 50
38.821027000000001
 51
53.498668000000002
  0
ARC
  5
47F
  8
_________1
 62
     7
 10
-21.225304000000001
 20
185.62063699999999
 30
0.0
 40
0.4022730000000001
 50
53.242180999999988
 51
63.344268999999997
  0
ARC
  5
480
  8
_________1
 62
     7
 10
-21.416453000000001
 20
185.24825200000001
 30
0.0
 40
0.8208439999999999
 50
63.080990999999997
 51
69.940394999999995
  0
ARC
  5
481
  8
_________1
 62
     7
 10
-21.672025000000001
 20
184.55240599999999
 30
0.0
 40
1.562138
 50
69.889263999999997
 51
75.189456000000007
  0
ARC
  5
482
  8
_________1
 62
     7
 10
-21.972404999999998
 20
183.43220099999999
 30
0.0
 40
2.7219129999999998
 50
75.104202999999984
 51
79.046307999999996
  0
ARC
  5
483
  8
_________1
 62
     7
 10
-22.36955
 20
181.35864900000001
 30
0.0
 40
4.8331530000000003
 50
79.094888999999995
 51
85.226994999999988
  0
ARC
  5
484
  8
_________1
 62
     7
 10
-22.700787999999999
 20
178.06059999999999
 30
0.0
 40
8.1475170000000006
 50
84.835538000000014
 51
90.191037999999992
  0
ARC
  5
485
  8
_________1
 62
     7
 10
-22.731611000000001
 20
177.71235899999999
 30
0.0
 40
8.4957139999999995
 50
89.975336000000027
 51
96.155765000000017
  0
ARC
  5
486
  8
_________1
 62
     7
 10
-23.146329999999999
 20
181.75299799999999
 30
0.0
 40
4.4339510000000004
 50
96.426584000000005
 51
102.644166
  0
ARC
  5
487
  8
_________1
 62
     7
 10
-23.768291999999999
 20
184.54754800000001
 30
0.0
 40
1.5710360000000001
 50
102.820554
 51
113.50873799999999
  0
ARC
  5
488
  8
_________1
 62
     7
 10
-24.242554999999999
 20
185.65212199999999
 30
0.0
 40
0.369008
 50
114.394419
 51
135.05422999999999
  0
ARC
  5
489
  8
_________1
 62
     7
 10
-24.432200000000002
 20
185.84876700000001
 30
0.0
 40
0.096006
 50
138.16380699999999
 51
176.515176
  0
ARC
  5
48A
  8
_________1
 62
     7
 10
-24.446273000000001
 20
185.85522
 30
0.0
 40
0.081758
 50
180.43291999999991
 51
221.735827
  0
ARC
  5
48B
  8
_________1
 62
     7
 10
-24.355494
 20
185.922866
 30
0.0
 40
0.194786
 50
218.80710400000001
 51
233.50405599999999
  0
ARC
  5
48C
  8
_________1
 62
     7
 10
-24.230764000000001
 20
186.08834899999999
 30
0.0
 40
0.4020070000000001
 50
233.24081699999999
 51
243.35024999999999
  0
ARC
  5
48D
  8
_________1
 62
     7
 10
-24.039937999999999
 20
186.459845
 30
0.0
 40
0.8196389999999999
 50
243.075963
 51
249.94546200000011
  0
ARC
  5
48E
  8
_________1
 62
     7
 10
-23.784343
 20
187.15534600000001
 30
0.0
 40
1.560616999999999
 50
249.88669999999999
 51
255.192061
  0
ARC
  5
48F
  8
_________1
 62
     7
 10
-23.483505000000001
 20
188.27700300000001
 30
0.0
 40
2.7219129999999998
 50
255.10422299999999
 51
259.04632800000002
  0
ARC
  5
490
  8
_________1
 62
     7
 10
-23.086486000000001
 20
190.34965099999999
 30
0.0
 40
4.8322409999999998
 50
259.09432900000002
 51
265.22759400000001
  0
ARC
  5
491
  8
_________1
 62
     7
 10
-22.755144999999999
 20
193.64809199999999
 30
0.0
 40
8.147003999999999
 50
264.83538900000002
 51
270.19122700000003
  0
ARC
  5
492
  8
_________1
 62
     7
 10
-22.724299999999999
 20
193.99684600000001
 30
0.0
 40
8.4957139999999995
 50
269.97535599999998
 51
276.15578499999998
  0
ARC
  5
493
  8
_________1
 62
     7
 10
-22.309581000000001
 20
189.95620700000001
 30
0.0
 40
4.4339510000000004
 50
276.426604
 51
282.64418599999999
  0
ARC
  5
494
  8
_________1
 62
     7
 10
-21.687573
 20
187.16148000000001
 30
0.0
 40
1.570854
 50
282.82037500000001
 51
293.509614
  0
ARC
  5
495
  8
_________1
 62
     7
 10
-21.213401000000001
 20
186.05715900000001
 30
0.0
 40
0.369095
 50
294.3952240000001
 51
315.05081000000013
  0
ARC
  5
496
  8
_________1
 62
     7
 10
-21.023710999999999
 20
185.86043799999999
 30
0.0
 40
0.096006
 50
318.16382700000003
 51
356.515196
  0
LINE
  5
497
  8
_________1
 62
     7
 10
-39.927399999999999
 20
161.05500000000001
 30
0.0
 11
-42.727200000000003
 21
161.05500000000001
 31
0.0
  0
LINE
  5
498
  8
_________1
 62
     7
 10
-42.727200000000003
 20
161.05500000000001
 30
0.0
 11
-45.528100000000002
 21
161.05500000000001
 31
0.0
  0
LINE
  5
499
  8
_________1
 62
     7
 10
67.883799999999994
 20
161.05500000000001
 30
0.0
 11
70.683999999999997
 21
161.05500000000001
 31
0.0
  0
LINE
  5
49A
  8
_________1
 62
     7
 10
70.683999999999997
 20
161.05500000000001
 30
0.0
 11
73.484499999999997
 21
161.05500000000001
 31
0.0
  0
LINE
  5
49B
  8
_________1
  6
AIGENLINE001
 62
     7
 10
79.148300000000006
 20
170.88399999999999
 30
0.0
 11
62.583500000000001
 21
170.88399999999999
 31
0.0
  0
LINE
  5
49C
  8
_________1
 62
     7
 10
-5.5282099999999987
 20
161.05500000000001
 30
0.0
 11
-2.728019999999999
 21
161.05500000000001
 31
0.0
  0
LINE
  5
49D
  8
_________1
 62
     7
 10
-2.728019999999999
 20
161.05500000000001
 30
0.0
 11
0.0725197
 21
161.05500000000001
 31
0.0
  0
LINE
  5
49E
  8
_________1
 62
     7
 10
-7.8002599999999997
 20
159.114
 30
0.0
 11
-8.17544
 21
159.03899999999999
 31
0.0
  0
ARC
  5
49F
  8
_________1
 62
     7
 10
-8.1738140000000001
 20
160.822326
 30
0.0
 40
1.748238
 50
282.33769999999998
 51
347.76571899999999
  0
LINE
  5
4A0
  8
_________1
 62
     7
 10
-8.8510200000000001
 20
158.33600000000001
 30
0.0
 11
-8.9281899999999972
 21
157.85499999999999
 31
0.0
  0
ARC
  5
4A1
  8
_________1
 62
     7
 10
-7.9866390000000003
 20
158.18141600000001
 30
0.0
 40
0.8781349999999999
 50
102.415342
 51
169.84695199999999
  0
ARC
  5
4A2
  8
_________1
 62
     7
 10
-5.8002190000000002
 20
160.387291
 30
0.0
 40
0.668154
 50
91.845022
 51
174.48420999999999
  0
LINE
  5
4A3
  8
_________1
 62
     7
 10
2.3449200000000001
 20
159.114
 30
0.0
 11
2.7200899999999999
 21
159.03899999999999
 31
0.0
  0
ARC
  5
4A4
  8
_________1
 62
     7
 10
2.7186829999999991
 20
160.82253900000001
 30
0.0
 40
1.748491
 50
192.23962
 51
257.65700099999998
  0
LINE
  5
4A5
  8
_________1
 62
     7
 10
3.39568
 20
158.33600000000001
 30
0.0
 11
3.4725099999999989
 21
157.85499999999999
 31
0.0
  0
ARC
  5
4A6
  8
_________1
 62
     7
 10
2.5306049999999991
 20
158.18075099999999
 30
0.0
 40
0.8789329999999999
 50
10.187711999999999
 51
77.549955000000011
  0
ARC
  5
4A7
  8
_________1
 62
     7
 10
0.343871
 20
160.38621900000001
 30
0.0
 40
0.6692580000000001
 50
5.5988329999999991
 51
88.071894999999984
  0
LINE
  5
4A8
  8
_________1
 62
     7
 10
-4.6280000000000001
 20
138.655
 30
0.0
 11
-4.8281599999999987
 21
138.85499999999999
 31
0.0
  0
LINE
  5
4A9
  8
_________1
 62
     7
 10
-4.6280000000000001
 20
138.655
 30
0.0
 11
-2.7276699999999998
 21
138.655
 31
0.0
  0
LINE
  5
4AA
  8
_________1
 62
     7
 10
-4.8281599999999987
 20
138.85499999999999
 30
0.0
 11
-2.728019999999999
 21
138.85499999999999
 31
0.0
  0
LINE
  5
4AB
  8
_________1
 62
     7
 10
-5.3280500000000002
 20
147.05500000000001
 30
0.0
 11
-5.1282300000000003
 21
147.255
 31
0.0
  0
LINE
  5
4AC
  8
_________1
 62
     7
 10
-5.3280500000000002
 20
145.155
 30
0.0
 11
-5.3280500000000002
 21
147.05500000000001
 31
0.0
  0
LINE
  5
4AD
  8
_________1
 62
     7
 10
-5.3280500000000002
 20
140.655
 30
0.0
 11
-5.3280500000000002
 21
142.155
 31
0.0
  0
LINE
  5
4AE
  8
_________1
 62
     7
 10
-4.6280000000000001
 20
138.655
 30
0.0
 11
-4.6280000000000001
 21
140.655
 31
0.0
  0
LINE
  5
4AF
  8
_________1
 62
     7
 10
-4.8281599999999987
 20
138.85499999999999
 30
0.0
 11
-4.8281599999999987
 21
140.655
 31
0.0
  0
LINE
  5
4B0
  8
_________1
 62
     7
 10
-5.3280500000000002
 20
140.655
 30
0.0
 11
-2.728019999999999
 21
140.655
 31
0.0
  0
LINE
  5
4B1
  8
_________1
 62
     7
 10
-5.3280500000000002
 20
147.255
 30
0.0
 11
-2.7276699999999998
 21
147.255
 31
0.0
  0
LINE
  5
4B2
  8
_________1
 62
     7
 10
-5.1282300000000003
 20
147.255
 30
0.0
 11
-5.1282300000000003
 21
150.45400000000001
 31
0.0
  0
LINE
  5
4B3
  8
_________1
 62
     7
 10
-5.3280500000000002
 20
147.05500000000001
 30
0.0
 11
-5.3280500000000002
 21
150.45400000000001
 31
0.0
  0
LINE
  5
4B4
  8
_________1
 62
     7
 10
-5.3280500000000002
 20
147.05500000000001
 30
0.0
 11
-2.728019999999999
 21
147.05500000000001
 31
0.0
  0
LINE
  5
4B5
  8
_________1
 62
     7
 10
-4.5280899999999988
 20
147.05500000000001
 30
0.0
 11
-2.728019999999999
 21
147.05500000000001
 31
0.0
  0
LINE
  5
4B6
  8
_________1
 62
     7
 10
-4.5280899999999988
 20
150.45400000000001
 30
0.0
 11
-4.5280899999999988
 21
151.45500000000001
 31
0.0
  0
LINE
  5
4B7
  8
_________1
 62
     7
 10
-6.3281599999999987
 20
150.45400000000001
 30
0.0
 11
-6.3281599999999987
 21
151.45500000000001
 31
0.0
  0
LINE
  5
4B8
  8
_________1
 62
     7
 10
-6.3281599999999987
 20
150.45400000000001
 30
0.0
 11
-4.5280899999999988
 21
150.45400000000001
 31
0.0
  0
LINE
  5
4B9
  8
_________1
 62
     7
 10
-4.5280899999999988
 20
150.45400000000001
 30
0.0
 11
-2.728019999999999
 21
150.45400000000001
 31
0.0
  0
LINE
  5
4BA
  8
_________1
 62
     7
 10
-7.12812
 20
151.45500000000001
 30
0.0
 11
-7.12812
 21
151.85499999999999
 31
0.0
  0
LINE
  5
4BB
  8
_________1
 62
     7
 10
-7.12812
 20
151.45500000000001
 30
0.0
 11
-2.728019999999999
 21
151.45500000000001
 31
0.0
  0
LINE
  5
4BC
  8
_________1
 62
     7
 10
-7.12812
 20
151.655
 30
0.0
 11
-2.728019999999999
 21
151.655
 31
0.0
  0
LINE
  5
4BD
  8
_________1
 62
     7
 10
-7.12812
 20
151.85499999999999
 30
0.0
 11
-2.728019999999999
 21
151.85499999999999
 31
0.0
  0
LINE
  5
4BE
  8
_________1
 62
     7
 10
-5.1282300000000003
 20
151.85499999999999
 30
0.0
 11
-5.1282300000000003
 21
157.85499999999999
 31
0.0
  0
LINE
  5
4BF
  8
_________1
 62
     7
 10
-5.3280500000000002
 20
151.85499999999999
 30
0.0
 11
-5.3280500000000002
 21
157.85499999999999
 31
0.0
  0
LINE
  5
4C0
  8
_________1
 62
     7
 10
-5.8217299999999996
 20
161.05500000000001
 30
0.0
 11
-2.728019999999999
 21
161.05500000000001
 31
0.0
  0
LINE
  5
4C1
  8
_________1
 62
     7
 10
-6.3329899999999997
 20
159.45400000000001
 30
0.0
 11
-2.728019999999999
 21
159.45400000000001
 31
0.0
  0
LINE
  5
4C2
  8
_________1
 62
     7
 10
-8.9281899999999972
 20
157.85499999999999
 30
0.0
 11
-2.728019999999999
 21
157.85499999999999
 31
0.0
  0
LINE
  5
4C3
  8
_________1
 62
     7
 10
-0.8270000000000001
 20
138.655
 30
0.0
 11
-0.627184
 21
138.85499999999999
 31
0.0
  0
LINE
  5
4C4
  8
_________1
 62
     7
 10
-0.8270000000000001
 20
138.655
 30
0.0
 11
-2.7276699999999998
 21
138.655
 31
0.0
  0
LINE
  5
4C5
  8
_________1
 62
     7
 10
-0.627184
 20
138.85499999999999
 30
0.0
 11
-2.7273299999999989
 21
138.85499999999999
 31
0.0
  0
LINE
  5
4C6
  8
_________1
 62
     7
 10
-0.127297
 20
147.05500000000001
 30
0.0
 11
-0.3271139999999999
 21
147.255
 31
0.0
  0
LINE
  5
4C7
  8
_________1
 62
     7
 10
-0.127297
 20
140.655
 30
0.0
 11
-0.127297
 21
147.05500000000001
 31
0.0
  0
LINE
  5
4C8
  8
_________1
 62
     7
 10
-0.8270000000000001
 20
138.655
 30
0.0
 11
-0.8270000000000001
 21
140.655
 31
0.0
  0
LINE
  5
4C9
  8
_________1
 62
     7
 10
-0.627184
 20
138.85499999999999
 30
0.0
 11
-0.627184
 21
140.655
 31
0.0
  0
LINE
  5
4CA
  8
_________1
 62
     7
 10
-0.127297
 20
140.655
 30
0.0
 11
-2.7273299999999989
 21
140.655
 31
0.0
  0
LINE
  5
4CB
  8
_________1
 62
     7
 10
-0.127297
 20
147.255
 30
0.0
 11
-2.7276699999999998
 21
147.255
 31
0.0
  0
LINE
  5
4CC
  8
_________1
 62
     7
 10
-0.3271139999999999
 20
147.255
 30
0.0
 11
-0.3271139999999999
 21
150.45400000000001
 31
0.0
  0
LINE
  5
4CD
  8
_________1
 62
     7
 10
-0.127297
 20
147.05500000000001
 30
0.0
 11
-0.127297
 21
150.45400000000001
 31
0.0
  0
LINE
  5
4CE
  8
_________1
 62
     7
 10
-0.127297
 20
147.05500000000001
 30
0.0
 11
-2.7273299999999989
 21
147.05500000000001
 31
0.0
  0
LINE
  5
4CF
  8
_________1
 62
     7
 10
-0.9272530000000001
 20
147.05500000000001
 30
0.0
 11
-2.7273299999999989
 21
147.05500000000001
 31
0.0
  0
LINE
  5
4D0
  8
_________1
 62
     7
 10
-0.9272530000000001
 20
150.45400000000001
 30
0.0
 11
-0.9272530000000001
 21
151.45500000000001
 31
0.0
  0
LINE
  5
4D1
  8
_________1
 62
     7
 10
0.8728200000000002
 20
150.45400000000001
 30
0.0
 11
0.8728200000000002
 21
151.45500000000001
 31
0.0
  0
LINE
  5
4D2
  8
_________1
 62
     7
 10
0.8728200000000002
 20
150.45400000000001
 30
0.0
 11
-0.9272530000000001
 21
150.45400000000001
 31
0.0
  0
LINE
  5
4D3
  8
_________1
 62
     7
 10
-0.9272530000000001
 20
150.45400000000001
 30
0.0
 11
-2.7273299999999989
 21
150.45400000000001
 31
0.0
  0
LINE
  5
4D4
  8
_________1
 62
     7
 10
1.672779999999999
 20
151.45500000000001
 30
0.0
 11
1.672779999999999
 21
151.85499999999999
 31
0.0
  0
LINE
  5
4D5
  8
_________1
 62
     7
 10
1.672779999999999
 20
151.45500000000001
 30
0.0
 11
-2.7273299999999989
 21
151.45500000000001
 31
0.0
  0
LINE
  5
4D6
  8
_________1
 62
     7
 10
1.672779999999999
 20
151.655
 30
0.0
 11
-2.7273299999999989
 21
151.655
 31
0.0
  0
LINE
  5
4D7
  8
_________1
 62
     7
 10
1.672779999999999
 20
151.85499999999999
 30
0.0
 11
-2.7273299999999989
 21
151.85499999999999
 31
0.0
  0
LINE
  5
4D8
  8
_________1
 62
     7
 10
-0.3271139999999999
 20
151.85499999999999
 30
0.0
 11
-0.3271139999999999
 21
157.85499999999999
 31
0.0
  0
LINE
  5
4D9
  8
_________1
 62
     7
 10
-0.127297
 20
151.85499999999999
 30
0.0
 11
-0.127297
 21
157.85499999999999
 31
0.0
  0
LINE
  5
4DA
  8
_________1
 62
     7
 10
0.366388
 20
161.05500000000001
 30
0.0
 11
-2.7273299999999989
 21
161.05500000000001
 31
0.0
  0
LINE
  5
4DB
  8
_________1
 62
     7
 10
0.877644
 20
159.45400000000001
 30
0.0
 11
-2.7273299999999989
 21
159.45400000000001
 31
0.0
  0
LINE
  5
4DC
  8
_________1
 62
     7
 10
3.4725099999999989
 20
157.85499999999999
 30
0.0
 11
-2.7273299999999989
 21
157.85499999999999
 31
0.0
  0
LINE
  5
4DD
  8
_________1
  6
AIGENLINE001
 62
     7
 10
-2.7276699999999998
 20
137.99199999999999
 30
0.0
 11
-2.7276699999999998
 21
176.548
 31
0.0
  0
LINE
  5
4DE
  8
_________1
 62
     7
 10
-20.927900000000001
 20
188.10400000000001
 30
0.0
 11
-20.927900000000001
 21
172.45500000000001
 31
0.0
  0
LINE
  5
4DF
  8
_________1
 62
     7
 10
-20.927900000000001
 20
198.05500000000001
 30
0.0
 11
-20.927900000000001
 21
190.06200000000001
 31
0.0
  0
LINE
  5
4E0
  8
_________1
 62
     7
 10
-19.927800000000001
 20
167.05500000000001
 30
0.0
 11
-19.927800000000001
 21
165.85900000000001
 31
0.0
  0
ARC
  5
4E1
  8
_________1
 62
     7
 10
-19.424047999999999
 20
161.15119000000001
 30
0.0
 40
0.103796
 50
92.114307999999994
 51
178.08289300000001
  0
ARC
  5
4E2
  8
_________1
 62
     7
 10
-19.423715999999999
 20
161.15846499999989
 30
0.0
 40
0.104139
 50
182.09286399999991
 51
267.70993399999998
  0
LINE
  5
4E3
  8
_________1
 62
     7
 10
-19.427900000000001
 20
161.054
 30
0.0
 11
-19.427499999999998
 21
161.054
 31
0.0
  0
LINE
  5
4E4
  8
_________1
 62
     7
 10
-22.227399999999999
 20
161.255
 30
0.0
 11
-19.9846
 21
161.255
 31
0.0
  0
ARC
  5
4E5
  8
_________1
 62
     7
 10
-19.846802
 20
167.57396
 30
0.0
 40
0.519549
 50
272.127861
 51
357.83264800000001
  0
ARC
  5
4E6
  8
_________1
 62
     7
 10
-19.847165
 20
167.5350159999999
 30
0.0
 40
0.519898
 50
2.1269830000000001
 51
87.833532999999989
  0
LINE
  5
4E7
  8
_________1
 62
     7
 10
-22.728000000000002
 20
167.05500000000001
 30
0.0
 11
-19.827500000000001
 21
167.05500000000001
 31
0.0
  0
ARC
  5
4E8
  8
_________1
 62
     7
 10
-20.743017999999999
 20
172.06996599999999
 30
0.0
 40
0.415558
 50
272.109737
 51
357.89027299999998
  0
ARC
  5
4E9
  8
_________1
 62
     7
 10
-20.743017999999999
 20
172.03936999999999
 30
0.0
 40
0.415558
 50
2.109726999999999
 51
87.890263000000004
  0
LINE
  5
4EA
  8
_________1
 62
     7
 10
-22.728000000000002
 20
172.45500000000001
 30
0.0
 11
-20.727699999999999
 21
172.45500000000001
 31
0.0
  0
LINE
  5
4EB
  8
_________1
 62
     7
 10
-22.728000000000002
 20
171.655
 30
0.0
 11
-20.727699999999999
 21
171.655
 31
0.0
  0
LINE
  5
4EC
  8
_________1
 62
     7
 10
-22.728000000000002
 20
168.05500000000001
 30
0.0
 11
-19.827500000000001
 21
168.05500000000001
 31
0.0
  0
LINE
  5
4ED
  8
_________1
 62
     7
 10
-18.427800000000001
 20
159.86500000000001
 30
0.0
 11
-18.427800000000001
 21
160.334
 31
0.0
  0
ARC
  5
4EE
  8
_________1
 62
     7
 10
-17.417824
 20
159.864982
 30
0.0
 40
1.0099359999999999
 50
180.009782
 51
270.009792
  0
LINE
  5
4EF
  8
_________1
 62
     7
 10
-16.572600000000001
 20
158.13499999999999
 30
0.0
 11
-16.527799999999999
 21
157.85499999999999
 31
0.0
  0
ARC
  5
4F0
  8
_________1
 62
     7
 10
-17.442007999999991
 20
157.97052299999999
 30
0.0
 40
0.8848679999999999
 50
10.713373000000001
 51
88.400363999999996
  0
LINE
  5
4F1
  8
_________1
 62
     7
 10
-22.728000000000002
 20
158.85499999999999
 30
0.0
 11
-18.427800000000001
 21
158.85499999999999
 31
0.0
  0
LINE
  5
4F2
  8
_________1
 62
     7
 10
-22.227399999999999
 20
161.054
 30
0.0
 11
-19.272200000000002
 21
161.054
 31
0.0
  0
LINE
  5
4F3
  8
_________1
 62
     7
 10
-22.728000000000002
 20
157.85499999999999
 30
0.0
 11
-16.527799999999999
 21
157.85499999999999
 31
0.0
  0
ARC
  5
4F4
  8
_________1
 62
     7
 10
-22.796804000000002
 20
197.98577499999999
 30
0.0
 40
1.870190999999999
 50
2.1097579999999998
 51
87.890231999999997
  0
ARC
  5
4F5
  8
_________1
 62
     7
 10
-22.658719000000001
 20
197.985388
 30
0.0
 40
1.8705919999999989
 50
92.121161999999998
 51
177.87880799999999
  0
LINE
  5
4F6
  8
_________1
 62
     7
 10
-24.527999999999999
 20
188.10400000000001
 30
0.0
 11
-24.527999999999999
 21
172.45500000000001
 31
0.0
  0
LINE
  5
4F7
  8
_________1
 62
     7
 10
-24.527999999999999
 20
198.05500000000001
 30
0.0
 11
-24.527999999999999
 21
190.06200000000001
 31
0.0
  0
LINE
  5
4F8
  8
_________1
 62
     7
 10
72.374899999999997
 20
89.699799999999996
 30
0.0
 11
71.375100000000003
 21
89.699799999999996
 31
0.0
  0
LINE
  5
4F9
  8
_________1
 62
     7
 10
-23.227799999999998
 20
89.827299999999994
 30
0.0
 11
-22.227699999999999
 21
89.827299999999994
 31
0.0
  0
LINE
  5
4FA
  8
_________1
 62
     7
 10
-25.227699999999999
 20
151.55500000000001
 30
0.0
 11
-25.227699999999999
 21
147.155
 31
0.0
  0
LINE
  5
4FB
  8
_________1
 62
     7
 10
-23.227799999999998
 20
151.55500000000001
 30
0.0
 11
-23.227799999999998
 21
147.155
 31
0.0
  0
LINE
  5
4FC
  8
_________1
 62
     7
 10
-23.727699999999999
 20
151.55500000000001
 30
0.0
 11
-23.727699999999999
 21
147.155
 31
0.0
  0
LINE
  5
4FD
  8
_________1
 62
     7
 10
-24.727799999999998
 20
151.55500000000001
 30
0.0
 11
-24.727799999999998
 21
147.155
 31
0.0
  0
LINE
  5
4FE
  8
_________1
 62
     7
 10
-23.227799999999998
 20
147.155
 30
0.0
 11
-25.227699999999999
 21
147.155
 31
0.0
  0
LINE
  5
4FF
  8
_________1
 62
     7
 10
-22.227699999999999
 20
151.55500000000001
 30
0.0
 11
-22.227699999999999
 21
89.827299999999994
 31
0.0
  0
LINE
  5
500
  8
_________1
 62
     7
 10
-22.227699999999999
 20
157.85499999999999
 30
0.0
 11
-22.227699999999999
 21
152.45500000000001
 31
0.0
  0
LINE
  5
501
  8
_________1
 62
     7
 10
-18.6279
 20
152.45500000000001
 30
0.0
 11
-18.6279
 21
151.55500000000001
 31
0.0
  0
LINE
  5
502
  8
_________1
 62
     7
 10
-18.6279
 20
151.55500000000001
 30
0.0
 11
-24.228000000000002
 21
151.55500000000001
 31
0.0
  0
LINE
  5
503
  8
_________1
 62
     7
 10
-18.6279
 20
152.155
 30
0.0
 11
-24.227599999999999
 21
152.155
 31
0.0
  0
LINE
  5
504
  8
_________1
 62
     7
 10
-18.6279
 20
152.45500000000001
 30
0.0
 11
-24.228000000000002
 21
152.45500000000001
 31
0.0
  0
LINE
  5
505
  8
_________1
 62
     7
 10
-28.228100000000001
 20
152.45500000000001
 30
0.0
 11
-28.228100000000001
 21
151.55500000000001
 31
0.0
  0
LINE
  5
506
  8
_________1
  6
AIGENLINE001
 62
     7
 10
-24.227599999999999
 20
157.85499999999999
 30
0.0
 11
-24.227599999999999
 21
144.13800000000001
 31
0.0
  0
LINE
  5
507
  8
_________1
 62
     7
 10
-23.627800000000001
 20
157.85499999999999
 30
0.0
 11
-23.627800000000001
 21
152.45500000000001
 31
0.0
  0
LINE
  5
508
  8
_________1
 62
     7
 10
-24.8278
 20
157.85499999999999
 30
0.0
 11
-24.8278
 21
152.45500000000001
 31
0.0
  0
LINE
  5
509
  8
_________1
 62
     7
 10
-24.228000000000002
 20
151.55500000000001
 30
0.0
 11
-28.228100000000001
 21
151.55500000000001
 31
0.0
  0
LINE
  5
50A
  8
_________1
 62
     7
 10
-24.227599999999999
 20
152.155
 30
0.0
 11
-28.227699999999999
 21
152.155
 31
0.0
  0
LINE
  5
50B
  8
_________1
 62
     7
 10
-24.228000000000002
 20
152.45500000000001
 30
0.0
 11
-28.228100000000001
 21
152.45500000000001
 31
0.0
  0
LINE
  5
50C
  8
_________1
 62
     7
 10
-23.227799999999998
 20
151.55500000000001
 30
0.0
 11
-23.228200000000001
 21
89.827299999999994
 31
0.0
  0
LINE
  5
50D
  8
_________1
 62
     7
 10
-23.227799999999998
 20
157.85499999999999
 30
0.0
 11
-23.227799999999998
 21
152.45500000000001
 31
0.0
  0
ARC
  5
50E
  8
_________1
 62
     7
 10
-20.060725000000001
 20
169.65011999999999
 30
0.0
 40
0.473703
 50
0.5244170000000001
 51
10.733665
  0
ARC
  5
50F
  8
_________1
 62
     7
 10
-20.138475
 20
168.54251300000001
 30
0.0
 40
0.079539
 50
273.63122900000002
 51
292.36694999999997
  0
ARC
  5
510
  8
_________1
 62
     7
 10
-20.16876400000001
 20
168.61974000000001
 30
0.0
 40
0.162488
 50
291.88122900000002
 51
306.86838299999999
  0
ARC
  5
511
  8
_________1
 62
     7
 10
-20.287953000000002
 20
168.78176099999999
 30
0.0
 40
0.363623
 50
306.57594
 51
317.26584100000002
  0
ARC
  5
512
  8
_________1
 62
     7
 10
-20.573053000000002
 20
169.050149
 30
0.0
 40
0.7551680000000001
 50
316.98771099999999
 51
324.30285199999997
  0
ARC
  5
513
  8
_________1
 62
     7
 10
-21.073861000000001
 20
169.41372799999999
 30
0.0
 40
1.374031999999999
 50
324.17589199999998
 51
329.88929000000002
  0
ARC
  5
514
  8
_________1
 62
     7
 10
-21.903041000000002
 20
169.893542
 30
0.0
 40
2.3320310000000002
 50
329.91163999999998
 51
341.4006819999999
  0
ARC
  5
515
  8
_________1
 62
     7
 10
-21.995612000000001
 20
169.948756
 30
0.0
 40
2.4374839999999991
 50
340.86462599999999
 51
347.96152499999999
  0
ARC
  5
516
  8
_________1
 62
     7
 10
-20.745861999999999
 20
169.67964699999999
 30
0.0
 40
1.1590940000000001
 50
348.08671099999998
 51
358.75465100000002
  0
ARC
  5
517
  8
_________1
 62
     7
 10
-19.930503999999999
 20
169.63900000000001
 30
0.0
 40
0.349605
 50
16.508631000000001
 51
48.514983000000001
  0
ARC
  5
518
  8
_________1
 62
     7
 10
-20.067739
 20
169.502432
 30
0.0
 40
0.542961
 50
47.212577000000003
 51
74.839264999999983
  0
ARC
  5
519
  8
_________1
 62
     7
 10
-20.130675
 20
169.333462
 30
0.0
 40
0.722699
 50
73.526630999999995
 51
90.218966999999992
  0
ARC
  5
51A
  8
_________1
 62
     7
 10
-20.364363000000001
 20
169.66574700000001
 30
0.0
 40
0.315328
 50
166.68965800000001
 51
182.05225999999999
  0
ARC
  5
51B
  8
_________1
 62
     7
 10
-19.953780999999999
 20
169.650949
 30
0.0
 40
0.7257160000000001
 50
179.72314
 51
185.40567799999999
  0
ARC
  5
51C
  8
_________1
 62
     7
 10
-19.433135
 20
169.697799
 30
0.0
 40
1.248462
 50
185.29526300000001
 51
190.98398899999989
  0
ARC
  5
51D
  8
_________1
 62
     7
 10
-18.335084999999999
 20
169.916526
 30
0.0
 40
2.3680779999999988
 50
191.11713
 51
210.77148800000001
  0
ARC
  5
51E
  8
_________1
 62
     7
 10
-19.34431
 20
169.32234199999999
 30
0.0
 40
1.196957
 50
211.04928899999999
 51
221.00636299999999
  0
ARC
  5
51F
  8
_________1
 62
     7
 10
-19.981728
 20
168.77891399999999
 30
0.0
 40
0.3594650000000001
 50
222.30499
 51
234.349176
  0
ARC
  5
520
  8
_________1
 62
     7
 10
-20.116067999999999
 20
168.58789899999999
 30
0.0
 40
0.125968
 50
233.36208999999999
 51
262.07424900000001
  0
ARC
  5
521
  8
_________1
 62
     7
 10
-20.132988000000001
 20
169.34059600000001
 30
0.0
 40
0.7155600000000001
 50
90.035981999999976
 51
118.947728
  0
ARC
  5
522
  8
_________1
 62
     7
 10
-20.246365999999998
 20
169.56697600000001
 30
0.0
 40
0.462703
 50
120.230476
 51
149.58907600000001
  0
ARC
  5
523
  8
_________1
 62
     7
 10
-20.357986
 20
169.646433
 30
0.0
 40
0.326441
 50
151.699828
 51
163.64702299999999
  0
ARC
  5
524
  8
_________1
 62
     7
 10
-25.205950999999999
 20
169.654438
 30
0.0
 40
0.4298729999999999
 50
0.002353
 51
11.255729000000001
  0
ARC
  5
525
  8
_________1
 62
     7
 10
-25.327152000000002
 20
168.542145
 30
0.0
 40
0.079171
 50
273.63795599999997
 51
292.41929699999997
  0
ARC
  5
526
  8
_________1
 62
     7
 10
-25.357707999999999
 20
168.61980600000001
 30
0.0
 40
0.162621
 50
291.93587200000002
 51
306.89236899999997
  0
ARC
  5
527
  8
_________1
 62
     7
 10
-25.476952000000001
 20
168.78171800000001
 30
0.0
 40
0.363702
 50
306.60397400000011
 51
317.28649799999999
  0
ARC
  5
528
  8
_________1
 62
     7
 10
-25.763639000000001
 20
169.05148199999999
 30
0.0
 40
0.7573450000000001
 50
317.00344699999999
 51
324.29701799999998
  0
ARC
  5
529
  8
_________1
 62
     7
 10
-26.261244999999999
 20
169.412712
 30
0.0
 40
1.372237999999999
 50
324.17410599999999
 51
329.89485500000001
  0
ARC
  5
52A
  8
_________1
 62
     7
 10
-27.083721000000001
 20
169.88897399999999
 30
0.0
 40
2.3226550000000001
 50
329.90788800000001
 51
341.44175899999999
  0
ARC
  5
52B
  8
_________1
 62
     7
 10
-27.184646999999998
 20
169.948756
 30
0.0
 40
2.4374839999999991
 50
340.86462599999999
 51
347.96152499999999
  0
ARC
  5
52C
  8
_________1
 62
     7
 10
-25.934898
 20
169.67964699999999
 30
0.0
 40
1.1590940000000001
 50
348.08671099999998
 51
358.75465100000002
  0
ARC
  5
52D
  8
_________1
 62
     7
 10
-25.117225000000001
 20
169.64092400000001
 30
0.0
 40
0.346841
 50
16.312629000000001
 51
48.551634
  0
ARC
  5
52E
  8
_________1
 62
     7
 10
-25.256328
 20
169.50258099999999
 30
0.0
 40
0.542763
 50
47.211933000000009
 51
74.856040000000007
  0
ARC
  5
52F
  8
_________1
 62
     7
 10
-25.319465999999998
 20
169.33347499999999
 30
0.0
 40
0.7226860000000001
 50
73.526578999999998
 51
90.211118000000013
  0
ARC
  5
530
  8
_________1
 62
     7
 10
-25.553053999999999
 20
169.66574700000001
 30
0.0
 40
0.315328
 50
166.68965800000001
 51
182.05225999999999
  0
ARC
  5
531
  8
_________1
 62
     7
 10
-25.142472000000001
 20
169.650949
 30
0.0
 40
0.7257160000000001
 50
179.72314
 51
185.40567799999999
  0
ARC
  5
532
  8
_________1
 62
     7
 10
-24.621827
 20
169.697799
 30
0.0
 40
1.248462
 50
185.29526300000001
 51
190.98398899999989
  0
ARC
  5
533
  8
_________1
 62
     7
 10
-23.523776000000002
 20
169.916526
 30
0.0
 40
2.3680779999999988
 50
191.11713
 51
210.77148800000001
  0
ARC
  5
534
  8
_________1
 62
     7
 10
-24.532765999999999
 20
169.322484
 30
0.0
 40
1.1972320000000001
 50
211.04930899999999
 51
221.003941
  0
ARC
  5
535
  8
_________1
 62
     7
 10
-25.170646000000001
 20
168.77868799999999
 30
0.0
 40
0.359149
 50
222.30206000000001
 51
234.35754399999999
  0
ARC
  5
536
  8
_________1
 62
     7
 10
-25.304759000000001
 20
168.58789899999999
 30
0.0
 40
0.125968
 50
233.36208999999999
 51
262.07424900000001
  0
ARC
  5
537
  8
_________1
 62
     7
 10
-25.321341
 20
169.33945399999999
 30
0.0
 40
0.7167020000000001
 50
90.035395999999992
 51
118.924137
  0
ARC
  5
538
  8
_________1
 62
     7
 10
-25.433185999999999
 20
169.564527
 30
0.0
 40
0.46574
 50
120.273066
 51
148.883568
  0
ARC
  5
539
  8
_________1
 62
     7
 10
-25.545048000000001
 20
169.64580799999999
 30
0.0
 40
0.32818
 50
150.94027700000001
 51
163.62228400000001
  0
ARC
  5
53A
  8
_________1
 62
     7
 10
-21.862998999999999
 20
169.65225000000001
 30
0.0
 40
0.227846
 50
0.5544690000000001
 51
22.201111999999998
  0
ARC
  5
53B
  8
_________1
 62
     7
 10
-22.737439999999999
 20
168.766187
 30
0.0
 40
0.303202
 50
271.79252700000001
 51
281.39135499999998
  0
ARC
  5
53C
  8
_________1
 62
     7
 10
-22.771906999999999
 20
168.94534100000001
 30
0.0
 40
0.485636
 50
281.20303899999999
 51
290.25902300000001
  0
ARC
  5
53D
  8
_________1
 62
     7
 10
-22.914491000000002
 20
169.327709
 30
0.0
 40
0.8937229999999999
 50
290.34639700000002
 51
304.35900099999998
  0
ARC
  5
53E
  8
_________1
 62
     7
 10
-23.378249
 20
170.06480300000001
 30
0.0
 40
1.764252999999999
 50
303.28208599999999
 51
313.46794999999997
  0
ARC
  5
53F
  8
_________1
 62
     7
 10
-23.734075000000001
 20
170.468907
 30
0.0
 40
2.3024100000000001
 50
312.97624300000001
 51
325.04393299999998
  0
ARC
  5
540
  8
_________1
 62
     7
 10
-23.314451999999999
 20
170.16989599999999
 30
0.0
 40
1.7871790000000001
 50
325.19283799999999
 51
333.43482599999999
  0
ARC
  5
541
  8
_________1
 62
     7
 10
-22.535948000000001
 20
169.77688599999999
 30
0.0
 40
0.9151100000000001
 50
333.64514199999991
 51
347.45052600000002
  0
ARC
  5
542
  8
_________1
 62
     7
 10
-22.031113999999999
 20
169.654934
 30
0.0
 40
0.39595
 50
348.803226
 51
359.93068
  0
ARC
  5
543
  8
_________1
 62
     7
 10
-21.887727000000002
 20
169.599874
 30
0.0
 40
0.27335
 50
30.435485
 51
52.635443000000002
  0
ARC
  5
544
  8
_________1
 62
     7
 10
-22.067361999999999
 20
169.39338799999999
 30
0.0
 40
0.546759
 50
50.805554000000001
 51
59.854778000000003
  0
ARC
  5
545
  8
_________1
 62
     7
 10
-22.286179000000001
 20
169.010491
 30
0.0
 40
0.9877649999999999
 50
60.032583999999993
 51
73.728734000000003
  0
ARC
  5
546
  8
_________1
 62
     7
 10
-22.582049999999999
 20
168.112222
 30
0.0
 40
1.933222999999999
 50
72.770271999999991
 51
82.311910999999995
  0
ARC
  5
547
  8
_________1
 62
     7
 10
-22.719045999999999
 20
167.25736900000001
 30
0.0
 40
2.7988009999999992
 50
81.873757000000026
 51
90.182371000000003
  0
ARC
  5
548
  8
_________1
 62
     7
 10
-23.644314999999999
 20
169.66266400000001
 30
0.0
 40
0.176278
 50
154.57540599999999
 51
182.669014
  0
ARC
  5
549
  8
_________1
 62
     7
 10
-23.472474999999999
 20
169.651646
 30
0.0
 40
0.347938
 50
179.53739100000001
 51
188.306712
  0
ARC
  5
54A
  8
_________1
 62
     7
 10
-23.271694
 20
169.67892599999999
 30
0.0
 40
0.550557
 50
188.09713400000001
 51
196.42851899999999
  0
ARC
  5
54B
  8
_________1
 62
     7
 10
-22.963265
 20
169.76880700000001
 30
0.0
 40
0.8718160000000002
 50
196.36162200000001
 51
203.34611100000001
  0
ARC
  5
54C
  8
_________1
 62
     7
 10
-22.430682000000001
 20
170.00185300000001
 30
0.0
 40
1.4531499999999991
 50
203.460936
 51
214.77855500000001
  0
ARC
  5
54D
  8
_________1
 62
     7
 10
-21.754000000000001
 20
170.44125
 30
0.0
 40
2.2597249999999991
 50
214.14264600000001
 51
230.206321
  0
ARC
  5
54E
  8
_________1
 62
     7
 10
-22.117929
 20
170.00721799999999
 30
0.0
 40
1.693311999999999
 50
230.26840899999999
 51
238.80756500000001
  0
ARC
  5
54F
  8
_________1
 62
     7
 10
-22.571303
 20
169.264734
 30
0.0
 40
0.823365
 50
239.036338
 51
253.85117
  0
ARC
  5
550
  8
_________1
 62
     7
 10
-22.714359999999999
 20
168.80433300000001
 30
0.0
 40
0.34147
 50
255.421764
 51
267.71814000000001
  0
ARC
  5
551
  8
_________1
 62
     7
 10
-22.728411000000001
 20
167.32199299999999
 30
0.0
 40
2.7341630000000001
 50
89.983218000000022
 51
104.25530500000001
  0
ARC
  5
552
  8
_________1
 62
     7
 10
-23.069036000000001
 20
168.76796200000001
 30
0.0
 40
1.2491110000000001
 50
105.44449
 51
117.40392300000001
  0
ARC
  5
553
  8
_________1
 62
     7
 10
-23.400164
 20
169.41972200000001
 30
0.0
 40
0.5181180000000002
 50
118.068541
 51
136.46088399999999
  0
ARC
  5
554
  8
_________1
 62
     7
 10
-23.590544999999999
 20
169.613067
 30
0.0
 40
0.247089
 50
138.55116000000001
 51
149.53501900000001
  0
LINE
  5
555
  8
_________1
 62
     7
 10
-25.527799999999999
 20
167.05500000000001
 30
0.0
 11
-25.527799999999999
 21
165.85900000000001
 31
0.0
  0
ARC
  5
556
  8
_________1
 62
     7
 10
-26.420072999999999
 20
165.62148500000001
 30
0.0
 40
0.827358
 50
300.80743200000001
 51
329.24409100000003
  0
ARC
  5
557
  8
_________1
 62
     7
 10
-26.729106999999999
 20
165.83341899999999
 30
0.0
 40
1.2015480000000001
 50
328.09520900000001
 51
1.1527270000000001
  0
ARC
  5
558
  8
_________1
 62
     7
 10
-25.233131
 20
163.550556
 30
0.0
 40
1.557755
 50
120.535708
 51
145.679664
  0
ARC
  5
559
  8
_________1
 62
     7
 10
-24.763923999999999
 20
163.19011
 30
0.0
 40
2.1487539999999998
 50
144.79586599999999
 51
169.150203
  0
ARC
  5
55A
  8
_________1
 62
     7
 10
-24.360009000000002
 20
163.074468
 30
0.0
 40
2.5674909999999991
 50
168.31235100000001
 51
198.758129
  0
ARC
  5
55B
  8
_________1
 62
     7
 10
-24.771623999999999
 20
162.95144999999999
 30
0.0
 40
2.138239
 50
199.18364800000001
 51
220.24388500000001
  0
ARC
  5
55C
  8
_________1
 62
     7
 10
-25.199798000000001
 20
162.62477200000001
 30
0.0
 40
1.6005969999999989
 50
221.219931
 51
238.852811
  0
ARC
  5
55D
  8
_________1
 62
     7
 10
-26.031727
 20
161.158355
 30
0.0
 40
0.104012
 50
272.035008
 51
357.96500200000008
  0
ARC
  5
55E
  8
_________1
 62
     7
 10
-26.031829999999999
 20
161.150879
 30
0.0
 40
0.104118
 50
2.082215999999999
 51
87.720543000000006
  0
LINE
  5
55F
  8
_________1
 62
     7
 10
-23.227799999999998
 20
161.255
 30
0.0
 11
-25.471299999999999
 21
161.255
 31
0.0
  0
LINE
  5
560
  8
_________1
 62
     7
 10
-25.627700000000001
 20
168.05500000000001
 30
0.0
 11
-25.915400000000002
 21
169.489
 31
0.0
  0
ARC
  5
561
  8
_________1
 62
     7
 10
-25.62771
 20
167.55431200000001
 30
0.0
 40
0.5002310000000002
 50
90.0
 51
179.99996999999999
  0
ARC
  5
562
  8
_________1
 62
     7
 10
-25.609459000000001
 20
167.57327799999999
 30
0.0
 40
0.5188290000000001
 50
182.09495000000001
 51
267.98405400000001
  0
LINE
  5
563
  8
_________1
 62
     7
 10
-22.728000000000002
 20
167.05500000000001
 30
0.0
 11
-25.627700000000001
 21
167.05500000000001
 31
0.0
  0
LINE
  5
564
  8
_________1
 62
     7
 10
-24.727799999999998
 20
171.655
 30
0.0
 11
-25.781400000000001
 21
170.202
 31
0.0
  0
ARC
  5
565
  8
_________1
 62
     7
 10
-24.71253900000001
 20
172.03971899999999
 30
0.0
 40
0.41521
 50
92.112723000000003
 51
177.93661900000001
  0
ARC
  5
566
  8
_________1
 62
     7
 10
-24.71221400000001
 20
172.069942
 30
0.0
 40
0.4155460000000001
 50
182.10643099999999
 51
267.84422699999999
  0
LINE
  5
567
  8
_________1
 62
     7
 10
-22.728000000000002
 20
172.45500000000001
 30
0.0
 11
-24.727799999999998
 21
172.45500000000001
 31
0.0
  0
LINE
  5
568
  8
_________1
 62
     7
 10
-22.728000000000002
 20
171.655
 30
0.0
 11
-24.727799999999998
 21
171.655
 31
0.0
  0
LINE
  5
569
  8
_________1
 62
     7
 10
-22.728000000000002
 20
168.05500000000001
 30
0.0
 11
-25.627700000000001
 21
168.05500000000001
 31
0.0
  0
LINE
  5
56A
  8
_________1
 62
     7
 10
-27.027799999999999
 20
159.86500000000001
 30
0.0
 11
-27.027799999999999
 21
160.334
 31
0.0
  0
ARC
  5
56B
  8
_________1
 62
     7
 10
-28.076847999999998
 20
159.90410199999999
 30
0.0
 40
1.0497780000000001
 50
272.12546400000002
 51
357.85500100000002
  0
LINE
  5
56C
  8
_________1
 62
     7
 10
-28.8827
 20
158.13499999999999
 30
0.0
 11
-28.927800000000001
 21
157.85499999999999
 31
0.0
  0
ARC
  5
56D
  8
_________1
 62
     7
 10
-19.280087999999999
 20
160.127307
 30
0.0
 40
0.9271360000000001
 50
36.399524
 51
89.509956000000003
  0
ARC
  5
56E
  8
_________1
 62
     7
 10
-19.062618000000001
 20
160.32604799999999
 30
0.0
 40
0.634912
 50
0.751868
 51
33.608409000000002
  0
ARC
  5
56F
  8
_________1
 62
     7
 10
-26.175145000000001
 20
160.126656
 30
0.0
 40
0.927786
 50
90.489025999999996
 51
143.58014600000001
  0
ARC
  5
570
  8
_________1
 62
     7
 10
-26.393153999999999
 20
160.32610299999999
 30
0.0
 40
0.634706
 50
146.38519400000001
 51
179.252848
  0
ARC
  5
571
  8
_________1
 62
     7
 10
-28.014346
 20
157.97186300000001
 30
0.0
 40
0.8835069999999999
 50
91.550970999999976
 51
169.35833
  0
LINE
  5
572
  8
_________1
 62
     7
 10
-37.655299999999997
 20
159.114
 30
0.0
 11
-37.280099999999997
 21
159.03899999999999
 31
0.0
  0
ARC
  5
573
  8
_________1
 62
     7
 10
-37.281790000000001
 20
160.82184899999999
 30
0.0
 40
1.747763999999999
 50
192.221665
 51
257.660168
  0
LINE
  5
574
  8
_________1
 62
     7
 10
-36.604500000000002
 20
158.33600000000001
 30
0.0
 11
-36.5274
 21
157.85499999999999
 31
0.0
  0
ARC
  5
575
  8
_________1
 62
     7
 10
-37.468280999999998
 20
158.18203700000001
 30
0.0
 40
0.8773899999999999
 50
10.120535
 51
77.617131999999984
  0
ARC
  5
576
  8
_________1
 62
     7
 10
-39.656008
 20
160.38621900000001
 30
0.0
 40
0.6692580000000001
 50
5.5988329999999991
 51
88.071894999999984
  0
LINE
  5
577
  8
_________1
 62
     7
 10
-47.8005
 20
159.114
 30
0.0
 11
-48.1753
 21
159.03899999999999
 31
0.0
  0
ARC
  5
578
  8
_________1
 62
     7
 10
-48.174036999999991
 20
160.822326
 30
0.0
 40
1.748238
 50
282.33769999999998
 51
347.76571899999999
  0
LINE
  5
579
  8
_________1
 62
     7
 10
-48.850900000000003
 20
158.33600000000001
 30
0.0
 11
-48.928400000000003
 21
157.85499999999999
 31
0.0
  0
ARC
  5
57A
  8
_________1
 62
     7
 10
-47.986938999999992
 20
158.18181999999999
 30
0.0
 40
0.877649
 50
102.394175
 51
169.86811800000001
  0
ARC
  5
57B
  8
_________1
 62
     7
 10
-45.80044199999999
 20
160.387291
 30
0.0
 40
0.668154
 50
91.845022
 51
174.48420999999999
  0
LINE
  5
57C
  8
_________1
 62
     7
 10
-22.728000000000002
 20
158.85499999999999
 30
0.0
 11
-27.027799999999999
 21
158.85499999999999
 31
0.0
  0
LINE
  5
57D
  8
_________1
 62
     7
 10
-23.227799999999998
 20
161.054
 30
0.0
 11
-26.1831
 21
161.054
 31
0.0
  0
LINE
  5
57E
  8
_________1
 62
     7
 10
-22.728000000000002
 20
157.85499999999999
 30
0.0
 11
-28.927800000000001
 21
157.85499999999999
 31
0.0
  0
LINE
  5
57F
  8
_________1
  6
AIGENLINE001
 62
     7
 10
-24.727799999999998
 20
137.22
 30
0.0
 11
-24.727799999999998
 21
159.649
 31
0.0
  0
LINE
  5
580
  8
_________1
  6
AIGENLINE001
 62
     7
 10
-20.728100000000001
 20
137.22
 30
0.0
 11
-20.728100000000001
 21
159.649
 31
0.0
  0
LINE
  5
581
  8
_________1
  6
AIGENLINE001
 62
     7
 10
-22.728000000000002
 20
86.282300000000006
 30
0.0
 11
-22.728000000000002
 21
202.244
 31
0.0
  0
LINE
  5
582
  8
_________1
 62
     7
 10
-40.82759999999999
 20
138.655
 30
0.0
 11
-40.627400000000002
 21
138.85499999999999
 31
0.0
  0
LINE
  5
583
  8
_________1
 62
     7
 10
-40.82759999999999
 20
138.655
 30
0.0
 11
-42.727899999999991
 21
138.655
 31
0.0
  0
LINE
  5
584
  8
_________1
 62
     7
 10
-40.627400000000002
 20
138.85499999999999
 30
0.0
 11
-42.727200000000003
 21
138.85499999999999
 31
0.0
  0
LINE
  5
585
  8
_________1
 62
     7
 10
-40.127499999999991
 20
147.05500000000001
 30
0.0
 11
-40.327299999999987
 21
147.255
 31
0.0
  0
LINE
  5
586
  8
_________1
 62
     7
 10
-40.127499999999991
 20
145.155
 30
0.0
 11
-40.127499999999991
 21
147.05500000000001
 31
0.0
  0
LINE
  5
587
  8
_________1
 62
     7
 10
-40.127499999999991
 20
140.655
 30
0.0
 11
-40.127499999999991
 21
142.155
 31
0.0
  0
LINE
  5
588
  8
_________1
 62
     7
 10
-40.82759999999999
 20
138.655
 30
0.0
 11
-40.82759999999999
 21
140.655
 31
0.0
  0
LINE
  5
589
  8
_________1
 62
     7
 10
-40.627400000000002
 20
138.85499999999999
 30
0.0
 11
-40.627400000000002
 21
140.655
 31
0.0
  0
LINE
  5
58A
  8
_________1
 62
     7
 10
-40.127499999999991
 20
140.655
 30
0.0
 11
-42.727200000000003
 21
140.655
 31
0.0
  0
LINE
  5
58B
  8
_________1
 62
     7
 10
-40.127499999999991
 20
147.255
 30
0.0
 11
-42.727899999999991
 21
147.255
 31
0.0
  0
LINE
  5
58C
  8
_________1
 62
     7
 10
-40.327299999999987
 20
147.255
 30
0.0
 11
-40.327299999999987
 21
150.45400000000001
 31
0.0
  0
LINE
  5
58D
  8
_________1
 62
     7
 10
-40.127499999999991
 20
147.05500000000001
 30
0.0
 11
-40.127499999999991
 21
150.45400000000001
 31
0.0
  0
LINE
  5
58E
  8
_________1
 62
     7
 10
-40.127499999999991
 20
147.05500000000001
 30
0.0
 11
-42.727200000000003
 21
147.05500000000001
 31
0.0
  0
LINE
  5
58F
  8
_________1
 62
     7
 10
-40.927500000000002
 20
147.05500000000001
 30
0.0
 11
-42.727200000000003
 21
147.05500000000001
 31
0.0
  0
LINE
  5
590
  8
_________1
 62
     7
 10
-40.927500000000002
 20
150.45400000000001
 30
0.0
 11
-40.927500000000002
 21
151.45500000000001
 31
0.0
  0
LINE
  5
591
  8
_________1
 62
     7
 10
-39.127400000000002
 20
150.45400000000001
 30
0.0
 11
-39.127400000000002
 21
151.45500000000001
 31
0.0
  0
LINE
  5
592
  8
_________1
 62
     7
 10
-39.127400000000002
 20
150.45400000000001
 30
0.0
 11
-40.927500000000002
 21
150.45400000000001
 31
0.0
  0
LINE
  5
593
  8
_________1
 62
     7
 10
-40.927500000000002
 20
150.45400000000001
 30
0.0
 11
-42.727200000000003
 21
150.45400000000001
 31
0.0
  0
LINE
  5
594
  8
_________1
 62
     7
 10
-38.327399999999997
 20
151.45500000000001
 30
0.0
 11
-38.327399999999997
 21
151.85499999999999
 31
0.0
  0
LINE
  5
595
  8
_________1
 62
     7
 10
-38.327399999999997
 20
151.45500000000001
 30
0.0
 11
-42.727200000000003
 21
151.45500000000001
 31
0.0
  0
LINE
  5
596
  8
_________1
 62
     7
 10
-38.327399999999997
 20
151.655
 30
0.0
 11
-42.727200000000003
 21
151.655
 31
0.0
  0
LINE
  5
597
  8
_________1
 62
     7
 10
-38.327399999999997
 20
151.85499999999999
 30
0.0
 11
-42.727200000000003
 21
151.85499999999999
 31
0.0
  0
LINE
  5
598
  8
_________1
 62
     7
 10
-40.327299999999987
 20
151.85499999999999
 30
0.0
 11
-40.327299999999987
 21
157.85499999999999
 31
0.0
  0
LINE
  5
599
  8
_________1
 62
     7
 10
-40.127499999999991
 20
151.85499999999999
 30
0.0
 11
-40.127499999999991
 21
157.85499999999999
 31
0.0
  0
LINE
  5
59A
  8
_________1
 62
     7
 10
-39.633499999999998
 20
161.05500000000001
 30
0.0
 11
-42.727200000000003
 21
161.05500000000001
 31
0.0
  0
LINE
  5
59B
  8
_________1
 62
     7
 10
-39.122199999999999
 20
159.45400000000001
 30
0.0
 11
-42.727200000000003
 21
159.45400000000001
 31
0.0
  0
LINE
  5
59C
  8
_________1
 62
     7
 10
-36.5274
 20
157.85499999999999
 30
0.0
 11
-42.727200000000003
 21
157.85499999999999
 31
0.0
  0
LINE
  5
59D
  8
_________1
 62
     7
 10
-44.628199999999993
 20
138.655
 30
0.0
 11
-44.828400000000002
 21
138.85499999999999
 31
0.0
  0
LINE
  5
59E
  8
_________1
 62
     7
 10
-44.628199999999993
 20
138.655
 30
0.0
 11
-42.727899999999991
 21
138.655
 31
0.0
  0
LINE
  5
59F
  8
_________1
 62
     7
 10
-44.828400000000002
 20
138.85499999999999
 30
0.0
 11
-42.728200000000001
 21
138.85499999999999
 31
0.0
  0
LINE
  5
5A0
  8
_________1
 62
     7
 10
-45.328299999999992
 20
147.05500000000001
 30
0.0
 11
-45.128500000000003
 21
147.255
 31
0.0
  0
LINE
  5
5A1
  8
_________1
 62
     7
 10
-45.328299999999992
 20
140.655
 30
0.0
 11
-45.328299999999992
 21
147.05500000000001
 31
0.0
  0
LINE
  5
5A2
  8
_________1
 62
     7
 10
-44.628199999999993
 20
138.655
 30
0.0
 11
-44.628199999999993
 21
140.655
 31
0.0
  0
LINE
  5
5A3
  8
_________1
 62
     7
 10
-44.828400000000002
 20
138.85499999999999
 30
0.0
 11
-44.828400000000002
 21
140.655
 31
0.0
  0
LINE
  5
5A4
  8
_________1
 62
     7
 10
-45.328299999999992
 20
140.655
 30
0.0
 11
-42.728200000000001
 21
140.655
 31
0.0
  0
LINE
  5
5A5
  8
_________1
 62
     7
 10
-45.328299999999992
 20
147.255
 30
0.0
 11
-42.727899999999991
 21
147.255
 31
0.0
  0
LINE
  5
5A6
  8
_________1
 62
     7
 10
-45.128500000000003
 20
147.255
 30
0.0
 11
-45.128500000000003
 21
150.45400000000001
 31
0.0
  0
LINE
  5
5A7
  8
_________1
 62
     7
 10
-45.328299999999992
 20
147.05500000000001
 30
0.0
 11
-45.328299999999992
 21
150.45400000000001
 31
0.0
  0
LINE
  5
5A8
  8
_________1
 62
     7
 10
-45.328299999999992
 20
147.05500000000001
 30
0.0
 11
-42.728200000000001
 21
147.05500000000001
 31
0.0
  0
LINE
  5
5A9
  8
_________1
 62
     7
 10
-44.528300000000002
 20
147.05500000000001
 30
0.0
 11
-42.728200000000001
 21
147.05500000000001
 31
0.0
  0
LINE
  5
5AA
  8
_________1
 62
     7
 10
-44.528300000000002
 20
150.45400000000001
 30
0.0
 11
-44.528300000000002
 21
151.45500000000001
 31
0.0
  0
LINE
  5
5AB
  8
_________1
 62
     7
 10
-46.328400000000002
 20
150.45400000000001
 30
0.0
 11
-46.328400000000002
 21
151.45500000000001
 31
0.0
  0
LINE
  5
5AC
  8
_________1
 62
     7
 10
-46.328400000000002
 20
150.45400000000001
 30
0.0
 11
-44.528300000000002
 21
150.45400000000001
 31
0.0
  0
LINE
  5
5AD
  8
_________1
 62
     7
 10
-44.528300000000002
 20
150.45400000000001
 30
0.0
 11
-42.728200000000001
 21
150.45400000000001
 31
0.0
  0
LINE
  5
5AE
  8
_________1
 62
     7
 10
-47.128300000000003
 20
151.45500000000001
 30
0.0
 11
-47.128300000000003
 21
151.85499999999999
 31
0.0
  0
LINE
  5
5AF
  8
_________1
 62
     7
 10
-47.128300000000003
 20
151.45500000000001
 30
0.0
 11
-42.728200000000001
 21
151.45500000000001
 31
0.0
  0
LINE
  5
5B0
  8
_________1
 62
     7
 10
-47.128300000000003
 20
151.655
 30
0.0
 11
-42.728200000000001
 21
151.655
 31
0.0
  0
LINE
  5
5B1
  8
_________1
 62
     7
 10
-47.128300000000003
 20
151.85499999999999
 30
0.0
 11
-42.728200000000001
 21
151.85499999999999
 31
0.0
  0
LINE
  5
5B2
  8
_________1
 62
     7
 10
-45.128500000000003
 20
151.85499999999999
 30
0.0
 11
-45.128500000000003
 21
157.85499999999999
 31
0.0
  0
LINE
  5
5B3
  8
_________1
 62
     7
 10
-45.328299999999992
 20
151.85499999999999
 30
0.0
 11
-45.328299999999992
 21
157.85499999999999
 31
0.0
  0
LINE
  5
5B4
  8
_________1
 62
     7
 10
-45.821999999999989
 20
161.05500000000001
 30
0.0
 11
-42.728200000000001
 21
161.05500000000001
 31
0.0
  0
LINE
  5
5B5
  8
_________1
 62
     7
 10
-46.333199999999998
 20
159.45400000000001
 30
0.0
 11
-42.728200000000001
 21
159.45400000000001
 31
0.0
  0
LINE
  5
5B6
  8
_________1
 62
     7
 10
-48.928400000000003
 20
157.85499999999999
 30
0.0
 11
-42.728200000000001
 21
157.85499999999999
 31
0.0
  0
LINE
  5
5B7
  8
_________1
  6
AIGENLINE001
 62
     7
 10
-42.727899999999991
 20
137.99199999999999
 30
0.0
 11
-42.727899999999991
 21
176.548
 31
0.0
  0
LINE
  5
5B8
  8
_________1
 62
     7
 10
50.652000000000001
 20
199.85499999999999
 30
0.0
 11
50.707799999999999
 21
199.85499999999999
 31
0.0
  0
LINE
  5
5B9
  8
_________1
 62
     7
 10
50.652000000000001
 20
196.255
 30
0.0
 11
50.708500000000001
 21
196.255
 31
0.0
  0
LINE
  5
5BA
  8
_________1
 62
     7
 10
72.484399999999994
 20
178.07900000000001
 30
0.0
 11
72.484399999999994
 21
173.81599999999989
 31
0.0
  0
ARC
  5
5BB
  8
_________1
 62
     7
 10
50.708333000000003
 20
178.07879700000001
 30
0.0
 40
21.776073
 50
359.99955699999998
 51
89.999526999999986
  0
LINE
  5
5BC
  8
_________1
 62
     7
 10
40.8155
 20
190.42500000000001
 30
0.0
 11
41.191000000000003
 21
192.19300000000001
 31
0.0
  0
ARC
  5
5BD
  8
_________1
 62
     7
 10
50.896538999999997
 20
189.88024799999999
 30
0.0
 40
9.9774460000000005
 50
91.404354999999995
 51
166.59236799999999
  0
ARC
  5
5BE
  8
_________1
 62
     7
 10
50.708247
 20
178.07888299999999
 30
0.0
 40
18.176010999999999
 50
359.9991950000001
 51
89.999166000000017
  0
LINE
  5
5BF
  8
_________1
 62
     7
 10
44.33639999999999
 20
189.67699999999999
 30
0.0
 11
44.712600000000002
 21
191.44499999999999
 31
0.0
  0
ARC
  5
5C0
  8
_________1
 62
     7
 10
50.805633999999998
 20
189.99302499999999
 30
0.0
 40
6.2635819999999987
 50
91.405411000000015
 51
166.59786600000001
  0
LINE
  5
5C1
  8
_________1
 62
     7
 10
50.652000000000001
 20
198.05500000000001
 30
0.0
 11
50.707799999999999
 21
198.05500000000001
 31
0.0
  0
LINE
  5
5C2
  8
_________1
  6
AIGENLINE001
 62
     7
 10
41.290900000000001
 20
184.00299999999999
 30
0.0
 11
42.952199999999991
 21
191.81899999999999
 31
0.0
  0
ARC
  5
5C3
  8
_________1
 62
     7
 10
50.851117999999992
 20
189.937251
 30
0.0
 40
8.1199870000000001
 50
91.405073999999999
 51
166.60055500000001
  0
ARC
  5
5C4
  8
_________1
 62
     7
 10
50.708160999999997
 20
178.078969
 30
0.0
 40
19.975826999999999
 50
359.99902200000002
 51
89.998992000000015
  0
LINE
  5
5C5
  8
_________1
 62
     7
 10
44.240599999999993
 20
189.70699999999999
 30
0.0
 11
42.578000000000003
 21
190.06100000000001
 31
0.0
  0
LINE
  5
5C6
  8
_________1
 62
     7
 10
44.6265
 20
189.114
 30
0.0
 11
44.623699999999992
 21
189.10400000000001
 31
0.0
  0
ARC
  5
5C7
  8
_________1
 62
     7
 10
44.110427000000001
 20
189.21799999999999
 30
0.0
 40
0.526407
 50
348.62759199999999
 51
0.007672
  0
ARC
  5
5C8
  8
_________1
 62
     7
 10
44.121648999999991
 20
189.2056979999999
 30
0.0
 40
0.5153340000000001
 50
1.375713999999999
 51
76.649214999999998
  0
ARC
  5
5C9
  8
_________1
 62
     7
 10
44.409179999999992
 20
188.669839
 30
0.0
 40
0.5206330000000001
 50
260.20100300000001
 51
345.7624990000001
  0
ARC
  5
5CA
  8
_________1
 62
     7
 10
44.397736999999992
 20
188.64559600000001
 30
0.0
 40
0.52642
 50
348.62764099999998
 51
0.044947
  0
ARC
  5
5CB
  8
_________1
 62
     7
 10
44.408971999999999
 20
188.633636
 30
0.0
 40
0.5153340000000001
 50
1.375713999999999
 51
76.649214999999998
  0
LINE
  5
5CC
  8
_________1
 62
     7
 10
44.527999999999992
 20
189.13499999999999
 30
0.0
 11
42.47399999999999
 21
189.572
 31
0.0
  0
LINE
  5
5CD
  8
_________1
 62
     7
 10
43.347000000000001
 20
185.501
 30
0.0
 11
43.7211
 21
187.262
 31
0.0
  0
ARC
  5
5CE
  8
_________1
 62
     7
 10
44.225782000000002
 20
187.133915
 30
0.0
 40
0.5206020000000001
 50
80.202517000000014
 51
165.78435500000001
  0
LINE
  5
5CF
  8
_________1
 62
     7
 10
44.320599999999992
 20
188.15700000000001
 30
0.0
 11
42.265900000000002
 21
188.59299999999999
 31
0.0
  0
LINE
  5
5D0
  8
_________1
 62
     7
 10
44.314399999999999
 20
187.64699999999999
 30
0.0
 11
44.420499999999997
 21
188.14599999999999
 31
0.0
  0
LINE
  5
5D1
  8
_________1
 62
     7
 10
43.347000000000001
 20
185.501
 30
0.0
 11
41.684399999999989
 21
185.85499999999999
 31
0.0
  0
LINE
  5
5D2
  8
_________1
 62
     7
 10
40.915399999999998
 20
190.41399999999999
 30
0.0
 11
42.578000000000003
 21
190.06100000000001
 31
0.0
  0
LINE
  5
5D3
  8
_________1
 62
     7
 10
40.322200000000002
 20
190.029
 30
0.0
 11
40.320099999999989
 21
190.01900000000001
 31
0.0
  0
ARC
  5
5D4
  8
_________1
 62
     7
 10
40.82564399999999
 20
189.90285900000001
 30
0.0
 40
0.5190070000000001
 50
80.039253000000002
 51
165.947619
  0
ARC
  5
5D5
  8
_________1
 62
     7
 10
40.331421999999989
 20
189.49519900000001
 30
0.0
 40
0.5206020000000001
 50
80.202517000000014
 51
165.78435500000001
  0
ARC
  5
5D6
  8
_________1
 62
     7
 10
40.339145000000002
 20
189.53419500000001
 30
0.0
 40
0.5200300000000001
 50
170.162541
 51
255.83955
  0
LINE
  5
5D7
  8
_________1
 62
     7
 10
40.420000000000002
 20
190.0079999999999
 30
0.0
 11
42.47399999999999
 21
189.572
 31
0.0
  0
LINE
  5
5D8
  8
_________1
 62
     7
 10
40.021099999999997
 20
186.208
 30
0.0
 11
40.395200000000003
 21
187.96899999999999
 31
0.0
  0
ARC
  5
5D9
  8
_________1
 62
     7
 10
39.940728999999997
 20
188.069455
 30
0.0
 40
0.4655120000000001
 50
347.49983300000002
 51
0.383243
  0
ARC
  5
5DA
  8
_________1
 62
     7
 10
39.890886999999999
 20
188.060237
 30
0.0
 40
0.51549
 50
1.370747999999999
 51
76.556636999999995
  0
LINE
  5
5DB
  8
_________1
 62
     7
 10
40.211899999999993
 20
189.03
 30
0.0
 11
42.265900000000002
 21
188.59299999999999
 31
0.0
  0
LINE
  5
5DC
  8
_________1
 62
     7
 10
40.0107
 20
188.56200000000001
 30
0.0
 11
40.116199999999992
 21
189.06100000000001
 31
0.0
  0
LINE
  5
5DD
  8
_________1
 62
     7
 10
40.021099999999997
 20
186.208
 30
0.0
 11
41.684399999999989
 21
185.85499999999999
 31
0.0
  0
LINE
  5
5DE
  8
_________1
  6
AIGENLINE001
 62
     7
 10
70.683999999999997
 20
136.51400000000001
 30
0.0
 11
70.683999999999997
 21
188.56399999999999
 31
0.0
  0
INSERT
  5
5DF
  8
_________1
 62
     7
  2
AIGNBL0201000E
 10
0.0
 20
0.0
 30
0.0
  0
INSERT
  5
5E0
  8
_________1
 62
     7
  2
AIGNBL0201000F
 10
0.0
 20
0.0
 30
0.0
  0
LINE
  5
5E1
  8
_________1
 62
     7
 10
-22.227699999999999
 20
101.96599999999999
 30
0.0
 11
-23.227799999999998
 21
101.96599999999999
 31
0.0
  0
INSERT
  5
5E2
  8
_________1
 62
     7
  2
AIGNBL02010010
 10
0.0
 20
0.0
 30
0.0
  0
INSERT
  5
5E3
  8
_________1
 62
     7
  2
AIGNBL02010011
 10
0.0
 20
0.0
 30
0.0
  0
LINE
  5
5E4
  8
_________1
 62
     7
 10
-0.127297
 20
154.28299999999999
 30
0.0
 11
-5.3280500000000002
 21
154.28299999999999
 31
0.0
  0
LINE
  5
5E5
  8
_________1
 62
     7
 10
17.333200000000001
 20
56.893000000000001
 30
0.0
 11
17.333200000000001
 21
56.898499999999991
 31
0.0
  0
LINE
  5
5E6
  8
_________1
 62
     7
 10
17.344999999999999
 20
56.184399999999989
 30
0.0
 11
17.344999999999999
 21
56.792099999999998
 31
0.0
  0
LINE
  5
5E7
  8
_________1
 62
     7
 10
16.421299999999999
 20
56.184399999999989
 30
0.0
 11
16.421299999999999
 21
56.792099999999998
 31
0.0
  0
LINE
  5
5E8
  8
_________1
 62
     7
 10
17.5778
 20
57.200000000000003
 30
0.0
 11
17.5778
 21
56.792099999999998
 31
0.0
  0
LINE
  5
5E9
  8
_________1
 62
     7
 10
16.422999999999998
 20
57.424900000000001
 30
0.0
 11
17.352499999999999
 21
57.424900000000001
 31
0.0
  0
ARC
  5
5EA
  8
_________1
 62
     7
 10
17.34441
 20
57.191485
 30
0.0
 40
0.233594
 50
2.0819959999999988
 51
88.005669999999995
  0
LINE
  5
5EB
  8
_________1
 62
     7
 10
16.1981
 20
57.200000000000003
 30
0.0
 11
16.1981
 21
56.792099999999998
 31
0.0
  0
ARC
  5
5EC
  8
_________1
 62
     7
 10
16.431494000000001
 20
57.191522999999997
 30
0.0
 40
0.233567
 50
92.072760999999986
 51
177.927209
  0
LINE
  5
5ED
  8
_________1
 62
     7
 10
16.1981
 20
56.792099999999998
 30
0.0
 11
17.5778
 21
56.792099999999998
 31
0.0
  0
LINE
  5
5EE
  8
_________1
 62
     7
 10
17.314
 20
56.08509999999999
 30
0.0
 11
17.314
 21
56.085799999999992
 31
0.0
  0
LINE
  5
5EF
  8
_________1
 62
     7
 10
16.179099999999998
 20
56.184399999999989
 30
0.0
 11
15.982100000000001
 21
55.954900000000002
 31
0.0
  0
LINE
  5
5F0
  8
_________1
 62
     7
 10
17.559200000000001
 20
56.184399999999989
 30
0.0
 11
17.7563
 21
55.954900000000002
 31
0.0
  0
LINE
  5
5F1
  8
_________1
 62
     7
 10
17.7563
 20
53.065800000000003
 30
0.0
 11
17.559899999999999
 21
52.836399999999998
 31
0.0
  0
LINE
  5
5F2
  8
_________1
 62
     7
 10
15.9841
 20
53.065800000000003
 30
0.0
 11
16.1815
 21
52.836399999999998
 31
0.0
  0
LINE
  5
5F3
  8
_________1
 62
     7
 10
16.1815
 20
52.836399999999998
 30
0.0
 11
17.559899999999999
 21
52.836399999999998
 31
0.0
  0
ARC
  5
5F4
  8
_________1
 62
     7
 10
16.843997999999999
 20
53.709348999999989
 30
0.0
 40
0.716417
 50
2.096760999999999
 51
87.874603000000008
  0
ARC
  5
5F5
  8
_________1
 62
     7
 10
16.896840999999998
 20
53.71000200000001
 30
0.0
 40
0.715754
 50
92.103666999999987
 51
177.95357100000001
  0
ARC
  5
5F6
  8
_________1
 62
     7
 10
16.897179000000001
 20
53.762174000000002
 30
0.0
 40
0.7161310000000001
 50
182.12970799999999
 51
267.87032199999999
  0
ARC
  5
5F7
  8
_________1
 62
     7
 10
16.844360999999999
 20
53.762124999999997
 30
0.0
 40
0.716067
 50
272.09736299999997
 51
357.87400600000001
  0
LINE
  5
5F8
  8
_________1
 62
     7
 10
17.7563
 20
53.061399999999999
 30
0.0
 11
17.7563
 21
55.9587
 31
0.0
  0
LINE
  5
5F9
  8
_________1
 62
     7
 10
15.9841
 20
53.065800000000003
 30
0.0
 11
15.9841
 21
55.957000000000001
 31
0.0
  0
LINE
  5
5FA
  8
_________1
 62
     7
 10
16.179099999999998
 20
56.184399999999989
 30
0.0
 11
17.559200000000001
 21
56.184399999999989
 31
0.0
  0
LINE
  5
5FB
  8
_________1
 62
     7
 10
-12.007400000000001
 20
54.513500000000001
 30
0.0
 11
15.9841
 21
54.513500000000001
 31
0.0
  0
LINE
  5
5FC
  8
_________1
 62
     7
 10
-12.007400000000001
 20
55.513199999999998
 30
0.0
 11
15.9841
 21
55.513199999999998
 31
0.0
  0
LINE
  5
5FD
  8
_________1
 62
     7
 10
17.7563
 20
54.521000000000001
 30
0.0
 11
19.075800000000001
 21
54.521000000000001
 31
0.0
  0
LINE
  5
5FE
  8
_________1
 62
     7
 10
17.7563
 20
55.505699999999997
 30
0.0
 11
19.075800000000001
 21
55.505699999999997
 31
0.0
  0
LINE
  5
5FF
  8
_________1
 62
     7
 10
19.273499999999999
 20
54.7181
 30
0.0
 11
19.075800000000001
 21
54.521000000000001
 31
0.0
  0
LINE
  5
600
  8
_________1
 62
     7
 10
19.075800000000001
 20
55.505699999999997
 30
0.0
 11
19.273499999999999
 21
55.308599999999998
 31
0.0
  0
LINE
  5
601
  8
_________1
 62
     7
 10
19.273499999999999
 20
54.7181
 30
0.0
 11
19.273499999999999
 21
55.308599999999998
 31
0.0
  0
ARC
  5
602
  8
_________1
 62
     7
 10
17.529820000000001
 20
57.085231999999998
 30
0.0
 40
0.291442
 50
249.49212200000011
 51
269.82473900000002
  0
ARC
  5
603
  8
_________1
 62
     7
 10
17.508223999999998
 20
57.005305999999997
 30
0.0
 40
0.20916
 50
202.31923
 51
247.362302
  0
ARC
  5
604
  8
_________1
 62
     7
 10
17.696553999999999
 20
57.091554000000002
 30
0.0
 40
0.416216
 50
177.072722
 51
203.45710299999999
  0
ARC
  5
605
  8
_________1
 62
     7
 10
17.75568599999999
 20
57.11524
 30
0.0
 40
0.4748120000000001
 50
163.980648
 51
180.29333399999999
  0
ARC
  5
606
  8
_________1
 62
     7
 10
17.554777000000001
 20
57.16713399999999
 30
0.0
 40
0.267442
 50
115.731341
 51
162.78842299999999
  0
ARC
  5
607
  8
_________1
 62
     7
 10
16.250820000000001
 20
57.050373999999998
 30
0.0
 40
0.25802
 50
273.208281
 51
306.78340600000001
  0
ARC
  5
608
  8
_________1
 62
     7
 10
16.261326
 20
57.010202
 30
0.0
 40
0.220112
 50
310.85798
 51
339.89207499999998
  0
ARC
  5
609
  8
_________1
 62
     7
 10
16.051655
 20
57.093133999999999
 30
0.0
 40
0.4455520000000001
 50
339.14694400000002
 51
2.5309750000000002
  0
ARC
  5
60A
  8
_________1
 62
     7
 10
16.000024
 20
57.113431999999989
 30
0.0
 40
0.496749
 50
359.928181
 51
15.755490999999999
  0
ARC
  5
60B
  8
_________1
 62
     7
 10
16.229351000000001
 20
57.173605000000002
 30
0.0
 40
0.259735
 50
16.716871999999999
 51
64.864918000000003
  0
ARC
  5
60C
  8
_________1
 62
     7
 10
16.745706999999999
 20
57.086696000000003
 30
0.0
 40
0.292906
 50
249.544005
 51
269.82653399999998
  0
ARC
  5
60D
  8
_________1
 62
     7
 10
16.723517000000001
 20
57.004860000000001
 30
0.0
 40
0.208621
 50
202.247524
 51
247.3985100000001
  0
ARC
  5
60E
  8
_________1
 62
     7
 10
16.913260999999999
 20
57.091293999999998
 30
0.0
 40
0.417045
 50
177.042787
 51
203.36880099999999
  0
ARC
  5
60F
  8
_________1
 62
     7
 10
16.974107
 20
57.115512000000003
 30
0.0
 40
0.4773430000000001
 50
164.034571
 51
180.32438999999999
  0
ARC
  5
610
  8
_________1
 62
     7
 10
16.7639
 20
57.168512
 30
0.0
 40
0.260757
 50
100.457747
 51
162.52637100000001
  0
ARC
  5
611
  8
_________1
 62
     7
 10
17.034670999999999
 20
57.072120999999989
 30
0.0
 40
0.279786
 50
273.15262999999999
 51
293.63726400000002
  0
ARC
  5
612
  8
_________1
 62
     7
 10
17.056424
 20
57.002676999999998
 30
0.0
 40
0.207598
 50
295.822273
 51
340.83652599999999
  0
ARC
  5
613
  8
_________1
 62
     7
 10
16.835937999999999
 20
57.092201000000003
 30
0.0
 40
0.445419
 50
339.26889299999999
 51
2.6519140000000001
  0
ARC
  5
614
  8
_________1
 62
     7
 10
16.780103
 20
57.113032999999987
 30
0.0
 40
0.500778
 50
359.97445199999999
 51
15.675490999999999
  0
ARC
  5
615
  8
_________1
 62
     7
 10
17.016663999999999
 20
57.173654999999997
 30
0.0
 40
0.256696
 50
16.914027000000001
 51
77.841456999999991
  0
LINE
  5
616
  8
_________1
 62
     7
 10
17.2072
 20
56.792099999999998
 30
0.0
 11
17.2072
 21
56.184399999999989
 31
0.0
  0
LINE
  5
617
  8
_________1
 62
     7
 10
16.558399999999999
 20
56.792099999999998
 30
0.0
 11
16.558399999999999
 21
56.184399999999989
 31
0.0
  0
ARC
  5
618
  8
_________1
 62
     7
 10
16.478854999999999
 20
53.539825
 30
0.0
 40
0.5101810000000001
 50
194.14309299999991
 51
220.11210500000001
  0
ARC
  5
619
  8
_________1
 62
     7
 10
16.653355999999999
 20
53.675474999999999
 30
0.0
 40
0.731086
 50
219.43148599999989
 51
243.02397199999999
  0
ARC
  5
61A
  8
_________1
 62
     7
 10
16.84442
 20
54.008244999999988
 30
0.0
 40
1.1144860000000001
 50
242.03039799999999
 51
270.97234300000002
  0
ARC
  5
61B
  8
_________1
 62
     7
 10
16.862037999999998
 20
54.089607999999998
 30
0.0
 40
1.1956889999999989
 50
270.062027
 51
298.437003
  0
ARC
  5
61C
  8
_________1
 62
     7
 10
17.044416999999999
 20
53.707196000000003
 30
0.0
 40
0.7728770000000002
 50
300.04798299999999
 51
322.63007800000003
  0
ARC
  5
61D
  8
_________1
 62
     7
 10
17.245491999999999
 20
53.538761999999998
 30
0.0
 40
0.51098
 50
323.955129
 51
358.54121400000008
  0
ARC
  5
61E
  8
_________1
 62
     7
 10
17.250122000000001
 20
55.523749000000002
 30
0.0
 40
0.516253
 50
11.334061999999999
 51
47.124499
  0
ARC
  5
61F
  8
_________1
 62
     7
 10
17.031659999999999
 20
55.324457000000002
 30
0.0
 40
0.8113139999999999
 50
45.394317999999998
 51
67.822447999999994
  0
ARC
  5
620
  8
_________1
 62
     7
 10
16.884632
 20
55.015333999999989
 30
0.0
 40
1.153230999999999
 50
66.855397999999994
 51
90.596116000000009
  0
ARC
  5
621
  8
_________1
 62
     7
 10
16.873345999999991
 20
54.967185999999998
 30
0.0
 40
1.2013169999999991
 50
90.033938000000006
 51
116.94342899999999
  0
ARC
  5
622
  8
_________1
 62
     7
 10
16.710419000000002
 20
55.330953999999998
 30
0.0
 40
0.8034499999999999
 50
118.340231
 51
140.05602999999999
  0
ARC
  5
623
  8
_________1
 62
     7
 10
16.515173000000001
 20
55.508455000000012
 30
0.0
 40
0.5399040000000001
 50
141.19481099999999
 51
169.600269
  0
LINE
  5
624
  8
_________1
 62
     7
 10
16.771699999999999
 20
53.053100000000001
 30
0.0
 11
16.771699999999999
 21
54.417999999999999
 31
0.0
  0
LINE
  5
625
  8
_________1
 62
     7
 10
16.9694
 20
53.053100000000001
 30
0.0
 11
16.9694
 21
54.417999999999999
 31
0.0
  0
LINE
  5
626
  8
_________1
 62
     7
 10
19.075800000000001
 20
55.505699999999997
 30
0.0
 11
19.075800000000001
 21
54.521000000000001
 31
0.0
  0
LINE
  5
627
  8
_________1
  6
AIGENLINE002
 62
     7
 10
16.867799999999999
 20
52.098100000000002
 30
0.0
 11
16.867799999999999
 21
58.325099999999999
 31
0.0
  0
LINE
  5
628
  8
_________1
 62
     7
 10
19.273499999999999
 20
53.869900000000001
 30
0.0
 11
19.273499999999999
 21
42.8459
 31
0.0
  0
LINE
  5
629
  8
_________1
 62
     7
 10
-28.746600000000001
 20
69.191000000000003
 30
0.0
 11
-16.708600000000001
 21
69.191000000000003
 31
0.0
  0
LINE
  5
62A
  8
_________1
 62
     7
 10
-16.427499999999998
 20
68.909599999999983
 30
0.0
 11
-16.427499999999998
 21
68.794200000000004
 31
0.0
  0
ARC
  5
62B
  8
_________1
 62
     7
 10
-16.719660999999999
 20
68.898922999999996
 30
0.0
 40
0.29233
 50
2.089113999999999
 51
87.840704000000002
  0
ARC
  5
62C
  8
_________1
 62
     7
 10
-28.735890000000001
 20
68.899252000000004
 30
0.0
 40
0.291989
 50
92.097161999999997
 51
177.972981
  0
LINE
  5
62D
  8
_________1
 62
     7
 10
-29.027699999999999
 20
68.794200000000004
 30
0.0
 11
-29.027699999999999
 21
68.909599999999983
 31
0.0
  0
LINE
  5
62E
  8
_________1
 62
     7
 10
-18.872900000000001
 20
62.4221
 30
0.0
 11
-18.789200000000001
 21
62.4221
 31
0.0
  0
LINE
  5
62F
  8
_________1
 62
     7
 10
-24.168700000000001
 20
62.787599999999998
 30
0.0
 11
-24.168700000000001
 21
64.435400000000001
 31
0.0
  0
ARC
  5
630
  8
_________1
 62
     7
 10
-23.789368
 20
62.801428000000001
 30
0.0
 40
0.379587
 50
182.08674099999999
 51
267.967265
  0
LINE
  5
631
  8
_________1
 62
     7
 10
-23.802800000000001
 20
62.4221
 30
0.0
 11
-21.592400000000001
 21
62.4221
 31
0.0
  0
ARC
  5
632
  8
_________1
 62
     7
 10
-21.606643999999999
 20
62.801448000000001
 30
0.0
 40
0.379634
 50
272.14346599999999
 51
357.910571
  0
ARC
  5
633
  8
_________1
 62
     7
 10
-23.789034000000001
 20
64.421607999999992
 30
0.0
 40
0.37992
 50
92.081325000000035
 51
177.918645
  0
LINE
  5
634
  8
_________1
 62
     7
 10
-23.802800000000001
 20
64.801299999999983
 30
0.0
 11
-21.592400000000001
 21
64.801299999999983
 31
0.0
  0
ARC
  5
635
  8
_________1
 62
     7
 10
-21.606667999999999
 20
64.421897999999999
 30
0.0
 40
0.379646
 50
2.0390609999999998
 51
87.852925999999997
  0
LINE
  5
636
  8
_________1
 62
     7
 10
-19.238399999999999
 20
62.787599999999998
 30
0.0
 11
-19.238399999999999
 21
64.435400000000001
 31
0.0
  0
ARC
  5
637
  8
_________1
 62
     7
 10
-18.859072000000001
 20
62.801403999999998
 30
0.0
 40
0.379575
 50
182.08312699999999
 51
267.9169030000001
  0
LINE
  5
638
  8
_________1
 62
     7
 10
-21.2273
 20
62.787599999999998
 30
0.0
 11
-21.2273
 21
64.435400000000001
 31
0.0
  0
LINE
  5
639
  8
_________1
 62
     7
 10
-26.206099999999999
 20
62.787599999999998
 30
0.0
 11
-26.206099999999999
 21
64.435400000000001
 31
0.0
  0
LINE
  5
63A
  8
_________1
 62
     7
 10
-26.666399999999999
 20
62.4221
 30
0.0
 11
-26.571999999999999
 21
62.4221
 31
0.0
  0
ARC
  5
63B
  8
_________1
 62
     7
 10
-26.586193000000002
 20
62.802141000000013
 30
0.0
 40
0.380325
 50
272.13610699999998
 51
357.80992700000002
  0
LINE
  5
63C
  8
_________1
 62
     7
 10
-18.872900000000001
 20
64.801299999999983
 30
0.0
 11
-18.789200000000001
 21
64.801299999999983
 31
0.0
  0
ARC
  5
63D
  8
_________1
 62
     7
 10
-18.858664999999998
 20
64.421559999999999
 30
0.0
 40
0.379983
 50
92.14221400000001
 51
177.911732
  0
LINE
  5
63E
  8
_________1
 62
     7
 10
-26.666399999999999
 20
64.801299999999983
 30
0.0
 11
-26.571999999999999
 21
64.801299999999983
 31
0.0
  0
ARC
  5
63F
  8
_________1
 62
     7
 10
-26.586207000000002
 20
64.421216000000001
 30
0.0
 40
0.380326
 50
2.138185
 51
87.861805000000004
  0
LINE
  5
640
  8
_________1
 62
     7
 10
-26.666399999999999
 20
61.8705
 30
0.0
 11
-26.666399999999999
 21
62.4221
 31
0.0
  0
LINE
  5
641
  8
_________1
 62
     7
 10
-26.666399999999999
 20
66.670599999999993
 30
0.0
 11
-26.836600000000001
 21
66.847300000000004
 31
0.0
  0
LINE
  5
642
  8
_________1
 62
     7
 10
-18.661999999999999
 20
66.847300000000004
 30
0.0
 11
-18.789200000000001
 21
66.670599999999993
 31
0.0
  0
LINE
  5
643
  8
_________1
 62
     7
 10
-18.789200000000001
 20
62.4221
 30
0.0
 11
-18.789200000000001
 21
61.8705
 31
0.0
  0
LINE
  5
644
  8
_________1
 62
     7
 10
-18.789200000000001
 20
66.670599999999993
 30
0.0
 11
-18.789200000000001
 21
64.801299999999983
 31
0.0
  0
LINE
  5
645
  8
_________1
 62
     7
 10
-29.027699999999999
 20
68.794200000000004
 30
0.0
 11
-16.427499999999998
 21
68.794200000000004
 31
0.0
  0
LINE
  5
646
  8
_________1
 62
     7
 10
-12.007400000000001
 20
52.995899999999999
 30
0.0
 11
-12.007400000000001
 21
57.035299999999999
 31
0.0
  0
LINE
  5
647
  8
_________1
 62
     7
 10
-12.288600000000001
 20
52.714100000000002
 30
0.0
 11
-14.1737
 21
52.714100000000002
 31
0.0
  0
ARC
  5
648
  8
_________1
 62
     7
 10
-12.29928
 20
53.005898999999999
 30
0.0
 40
0.292012
 50
272.10373099999998
 51
358.03653800000001
  0
LINE
  5
649
  8
_________1
 62
     7
 10
-12.288600000000001
 20
57.316800000000001
 30
0.0
 11
-14.1737
 21
57.316800000000001
 31
0.0
  0
ARC
  5
64A
  8
_________1
 62
     7
 10
-12.299575000000001
 20
57.024638000000003
 30
0.0
 40
0.29233
 50
2.089113999999999
 51
87.840704000000002
  0
LINE
  5
64B
  8
_________1
 62
     7
 10
-14.1737
 20
57.316800000000001
 30
0.0
 11
-14.1737
 21
52.714100000000002
 31
0.0
  0
LINE
  5
64C
  8
_________1
 62
     7
 10
-18.592400000000001
 20
52.945599999999999
 30
0.0
 11
-26.863499999999998
 21
52.945599999999999
 31
0.0
  0
LINE
  5
64D
  8
_________1
 62
     7
 10
-16.4758
 20
60.822499999999998
 30
0.0
 11
-28.980499999999999
 21
60.822499999999998
 31
0.0
  0
ARC
  5
64E
  8
_________1
 62
     7
 10
-18.246583000000001
 20
52.739982999999988
 30
0.0
 40
0.4023570000000001
 50
90.681681000000012
 51
149.26821000000001
  0
LINE
  5
64F
  8
_________1
 62
     7
 10
-14.9613
 20
52.896000000000001
 30
0.0
 11
-14.9613
 21
57.130400000000002
 31
0.0
  0
ARC
  5
650
  8
_________1
 62
     7
 10
-18.183212000000001
 20
57.293278000000001
 30
0.0
 40
0.4095030000000001
 50
182.11365499999999
 51
267.88637499999999
  0
LINE
  5
651
  8
_________1
 62
     7
 10
-14.9613
 20
52.896000000000001
 30
0.0
 11
-14.8628
 21
52.797800000000002
 31
0.0
  0
LINE
  5
652
  8
_________1
 62
     7
 10
-14.8628
 20
57.2286
 30
0.0
 11
-14.9613
 21
57.130400000000002
 31
0.0
  0
LINE
  5
653
  8
_________1
 62
     7
 10
-18.1983
 20
56.884099999999997
 30
0.0
 11
-14.9613
 21
56.884099999999997
 31
0.0
  0
LINE
  5
654
  8
_________1
 62
     7
 10
-14.9613
 20
53.142299999999999
 30
0.0
 11
-18.2514
 21
53.142299999999999
 31
0.0
  0
LINE
  5
655
  8
_________1
 62
     7
 10
-14.1737
 20
52.797800000000002
 30
0.0
 11
-14.8628
 21
52.797800000000002
 31
0.0
  0
ARC
  5
656
  8
_________1
 62
     7
 10
-16.625919
 20
66.788411999999994
 30
0.0
 40
2.0369619999999991
 50
99.109851000000035
 51
178.342422
  0
ARC
  5
657
  8
_________1
 62
     7
 10
-28.872402000000001
 20
66.788740000000004
 30
0.0
 40
2.0366430000000002
 50
1.648577999999999
 51
80.887685999999988
  0
ARC
  5
658
  8
_________1
 62
     7
 10
-28.022196000000001
 20
61.256698999999998
 30
0.0
 40
0.6142340000000001
 50
92.109406000000007
 51
177.823747
  0
ARC
  5
659
  8
_________1
 62
     7
 10
-28.037703
 20
61.284305000000003
 30
0.0
 40
0.5983000000000001
 50
180.410054
 51
230.41599299999999
  0
ARC
  5
65A
  8
_________1
 62
     7
 10
-17.416242
 20
61.282348999999989
 30
0.0
 40
0.595979
 50
309.60925700000001
 51
359.776433
  0
ARC
  5
65B
  8
_________1
 62
     7
 10
-17.433381000000001
 20
61.257429999999999
 30
0.0
 40
0.613529
 50
2.1103869999999989
 51
87.822707999999992
  0
LINE
  5
65C
  8
_________1
 62
     7
 10
-18.592400000000001
 20
58.835000000000001
 30
0.0
 11
-18.592400000000001
 21
57.278199999999998
 31
0.0
  0
ARC
  5
65D
  8
_________1
 62
     7
 10
-27.869188000000001
 20
58.823363000000001
 30
0.0
 40
1.0057819999999991
 50
0.664253
 51
59.282992000000007
  0
ARC
  5
65E
  8
_________1
 62
     7
 10
-17.587847
 20
58.82359799999999
 30
0.0
 40
1.004654999999999
 50
120.634918
 51
179.348364
  0
LINE
  5
65F
  8
_________1
 62
     7
 10
-26.863499999999998
 20
52.945599999999999
 30
0.0
 11
-26.863499999999998
 21
58.835000000000001
 31
0.0
  0
LINE
  5
660
  8
_________1
 62
     7
 10
-16.4758
 20
60.625799999999998
 30
0.0
 11
-18.099799999999998
 21
59.688000000000002
 31
0.0
  0
LINE
  5
661
  8
_________1
 62
     7
 10
-16.4758
 20
60.625799999999998
 30
0.0
 11
-16.4758
 21
60.822499999999998
 31
0.0
  0
LINE
  5
662
  8
_________1
 62
     7
 10
-18.789200000000001
 20
52.35479999999999
 30
0.0
 11
-26.6175
 21
52.35479999999999
 31
0.0
  0
LINE
  5
663
  8
_________1
 62
     7
 10
-18.8384
 20
52.35479999999999
 30
0.0
 11
-18.8384
 21
52.945599999999999
 31
0.0
  0
LINE
  5
664
  8
_________1
 62
     7
 10
-26.6175
 20
52.35479999999999
 30
0.0
 11
-26.6175
 21
52.945599999999999
 31
0.0
  0
LINE
  5
665
  8
_________1
 62
     7
 10
-26.666399999999999
 20
51.243000000000002
 30
0.0
 11
-26.399799999999999
 21
50.975999999999999
 31
0.0
  0
LINE
  5
666
  8
_________1
 62
     7
 10
-18.789200000000001
 20
51.243000000000002
 30
0.0
 11
-19.056100000000001
 21
50.975999999999999
 31
0.0
  0
LINE
  5
667
  8
_________1
 62
     7
 10
-18.789200000000001
 20
52.35479999999999
 30
0.0
 11
-18.789200000000001
 21
51.243000000000002
 31
0.0
  0
LINE
  5
668
  8
_________1
 62
     7
 10
-26.666399999999999
 20
51.243000000000002
 30
0.0
 11
-26.666399999999999
 21
52.35479999999999
 31
0.0
  0
LINE
  5
669
  8
_________1
 62
     7
 10
-19.056100000000001
 20
50.975999999999999
 30
0.0
 11
-26.399799999999999
 21
50.975999999999999
 31
0.0
  0
LINE
  5
66A
  8
_________1
 62
     7
 10
-28.980499999999999
 20
60.625799999999998
 30
0.0
 11
-27.355399999999999
 21
59.688000000000002
 31
0.0
  0
LINE
  5
66B
  8
_________1
 62
     7
 10
-28.980499999999999
 20
60.625799999999998
 30
0.0
 11
-28.980499999999999
 21
60.822499999999998
 31
0.0
  0
LINE
  5
66C
  8
_________1
 62
     7
 10
-28.044799999999999
 20
61.8705
 30
0.0
 11
-17.4101
 21
61.8705
 31
0.0
  0
LINE
  5
66D
  8
_________1
 62
     7
 10
-14.1737
 20
57.2286
 30
0.0
 11
-14.8628
 21
57.2286
 31
0.0
  0
INSERT
  5
66E
  8
_________1
 62
     7
  2
AIGNBL02010012
 10
0.0
 20
0.0
 30
0.0
  0
LINE
  5
66F
  8
_________1
 62
     7
 10
-12.757099999999999
 20
55.731000000000002
 30
0.0
 11
-14.1737
 21
55.731000000000002
 31
0.0
  0
LINE
  5
670
  8
_________1
 62
     7
 10
-12.757099999999999
 20
55.2211
 30
0.0
 11
-14.1737
 21
55.2211
 31
0.0
  0
LINE
  5
671
  8
_________1
 62
     7
 10
-12.757099999999999
 20
54.711199999999991
 30
0.0
 11
-14.1737
 21
54.711199999999991
 31
0.0
  0
LINE
  5
672
  8
_________1
 62
     7
 10
-12.757099999999999
 20
54.173099999999998
 30
0.0
 11
-14.1737
 21
54.173099999999998
 31
0.0
  0
LINE
  5
673
  8
_________1
 62
     7
 10
-12.757099999999999
 20
56.863700000000001
 30
0.0
 11
-14.1737
 21
56.863700000000001
 31
0.0
  0
LINE
  5
674
  8
_________1
 62
     7
 10
-12.757099999999999
 20
56.269100000000002
 30
0.0
 11
-14.1737
 21
56.269100000000002
 31
0.0
  0
LINE
  5
675
  8
_________1
 62
     7
 10
-12.757099999999999
 20
53.606699999999989
 30
0.0
 11
-14.1737
 21
53.606699999999989
 31
0.0
  0
LINE
  5
676
  8
_________1
 62
     7
 10
-12.757099999999999
 20
53.096800000000002
 30
0.0
 11
-14.1737
 21
53.096800000000002
 31
0.0
  0
LINE
  5
677
  8
_________1
 62
     7
 10
-12.757099999999999
 20
57.316800000000001
 30
0.0
 11
-12.757099999999999
 21
52.714100000000002
 31
0.0
  0
LINE
  5
678
  8
_________1
 62
     7
 10
-15.8377
 20
56.884099999999997
 30
0.0
 11
-15.8377
 21
53.142299999999999
 31
0.0
  0
LINE
  5
679
  8
_________1
 62
     7
 10
-29.0184
 20
61.8705
 30
0.0
 11
-33.9711
 21
61.8705
 31
0.0
  0
LINE
  5
67A
  8
_________1
 62
     7
 10
-28.674900000000001
 20
48.35840000000001
 30
0.0
 11
-38.444600000000001
 21
48.35840000000001
 31
0.0
  0
INSERT
  5
67B
  8
_________1
 62
     7
  2
AIGNBL02010013
 10
0.0
 20
0.0
 30
0.0
  0
LINE
  5
67C
  8
_________1
 62
     7
 10
-22.728000000000002
 20
48.321599999999997
 30
0.0
 11
-22.728000000000002
 21
42.845199999999991
 31
0.0
  0
LINE
  5
67D
  8
_________1
 62
     7
 10
-15.4415
 20
56.655299999999997
 30
0.0
 11
-14.9613
 21
56.655299999999997
 31
0.0
  0
LINE
  5
67E
  8
_________1
 62
     7
 10
-14.9613
 20
53.371099999999998
 30
0.0
 11
-15.4415
 21
53.371099999999998
 31
0.0
  0
LINE
  5
67F
  8
_________1
 62
     7
 10
-15.4415
 20
53.371099999999998
 30
0.0
 11
-15.8377
 21
53.142299999999999
 31
0.0
  0
LINE
  5
680
  8
_________1
 62
     7
 10
-19.056100000000001
 20
50.975999999999999
 30
0.0
 11
-19.056100000000001
 21
52.35479999999999
 31
0.0
  0
LINE
  5
681
  8
_________1
 62
     7
 10
-26.666399999999999
 20
51.243000000000002
 30
0.0
 11
-18.789200000000001
 21
51.243000000000002
 31
0.0
  0
LINE
  5
682
  8
_________1
 62
     7
 10
-26.399799999999999
 20
50.975999999999999
 30
0.0
 11
-26.399799999999999
 21
52.35479999999999
 31
0.0
  0
LINE
  5
683
  8
_________1
 62
     7
 10
-15.4415
 20
53.142299999999999
 30
0.0
 11
-15.4415
 21
56.884099999999997
 31
0.0
  0
LINE
  5
684
  8
_________1
 62
     7
 10
-15.8377
 20
56.884099999999997
 30
0.0
 11
-15.4415
 21
56.655299999999997
 31
0.0
  0
LINE
  5
685
  8
_________1
 62
     7
 10
-29.027699999999999
 20
69.751599999999996
 30
0.0
 11
-29.027699999999999
 21
74.710499999999996
 31
0.0
  0
LINE
  5
686
  8
_________1
 62
     7
 10
-29.655100000000001
 20
69.191000000000003
 30
0.0
 11
-33.9711
 21
69.191000000000003
 31
0.0
  0
INSERT
  5
687
  8
_________1
 62
     7
  2
AIGNBL02010014
 10
0.0
 20
0.0
 30
0.0
  0
INSERT
  5
688
  8
_________1
 62
     7
  2
AIGNBL02010015
 10
0.0
 20
0.0
 30
0.0
  0
LINE
  5
689
  8
_________1
 62
     7
 10
-16.427499999999998
 20
69.751599999999996
 30
0.0
 11
-16.427499999999998
 21
74.710499999999996
 31
0.0
  0
INSERT
  5
68A
  8
_________1
 62
     7
  2
AIGNBL02010016
 10
0.0
 20
0.0
 30
0.0
  0
LINE
  5
68B
  8
_________1
  6
AIGENLINE003
 62
     7
 10
17.7563
 20
55.01339999999999
 30
0.0
 11
21.005099999999999
 21
55.01339999999999
 31
0.0
  0
LINE
  5
68C
  8
_________1
  6
AIGENLINE001
 62
     7
 10
-22.728000000000002
 20
49.040900000000001
 30
0.0
 11
-22.728000000000002
 21
70.151499999999999
 31
0.0
  0
LINE
  5
68D
  8
_________1
  6
AIGENLINE001
 62
     7
 10
-32.613
 20
55.01339999999999
 30
0.0
 11
15.9841
 21
55.01339999999999
 31
0.0
  0
LINE
  5
68E
  8
_________1
 62
     7
 10
-26.666399999999999
 20
64.801299999999983
 30
0.0
 11
-26.666399999999999
 21
66.670599999999993
 31
0.0
  0
LINE
  5
68F
  8
_________1
 62
     7
 10
-11.5906
 20
223.393
 30
0.0
 11
-9.7601899999999997
 21
224.767
 31
0.0
  0
LINE
  5
690
  8
_________1
 62
     7
 10
-9.7601899999999997
 20
224.767
 30
0.0
 11
-12.0319
 21
224.49199999999999
 31
0.0
  0
LINE
  5
691
  8
_________1
 62
     7
 10
-12.0319
 20
224.49199999999999
 30
0.0
 11
-11.5906
 21
223.393
 31
0.0
  0
LINE
  5
692
  8
_________1
 62
     7
 10
-33.884999999999998
 20
223.40199999999999
 30
0.0
 11
-35.71540000000001
 21
224.77500000000001
 31
0.0
  0
LINE
  5
693
  8
_________1
 62
     7
 10
-35.71540000000001
 20
224.77500000000001
 30
0.0
 11
-33.443300000000001
 21
224.501
 31
0.0
  0
LINE
  5
694
  8
_________1
 62
     7
 10
-33.443300000000001
 20
224.501
 30
0.0
 11
-33.884999999999998
 21
223.40199999999999
 31
0.0
  0
INSERT
  5
695
  8
_________1
 62
     7
  2
AIGNBL02010017
 10
0.0
 20
0.0
 30
0.0
  0
INSERT
  5
696
  8
_________1
 62
     7
  2
AIGNBL02010019
 10
0.0
 20
0.0
 30
0.0
  0
LINE
  5
697
  8
_________1
 62
     7
 10
-2.728019999999999
 20
243.43600000000001
 30
0.0
 11
-2.728019999999999
 21
213.565
 31
0.0
  0
LINE
  5
698
  8
_________1
 62
     7
 10
-22.728000000000002
 20
221.447
 30
0.0
 11
-22.728000000000002
 21
213.565
 31
0.0
  0
LINE
  5
699
  8
_________1
 62
     7
 10
-42.727899999999991
 20
243.43600000000001
 30
0.0
 11
-42.727899999999991
 21
213.565
 31
0.0
  0
ARC
  5
69A
  8
_________1
 62
     7
 10
41.699482000000003
 20
185.99037100000001
 30
0.0
 40
12.331818
 50
243.32784000000001
 51
284.15599200000003
  0
LINE
  5
69B
  8
_________1
 62
     7
 10
84.986000000000004
 20
157.85499999999999
 30
0.0
 11
84.986000000000004
 21
199.85499999999999
 31
0.0
  0
INSERT
  5
69C
  8
_________1
 62
     7
  2
AIGNBL0201001B
 10
0.0
 20
0.0
 30
0.0
  0
INSERT
  5
69D
  8
_________1
 62
     7
  2
AIGNBL0201001C
 10
0.0
 20
0.0
 30
0.0
  0
LINE
  5
69E
  8
_________1
 62
     7
 10
50.477699999999992
 20
157.85499999999999
 30
0.0
 11
50.477699999999992
 21
185.447
 31
0.0
  0
INSERT
  5
69F
  8
_________1
 62
     7
  2
AIGNBL0201001D
 10
0.0
 20
0.0
 30
0.0
  0
LINE
  5
6A0
  8
_________1
 62
     7
 10
33.891500000000001
 20
157.85499999999999
 30
0.0
 11
33.891500000000001
 21
185.80000000000001
 31
0.0
  0
LINE
  5
6A1
  8
_________1
 62
     7
 10
70.6571
 20
203.744
 30
0.0
 11
41.684399999999989
 21
203.744
 31
0.0
  0
LINE
  5
6A2
  8
_________1
 62
     7
 10
41.10179999999999
 20
183.113
 30
0.0
 11
38.956499999999998
 21
173.02199999999999
 31
0.0
  0
LINE
  5
6A3
  8
_________1
 62
     7
 10
41.684399999999989
 20
183.11000000000001
 30
0.0
 11
41.684399999999989
 21
172.499
 31
0.0
  0
LINE
  5
6A4
  8
_________1
 62
     7
 10
43.83829999999999
 20
174.42599999999999
 30
0.0
 11
41.684399999999989
 21
173.65299999999999
 31
0.0
  0
LINE
  5
6A5
  8
_________1
 62
     7
 10
41.684399999999989
 20
173.65299999999999
 30
0.0
 11
43.936100000000003
 21
173.245
 31
0.0
  0
LINE
  5
6A6
  8
_________1
 62
     7
 10
43.936100000000003
 20
173.245
 30
0.0
 11
43.83829999999999
 21
174.42599999999999
 31
0.0
  0
LINE
  5
6A7
  8
_________1
 62
     7
 10
36.8598
 20
173.971
 30
0.0
 11
39.147399999999998
 21
173.91999999999999
 31
0.0
  0
LINE
  5
6A8
  8
_________1
 62
     7
 10
39.147399999999998
 20
173.91999999999999
 30
0.0
 11
37.191200000000002
 21
175.107
 31
0.0
  0
LINE
  5
6A9
  8
_________1
 62
     7
 10
37.191200000000002
 20
175.107
 30
0.0
 11
36.8598
 21
173.971
 31
0.0
  0
LINE
  5
6AA
  8
_________1
 62
     7
 10
51.177700000000002
 20
185.501
 30
0.0
 11
44.046999999999997
 21
185.501
 31
0.0
  0
LINE
  5
6AB
  8
_________1
 62
     7
 10
39.814999999999998
 20
185.85499999999999
 30
0.0
 11
32.6843
 21
185.85499999999999
 31
0.0
  0
INSERT
  5
6AC
  8
_________1
 62
     7
  2
AIGNBL0201001E
 10
0.0
 20
0.0
 30
0.0
  0
INSERT
  5
6AD
  8
_________1
 62
     7
  2
AIGNBL0201001F
 10
0.0
 20
0.0
 30
0.0
  0
INSERT
  5
6AE
  8
_________1
 62
     7
  2
AIGNBL02010020
 10
0.0
 20
0.0
 30
0.0
  0
LINE
  5
6AF
  8
_________1
 62
     7
 10
41.684399999999989
 20
204.95099999999999
 30
0.0
 11
41.684399999999989
 21
187.55500000000001
 31
0.0
  0
INSERT
  5
6B0
  8
_________1
 62
     7
  2
AIGNBL02010021
 10
0.0
 20
0.0
 30
0.0
  0
LINE
  5
6B1
  8
_________1
 62
     7
 10
70.683999999999997
 20
204.95099999999999
 30
0.0
 11
70.683999999999997
 21
188.56399999999999
 31
0.0
  0
LINE
  5
6B2
  8
_________1
 62
     7
 10
-21.027799999999999
 20
89.827299999999994
 30
0.0
 11
-10.760999999999999
 21
89.827299999999994
 31
0.0
  0
INSERT
  5
6B3
  8
_________1
 62
     7
  2
AIGNBL02010023
 10
0.0
 20
0.0
 30
0.0
  0
LINE
  5
6B4
  8
_________1
 62
     7
 10
-10.760999999999999
 20
157.85499999999999
 30
0.0
 11
-15.327500000000001
 21
157.85499999999999
 31
0.0
  0
LINE
  5
6B5
  8
_________1
 62
     7
 10
-16.527799999999999
 20
180.51900000000001
 30
0.0
 11
-16.527799999999999
 21
159.3239999999999
 31
0.0
  0
LINE
  5
6B6
  8
_________1
 62
     7
 10
-28.8827
 20
180.51900000000001
 30
0.0
 11
-28.8827
 21
159.3239999999999
 31
0.0
  0
LINE
  5
6B7
  8
_________1
 62
     7
 10
-8.6115899999999996
 20
179.31899999999999
 30
0.0
 11
-16.527799999999999
 21
179.31899999999999
 31
0.0
  0
INSERT
  5
6B8
  8
_________1
 62
     7
  2
AIGNBL02010025
 10
0.0
 20
0.0
 30
0.0
  0
LINE
  5
6B9
  8
_________1
 62
     7
 10
-36.5274
 20
180.51900000000001
 30
0.0
 11
-36.5274
 21
158.97999999999999
 31
0.0
  0
LINE
  5
6BA
  8
_________1
 62
     7
 10
-49.01489999999999
 20
180.51900000000001
 30
0.0
 11
-49.01489999999999
 21
158.97999999999999
 31
0.0
  0
INSERT
  5
6BB
  8
_________1
 62
     7
  2
AIGNBL02010027
 10
0.0
 20
0.0
 30
0.0
  0
INSERT
  5
6BC
  8
_________1
 62
     7
  2
AIGNBL02010029
 10
0.0
 20
0.0
 30
0.0
  0
INSERT
  5
6BD
  8
_________1
 62
     7
  2
AIGNBL0201002B
 10
0.0
 20
0.0
 30
0.0
  0
LINE
  5
6BE
  8
_________1
 62
     7
 10
81.5154
 20
251.76900000000001
 30
0.0
 11
76.5655
 21
256.71899999999999
 31
0.0
  0
INSERT
  5
6BF
  8
_________1
 62
     7
  2
AIGNBL0201002D
 10
0.0
 20
0.0
 30
0.0
  0
INSERT
  5
6C0
  8
_________1
 62
     7
  2
AIGNBL0201002F
 10
0.0
 20
0.0
 30
0.0
  0
LINE
  5
6C1
  8
_________1
 62
     7
 10
61.515799999999999
 20
251.76900000000001
 30
0.0
 11
56.565899999999999
 21
256.71899999999999
 31
0.0
  0
INSERT
  5
6C2
  8
_________1
 62
     7
  2
AIGNBL02010031
 10
0.0
 20
0.0
 30
0.0
  0
INSERT
  5
6C3
  8
_________1
 62
     7
  2
AIGNBL02010033
 10
0.0
 20
0.0
 30
0.0
  0
LINE
  5
6C4
  8
_________1
 62
     7
 10
41.516199999999998
 20
251.76900000000001
 30
0.0
 11
36.566299999999998
 21
256.71899999999999
 31
0.0
  0
ARC
  5
6C5
  8
_________1
 62
     7
 10
39.041791000000003
 20
254.24414300000001
 30
0.0
 40
3.4997229999999999
 50
270.00283999999999
 51
0.00281
  0
ARC
  5
6C6
  8
_________1
 62
     7
 10
39.041791000000003
 20
254.24448599999999
 30
0.0
 40
3.5000659999999999
 50
180.00282999999999
 51
270.00283999999999
  0
ARC
  5
6C7
  8
_________1
 62
     7
 10
39.041878000000011
 20
254.244227
 30
0.0
 40
3.5001540000000002
 50
89.998589999999993
 51
179.99856
  0
ARC
  5
6C8
  8
_________1
 62
     7
 10
39.041705
 20
254.24457200000001
 30
0.0
 40
3.4998089999999991
 50
359.99578000000002
 51
89.995750000000001
  0
ARC
  5
6C9
  8
_________1
 62
     7
 10
59.041730000000001
 20
254.24465900000001
 30
0.0
 40
3.500067
 50
269.99720000000002
 51
359.9971700000001
  0
ARC
  5
6CA
  8
_________1
 62
     7
 10
59.041730000000001
 20
254.244314
 30
0.0
 40
3.4997220000000002
 50
179.99715
 51
269.99720000000002
  0
ARC
  5
6CB
  8
_________1
 62
     7
 10
59.041817000000002
 20
254.244744
 30
0.0
 40
3.4998089999999991
 50
90.004230000000007
 51
180.00424000000001
  0
ARC
  5
6CC
  8
_________1
 62
     7
 10
59.041643999999991
 20
254.24440000000001
 30
0.0
 40
3.5001540000000002
 50
0.00142
 51
90.001390000000001
  0
INSERT
  5
6CD
  8
_________1
 62
     7
  2
AIGNBL02010035
 10
0.0
 20
0.0
 30
0.0
  0
INSERT
  5
6CE
  8
_________1
 62
     7
  2
AIGNBL02010037
 10
0.0
 20
0.0
 30
0.0
  0
LINE
  5
6CF
  8
_________1
 62
     7
 10
79.041799999999995
 20
260.54500000000002
 30
0.0
 11
79.041799999999995
 21
266.745
 31
0.0
  0
LINE
  5
6D0
  8
_________1
 62
     7
 10
59.041600000000003
 20
260.54500000000002
 30
0.0
 11
59.041600000000003
 21
266.745
 31
0.0
  0
LINE
  5
6D1
  8
_________1
 62
     7
 10
39.042000000000002
 20
260.54500000000002
 30
0.0
 11
39.042000000000002
 21
266.745
 31
0.0
  0
ARC
  5
6D2
  8
_________1
 62
     7
 10
-7.9544769999999998
 20
141.722542
 30
0.0
 40
1.1735349999999991
 50
151.66919899999999
 51
179.88537299999999
  0
ARC
  5
6D3
  8
_________1
 62
     7
 10
-8.5002710000000015
 20
141.99857700000001
 30
0.0
 40
0.5623490000000001
 50
125.639304
 51
150.034696
  0
ARC
  5
6D4
  8
_________1
 62
     7
 10
-8.1077019999999997
 20
141.72566499999999
 30
0.0
 40
1.020308999999999
 50
180.04353999999989
 51
203.91530499999999
  0
ARC
  5
6D5
  8
_________1
 62
     7
 10
-8.4290889999999994
 20
141.60136199999999
 30
0.0
 40
0.6763279999999999
 50
205.326382
 51
233.86214100000001
  0
ARC
  5
6D6
  8
_________1
 62
     7
 10
-4.8240389999999991
 20
143.653077
 30
0.0
 40
4.303971999999999
 50
179.981041
 51
185.32843600000001
  0
ARC
  5
6D7
  8
_________1
 62
     7
 10
-6.6635660000000003
 20
143.492591
 30
0.0
 40
2.457516
 50
185.585701
 51
194.12848399999999
  0
ARC
  5
6D8
  8
_________1
 62
     7
 10
-7.7159519999999997
 20
143.23804699999999
 30
0.0
 40
1.374865999999999
 50
194.546854
 51
205.838258
  0
ARC
  5
6D9
  8
_________1
 62
     7
 10
-8.2385210000000004
 20
142.99361500000001
 30
0.0
 40
0.7980460000000001
 50
206.395207
 51
222.38952699999999
  0
LINE
  5
6DA
  8
_________1
 62
     7
 10
-9.1280099999999997
 20
141.72499999999999
 30
0.0
 11
-9.1280099999999997
 21
143.654
 31
0.0
  0
ARC
  5
6DB
  8
_________1
 62
     7
 10
-8.1014920000000004
 20
141.722542
 30
0.0
 40
1.1735349999999991
 50
0.114608
 51
28.330781000000002
  0
ARC
  5
6DC
  8
_________1
 62
     7
 10
-7.5556979999999987
 20
141.99857700000001
 30
0.0
 40
0.5623490000000001
 50
29.965284000000011
 51
54.360675999999998
  0
ARC
  5
6DD
  8
_________1
 62
     7
 10
-7.9482669999999986
 20
141.72566499999999
 30
0.0
 40
1.020308999999999
 50
336.08471500000002
 51
359.95648
  0
ARC
  5
6DE
  8
_________1
 62
     7
 10
-7.6270949999999988
 20
141.60154
 30
0.0
 40
0.676599
 50
306.143709
 51
334.66780799999998
  0
ARC
  5
6DF
  8
_________1
 62
     7
 10
-11.231961999999999
 20
143.65307899999999
 30
0.0
 40
4.3040039999999991
 50
354.671603
 51
0.018919
  0
ARC
  5
6E0
  8
_________1
 62
     7
 10
-9.3924029999999998
 20
143.492591
 30
0.0
 40
2.457516
 50
345.87153599999999
 51
354.41431899999998
  0
ARC
  5
6E1
  8
_________1
 62
     7
 10
-8.3400169999999996
 20
143.23804699999999
 30
0.0
 40
1.374865999999999
 50
334.16176200000001
 51
345.45316600000001
  0
ARC
  5
6E2
  8
_________1
 62
     7
 10
-7.8174479999999988
 20
142.99361500000001
 30
0.0
 40
0.7980460000000001
 50
317.61049300000002
 51
333.60481299999998
  0
LINE
  5
6E3
  8
_________1
 62
     7
 10
-8.8279399999999981
 20
142.45599999999999
 30
0.0
 11
-7.2280300000000004
 21
142.45599999999999
 31
0.0
  0
LINE
  5
6E4
  8
_________1
 62
     7
 10
-8.8279399999999981
 20
141.05500000000001
 30
0.0
 11
-7.2280300000000004
 21
141.05500000000001
 31
0.0
  0
LINE
  5
6E5
  8
_________1
 62
     7
 10
-6.9279599999999997
 20
141.72499999999999
 30
0.0
 11
-6.9279599999999997
 21
143.654
 31
0.0
  0
ARC
  5
6E6
  8
_________1
 62
     7
 10
-7.9539539999999986
 20
145.58750499999999
 30
0.0
 40
1.1740589999999991
 50
180.11524700000001
 51
208.324354
  0
ARC
  5
6E7
  8
_________1
 62
     7
 10
-8.5038490000000007
 20
145.309293
 30
0.0
 40
0.558228
 50
209.96689599999999
 51
234.50916799999999
  0
ARC
  5
6E8
  8
_________1
 62
     7
 10
-8.1088839999999998
 20
145.584361
 30
0.0
 40
1.0191259999999991
 50
156.07061899999999
 51
179.95596599999999
  0
ARC
  5
6E9
  8
_________1
 62
     7
 10
-8.4277960000000007
 20
145.70789400000001
 30
0.0
 40
0.677719
 50
126.187363
 51
154.68068700000001
  0
ARC
  5
6EA
  8
_________1
 62
     7
 10
-4.8183669999999994
 20
143.65592799999999
 30
0.0
 40
4.3096439999999996
 50
174.675073
 51
180.019004
  0
ARC
  5
6EB
  8
_________1
 62
     7
 10
-6.6595959999999996
 20
143.816453
 30
0.0
 40
2.4614880000000001
 50
165.882698
 51
174.41810599999999
  0
ARC
  5
6EC
  8
_________1
 62
     7
 10
-7.7106300000000001
 20
144.07035999999999
 30
0.0
 40
1.380304
 50
154.20246900000001
 51
165.46273299999999
  0
ARC
  5
6ED
  8
_________1
 62
     7
 10
-8.2346190000000004
 20
144.315033
 30
0.0
 40
0.8020949999999999
 50
137.70716400000001
 51
153.649068
  0
LINE
  5
6EE
  8
_________1
 62
     7
 10
-9.1280099999999997
 20
145.58500000000001
 30
0.0
 11
-9.1280099999999997
 21
143.654
 31
0.0
  0
ARC
  5
6EF
  8
_________1
 62
     7
 10
-8.1020149999999997
 20
145.58750499999999
 30
0.0
 40
1.1740589999999991
 50
331.67566499999998
 51
359.884772
  0
ARC
  5
6F0
  8
_________1
 62
     7
 10
-7.5521199999999986
 20
145.309293
 30
0.0
 40
0.558228
 50
305.49085200000002
 51
330.0331240000001
  0
ARC
  5
6F1
  8
_________1
 62
     7
 10
-9.8303049999999992
 20
143.652941
 30
0.0
 40
4.9349660000000002
 50
354.96181000000001
 51
0.018096
  0
ARC
  5
6F2
  8
_________1
 62
     7
 10
-7.3698610000000002
 20
143.45245
 30
0.0
 40
2.4664759999999988
 50
342.04438900000002
 51
354.58178700000002
  0
ARC
  5
6F3
  8
_________1
 62
     7
 10
-6.6094899999999992
 20
143.23614799999999
 30
0.0
 40
1.6767009999999991
 50
319.84166800000003
 51
341.065653
  0
ARC
  5
6F4
  8
_________1
 62
     7
 10
-7.9470850000000004
 20
145.584361
 30
0.0
 40
1.0191259999999991
 50
0.044014
 51
23.929361
  0
ARC
  5
6F5
  8
_________1
 62
     7
 10
-7.6283890000000003
 20
145.70771499999989
 30
0.0
 40
0.677991
 50
25.325123000000001
 51
53.806786999999993
  0
ARC
  5
6F6
  8
_________1
 62
     7
 10
-11.237634
 20
143.65592599999999
 30
0.0
 40
4.3096759999999996
 50
359.98103600000002
 51
5.3248870000000004
  0
ARC
  5
6F7
  8
_________1
 62
     7
 10
-9.3963729999999988
 20
143.816453
 30
0.0
 40
2.4614880000000001
 50
5.581874
 51
14.117281999999999
  0
ARC
  5
6F8
  8
_________1
 62
     7
 10
-8.3453389999999992
 20
144.07035999999999
 30
0.0
 40
1.380304
 50
14.537247000000001
 51
25.797511
  0
ARC
  5
6F9
  8
_________1
 62
     7
 10
-7.8213499999999989
 20
144.315033
 30
0.0
 40
0.8020949999999999
 50
26.350912000000001
 51
42.292815999999988
  0
ARC
  5
6FA
  8
_________1
 62
     7
 10
-9.8328170000000004
 20
143.65605600000001
 30
0.0
 40
4.9374779999999987
 50
359.98194599999999
 51
5.0369070000000002
  0
ARC
  5
6FB
  8
_________1
 62
     7
 10
-7.3740009999999989
 20
143.856391
 30
0.0
 40
2.4706220000000001
 50
5.4152930000000001
 51
17.940913999999999
  0
ARC
  5
6FC
  8
_________1
 62
     7
 10
-6.6121389999999991
 20
144.07290699999999
 30
0.0
 40
1.6793560000000001
 50
18.919889000000001
 51
40.125537999999999
  0
LINE
  5
6FD
  8
_________1
 62
     7
 10
-11.4283
 20
142.35499999999999
 30
0.0
 11
-12.528
 21
142.35499999999999
 31
0.0
  0
ARC
  5
6FE
  8
_________1
 62
     7
 10
-11.223983
 20
142.45075199999999
 30
0.0
 40
0.10415
 50
92.295420999999976
 51
177.901781
  0
ARC
  5
6FF
  8
_________1
 62
     7
 10
-11.431424
 20
142.45838699999999
 30
0.0
 40
0.103432
 50
271.7222910000001
 51
357.88257700000003
  0
ARC
  5
700
  8
_________1
 62
     7
 10
-10.032083999999999
 20
142.45070100000001
 30
0.0
 40
0.104189
 50
2.125551999999999
 51
87.874437999999998
  0
LINE
  5
701
  8
_________1
 62
     7
 10
-9.3281700000000001
 20
142.35499999999999
 30
0.0
 11
-9.8280600000000007
 21
142.35499999999999
 31
0.0
  0
ARC
  5
702
  8
_________1
 62
     7
 10
-9.8242929999999991
 20
142.45868899999999
 30
0.0
 40
0.103756
 50
182.27785600000001
 51
267.92008600000003
  0
LINE
  5
703
  8
_________1
 62
     7
 10
-11.228199999999999
 20
142.55500000000001
 30
0.0
 11
-10.0282
 21
142.55500000000001
 31
0.0
  0
LINE
  5
704
  8
_________1
 62
     7
 10
-11.4283
 20
144.95500000000001
 30
0.0
 11
-12.528
 21
144.95500000000001
 31
0.0
  0
ARC
  5
705
  8
_________1
 62
     7
 10
-11.224349
 20
144.85858400000001
 30
0.0
 40
0.103783
 50
182.10112100000001
 51
267.89890800000001
  0
ARC
  5
706
  8
_________1
 62
     7
 10
-11.431924
 20
144.85117
 30
0.0
 40
0.103924
 50
1.9897309999999999
 51
88.010258999999991
  0
ARC
  5
707
  8
_________1
 62
     7
 10
-10.031696999999999
 20
144.85861299999999
 30
0.0
 40
0.103801
 50
271.91978499999999
 51
357.882994
  0
LINE
  5
708
  8
_________1
 62
     7
 10
-9.3281700000000001
 20
144.95500000000001
 30
0.0
 11
-9.8280600000000007
 21
144.95500000000001
 31
0.0
  0
ARC
  5
709
  8
_________1
 62
     7
 10
-9.8239270000000012
 20
144.85100600000001
 30
0.0
 40
0.104108
 50
92.274129000000016
 51
177.92307199999999
  0
LINE
  5
70A
  8
_________1
 62
     7
 10
-9.1280099999999997
 20
142.45500000000001
 30
0.0
 11
-9.3281700000000001
 21
142.45500000000001
 31
0.0
  0
LINE
  5
70B
  8
_________1
 62
     7
 10
-9.1280099999999997
 20
144.85499999999999
 30
0.0
 11
-9.3281700000000001
 21
144.85499999999999
 31
0.0
  0
LINE
  5
70C
  8
_________1
 62
     7
 10
-12.528
 20
142.45500000000001
 30
0.0
 11
-15.8932
 21
142.45500000000001
 31
0.0
  0
LINE
  5
70D
  8
_________1
 62
     7
 10
-12.528
 20
144.85499999999999
 30
0.0
 11
-15.8932
 21
144.85499999999999
 31
0.0
  0
LINE
  5
70E
  8
_________1
 62
     7
 10
-11.228199999999999
 20
144.755
 30
0.0
 11
-10.0282
 21
144.755
 31
0.0
  0
LINE
  5
70F
  8
_________1
 62
     7
 10
-12.528
 20
144.95500000000001
 30
0.0
 11
-12.528
 21
142.35499999999999
 31
0.0
  0
LINE
  5
710
  8
_________1
 62
     7
 10
-9.3281700000000001
 20
144.95500000000001
 30
0.0
 11
-9.3281700000000001
 21
142.35499999999999
 31
0.0
  0
LINE
  5
711
  8
_________1
 62
     7
 10
-8.8279399999999981
 20
144.85499999999999
 30
0.0
 11
-7.2280300000000004
 21
144.85499999999999
 31
0.0
  0
LINE
  5
712
  8
_________1
 62
     7
 10
-8.8279399999999981
 20
146.255
 30
0.0
 11
-7.2280300000000004
 21
146.255
 31
0.0
  0
LINE
  5
713
  8
_________1
 62
     7
 10
-6.9279599999999997
 20
142.155
 30
0.0
 11
-5.3280500000000002
 21
142.155
 31
0.0
  0
LINE
  5
714
  8
_________1
 62
     7
 10
-6.9279599999999997
 20
145.155
 30
0.0
 11
-5.3280500000000002
 21
145.155
 31
0.0
  0
LINE
  5
715
  8
_________1
 62
     7
 10
-6.9279599999999997
 20
145.58500000000001
 30
0.0
 11
-6.9279599999999997
 21
143.654
 31
0.0
  0
ARC
  5
716
  8
_________1
 62
     7
 10
-37.503072000000003
 20
141.722542
 30
0.0
 40
1.1755189999999991
 50
0.114434
 51
28.278690999999998
  0
ARC
  5
717
  8
_________1
 62
     7
 10
-36.954498999999998
 20
141.99919399999999
 30
0.0
 40
0.561584
 50
29.937576
 51
54.361441000000013
  0
ARC
  5
718
  8
_________1
 62
     7
 10
-37.350002000000003
 20
141.72566699999999
 30
0.0
 40
1.022446999999999
 50
336.13767300000001
 51
359.95642900000001
  0
ARC
  5
719
  8
_________1
 62
     7
 10
-37.025500000000001
 20
141.600493
 30
0.0
 40
0.6752550000000001
 50
306.13801799999999
 51
334.71200599999997
  0
ARC
  5
71A
  8
_________1
 62
     7
 10
-40.712057000000001
 20
143.65593200000001
 30
0.0
 40
4.3845019999999986
 50
354.732259
 51
359.98128200000002
  0
ARC
  5
71B
  8
_________1
 62
     7
 10
-38.790335999999989
 20
143.49139199999999
 30
0.0
 40
2.4558230000000001
 50
345.89044999999999
 51
354.43857200000002
  0
ARC
  5
71C
  8
_________1
 62
     7
 10
-37.738602
 20
143.23731000000001
 30
0.0
 40
1.3739149999999991
 50
334.17669599999999
 51
345.47461800000002
  0
ARC
  5
71D
  8
_________1
 62
     7
 10
-37.215921000000002
 20
142.99295599999999
 30
0.0
 40
0.797026
 50
317.60772400000008
 51
333.62133699999998
  0
LINE
  5
71E
  8
_________1
 62
     7
 10
-36.327599999999997
 20
141.72499999999999
 30
0.0
 11
-36.327599999999997
 21
143.654
 31
0.0
  0
ARC
  5
71F
  8
_________1
 62
     7
 10
-37.355181999999999
 20
141.722542
 30
0.0
 40
1.172428
 50
151.64003400000001
 51
179.88527500000001
  0
ARC
  5
720
  8
_________1
 62
     7
 10
-37.899092000000003
 20
141.99829199999999
 30
0.0
 40
0.563033
 50
125.686554
 51
150.04134300000001
  0
ARC
  5
721
  8
_________1
 62
     7
 10
-37.508853999999999
 20
141.725662
 30
0.0
 40
1.0187539999999999
 50
180.04348400000001
 51
203.95396099999999
  0
ARC
  5
722
  8
_________1
 62
     7
 10
-37.827379000000001
 20
141.60209599999999
 30
0.0
 40
0.6776930000000001
 50
205.340508
 51
233.809507
  0
ARC
  5
723
  8
_________1
 62
     7
 10
-34.223635999999999
 20
143.653077
 30
0.0
 40
4.303971999999999
 50
179.981041
 51
185.32843600000001
  0
ARC
  5
724
  8
_________1
 62
     7
 10
-36.065478000000013
 20
143.492189
 30
0.0
 40
2.4551720000000001
 50
185.581616
 51
194.13256799999991
  0
ARC
  5
725
  8
_________1
 62
     7
 10
-37.115222000000003
 20
143.23814100000001
 30
0.0
 40
1.375205999999999
 50
194.547223
 51
205.83574999999999
  0
ARC
  5
726
  8
_________1
 62
     7
 10
-37.638244
 20
142.99355
 30
0.0
 40
0.797909
 50
206.394858
 51
222.39216800000011
  0
LINE
  5
727
  8
_________1
 62
     7
 10
-36.627299999999998
 20
142.45599999999999
 30
0.0
 11
-38.227499999999999
 21
142.45599999999999
 31
0.0
  0
LINE
  5
728
  8
_________1
 62
     7
 10
-36.627299999999998
 20
141.05500000000001
 30
0.0
 11
-38.227499999999999
 21
141.05500000000001
 31
0.0
  0
LINE
  5
729
  8
_________1
 62
     7
 10
-38.5276
 20
141.72499999999999
 30
0.0
 11
-38.5276
 21
143.654
 31
0.0
  0
ARC
  5
72A
  8
_________1
 62
     7
 10
-37.503596999999999
 20
145.58750499999999
 30
0.0
 40
1.1760440000000001
 50
331.72774600000002
 51
359.88494600000001
  0
ARC
  5
72B
  8
_________1
 62
     7
 10
-36.950928000000012
 20
145.30868100000001
 30
0.0
 40
0.5574720000000001
 50
305.49008600000002
 51
330.0608410000001
  0
ARC
  5
72C
  8
_________1
 62
     7
 10
-37.348816999999997
 20
145.58435800000001
 30
0.0
 40
1.0212619999999999
 50
0.044064
 51
23.876373999999998
  0
ARC
  5
72D
  8
_________1
 62
     7
 10
-37.026791000000003
 20
145.708764
 30
0.0
 40
0.676642
 50
25.280934999999999
 51
53.812474000000002
  0
ARC
  5
72E
  8
_________1
 62
     7
 10
-40.71779699999999
 20
143.65307300000001
 30
0.0
 40
4.3902409999999996
 50
0.018626
 51
5.2642939999999996
  0
ARC
  5
72F
  8
_________1
 62
     7
 10
-38.794302999999999
 20
143.817654
 30
0.0
 40
2.459792999999999
 50
5.5576389999999991
 51
14.098382000000001
  0
ARC
  5
730
  8
_________1
 62
     7
 10
-37.743918000000001
 20
144.071099
 30
0.0
 40
1.379346999999999
 50
14.515810999999999
 51
25.782598
  0
ARC
  5
731
  8
_________1
 62
     7
 10
-37.219816999999999
 20
144.315696
 30
0.0
 40
0.801068
 50
26.334407000000009
 51
42.295578999999989
  0
LINE
  5
732
  8
_________1
 62
     7
 10
-36.327599999999997
 20
145.58500000000001
 30
0.0
 11
-36.327599999999997
 21
143.654
 31
0.0
  0
ARC
  5
733
  8
_________1
 62
     7
 10
-37.354659000000012
 20
145.587504
 30
0.0
 40
1.1729510000000001
 50
180.11534599999999
 51
208.35351299999999
  0
ARC
  5
734
  8
_________1
 62
     7
 10
-37.902679999999997
 20
145.309572
 30
0.0
 40
0.5589
 50
209.96023600000001
 51
234.461916
  0
ARC
  5
735
  8
_________1
 62
     7
 10
-35.62530000000001
 20
143.652939
 30
0.0
 40
4.9349280000000002
 50
179.981864
 51
185.03822899999989
  0
ARC
  5
736
  8
_________1
 62
     7
 10
-38.085442999999998
 20
143.45248000000001
 30
0.0
 40
2.4667400000000002
 50
185.41835900000001
 51
197.954384
  0
ARC
  5
737
  8
_________1
 62
     7
 10
-38.846146000000012
 20
143.23612399999999
 30
0.0
 40
1.676631999999999
 50
198.93431299999989
 51
220.15927500000001
  0
ARC
  5
738
  8
_________1
 62
     7
 10
-37.510033
 20
145.584362
 30
0.0
 40
1.017574999999999
 50
156.03196
 51
179.95600200000001
  0
ARC
  5
739
  8
_________1
 62
     7
 10
-37.826081000000002
 20
145.707156
 30
0.0
 40
0.6790890000000001
 50
126.23999000000001
 51
154.66656
  0
ARC
  5
73A
  8
_________1
 62
     7
 10
-34.217964000000002
 20
143.65592799999999
 30
0.0
 40
4.3096439999999996
 50
174.675073
 51
180.019004
  0
ARC
  5
73B
  8
_________1
 62
     7
 10
-36.061512
 20
143.816856
 30
0.0
 40
2.4591409999999989
 50
165.87861699999999
 51
174.42218700000001
  0
ARC
  5
73C
  8
_________1
 62
     7
 10
-37.109898999999999
 20
144.07026499999989
 30
0.0
 40
1.3806459999999989
 50
154.20497499999999
 51
165.46236500000001
  0
ARC
  5
73D
  8
_________1
 62
     7
 10
-37.634343000000001
 20
144.315099
 30
0.0
 40
0.8019569999999999
 50
137.70452599999999
 51
153.649417
  0
ARC
  5
73E
  8
_________1
 62
     7
 10
-35.622788
 20
143.656057
 30
0.0
 40
4.9374390000000004
 50
174.963053
 51
180.01809399999999
  0
ARC
  5
73F
  8
_________1
 62
     7
 10
-38.081303000000013
 20
143.85636
 30
0.0
 40
2.4708860000000001
 50
162.06031200000001
 51
174.58456200000001
  0
ARC
  5
740
  8
_________1
 62
     7
 10
-38.843496999999999
 20
144.07293100000001
 30
0.0
 40
1.6792869999999991
 50
139.87351899999999
 51
161.08014600000001
  0
LINE
  5
741
  8
_________1
 62
     7
 10
-34.027299999999997
 20
142.35499999999999
 30
0.0
 11
-32.927199999999999
 21
142.35499999999999
 31
0.0
  0
ARC
  5
742
  8
_________1
 62
     7
 10
-34.231584000000012
 20
142.45075199999999
 30
0.0
 40
0.10415
 50
2.098215999999999
 51
87.704542000000004
  0
ARC
  5
743
  8
_________1
 62
     7
 10
-34.024141999999998
 20
142.45838699999999
 30
0.0
 40
0.103432
 50
182.117425
 51
268.27774599999998
  0
ARC
  5
744
  8
_________1
 62
     7
 10
-35.423538999999998
 20
142.45075800000001
 30
0.0
 40
0.10413
 50
92.095350999999994
 51
177.904619
  0
LINE
  5
745
  8
_________1
 62
     7
 10
-36.127400000000002
 20
142.35499999999999
 30
0.0
 11
-35.627499999999998
 21
142.35499999999999
 31
0.0
  0
ARC
  5
746
  8
_________1
 62
     7
 10
-35.630930999999997
 20
142.45834600000001
 30
0.0
 40
0.103401
 50
271.89728500000001
 51
357.90481299999999
  0
LINE
  5
747
  8
_________1
 62
     7
 10
-34.22740000000001
 20
142.55500000000001
 30
0.0
 11
-35.42730000000001
 21
142.55500000000001
 31
0.0
  0
LINE
  5
748
  8
_________1
 62
     7
 10
-34.027299999999997
 20
144.95500000000001
 30
0.0
 11
-32.927199999999999
 21
144.95500000000001
 31
0.0
  0
ARC
  5
749
  8
_________1
 62
     7
 10
-34.231198999999997
 20
144.858566
 30
0.0
 40
0.103765
 50
272.091589
 51
357.90842099999998
  0
ARC
  5
74A
  8
_________1
 62
     7
 10
-34.023443999999998
 20
144.85097099999999
 30
0.0
 40
0.10413
 50
92.095350999999994
 51
177.904619
  0
ARC
  5
74B
  8
_________1
 62
     7
 10
-35.423869000000003
 20
144.85861299999999
 30
0.0
 40
0.103801
 50
182.11700899999991
 51
268.08025199999997
  0
LINE
  5
74C
  8
_________1
 62
     7
 10
-36.127400000000002
 20
144.95500000000001
 30
0.0
 11
-35.627499999999998
 21
144.95500000000001
 31
0.0
  0
ARC
  5
74D
  8
_________1
 62
     7
 10
-35.631639
 20
144.85100600000001
 30
0.0
 40
0.104108
 50
2.0769250000000001
 51
87.725834000000006
  0
LINE
  5
74E
  8
_________1
 62
     7
 10
-36.327599999999997
 20
142.45500000000001
 30
0.0
 11
-36.127400000000002
 21
142.45500000000001
 31
0.0
  0
LINE
  5
74F
  8
_________1
 62
     7
 10
-36.327599999999997
 20
144.85499999999999
 30
0.0
 11
-36.127400000000002
 21
144.85499999999999
 31
0.0
  0
LINE
  5
750
  8
_________1
 62
     7
 10
-32.927199999999999
 20
142.45500000000001
 30
0.0
 11
-29.5624
 21
142.45500000000001
 31
0.0
  0
LINE
  5
751
  8
_________1
 62
     7
 10
-32.927199999999999
 20
144.85499999999999
 30
0.0
 11
-29.5624
 21
144.85499999999999
 31
0.0
  0
LINE
  5
752
  8
_________1
 62
     7
 10
-34.22740000000001
 20
144.755
 30
0.0
 11
-35.42730000000001
 21
144.755
 31
0.0
  0
LINE
  5
753
  8
_________1
 62
     7
 10
-32.927199999999999
 20
144.95500000000001
 30
0.0
 11
-32.927199999999999
 21
142.35499999999999
 31
0.0
  0
LINE
  5
754
  8
_________1
 62
     7
 10
-36.127400000000002
 20
144.95500000000001
 30
0.0
 11
-36.127400000000002
 21
142.35499999999999
 31
0.0
  0
LINE
  5
755
  8
_________1
 62
     7
 10
-36.627299999999998
 20
144.85499999999999
 30
0.0
 11
-38.227499999999999
 21
144.85499999999999
 31
0.0
  0
LINE
  5
756
  8
_________1
 62
     7
 10
-36.627299999999998
 20
146.255
 30
0.0
 11
-38.227499999999999
 21
146.255
 31
0.0
  0
LINE
  5
757
  8
_________1
 62
     7
 10
-38.5276
 20
142.155
 30
0.0
 11
-40.127499999999991
 21
142.155
 31
0.0
  0
LINE
  5
758
  8
_________1
 62
     7
 10
-38.5276
 20
145.155
 30
0.0
 11
-40.127499999999991
 21
145.155
 31
0.0
  0
LINE
  5
759
  8
_________1
 62
     7
 10
-38.5276
 20
145.58500000000001
 30
0.0
 11
-38.5276
 21
143.654
 31
0.0
  0
ARC
  5
75A
  8
_________1
 62
     7
 10
-5.3107079999999991
 20
162.78948600000001
 30
0.0
 40
1.2652879999999991
 50
89.739871999999991
 51
102.57044399999999
  0
ARC
  5
75B
  8
_________1
 62
     7
 10
-5.305574
 20
162.777962
 30
0.0
 40
1.276799999999999
 50
63.004399999999997
 51
89.972606999999996
  0
ARC
  5
75C
  8
_________1
 62
     7
 10
-5.1319339999999993
 20
163.159773
 30
0.0
 40
0.857972
 50
34.24958800000001
 51
61.762717000000002
  0
ARC
  5
75D
  8
_________1
 62
     7
 10
-4.8962250000000003
 20
163.345373
 30
0.0
 40
0.559067
 50
0.921997
 51
32.121617999999998
  0
ARC
  5
75E
  8
_________1
 62
     7
 10
-4.871764999999999
 20
163.35582500000001
 30
0.0
 40
0.5345360000000001
 50
325.22799300000003
 51
359.843908
  0
ARC
  5
75F
  8
_________1
 62
     7
 10
-5.0475609999999991
 20
163.46509800000001
 30
0.0
 40
0.7413340000000001
 50
302.81751200000002
 51
326.03945599999997
  0
ARC
  5
760
  8
_________1
 62
     7
 10
-5.245296999999999
 20
163.74168800000001
 30
0.0
 40
1.0810690000000001
 50
277.82100200000002
 51
303.6801529999999
  0
ARC
  5
761
  8
_________1
 62
     7
 10
-5.3037309999999991
 20
163.98213699999999
 30
0.0
 40
1.327470999999999
 50
269.94678399999998
 51
278.90744599999999
  0
ARC
  5
762
  8
_________1
 62
     7
 10
-5.3059820000000002
 20
163.989351
 30
0.0
 40
1.3346849999999999
 50
257.764565
 51
270.04373299999997
  0
ARC
  5
763
  8
_________1
 62
     7
 10
-5.8497719999999989
 20
162.20158499999999
 30
0.0
 40
0.523649
 50
352.82199800000001
 51
44.646729999999998
  0
ARC
  5
764
  8
_________1
 62
     7
 10
-5.9250419999999986
 20
162.19870700000001
 30
0.0
 40
0.598096
 50
322.63899700000002
 51
353.99666000000002
  0
ARC
  5
765
  8
_________1
 62
     7
 10
-4.7667159999999997
 20
163.35737900000001
 30
0.0
 40
1.060875999999999
 50
180.14398899999989
 51
227.95352299999999
  0
ARC
  5
766
  8
_________1
 62
     7
 10
-4.6750610000000004
 20
163.27229299999999
 30
0.0
 40
1.179332
 50
123.600436
 51
152.51729
  0
ARC
  5
767
  8
_________1
 62
     7
 10
-4.777997
 20
163.356302
 30
0.0
 40
1.0495929999999991
 50
153.99275399999999
 51
180.08670000000001
  0
ARC
  5
768
  8
_________1
 62
     7
 10
-5.2559269999999989
 20
161.64537000000001
 30
0.0
 40
0.271626
 50
135.498209
 51
179.08133000000001
  0
LINE
  5
769
  8
_________1
 62
     7
 10
-5.5275199999999991
 20
161.65000000000001
 30
0.0
 11
-5.5275199999999991
 21
161.05500000000001
 31
0.0
  0
ARC
  5
76A
  8
_________1
 62
     7
 10
-0.144966
 20
162.78955099999999
 30
0.0
 40
1.265221999999999
 50
77.429511000000005
 51
90.245146000000005
  0
ARC
  5
76B
  8
_________1
 62
     7
 10
-0.149777
 20
162.777389
 30
0.0
 40
1.277372999999999
 50
90.027004999999988
 51
116.98941499999999
  0
ARC
  5
76C
  8
_________1
 62
     7
 10
-0.323784
 20
163.16026599999989
 30
0.0
 40
0.8574299999999999
 50
118.23932600000001
 51
145.76552599999999
  0
ARC
  5
76D
  8
_________1
 62
     7
 10
-0.5590609999999999
 20
163.34544500000001
 30
0.0
 40
0.559123
 50
147.890604
 51
179.08541099999999
  0
ARC
  5
76E
  8
_________1
 62
     7
 10
-0.583303
 20
163.35582600000001
 30
0.0
 40
0.534812
 50
180.15613099999999
 51
214.751656
  0
ARC
  5
76F
  8
_________1
 62
     7
 10
-0.4079200000000001
 20
163.46487400000001
 30
0.0
 40
0.7411439999999999
 50
213.949534
 51
237.17327499999999
  0
ARC
  5
770
  8
_________1
 62
     7
 10
-0.210404
 20
163.74112099999999
 30
0.0
 40
1.080473
 50
236.31305800000001
 51
262.188086
  0
ARC
  5
771
  8
_________1
 62
     7
 10
-0.151609
 20
163.98356000000001
 30
0.0
 40
1.328894
 50
261.097354
 51
270.053045
  0
ARC
  5
772
  8
_________1
 62
     7
 10
-0.149358
 20
163.9861149999999
 30
0.0
 40
1.33145
 50
269.95607200000001
 51
282.25037200000003
  0
ARC
  5
773
  8
_________1
 62
     7
 10
-2.735055
 20
151.03744900000001
 30
0.0
 40
23.017282999999999
 50
89.981611000000001
 51
90.955205000000007
  0
ARC
  5
774
  8
_________1
 62
     7
 10
-3.010777
 20
169.00670500000001
 30
0.0
 40
5.0459849999999991
 50
91.226347000000004
 51
111.106065
  0
ARC
  5
775
  8
_________1
 62
     7
 10
0.394227
 20
162.20193
 30
0.0
 40
0.523509
 50
135.39112900000001
 51
187.21802099999999
  0
ARC
  5
776
  8
_________1
 62
     7
 10
0.469862
 20
162.198804
 30
0.0
 40
0.5982850000000001
 50
186.010805
 51
217.35889700000001
  0
LINE
  5
777
  8
_________1
 62
     7
 10
-5.3094400000000004
 20
161.755
 30
0.0
 11
-2.7276699999999998
 21
161.755
 31
0.0
  0
LINE
  5
778
  8
_________1
 62
     7
 10
-5.3094400000000004
 20
162.45500000000001
 30
0.0
 11
-2.7276699999999998
 21
162.45500000000001
 31
0.0
  0
ARC
  5
779
  8
_________1
 62
     7
 10
-0.688973
 20
163.35738000000001
 30
0.0
 40
1.060875999999999
 50
312.046515
 51
359.85601200000002
  0
ARC
  5
77A
  8
_________1
 62
     7
 10
-0.779599
 20
163.27331699999999
 30
0.0
 40
1.1781010000000001
 50
27.457679000000009
 51
56.399618999999987
  0
ARC
  5
77B
  8
_________1
 62
     7
 10
-0.678009
 20
163.35658100000001
 30
0.0
 40
1.049911
 50
359.89812599999999
 51
25.981825000000001
  0
LINE
  5
77C
  8
_________1
 62
     7
 10
-4.9776800000000003
 20
164.755
 30
0.0
 11
-4.9222099999999989
 21
164.755
 31
0.0
  0
LINE
  5
77D
  8
_________1
 62
     7
 10
-5.3277000000000001
 20
164.405
 30
0.0
 11
-5.3277000000000001
 21
164.255
 31
0.0
  0
ARC
  5
77E
  8
_________1
 62
     7
 10
-4.963995999999999
 20
164.39110299999999
 30
0.0
 40
0.363963
 50
92.154366000000024
 51
177.84560400000001
  0
LINE
  5
77F
  8
_________1
 62
     7
 10
-4.1277699999999991
 20
167.55500000000001
 30
0.0
 11
-4.1277699999999991
 21
165.655
 31
0.0
  0
ARC
  5
780
  8
_________1
 62
     7
 10
-4.9382440000000001
 20
165.54975899999999
 30
0.0
 40
0.795111
 50
271.155441
 51
342.78720399999997
  0
ARC
  5
781
  8
_________1
 62
     7
 10
-5.220591999999999
 20
165.64450299999999
 30
0.0
 40
1.092871999999999
 50
342.422957
 51
0.5332460000000001
  0
LINE
  5
782
  8
_________1
 62
     7
 10
-7.5312000000000001
 20
170.08099999999999
 30
0.0
 11
-7.264549999999999
 21
169.75700000000001
 31
0.0
  0
LINE
  5
783
  8
_________1
 62
     7
 10
-7.264549999999999
 20
172.011
 30
0.0
 11
-7.5312000000000001
 21
171.68799999999999
 31
0.0
  0
LINE
  5
784
  8
_________1
 62
     7
 10
-5.8813300000000002
 20
169.77600000000001
 30
0.0
 11
-5.8813300000000002
 21
170.01400000000001
 31
0.0
  0
LINE
  5
785
  8
_________1
 62
     7
 10
-5.4813499999999991
 20
169.37599999999989
 30
0.0
 11
-4.7657999999999987
 21
169.37599999999989
 31
0.0
  0
ARC
  5
786
  8
_________1
 62
     7
 10
-5.466056
 20
169.79136600000001
 30
0.0
 40
0.415558
 50
182.10972899999999
 51
267.89030000000002
  0
ARC
  5
787
  8
_________1
 62
     7
 10
-6.4099449999999987
 20
169.00805099999999
 30
0.0
 40
1.1366459999999989
 50
62.285627000000012
 51
138.75197800000001
  0
LINE
  5
788
  8
_________1
 62
     7
 10
-7.264549999999999
 20
170.88399999999999
 30
0.0
 11
-7.264549999999999
 21
169.75700000000001
 31
0.0
  0
ARC
  5
789
  8
_________1
 62
     7
 10
-7.7052869999999993
 20
170.88973300000001
 30
0.0
 40
2.0230909999999991
 50
334.36501700000002
 51
359.838143
  0
ARC
  5
78A
  8
_________1
 62
     7
 10
-7.687600999999999
 20
170.88260399999999
 30
0.0
 40
2.005398
 50
0.04038
 51
25.681203
  0
ARC
  5
78B
  8
_________1
 62
     7
 10
-6.4132369999999996
 20
172.76870099999999
 30
0.0
 40
1.1419010000000001
 50
221.79624699999999
 51
307.65637099999998
  0
ARC
  5
78C
  8
_________1
 62
     7
 10
-5.2190839999999987
 20
171.283536
 30
0.0
 40
0.7643740000000001
 50
129.09962200000001
 51
130.511492
  0
LINE
  5
78D
  8
_________1
 62
     7
 10
-7.5312000000000001
 20
171.68799999999999
 30
0.0
 11
-7.5312000000000001
 21
170.08099999999999
 31
0.0
  0
ARC
  5
78E
  8
_________1
 62
     7
 10
-2.7063389999999989
 20
170.884018
 30
0.0
 40
7.0744590000000001
 50
173.93815599999999
 51
186.06184400000001
  0
ARC
  5
78F
  8
_________1
 62
     7
 10
-8.6016309999999994
 20
170.95592099999999
 30
0.0
 40
1.403063999999999
 50
215.685678
 51
301.45324299999999
  0
ARC
  5
790
  8
_________1
 62
     7
 10
-8.6161220000000007
 20
170.883162
 30
0.0
 40
1.3494959999999989
 50
303.5904910000001
 51
323.50870800000001
  0
ARC
  5
791
  8
_________1
 62
     7
 10
-8.626932
 20
170.81199899999999
 30
0.0
 40
1.402603
 50
38.628066000000011
 51
124.405475
  0
ARC
  5
792
  8
_________1
 62
     7
 10
-8.627224
 20
170.89390800000001
 30
0.0
 40
1.3356520000000001
 50
126.380926
 51
146.51834199999999
  0
LINE
  5
793
  8
_________1
 62
     7
 10
-7.264549999999999
 20
172.011
 30
0.0
 11
-7.264549999999999
 21
170.88399999999999
 31
0.0
  0
LINE
  5
794
  8
_________1
 62
     7
 10
-3.8277000000000001
 20
167.96600000000001
 30
0.0
 11
-2.7276699999999998
 21
167.96600000000001
 31
0.0
  0
LINE
  5
795
  8
_________1
 62
     7
 10
-4.0157999999999987
 20
168.154
 30
0.0
 11
-3.8277000000000001
 21
167.96600000000001
 31
0.0
  0
LINE
  5
796
  8
_________1
 62
     7
 10
-4.1277699999999991
 20
167.55500000000001
 30
0.0
 11
-2.7276699999999998
 21
167.55500000000001
 31
0.0
  0
LINE
  5
797
  8
_________1
 62
     7
 10
-4.0157999999999987
 20
168.154
 30
0.0
 11
-2.7276699999999998
 21
168.154
 31
0.0
  0
LINE
  5
798
  8
_________1
 62
     7
 10
-4.0157999999999987
 20
168.626
 30
0.0
 11
-4.0157999999999987
 21
168.154
 31
0.0
  0
LINE
  5
799
  8
_________1
 62
     7
 10
-4.7657999999999987
 20
169.37599999999989
 30
0.0
 11
-2.7276699999999998
 21
169.37599999999989
 31
0.0
  0
ARC
  5
79A
  8
_________1
 62
     7
 10
-4.7947290000000002
 20
168.597174
 30
0.0
 40
0.7794520000000001
 50
2.1004990000000001
 51
87.873177999999996
  0
LINE
  5
79B
  8
_________1
 62
     7
 10
-3.8277000000000001
 20
167.96600000000001
 30
0.0
 11
-3.8277000000000001
 21
167.55500000000001
 31
0.0
  0
ARC
  5
79C
  8
_________1
 62
     7
 10
-1.9610730000000001
 20
163.35283100000001
 30
0.0
 40
0.442984
 50
0.198973
 51
38.241588
  0
ARC
  5
79D
  8
_________1
 62
     7
 10
-2.187548
 20
163.20250899999999
 30
0.0
 40
0.714248
 50
36.466942000000003
 51
53.069905000000013
  0
ARC
  5
79E
  8
_________1
 62
     7
 10
-2.4530359999999991
 20
162.866004
 30
0.0
 40
1.1428
 50
52.566662000000008
 51
71.374821999999995
  0
ARC
  5
79F
  8
_________1
 62
     7
 10
-2.6995719999999999
 20
162.238451
 30
0.0
 40
1.816527999999999
 50
70.327601999999999
 51
90.886323999999988
  0
ARC
  5
7A0
  8
_________1
 62
     7
 10
-2.7280509999999989
 20
162.05294000000001
 30
0.0
 40
2.0018220000000002
 50
89.989132999999995
 51
107.110658
  0
ARC
  5
7A1
  8
_________1
 62
     7
 10
-2.902604999999999
 20
162.671528
 30
0.0
 40
1.359340999999999
 50
107.75014899999999
 51
124.380808
  0
ARC
  5
7A2
  8
_________1
 62
     7
 10
-3.2269179999999991
 20
163.1688399999999
 30
0.0
 40
0.7658850000000002
 50
125.366201
 51
147.616612
  0
ARC
  5
7A3
  8
_________1
 62
     7
 10
-3.4792919999999992
 20
163.346136
 30
0.0
 40
0.458034
 50
149.43780899999999
 51
178.97003000000001
  0
ARC
  5
7A4
  8
_________1
 62
     7
 10
-3.4950030000000001
 20
163.35591199999999
 30
0.0
 40
0.4422520000000001
 50
180.19988799999999
 51
218.274496
  0
ARC
  5
7A5
  8
_________1
 62
     7
 10
-3.268594999999999
 20
163.50624099999999
 30
0.0
 40
0.7134590000000001
 50
216.48913300000001
 51
233.102542
  0
ARC
  5
7A6
  8
_________1
 62
     7
 10
-3.0027180000000002
 20
163.843491
 30
0.0
 40
1.142835
 50
232.59394900000001
 51
251.3971580000001
  0
ARC
  5
7A7
  8
_________1
 62
     7
 10
-2.7560869999999991
 20
164.47081
 30
0.0
 40
1.816366999999999
 50
250.33636799999999
 51
270.89637199999999
  0
ARC
  5
7A8
  8
_________1
 62
     7
 10
-2.7272979999999989
 20
164.65862300000001
 30
0.0
 40
2.0039569999999989
 50
269.98934000000003
 51
287.09206699999999
  0
ARC
  5
7A9
  8
_________1
 62
     7
 10
-2.5525649999999991
 20
164.038568
 30
0.0
 40
1.360017
 50
287.73339099999998
 51
304.35250000000002
  0
ARC
  5
7AA
  8
_________1
 62
     7
 10
-2.227984999999999
 20
163.540313
 30
0.0
 40
0.7656260000000001
 50
305.33961099999999
 51
327.58573800000011
  0
ARC
  5
7AB
  8
_________1
 62
     7
 10
-1.975477999999999
 20
163.362652
 30
0.0
 40
0.457462
 50
329.418024
 51
358.96250300000003
  0
LINE
  5
7AC
  8
_________1
 62
     7
 10
-2.7276699999999998
 20
172.50999999999999
 30
0.0
 11
-2.7276699999999998
 21
173.095
 31
0.0
  0
LINE
  5
7AD
  8
_________1
 62
     7
 10
-3.051169999999999
 20
172.50999999999999
 30
0.0
 11
-3.051169999999999
 21
173.095
 31
0.0
  0
LINE
  5
7AE
  8
_________1
 62
     7
 10
-3.3405599999999991
 20
172.50999999999999
 30
0.0
 11
-3.3405599999999991
 21
173.095
 31
0.0
  0
LINE
  5
7AF
  8
_________1
 62
     7
 10
-3.62995
 20
172.50999999999999
 30
0.0
 11
-3.62995
 21
173.095
 31
0.0
  0
LINE
  5
7B0
  8
_________1
 62
     7
 10
-3.9258799999999998
 20
172.50999999999999
 30
0.0
 11
-3.9258799999999998
 21
173.095
 31
0.0
  0
LINE
  5
7B1
  8
_________1
 62
     7
 10
-4.169109999999999
 20
172.50999999999999
 30
0.0
 11
-4.169109999999999
 21
173.095
 31
0.0
  0
LINE
  5
7B2
  8
_________1
 62
     7
 10
-5.4372600000000002
 20
172.50999999999999
 30
0.0
 11
-5.4372600000000002
 21
173.095
 31
0.0
  0
LINE
  5
7B3
  8
_________1
 62
     7
 10
-5.3373499999999989
 20
172.50999999999999
 30
0.0
 11
-5.3373499999999989
 21
173.095
 31
0.0
  0
LINE
  5
7B4
  8
_________1
 62
     7
 10
-4.6080199999999989
 20
172.50999999999999
 30
0.0
 11
-4.6080199999999989
 21
173.095
 31
0.0
  0
LINE
  5
7B5
  8
_________1
 62
     7
 10
-4.399589999999999
 20
172.50999999999999
 30
0.0
 11
-4.399589999999999
 21
173.095
 31
0.0
  0
LINE
  5
7B6
  8
_________1
 62
     7
 10
-4.8212699999999993
 20
172.50999999999999
 30
0.0
 11
-4.8212699999999993
 21
173.095
 31
0.0
  0
LINE
  5
7B7
  8
_________1
 62
     7
 10
-5.0141999999999989
 20
172.50999999999999
 30
0.0
 11
-5.0141999999999989
 21
173.095
 31
0.0
  0
LINE
  5
7B8
  8
_________1
 62
     7
 10
-5.1912699999999994
 20
172.50999999999999
 30
0.0
 11
-5.1912699999999994
 21
173.095
 31
0.0
  0
LINE
  5
7B9
  8
_________1
 62
     7
 10
-5.5299300000000002
 20
172.50999999999999
 30
0.0
 11
-5.7011500000000002
 21
171.87700000000001
 31
0.0
  0
LINE
  5
7BA
  8
_________1
 62
     7
 10
-5.5299300000000002
 20
172.50999999999999
 30
0.0
 11
-2.7276699999999998
 21
172.50999999999999
 31
0.0
  0
LINE
  5
7BB
  8
_________1
 62
     7
 10
-5.5299300000000002
 20
172.50999999999999
 30
0.0
 11
-5.5299300000000002
 21
173.095
 31
0.0
  0
LINE
  5
7BC
  8
_________1
 62
     7
 10
-5.5299300000000002
 20
173.095
 30
0.0
 11
-2.7276699999999998
 21
173.095
 31
0.0
  0
LINE
  5
7BD
  8
_________1
 62
     7
 10
-4.8991300000000004
 20
173.714
 30
0.0
 11
-2.7276699999999998
 21
173.714
 31
0.0
  0
LINE
  5
7BE
  8
_________1
 62
     7
 10
-5.3893699999999987
 20
173.095
 30
0.0
 11
-5.3893699999999987
 21
173.22399999999999
 31
0.0
  0
ARC
  5
7BF
  8
_________1
 62
     7
 10
-4.880145999999999
 20
173.20494500000001
 30
0.0
 40
0.5095900000000001
 50
92.134818999999993
 51
177.824873
  0
ARC
  5
7C0
  8
_________1
 62
     7
 10
-2.7202860000000002
 20
151.026149
 30
0.0
 40
23.028583000000001
 50
89.045008999999993
 51
90.018366
  0
ARC
  5
7C1
  8
_________1
 62
     7
 10
-2.4443959999999989
 20
169.00944999999999
 30
0.0
 40
5.0432389999999989
 50
68.888132999999996
 51
88.773791000000003
  0
LINE
  5
7C2
  8
_________1
 62
     7
 10
-2.7276699999999998
 20
161.054
 30
0.0
 11
-5.5282099999999987
 21
161.054
 31
0.0
  0
LINE
  5
7C3
  8
_________1
 62
     7
 10
0.0725197
 20
161.05500000000001
 30
0.0
 11
-2.7276699999999998
 21
161.054
 31
0.0
  0
LINE
  5
7C4
  8
_________1
 62
     7
 10
-2.7276699999999998
 20
164.255
 30
0.0
 11
-5.3094400000000004
 21
164.255
 31
0.0
  0
LINE
  5
7C5
  8
_________1
 62
     7
 10
-0.146245
 20
161.755
 30
0.0
 11
-2.7276699999999998
 21
161.755
 31
0.0
  0
LINE
  5
7C6
  8
_________1
 62
     7
 10
-0.146245
 20
162.45500000000001
 30
0.0
 11
-2.7276699999999998
 21
162.45500000000001
 31
0.0
  0
LINE
  5
7C7
  8
_________1
 62
     7
 10
-0.146245
 20
164.255
 30
0.0
 11
-2.7276699999999998
 21
164.255
 31
0.0
  0
ARC
  5
7C8
  8
_________1
 62
     7
 10
-0.198323
 20
161.64532700000001
 30
0.0
 40
0.270878
 50
0.930436
 51
44.670442999999999
  0
LINE
  5
7C9
  8
_________1
 62
     7
 10
-0.4780100000000001
 20
164.755
 30
0.0
 11
-0.5334760000000001
 21
164.755
 31
0.0
  0
LINE
  5
7CA
  8
_________1
 62
     7
 10
0.0725197
 20
161.65000000000001
 30
0.0
 11
0.0725197
 21
161.05500000000001
 31
0.0
  0
LINE
  5
7CB
  8
_________1
 62
     7
 10
-0.127642
 20
164.405
 30
0.0
 11
-0.127642
 21
164.255
 31
0.0
  0
ARC
  5
7CC
  8
_________1
 62
     7
 10
-0.491683
 20
164.39075399999999
 30
0.0
 40
0.364312
 50
2.207301999999999
 51
87.84905400000001
  0
LINE
  5
7CD
  8
_________1
 62
     7
 10
-1.3279199999999991
 20
167.55500000000001
 30
0.0
 11
-1.3279199999999991
 21
165.655
 31
0.0
  0
LINE
  5
7CE
  8
_________1
 62
     7
 10
-2.7276699999999998
 20
164.755
 30
0.0
 11
-4.550139999999999
 21
164.755
 31
0.0
  0
LINE
  5
7CF
  8
_________1
 62
     7
 10
-0.9055489999999998
 20
164.755
 30
0.0
 11
-2.7276699999999998
 21
164.755
 31
0.0
  0
ARC
  5
7D0
  8
_________1
 62
     7
 10
-0.517443
 20
165.54975899999999
 30
0.0
 40
0.795111
 50
197.212816
 51
268.84457900000001
  0
ARC
  5
7D1
  8
_________1
 62
     7
 10
-0.235098
 20
165.64450299999999
 30
0.0
 40
1.09287
 50
179.466714
 51
197.57708199999999
  0
LINE
  5
7D2
  8
_________1
 62
     7
 10
2.07586
 20
170.08099999999999
 30
0.0
 11
1.809199999999999
 21
169.75700000000001
 31
0.0
  0
LINE
  5
7D3
  8
_________1
 62
     7
 10
1.809199999999999
 20
172.011
 30
0.0
 11
2.07586
 21
171.68799999999999
 31
0.0
  0
LINE
  5
7D4
  8
_________1
 62
     7
 10
0.425644
 20
169.77600000000001
 30
0.0
 11
0.425644
 21
170.01400000000001
 31
0.0
  0
LINE
  5
7D5
  8
_________1
 62
     7
 10
0.0260106
 20
169.37599999999989
 30
0.0
 11
-0.6898850000000002
 21
169.37599999999989
 31
0.0
  0
ARC
  5
7D6
  8
_________1
 62
     7
 10
0.010379
 20
169.79134199999999
 30
0.0
 40
0.4155460000000001
 50
272.15580999999997
 51
357.89357100000001
  0
ARC
  5
7D7
  8
_________1
 62
     7
 10
0.9544159999999999
 20
169.007758
 30
0.0
 40
1.136979
 50
41.252935000000001
 51
117.71454199999999
  0
LINE
  5
7D8
  8
_________1
 62
     7
 10
1.809199999999999
 20
170.88399999999999
 30
0.0
 11
1.809199999999999
 21
169.75700000000001
 31
0.0
  0
ARC
  5
7D9
  8
_________1
 62
     7
 10
2.2432590000000001
 20
170.886683
 30
0.0
 40
2.0160549999999988
 50
180.07577000000001
 51
205.63481899999999
  0
ARC
  5
7DA
  8
_________1
 62
     7
 10
2.2357409999999991
 20
170.88260700000001
 30
0.0
 40
2.008535999999999
 50
154.361895
 51
179.959731
  0
ARC
  5
7DB
  8
_________1
 62
     7
 10
0.957816
 20
172.76953999999989
 30
0.0
 40
1.142517999999999
 50
232.37243799999999
 51
318.17498399999999
  0
ARC
  5
7DC
  8
_________1
 62
     7
 10
13.208978999999999
 20
187.04745
 30
0.0
 40
19.954588999999999
 50
229.48733999999999
 51
229.54066499999999
  0
LINE
  5
7DD
  8
_________1
 62
     7
 10
2.07586
 20
171.68799999999999
 30
0.0
 11
2.07586
 21
170.08099999999999
 31
0.0
  0
ARC
  5
7DE
  8
_________1
 62
     7
 10
-2.7493720000000001
 20
170.884018
 30
0.0
 40
7.0744819999999997
 50
353.938196
 51
6.0618039999999986
  0
ARC
  5
7DF
  8
_________1
 62
     7
 10
3.1462849999999989
 20
170.95489900000001
 30
0.0
 40
1.40219
 50
238.52508900000001
 51
324.340127
  0
ARC
  5
7E0
  8
_________1
 62
     7
 10
3.161535999999999
 20
170.88628600000001
 30
0.0
 40
1.3525169999999991
 50
216.561252
 51
236.456006
  0
ARC
  5
7E1
  8
_________1
 62
     7
 10
3.171295999999999
 20
170.81128200000001
 30
0.0
 40
1.403359
 50
55.601174
 51
141.35914600000001
  0
ARC
  5
7E2
  8
_________1
 62
     7
 10
3.1649660000000002
 20
170.888475
 30
0.0
 40
1.3441289999999999
 50
33.520280999999997
 51
53.519114999999992
  0
LINE
  5
7E3
  8
_________1
 62
     7
 10
1.809199999999999
 20
172.011
 30
0.0
 11
1.809199999999999
 21
170.88399999999999
 31
0.0
  0
LINE
  5
7E4
  8
_________1
 62
     7
 10
-1.62765
 20
167.96600000000001
 30
0.0
 11
-2.7276699999999998
 21
167.96600000000001
 31
0.0
  0
LINE
  5
7E5
  8
_________1
 62
     7
 10
-1.439889999999999
 20
168.154
 30
0.0
 11
-1.62765
 21
167.96600000000001
 31
0.0
  0
LINE
  5
7E6
  8
_________1
 62
     7
 10
-1.3279199999999991
 20
167.55500000000001
 30
0.0
 11
-2.7276699999999998
 21
167.55500000000001
 31
0.0
  0
LINE
  5
7E7
  8
_________1
 62
     7
 10
-1.439889999999999
 20
168.154
 30
0.0
 11
-2.7276699999999998
 21
168.154
 31
0.0
  0
LINE
  5
7E8
  8
_________1
 62
     7
 10
-1.439889999999999
 20
168.626
 30
0.0
 11
-1.439889999999999
 21
168.154
 31
0.0
  0
LINE
  5
7E9
  8
_________1
 62
     7
 10
-0.6898850000000002
 20
169.37599999999989
 30
0.0
 11
-2.7276699999999998
 21
169.37599999999989
 31
0.0
  0
ARC
  5
7EA
  8
_________1
 62
     7
 10
-0.6609580000000001
 20
168.59717499999999
 30
0.0
 40
0.7794520000000001
 50
92.126784999999998
 51
177.89949799999999
  0
LINE
  5
7EB
  8
_________1
 62
     7
 10
-1.62765
 20
167.96600000000001
 30
0.0
 11
-1.62765
 21
167.55500000000001
 31
0.0
  0
ARC
  5
7EC
  8
_________1
 62
     7
 10
-2.676139
 20
170.83248499999999
 30
0.0
 40
1.402620999999999
 50
92.105506999999974
 51
177.894463
  0
ARC
  5
7ED
  8
_________1
 62
     7
 10
-2.7791990000000002
 20
170.83249000000001
 30
0.0
 40
1.4026160000000001
 50
2.1053399999999991
 51
87.894650999999996
  0
ARC
  5
7EE
  8
_________1
 62
     7
 10
-2.7795959999999988
 20
170.93594200000001
 30
0.0
 40
1.4030269999999989
 50
272.12095299999999
 51
357.87905599999999
  0
ARC
  5
7EF
  8
_________1
 62
     7
 10
-2.676143999999999
 20
170.93554499999999
 30
0.0
 40
1.4026149999999991
 50
182.10534199999989
 51
267.89468799999997
  0
ARC
  5
7F0
  8
_________1
 62
     7
 10
-2.6974139999999989
 20
170.85375999999999
 30
0.0
 40
0.8204360000000001
 50
92.113515000000021
 51
177.88645600000001
  0
ARC
  5
7F1
  8
_________1
 62
     7
 10
-2.757943
 20
170.85410300000001
 30
0.0
 40
0.8200940000000001
 50
2.0904060000000002
 51
87.884581000000011
  0
ARC
  5
7F2
  8
_________1
 62
     7
 10
-2.757924
 20
170.91426999999999
 30
0.0
 40
0.8200870000000001
 50
272.11408499999999
 51
357.88592499999999
  0
ARC
  5
7F3
  8
_________1
 62
     7
 10
-2.697438
 20
170.91460900000001
 30
0.0
 40
0.820425
 50
182.13689500000001
 51
267.88813900000002
  0
LINE
  5
7F4
  8
_________1
 62
     7
 10
-2.4045200000000002
 20
172.50999999999999
 30
0.0
 11
-2.4045200000000002
 21
173.095
 31
0.0
  0
LINE
  5
7F5
  8
_________1
 62
     7
 10
-2.1147900000000002
 20
172.50999999999999
 30
0.0
 11
-2.1147900000000002
 21
173.095
 31
0.0
  0
LINE
  5
7F6
  8
_________1
 62
     7
 10
-1.8257399999999999
 20
172.50999999999999
 30
0.0
 11
-1.8257399999999999
 21
173.095
 31
0.0
  0
LINE
  5
7F7
  8
_________1
 62
     7
 10
-1.5298
 20
172.50999999999999
 30
0.0
 11
-1.5298
 21
173.095
 31
0.0
  0
LINE
  5
7F8
  8
_________1
 62
     7
 10
-1.2858899999999991
 20
172.50999999999999
 30
0.0
 11
-1.2858899999999991
 21
173.095
 31
0.0
  0
LINE
  5
7F9
  8
_________1
 62
     7
 10
-0.0180869
 20
172.50999999999999
 30
0.0
 11
-0.0180869
 21
173.095
 31
0.0
  0
LINE
  5
7FA
  8
_________1
 62
     7
 10
-0.117995
 20
172.50999999999999
 30
0.0
 11
-0.117995
 21
173.095
 31
0.0
  0
LINE
  5
7FB
  8
_________1
 62
     7
 10
-0.8476709999999998
 20
172.50999999999999
 30
0.0
 11
-0.8476709999999998
 21
173.095
 31
0.0
  0
LINE
  5
7FC
  8
_________1
 62
     7
 10
-1.05576
 20
172.50999999999999
 30
0.0
 11
-1.05576
 21
173.095
 31
0.0
  0
LINE
  5
7FD
  8
_________1
 62
     7
 10
-0.6340740000000001
 20
172.50999999999999
 30
0.0
 11
-0.6340740000000001
 21
173.095
 31
0.0
  0
LINE
  5
7FE
  8
_________1
 62
     7
 10
-0.4411470000000001
 20
172.50999999999999
 30
0.0
 11
-0.4411470000000001
 21
173.095
 31
0.0
  0
LINE
  5
7FF
  8
_________1
 62
     7
 10
-0.264068
 20
172.50999999999999
 30
0.0
 11
-0.264068
 21
173.095
 31
0.0
  0
LINE
  5
800
  8
_________1
 62
     7
 10
0.0742423
 20
172.50999999999999
 30
0.0
 11
0.245809
 21
171.87700000000001
 31
0.0
  0
LINE
  5
801
  8
_________1
 62
     7
 10
0.0742423
 20
172.50999999999999
 30
0.0
 11
-2.7276699999999998
 21
172.50999999999999
 31
0.0
  0
LINE
  5
802
  8
_________1
 62
     7
 10
0.0742423
 20
172.50999999999999
 30
0.0
 11
0.0742423
 21
173.095
 31
0.0
  0
LINE
  5
803
  8
_________1
 62
     7
 10
0.0742423
 20
173.095
 30
0.0
 11
-2.7276699999999998
 21
173.095
 31
0.0
  0
LINE
  5
804
  8
_________1
 62
     7
 10
-0.5565590000000001
 20
173.714
 30
0.0
 11
-2.7276699999999998
 21
173.714
 31
0.0
  0
LINE
  5
805
  8
_________1
 62
     7
 10
-0.0663185
 20
173.095
 30
0.0
 11
-0.0663185
 21
173.22399999999999
 31
0.0
  0
ARC
  5
806
  8
_________1
 62
     7
 10
-0.575526
 20
173.20496
 30
0.0
 40
0.509574
 50
2.1734189999999991
 51
87.866849000000002
  0
LINE
  5
807
  8
_________1
  6
AIGENLINE001
 62
     7
 10
5.7366400000000004
 20
170.88399999999999
 30
0.0
 11
-10.8285
 21
170.88399999999999
 31
0.0
  0
ARC
  5
808
  8
_________1
 62
     7
 10
-45.310256000000003
 20
162.79024000000001
 30
0.0
 40
1.265221999999999
 50
89.754833999999988
 51
102.57047
  0
ARC
  5
809
  8
_________1
 62
     7
 10
-45.305444000000001
 20
162.778345
 30
0.0
 40
1.277105999999999
 50
63.004506000000013
 51
89.972992000000019
  0
ARC
  5
80A
  8
_________1
 62
     7
 10
-45.131140000000002
 20
163.16144299999999
 30
0.0
 40
0.85683
 50
34.210917999999999
 51
61.761723000000003
  0
ARC
  5
80B
  8
_________1
 62
     7
 10
-44.89688799999999
 20
163.34578400000001
 30
0.0
 40
0.559851
 50
0.9138729999999998
 51
32.087929000000003
  0
ARC
  5
80C
  8
_________1
 62
     7
 10
-44.871707000000001
 20
163.35616899999999
 30
0.0
 40
0.5346
 50
325.2412700000001
 51
359.84399999999999
  0
ARC
  5
80D
  8
_________1
 62
     7
 10
-45.046953999999999
 20
163.46529099999989
 30
0.0
 40
0.7408590000000001
 50
302.8083759999999
 51
326.03492199999999
  0
ARC
  5
80E
  8
_________1
 62
     7
 10
-45.244512999999991
 20
163.741772
 30
0.0
 40
1.0804039999999999
 50
277.79585100000003
 51
303.66965699999997
  0
ARC
  5
80F
  8
_________1
 62
     7
 10
-45.303434999999993
 20
163.982775
 30
0.0
 40
1.3274209999999991
 50
269.93928099999999
 51
278.90466099999998
  0
ARC
  5
810
  8
_________1
 62
     7
 10
-45.305860999999993
 20
163.986829
 30
0.0
 40
1.3314749999999991
 50
257.74976500000002
 51
270.04383100000001
  0
ARC
  5
811
  8
_________1
 62
     7
 10
-45.861628000000003
 20
162.1963669999999
 30
0.0
 40
0.536586
 50
343.35570300000001
 51
44.170883999999987
  0
ARC
  5
812
  8
_________1
 62
     7
 10
-45.934350999999992
 20
162.20380800000001
 30
0.0
 40
0.6085470000000001
 50
322.867279
 51
344.64572299999998
  0
ARC
  5
813
  8
_________1
 62
     7
 10
-44.766249999999999
 20
163.358068
 30
0.0
 40
1.060875999999999
 50
180.14398899999989
 51
227.95352299999999
  0
ARC
  5
814
  8
_________1
 62
     7
 10
-44.675069999999998
 20
163.2731
 30
0.0
 40
1.1789709999999991
 50
123.58439799999999
 51
152.51463200000001
  0
ARC
  5
815
  8
_________1
 62
     7
 10
-44.777624999999993
 20
163.35727600000001
 30
0.0
 40
1.0494989999999991
 50
154.00760199999999
 51
180.10229799999999
  0
ARC
  5
816
  8
_________1
 62
     7
 10
-45.256554000000001
 20
161.646016
 30
0.0
 40
0.270878
 50
135.32953699999999
 51
179.06954400000001
  0
LINE
  5
817
  8
_________1
 62
     7
 10
-45.5274
 20
161.65000000000001
 30
0.0
 11
-45.5274
 21
161.05500000000001
 31
0.0
  0
ARC
  5
818
  8
_________1
 62
     7
 10
-40.144514000000001
 20
162.790175
 30
0.0
 40
1.2652879999999991
 50
77.429535999999985
 51
90.260107999999988
  0
ARC
  5
819
  8
_________1
 62
     7
 10
-40.149647999999999
 20
162.77891699999989
 30
0.0
 40
1.2765340000000001
 50
90.027356999999995
 51
117.00163999999999
  0
ARC
  5
81A
  8
_________1
 62
     7
 10
-40.323563999999998
 20
163.16091299999999
 30
0.0
 40
0.8574159999999998
 50
118.236277
 51
145.77283199999999
  0
ARC
  5
81B
  8
_________1
 62
     7
 10
-40.558310999999989
 20
163.34573399999999
 30
0.0
 40
0.5597520000000001
 50
147.89965100000001
 51
179.080815
  0
ARC
  5
81C
  8
_________1
 62
     7
 10
-40.584690999999992
 20
163.35584700000001
 30
0.0
 40
0.533301
 50
180.121726
 51
214.813399
  0
ARC
  5
81D
  8
_________1
 62
     7
 10
-40.407975
 20
163.46554
 30
0.0
 40
0.741092
 50
213.976224
 51
237.199332
  0
ARC
  5
81E
  8
_________1
 62
     7
 10
-40.210229999999989
 20
163.742345
 30
0.0
 40
1.0810079999999991
 50
236.33717799999999
 51
262.19464499999998
  0
ARC
  5
81F
  8
_________1
 62
     7
 10
-40.151642000000002
 20
163.98182399999999
 30
0.0
 40
1.32647
 50
261.09216700000002
 51
270.05980299999999
  0
ARC
  5
820
  8
_________1
 62
     7
 10
-40.149236999999992
 20
163.990015
 30
0.0
 40
1.3346599999999991
 50
269.95616999999999
 51
282.23557099999999
  0
ARC
  5
821
  8
_________1
 62
     7
 10
-42.734590999999988
 20
151.02149600000001
 30
0.0
 40
23.033753000000001
 50
89.981618000000012
 51
90.954864000000001
  0
ARC
  5
822
  8
_________1
 62
     7
 10
-43.010913000000002
 20
169.007913
 30
0.0
 40
5.0452839999999988
 50
91.221268000000009
 51
111.101809
  0
ARC
  5
823
  8
_________1
 62
     7
 10
-39.594155000000001
 20
162.19641999999999
 30
0.0
 40
0.535813
 50
135.75661400000001
 51
196.67488900000001
  0
ARC
  5
824
  8
_________1
 62
     7
 10
-39.521318999999998
 20
162.20393899999999
 30
0.0
 40
0.6078980000000001
 50
195.38387900000001
 51
217.19456199999999
  0
LINE
  5
825
  8
_________1
 62
     7
 10
-45.30899999999999
 20
161.756
 30
0.0
 11
-42.727200000000003
 21
161.756
 31
0.0
  0
LINE
  5
826
  8
_________1
 62
     7
 10
-45.30899999999999
 20
162.45599999999999
 30
0.0
 11
-42.727200000000003
 21
162.45599999999999
 31
0.0
  0
ARC
  5
827
  8
_________1
 62
     7
 10
-40.689495999999998
 20
163.35851
 30
0.0
 40
1.0618669999999999
 50
312.07020499999999
 51
359.83232200000009
  0
ARC
  5
828
  8
_________1
 62
     7
 10
-40.780159999999988
 20
163.27298200000001
 30
0.0
 40
1.179332
 50
27.482690000000002
 51
56.399543999999992
  0
ARC
  5
829
  8
_________1
 62
     7
 10
-40.67722599999999
 20
163.35699
 30
0.0
 40
1.0495939999999999
 50
359.91334000000001
 51
26.007206000000011
  0
LINE
  5
82A
  8
_________1
 62
     7
 10
-44.977200000000003
 20
164.755
 30
0.0
 11
-44.921700000000001
 21
164.755
 31
0.0
  0
LINE
  5
82B
  8
_________1
 62
     7
 10
-45.327199999999998
 20
164.405
 30
0.0
 11
-45.327199999999998
 21
164.255
 31
0.0
  0
ARC
  5
82C
  8
_________1
 62
     7
 10
-44.963553999999988
 20
164.391459
 30
0.0
 40
0.363952
 50
92.150605000000013
 51
177.79294400000001
  0
LINE
  5
82D
  8
_________1
 62
     7
 10
-44.127299999999991
 20
167.55500000000001
 30
0.0
 11
-44.127299999999991
 21
165.655
 31
0.0
  0
ARC
  5
82E
  8
_________1
 62
     7
 10
-44.937793999999997
 20
165.550003
 30
0.0
 40
0.7950109999999999
 50
271.15673700000002
 51
342.81450000000001
  0
ARC
  5
82F
  8
_________1
 62
     7
 10
-45.220551
 20
165.64520300000001
 30
0.0
 40
1.0932969999999991
 50
342.42642599999999
 51
0.532435
  0
LINE
  5
830
  8
_________1
 62
     7
 10
-47.530700000000003
 20
170.08099999999999
 30
0.0
 11
-47.264400000000002
 21
169.75800000000001
 31
0.0
  0
LINE
  5
831
  8
_________1
 62
     7
 10
-47.264400000000002
 20
172.011
 30
0.0
 11
-47.530700000000003
 21
171.68799999999999
 31
0.0
  0
LINE
  5
832
  8
_________1
 62
     7
 10
-45.880899999999997
 20
169.77699999999999
 30
0.0
 11
-45.880899999999997
 21
170.01499999999999
 31
0.0
  0
LINE
  5
833
  8
_________1
 62
     7
 10
-45.481199999999987
 20
169.37700000000001
 30
0.0
 11
-44.765300000000003
 21
169.37700000000001
 31
0.0
  0
ARC
  5
834
  8
_________1
 62
     7
 10
-45.465600999999992
 20
169.79203000000001
 30
0.0
 40
0.4155460000000001
 50
182.10643099999999
 51
267.84422699999999
  0
ARC
  5
835
  8
_________1
 62
     7
 10
-46.409636999999989
 20
169.00844699999999
 30
0.0
 40
1.136979
 50
62.285437999999992
 51
138.74704600000001
  0
LINE
  5
836
  8
_________1
 62
     7
 10
-47.264400000000002
 20
170.88499999999999
 30
0.0
 11
-47.264400000000002
 21
169.75800000000001
 31
0.0
  0
ARC
  5
837
  8
_________1
 62
     7
 10
-47.701646999999987
 20
170.888722
 30
0.0
 40
2.019568
 50
334.365139
 51
359.88609400000001
  0
ARC
  5
838
  8
_________1
 62
     7
 10
-47.686720999999991
 20
170.88329400000001
 30
0.0
 40
2.0046390000000001
 50
0.040373
 51
25.686147999999999
  0
ARC
  5
839
  8
_________1
 62
     7
 10
-46.413079000000003
 20
172.77069800000001
 30
0.0
 40
1.142914999999999
 50
221.85038599999999
 51
307.614868
  0
LINE
  5
83A
  8
_________1
 62
     7
 10
-45.715499999999999
 20
171.86500000000001
 30
0.0
 11
-45.701000000000001
 21
171.87700000000001
 31
0.0
  0
LINE
  5
83B
  8
_________1
 62
     7
 10
-47.530700000000003
 20
171.68799999999999
 30
0.0
 11
-47.530700000000003
 21
170.08099999999999
 31
0.0
  0
ARC
  5
83C
  8
_________1
 62
     7
 10
-42.736540999999988
 20
170.88470699999999
 30
0.0
 40
7.0439629999999998
 50
173.91181399999999
 51
186.08818600000001
  0
ARC
  5
83D
  8
_________1
 62
     7
 10
-48.601506999999998
 20
170.95558800000001
 30
0.0
 40
1.40219
 50
215.65989300000001
 51
301.47492999999997
  0
ARC
  5
83E
  8
_________1
 62
     7
 10
-48.614198000000002
 20
170.883115
 30
0.0
 40
1.3478859999999999
 50
303.54396500000001
 51
323.49699399999997
  0
ARC
  5
83F
  8
_________1
 62
     7
 10
-48.626747999999999
 20
170.81230300000001
 30
0.0
 40
1.402955999999999
 50
38.627668
 51
124.398698
  0
ARC
  5
840
  8
_________1
 62
     7
 10
-48.606815999999988
 20
170.87646599999999
 30
0.0
 40
1.3622929999999991
 50
126.615534
 51
146.34503100000001
  0
LINE
  5
841
  8
_________1
 62
     7
 10
-47.264400000000002
 20
172.011
 30
0.0
 11
-47.264400000000002
 21
170.88499999999999
 31
0.0
  0
LINE
  5
842
  8
_________1
 62
     7
 10
-43.827599999999997
 20
167.96700000000001
 30
0.0
 11
-42.727200000000003
 21
167.96700000000001
 31
0.0
  0
LINE
  5
843
  8
_________1
 62
     7
 10
-44.015300000000003
 20
168.155
 30
0.0
 11
-43.827599999999997
 21
167.96700000000001
 31
0.0
  0
LINE
  5
844
  8
_________1
 62
     7
 10
-44.127299999999991
 20
167.55500000000001
 30
0.0
 11
-42.727200000000003
 21
167.55500000000001
 31
0.0
  0
LINE
  5
845
  8
_________1
 62
     7
 10
-44.015300000000003
 20
168.155
 30
0.0
 11
-42.727200000000003
 21
168.155
 31
0.0
  0
LINE
  5
846
  8
_________1
 62
     7
 10
-44.015300000000003
 20
168.626
 30
0.0
 11
-44.015300000000003
 21
168.155
 31
0.0
  0
LINE
  5
847
  8
_________1
 62
     7
 10
-44.765300000000003
 20
169.37700000000001
 30
0.0
 11
-42.727200000000003
 21
169.37700000000001
 31
0.0
  0
ARC
  5
848
  8
_________1
 62
     7
 10
-44.794656000000003
 20
168.59747100000001
 30
0.0
 40
0.779859
 50
2.128225
 51
87.845452000000009
  0
LINE
  5
849
  8
_________1
 62
     7
 10
-43.827599999999997
 20
167.96700000000001
 30
0.0
 11
-43.827599999999997
 21
167.55500000000001
 31
0.0
  0
ARC
  5
84A
  8
_________1
 62
     7
 10
-41.961914999999998
 20
163.352914
 30
0.0
 40
0.444294
 50
0.232045
 51
38.183214
  0
ARC
  5
84B
  8
_________1
 62
     7
 10
-42.187263000000002
 20
163.20316099999999
 30
0.0
 40
0.7143270000000001
 50
36.450949999999999
 51
53.056418000000001
  0
ARC
  5
84C
  8
_________1
 62
     7
 10
-42.452829000000001
 20
162.86646300000001
 30
0.0
 40
1.143079999999999
 50
52.561056999999991
 51
71.365848999999983
  0
ARC
  5
84D
  8
_________1
 62
     7
 10
-42.698942999999993
 20
162.24047300000001
 30
0.0
 40
1.815197999999999
 50
70.318055000000001
 51
90.892116999999985
  0
ARC
  5
84E
  8
_________1
 62
     7
 10
-42.727590999999997
 20
162.052288
 30
0.0
 40
2.0031620000000001
 50
89.988981000000024
 51
107.105935
  0
ARC
  5
84F
  8
_________1
 62
     7
 10
-42.902068999999997
 20
162.671583
 30
0.0
 40
1.360029999999999
 50
107.754668
 51
124.38073
  0
ARC
  5
850
  8
_________1
 62
     7
 10
-43.226804000000001
 20
163.16962100000001
 30
0.0
 40
0.7657370000000001
 50
125.37092199999999
 51
147.63305299999999
  0
ARC
  5
851
  8
_________1
 62
     7
 10
-43.478559999999987
 20
163.346486
 30
0.0
 40
0.458645
 50
149.458708
 51
178.972127
  0
ARC
  5
852
  8
_________1
 62
     7
 10
-43.495061
 20
163.356255
 30
0.0
 40
0.4420729999999999
 50
180.19977700000001
 51
218.283672
  0
ARC
  5
853
  8
_________1
 62
     7
 10
-43.269531999999998
 20
163.505923
 30
0.0
 40
0.7121770000000001
 50
216.49374299999999
 51
233.133826
  0
ARC
  5
854
  8
_________1
 62
     7
 10
-43.00267199999999
 20
163.84466
 30
0.0
 40
1.1433279999999999
 50
232.618968
 51
251.41431299999999
  0
ARC
  5
855
  8
_________1
 62
     7
 10
-42.755688999999997
 20
164.47411600000001
 30
0.0
 40
1.8189839999999999
 50
250.359667
 51
270.89725299999998
  0
ARC
  5
856
  8
_________1
 62
     7
 10
-42.726836999999989
 20
164.66097600000001
 30
0.0
 40
2.0056210000000001
 50
269.989486
 51
287.07759099999998
  0
ARC
  5
857
  8
_________1
 62
     7
 10
-42.551676999999998
 20
164.03922800000001
 30
0.0
 40
1.3599330000000001
 50
287.71584999999999
 51
304.33337799999998
  0
ARC
  5
858
  8
_________1
 62
     7
 10
-42.226922999999999
 20
163.54038499999999
 30
0.0
 40
0.7649530000000001
 50
305.32058000000001
 51
327.58175
  0
ARC
  5
859
  8
_________1
 62
     7
 10
-41.97481299999999
 20
163.36298500000001
 30
0.0
 40
0.4572630000000001
 50
329.41123199999998
 51
358.96352999999999
  0
LINE
  5
85A
  8
_________1
 62
     7
 10
-42.727200000000003
 20
172.511
 30
0.0
 11
-42.727200000000003
 21
173.096
 31
0.0
  0
LINE
  5
85B
  8
_________1
 62
     7
 10
-43.050699999999992
 20
172.511
 30
0.0
 11
-43.050699999999992
 21
173.096
 31
0.0
  0
LINE
  5
85C
  8
_________1
 62
     7
 10
-43.340400000000002
 20
172.511
 30
0.0
 11
-43.340400000000002
 21
173.096
 31
0.0
  0
LINE
  5
85D
  8
_________1
 62
     7
 10
-43.6295
 20
172.511
 30
0.0
 11
-43.6295
 21
173.096
 31
0.0
  0
LINE
  5
85E
  8
_________1
 62
     7
 10
-43.925400000000003
 20
172.511
 30
0.0
 11
-43.925400000000003
 21
173.096
 31
0.0
  0
LINE
  5
85F
  8
_________1
 62
     7
 10
-44.168999999999997
 20
172.511
 30
0.0
 11
-44.168999999999997
 21
173.096
 31
0.0
  0
LINE
  5
860
  8
_________1
 62
     7
 10
-45.437099999999987
 20
172.511
 30
0.0
 11
-45.437099999999987
 21
173.096
 31
0.0
  0
LINE
  5
861
  8
_________1
 62
     7
 10
-45.337200000000003
 20
172.511
 30
0.0
 11
-45.337200000000003
 21
173.096
 31
0.0
  0
LINE
  5
862
  8
_________1
 62
     7
 10
-44.607599999999991
 20
172.511
 30
0.0
 11
-44.607599999999991
 21
173.096
 31
0.0
  0
LINE
  5
863
  8
_________1
 62
     7
 10
-44.399099999999997
 20
172.511
 30
0.0
 11
-44.399099999999997
 21
173.096
 31
0.0
  0
LINE
  5
864
  8
_________1
 62
     7
 10
-44.821100000000001
 20
172.511
 30
0.0
 11
-44.821100000000001
 21
173.096
 31
0.0
  0
LINE
  5
865
  8
_________1
 62
     7
 10
-45.014099999999992
 20
172.511
 30
0.0
 11
-45.014099999999992
 21
173.096
 31
0.0
  0
LINE
  5
866
  8
_________1
 62
     7
 10
-45.190800000000003
 20
172.511
 30
0.0
 11
-45.190800000000003
 21
173.096
 31
0.0
  0
LINE
  5
867
  8
_________1
 62
     7
 10
-45.529499999999999
 20
172.511
 30
0.0
 11
-45.701000000000001
 21
171.87700000000001
 31
0.0
  0
LINE
  5
868
  8
_________1
 62
     7
 10
-45.529499999999999
 20
172.511
 30
0.0
 11
-42.727200000000003
 21
172.511
 31
0.0
  0
LINE
  5
869
  8
_________1
 62
     7
 10
-45.529499999999999
 20
172.511
 30
0.0
 11
-45.529499999999999
 21
173.096
 31
0.0
  0
LINE
  5
86A
  8
_________1
 62
     7
 10
-45.529499999999999
 20
173.096
 30
0.0
 11
-42.727200000000003
 21
173.096
 31
0.0
  0
LINE
  5
86B
  8
_________1
 62
     7
 10
-44.898699999999991
 20
173.715
 30
0.0
 11
-42.727200000000003
 21
173.715
 31
0.0
  0
LINE
  5
86C
  8
_________1
 62
     7
 10
-45.3889
 20
173.096
 30
0.0
 11
-45.3889
 21
173.22499999999999
 31
0.0
  0
ARC
  5
86D
  8
_________1
 62
     7
 10
-44.879685000000002
 20
173.20563899999999
 30
0.0
 40
0.5095850000000001
 50
92.134255999999993
 51
177.825436
  0
ARC
  5
86E
  8
_________1
 62
     7
 10
-42.719825
 20
151.042159
 30
0.0
 40
23.013089999999998
 50
89.044687999999994
 51
90.018365000000017
  0
ARC
  5
86F
  8
_________1
 62
     7
 10
-42.443733000000002
 20
169.00852
 30
0.0
 40
5.0446780000000002
 50
68.896846999999994
 51
88.777911000000003
  0
LINE
  5
870
  8
_________1
 62
     7
 10
-42.727200000000003
 20
161.05500000000001
 30
0.0
 11
-45.528100000000002
 21
161.05500000000001
 31
0.0
  0
LINE
  5
871
  8
_________1
 62
     7
 10
-39.927399999999999
 20
161.05500000000001
 30
0.0
 11
-42.727200000000003
 21
161.05500000000001
 31
0.0
  0
LINE
  5
872
  8
_________1
 62
     7
 10
-42.727200000000003
 20
164.255
 30
0.0
 11
-45.30899999999999
 21
164.255
 31
0.0
  0
LINE
  5
873
  8
_________1
 62
     7
 10
-40.145800000000001
 20
161.756
 30
0.0
 11
-42.727200000000003
 21
161.756
 31
0.0
  0
LINE
  5
874
  8
_________1
 62
     7
 10
-40.145800000000001
 20
162.45599999999999
 30
0.0
 11
-42.727200000000003
 21
162.45599999999999
 31
0.0
  0
LINE
  5
875
  8
_________1
 62
     7
 10
-40.145800000000001
 20
164.255
 30
0.0
 11
-42.727200000000003
 21
164.255
 31
0.0
  0
ARC
  5
876
  8
_________1
 62
     7
 10
-40.19820099999999
 20
161.646016
 30
0.0
 40
0.270878
 50
0.930436
 51
44.670442999999999
  0
LINE
  5
877
  8
_________1
 62
     7
 10
-40.477499999999992
 20
164.755
 30
0.0
 11
-40.533000000000001
 21
164.755
 31
0.0
  0
LINE
  5
878
  8
_________1
 62
     7
 10
-39.927399999999999
 20
161.65000000000001
 30
0.0
 11
-39.927399999999999
 21
161.05500000000001
 31
0.0
  0
LINE
  5
879
  8
_________1
 62
     7
 10
-40.127499999999991
 20
164.405
 30
0.0
 11
-40.127499999999991
 21
164.255
 31
0.0
  0
ARC
  5
87A
  8
_________1
 62
     7
 10
-40.491201999999987
 20
164.391459
 30
0.0
 40
0.363952
 50
2.2070369999999988
 51
87.849374999999995
  0
LINE
  5
87B
  8
_________1
 62
     7
 10
-41.327500000000001
 20
167.55500000000001
 30
0.0
 11
-41.327500000000001
 21
165.655
 31
0.0
  0
LINE
  5
87C
  8
_________1
 62
     7
 10
-42.727200000000003
 20
164.755
 30
0.0
 11
-44.549700000000001
 21
164.755
 31
0.0
  0
LINE
  5
87D
  8
_________1
 62
     7
 10
-40.905099999999997
 20
164.755
 30
0.0
 11
-42.727200000000003
 21
164.755
 31
0.0
  0
ARC
  5
87E
  8
_________1
 62
     7
 10
-40.516961000000002
 20
165.550003
 30
0.0
 40
0.7950109999999999
 50
197.185519
 51
268.84328299999999
  0
ARC
  5
87F
  8
_________1
 62
     7
 10
-40.234206999999991
 20
165.64520300000001
 30
0.0
 40
1.0932949999999999
 50
179.46752599999999
 51
197.57361399999999
  0
LINE
  5
880
  8
_________1
 62
     7
 10
-37.923999999999999
 20
170.08099999999999
 30
0.0
 11
-38.1907
 21
169.75800000000001
 31
0.0
  0
LINE
  5
881
  8
_________1
 62
     7
 10
-38.1907
 20
172.011
 30
0.0
 11
-37.923999999999999
 21
171.68799999999999
 31
0.0
  0
LINE
  5
882
  8
_________1
 62
     7
 10
-39.573900000000002
 20
169.77699999999999
 30
0.0
 11
-39.573900000000002
 21
170.01499999999999
 31
0.0
  0
LINE
  5
883
  8
_________1
 62
     7
 10
-39.9739
 20
169.37700000000001
 30
0.0
 11
-40.689399999999999
 21
169.37700000000001
 31
0.0
  0
ARC
  5
884
  8
_________1
 62
     7
 10
-39.989165999999997
 20
169.792055
 30
0.0
 40
0.415558
 50
272.109737
 51
357.89027299999998
  0
ARC
  5
885
  8
_________1
 62
     7
 10
-39.045276999999999
 20
169.00873999999999
 30
0.0
 40
1.1366459999999989
 50
41.248002
 51
117.714353
  0
LINE
  5
886
  8
_________1
 62
     7
 10
-38.1907
 20
170.88499999999999
 30
0.0
 11
-38.1907
 21
169.75800000000001
 31
0.0
  0
ARC
  5
887
  8
_________1
 62
     7
 10
-37.759199000000002
 20
170.88732999999999
 30
0.0
 40
2.0134759999999989
 50
180.07465999999999
 51
205.674147
  0
ARC
  5
888
  8
_________1
 62
     7
 10
-37.764898000000002
 20
170.883296
 30
0.0
 40
2.0077759999999989
 50
154.35695799999999
 51
179.9597379999999
  0
ARC
  5
889
  8
_________1
 62
     7
 10
-39.041981999999997
 20
172.77027799999999
 30
0.0
 40
1.142606
 50
232.370756
 51
318.16403000000003
  0
LINE
  5
88A
  8
_________1
 62
     7
 10
-39.739600000000003
 20
171.86500000000001
 30
0.0
 11
-39.753700000000002
 21
171.87700000000001
 31
0.0
  0
LINE
  5
88B
  8
_________1
 62
     7
 10
-37.923999999999999
 20
171.68799999999999
 30
0.0
 11
-37.923999999999999
 21
170.08099999999999
 31
0.0
  0
ARC
  5
88C
  8
_________1
 62
     7
 10
-42.718581999999991
 20
170.88470699999999
 30
0.0
 40
7.0439860000000003
 50
353.91185400000001
 51
6.0881460000000001
  0
ARC
  5
88D
  8
_________1
 62
     7
 10
-36.853684000000001
 20
170.95603700000001
 30
0.0
 40
1.4025259999999991
 50
238.537824
 51
324.32739299999997
  0
ARC
  5
88E
  8
_________1
 62
     7
 10
-36.836527000000011
 20
170.88772299999999
 30
0.0
 40
1.354144
 50
216.5496
 51
236.40948
  0
ARC
  5
88F
  8
_________1
 62
     7
 10
-36.839123000000001
 20
170.88448600000001
 30
0.0
 40
1.350395
 50
53.493507000000001
 51
143.480086
  0
ARC
  5
890
  8
_________1
 62
     7
 10
-36.838306000000003
 20
170.885941
 30
0.0
 40
1.348738999999999
 50
33.554805999999999
 51
53.484589
  0
LINE
  5
891
  8
_________1
 62
     7
 10
-38.1907
 20
172.011
 30
0.0
 11
-38.1907
 21
170.88499999999999
 31
0.0
  0
LINE
  5
892
  8
_________1
 62
     7
 10
-41.627499999999991
 20
167.96700000000001
 30
0.0
 11
-42.727200000000003
 21
167.96700000000001
 31
0.0
  0
LINE
  5
893
  8
_________1
 62
     7
 10
-41.439399999999992
 20
168.155
 30
0.0
 11
-41.627499999999991
 21
167.96700000000001
 31
0.0
  0
LINE
  5
894
  8
_________1
 62
     7
 10
-41.327500000000001
 20
167.55500000000001
 30
0.0
 11
-42.727200000000003
 21
167.55500000000001
 31
0.0
  0
LINE
  5
895
  8
_________1
 62
     7
 10
-41.439399999999992
 20
168.155
 30
0.0
 11
-42.727200000000003
 21
168.155
 31
0.0
  0
LINE
  5
896
  8
_________1
 62
     7
 10
-41.439399999999992
 20
168.626
 30
0.0
 11
-41.439399999999992
 21
168.155
 31
0.0
  0
LINE
  5
897
  8
_________1
 62
     7
 10
-40.689399999999999
 20
169.37700000000001
 30
0.0
 11
-42.727200000000003
 21
169.37700000000001
 31
0.0
  0
ARC
  5
898
  8
_________1
 62
     7
 10
-40.660491999999998
 20
168.59786399999999
 30
0.0
 40
0.7794520000000001
 50
92.126784999999998
 51
177.89949799999999
  0
LINE
  5
899
  8
_________1
 62
     7
 10
-41.627499999999991
 20
167.96700000000001
 30
0.0
 11
-41.627499999999991
 21
167.55500000000001
 31
0.0
  0
ARC
  5
89A
  8
_________1
 62
     7
 10
-42.676006999999998
 20
170.83314999999999
 30
0.0
 40
1.4026329999999989
 50
92.091865999999996
 51
177.893486
  0
ARC
  5
89B
  8
_________1
 62
     7
 10
-42.778742999999992
 20
170.833169
 30
0.0
 40
1.402625999999999
 50
2.1057290000000002
 51
87.894261000000014
  0
ARC
  5
89C
  8
_________1
 62
     7
 10
-42.727206000000002
 20
170.88470699999999
 30
0.0
 40
1.3501419999999991
 50
270.00002000000001
 51
359.99999000000003
  0
ARC
  5
89D
  8
_________1
 62
     7
 10
-42.727378000000002
 20
170.88487900000001
 30
0.0
 40
1.350312999999999
 50
180.007319
 51
270.00732900000003
  0
ARC
  5
89E
  8
_________1
 62
     7
 10
-42.727291999999991
 20
170.88462000000001
 30
0.0
 40
0.789535
 50
89.993750000000006
 51
179.99372
  0
ARC
  5
89F
  8
_________1
 62
     7
 10
-42.757469999999991
 20
170.85462100000001
 30
0.0
 40
0.8200930000000001
 50
2.1024080000000001
 51
87.885079000000005
  0
ARC
  5
8A0
  8
_________1
 62
     7
 10
-42.757621999999991
 20
170.91494399999999
 30
0.0
 40
0.820251
 50
272.12514900000002
 51
357.88736399999999
  0
ARC
  5
8A1
  8
_________1
 62
     7
 10
-42.727291999999991
 20
170.884793
 30
0.0
 40
0.789535
 50
180.00626
 51
270.00627000000009
  0
LINE
  5
8A2
  8
_________1
 62
     7
 10
-42.404099999999993
 20
172.511
 30
0.0
 11
-42.404099999999993
 21
173.096
 31
0.0
  0
LINE
  5
8A3
  8
_________1
 62
     7
 10
-42.114699999999999
 20
172.511
 30
0.0
 11
-42.114699999999999
 21
173.096
 31
0.0
  0
LINE
  5
8A4
  8
_________1
 62
     7
 10
-41.825299999999991
 20
172.511
 30
0.0
 11
-41.825299999999991
 21
173.096
 31
0.0
  0
LINE
  5
8A5
  8
_________1
 62
     7
 10
-41.529299999999999
 20
172.511
 30
0.0
 11
-41.529299999999999
 21
173.096
 31
0.0
  0
LINE
  5
8A6
  8
_________1
 62
     7
 10
-41.285800000000002
 20
172.511
 30
0.0
 11
-41.285800000000002
 21
173.096
 31
0.0
  0
LINE
  5
8A7
  8
_________1
 62
     7
 10
-40.018000000000001
 20
172.511
 30
0.0
 11
-40.018000000000001
 21
173.096
 31
0.0
  0
LINE
  5
8A8
  8
_________1
 62
     7
 10
-40.117899999999999
 20
172.511
 30
0.0
 11
-40.117899999999999
 21
173.096
 31
0.0
  0
LINE
  5
8A9
  8
_________1
 62
     7
 10
-40.847199999999987
 20
172.511
 30
0.0
 11
-40.847199999999987
 21
173.096
 31
0.0
  0
LINE
  5
8AA
  8
_________1
 62
     7
 10
-41.055599999999991
 20
172.511
 30
0.0
 11
-41.055599999999991
 21
173.096
 31
0.0
  0
LINE
  5
8AB
  8
_________1
 62
     7
 10
-40.634
 20
172.511
 30
0.0
 11
-40.634
 21
173.096
 31
0.0
  0
LINE
  5
8AC
  8
_________1
 62
     7
 10
-40.441000000000003
 20
172.511
 30
0.0
 11
-40.441000000000003
 21
173.096
 31
0.0
  0
LINE
  5
8AD
  8
_________1
 62
     7
 10
-40.2639
 20
172.511
 30
0.0
 11
-40.2639
 21
173.096
 31
0.0
  0
LINE
  5
8AE
  8
_________1
 62
     7
 10
-39.9253
 20
172.511
 30
0.0
 11
-39.754100000000001
 21
171.87700000000001
 31
0.0
  0
LINE
  5
8AF
  8
_________1
 62
     7
 10
-39.9253
 20
172.511
 30
0.0
 11
-42.727200000000003
 21
172.511
 31
0.0
  0
LINE
  5
8B0
  8
_________1
 62
     7
 10
-39.9253
 20
172.511
 30
0.0
 11
-39.9253
 21
173.096
 31
0.0
  0
LINE
  5
8B1
  8
_________1
 62
     7
 10
-39.9253
 20
173.096
 30
0.0
 11
-42.727200000000003
 21
173.096
 31
0.0
  0
LINE
  5
8B2
  8
_________1
 62
     7
 10
-40.556100000000001
 20
173.715
 30
0.0
 11
-42.727200000000003
 21
173.715
 31
0.0
  0
LINE
  5
8B3
  8
_________1
 62
     7
 10
-40.065899999999999
 20
173.096
 30
0.0
 11
-40.065899999999999
 21
173.22499999999999
 31
0.0
  0
ARC
  5
8B4
  8
_________1
 62
     7
 10
-40.575069999999997
 20
173.20563899999999
 30
0.0
 40
0.5095850000000001
 50
2.174544
 51
87.865724
  0
LINE
  5
8B5
  8
_________1
  6
AIGENLINE001
 62
     7
 10
-34.263199999999998
 20
170.88499999999999
 30
0.0
 11
-50.828099999999999
 21
170.88499999999999
 31
0.0
  0
LINE
  5
8B6
  8
_________1
  6
AIGENLINE001
 62
     7
 10
-51.076399999999992
 20
254.244
 30
0.0
 11
5.489279999999999
 21
254.244
 31
0.0
  0
LINE
  5
8B7
  8
_________1
  6
AIGENLINE001
 62
     7
 10
-22.728000000000002
 20
222.505
 30
0.0
 11
-22.728000000000002
 21
263.822
 31
0.0
  0
LINE
  5
8B8
  8
_________1
 62
     7
 10
-3.5310699999999988
 20
249.441
 30
0.0
 11
-3.8542199999999989
 21
249.708
 31
0.0
  0
LINE
  5
8B9
  8
_________1
 62
     7
 10
-1.6011200000000001
 20
249.708
 30
0.0
 11
-1.9242699999999999
 21
249.441
 31
0.0
  0
LINE
  5
8BA
  8
_________1
 62
     7
 10
-2.7276699999999998
 20
249.708
 30
0.0
 11
-3.8542199999999989
 21
249.708
 31
0.0
  0
ARC
  5
8BB
  8
_________1
 62
     7
 10
-2.732969999999999
 20
248.88358099999999
 30
0.0
 40
2.5571019999999991
 50
70.50511800000001
 51
89.881265999999997
  0
ARC
  5
8BC
  8
_________1
 62
     7
 10
-2.3718799999999991
 20
249.96055999999999
 30
0.0
 40
1.421489
 50
64.439521999999997
 51
69.738326999999984
  0
ARC
  5
8BD
  8
_________1
 62
     7
 10
-4.6148669999999994
 20
250.55921000000001
 30
0.0
 40
1.141839
 50
311.771049
 51
36.858646
  0
ARC
  5
8BE
  8
_________1
 62
     7
 10
-0.8431449999999999
 20
250.55953600000001
 30
0.0
 40
1.1423700000000001
 50
143.257262
 51
228.223748
  0
LINE
  5
8BF
  8
_________1
 62
     7
 10
-1.9242699999999999
 20
249.441
 30
0.0
 11
-3.5310699999999988
 21
249.441
 31
0.0
  0
ARC
  5
8C0
  8
_________1
 62
     7
 10
-2.7274989999999999
 20
254.269409
 30
0.0
 40
7.077685999999999
 50
263.9409609999999
 51
276.05905899999999
  0
ARC
  5
8C1
  8
_________1
 62
     7
 10
-2.6570269999999998
 20
248.37059199999999
 30
0.0
 40
1.4021030000000001
 50
148.52585400000001
 51
234.34947600000001
  0
ARC
  5
8C2
  8
_________1
 62
     7
 10
-2.7192949999999998
 20
248.34779599999999
 30
0.0
 40
1.361888999999999
 50
126.588757
 51
146.3396239999999
  0
ARC
  5
8C3
  8
_________1
 62
     7
 10
-2.727803999999999
 20
248.355999
 30
0.0
 40
1.3503899999999991
 50
323.48743899999999
 51
53.48464899999999
  0
ARC
  5
8C4
  8
_________1
 62
     7
 10
-2.7263099999999989
 20
248.35594
 30
0.0
 40
1.349154999999999
 50
303.52789100000001
 51
323.45174100000003
  0
LINE
  5
8C5
  8
_________1
 62
     7
 10
-1.6011200000000001
 20
249.708
 30
0.0
 11
-2.7276699999999998
 21
249.708
 31
0.0
  0
ARC
  5
8C6
  8
_________1
 62
     7
 10
-2.722369
 20
248.882274
 30
0.0
 40
2.5584090000000002
 50
90.118735999999984
 51
109.489836
  0
ARC
  5
8C7
  8
_________1
 62
     7
 10
-3.0824940000000001
 20
249.95625899999999
 30
0.0
 40
1.4259349999999991
 50
110.24663099999999
 51
115.53348699999999
  0
LINE
  5
8C8
  8
_________1
 62
     7
 10
-7.5312000000000001
 20
255.048
 30
0.0
 11
-7.264549999999999
 21
255.37100000000001
 31
0.0
  0
LINE
  5
8C9
  8
_________1
 62
     7
 10
-7.264549999999999
 20
253.11799999999999
 30
0.0
 11
-7.5312000000000001
 21
253.441
 31
0.0
  0
LINE
  5
8CA
  8
_________1
 62
     7
 10
-7.264549999999999
 20
254.244
 30
0.0
 11
-7.264549999999999
 21
255.37100000000001
 31
0.0
  0
ARC
  5
8CB
  8
_________1
 62
     7
 10
-8.0667299999999997
 20
254.24586300000001
 30
0.0
 40
2.5350779999999991
 50
340.423044
 51
359.96888799999999
  0
ARC
  5
8CC
  8
_________1
 62
     7
 10
-7.0133169999999989
 20
253.889802
 30
0.0
 40
1.4233610000000001
 50
334.42620399999998
 51
339.718909
  0
ARC
  5
8CD
  8
_________1
 62
     7
 10
-6.412825999999999
 20
256.13188600000001
 30
0.0
 40
1.142066
 50
221.774565
 51
306.84242899999998
  0
ARC
  5
8CE
  8
_________1
 62
     7
 10
-6.4126699999999994
 20
252.35967299999999
 30
0.0
 40
1.142525999999999
 50
53.27088599999999
 51
138.21138400000001
  0
LINE
  5
8CF
  8
_________1
 62
     7
 10
-7.5312000000000001
 20
253.441
 30
0.0
 11
-7.5312000000000001
 21
255.048
 31
0.0
  0
ARC
  5
8D0
  8
_________1
 62
     7
 10
-2.6990759999999989
 20
254.244573
 30
0.0
 40
7.0816910000000002
 50
173.943669
 51
186.056331
  0
ARC
  5
8D1
  8
_________1
 62
     7
 10
-8.6015070000000016
 20
254.17214200000001
 30
0.0
 40
1.403521999999999
 50
58.564137000000002
 51
144.296942
  0
ARC
  5
8D2
  8
_________1
 62
     7
 10
-8.6293970000000009
 20
254.231549
 30
0.0
 40
1.3684769999999991
 50
36.630806
 51
56.269995000000002
  0
ARC
  5
8D3
  8
_________1
 62
     7
 10
-8.627148
 20
254.31741400000001
 30
0.0
 40
1.403230999999999
 50
235.622761
 51
321.35392300000001
  0
ARC
  5
8D4
  8
_________1
 62
     7
 10
-8.6150000000000002
 20
254.245836
 30
0.0
 40
1.351955
 50
213.587075
 51
233.484544
  0
LINE
  5
8D5
  8
_________1
 62
     7
 10
-7.264549999999999
 20
253.11799999999999
 30
0.0
 11
-7.264549999999999
 21
254.244
 31
0.0
  0
ARC
  5
8D6
  8
_________1
 62
     7
 10
-8.068365
 20
254.24310800000001
 30
0.0
 40
2.5367130000000002
 50
0.03114
 51
19.570582999999999
  0
ARC
  5
8D7
  8
_________1
 62
     7
 10
-7.019804999999999
 20
254.597036
 30
0.0
 40
1.430285
 50
20.281752000000001
 51
25.551205
  0
LINE
  5
8D8
  8
_________1
 62
     7
 10
-1.9239299999999999
 20
259.048
 30
0.0
 11
-1.6011200000000001
 21
258.78100000000001
 31
0.0
  0
LINE
  5
8D9
  8
_________1
 62
     7
 10
-3.8542199999999989
 20
258.78100000000001
 30
0.0
 11
-3.5310699999999988
 21
259.048
 31
0.0
  0
LINE
  5
8DA
  8
_________1
 62
     7
 10
-2.7276699999999998
 20
258.78100000000001
 30
0.0
 11
-1.6011200000000001
 21
258.78100000000001
 31
0.0
  0
ARC
  5
8DB
  8
_________1
 62
     7
 10
-2.722364999999999
 20
259.604829
 30
0.0
 40
2.556538999999999
 50
250.49574100000001
 51
269.881077
  0
ARC
  5
8DC
  8
_________1
 62
     7
 10
-3.0799150000000002
 20
258.537509
 30
0.0
 40
1.4312180000000001
 50
244.45310799999999
 51
249.722239
  0
ARC
  5
8DD
  8
_________1
 62
     7
 10
-0.8406859999999999
 20
257.92957899999999
 30
0.0
 40
1.1418360000000001
 50
131.75700399999999
 51
216.84725
  0
ARC
  5
8DE
  8
_________1
 62
     7
 10
-4.6119649999999996
 20
257.92974199999998
 30
0.0
 40
1.1419870000000001
 50
323.23459500000001
 51
48.222234999999991
  0
LINE
  5
8DF
  8
_________1
 62
     7
 10
-3.5310699999999988
 20
259.048
 30
0.0
 11
-1.9239299999999999
 21
259.048
 31
0.0
  0
ARC
  5
8E0
  8
_________1
 62
     7
 10
-2.7274989999999999
 20
254.222959
 30
0.0
 40
7.0744819999999997
 50
83.938186000000016
 51
96.06179400000002
  0
ARC
  5
8E1
  8
_________1
 62
     7
 10
-2.7984299999999989
 20
260.11893800000001
 30
0.0
 40
1.402196999999999
 50
328.50151699999998
 51
54.329184999999988
  0
ARC
  5
8E2
  8
_________1
 62
     7
 10
-2.7262960000000001
 20
260.13050199999998
 30
0.0
 40
1.347572999999999
 50
306.54250000000002
 51
326.47946400000001
  0
ARC
  5
8E3
  8
_________1
 62
     7
 10
-2.655478
 20
260.14382599999999
 30
0.0
 40
1.4028
 50
145.595371
 51
231.378242
  0
ARC
  5
8E4
  8
_________1
 62
     7
 10
-2.7251629999999998
 20
260.13016399999998
 30
0.0
 40
1.3539719999999991
 50
123.58924500000001
 51
143.45167499999999
  0
LINE
  5
8E5
  8
_________1
 62
     7
 10
-3.8542199999999989
 20
258.78100000000001
 30
0.0
 11
-2.7276699999999998
 21
258.78100000000001
 31
0.0
  0
LINE
  5
8E6
  8
_________1
 62
     7
 10
2.07586
 20
253.441
 30
0.0
 11
1.809199999999999
 21
253.11799999999999
 31
0.0
  0
LINE
  5
8E7
  8
_________1
 62
     7
 10
1.809199999999999
 20
255.37100000000001
 30
0.0
 11
2.07586
 21
255.048
 31
0.0
  0
LINE
  5
8E8
  8
_________1
 62
     7
 10
1.809199999999999
 20
254.244
 30
0.0
 11
1.809199999999999
 21
253.11799999999999
 31
0.0
  0
ARC
  5
8E9
  8
_________1
 62
     7
 10
-2.7329720000000002
 20
259.60551099999998
 30
0.0
 40
2.5572209999999989
 50
270.11876100000001
 51
289.50165199999998
  0
ARC
  5
8EA
  8
_________1
 62
     7
 10
-2.3741059999999998
 20
258.53318400000001
 30
0.0
 40
1.426745999999999
 50
290.29281700000001
 51
295.573892
  0
ARC
  5
8EB
  8
_________1
 62
     7
 10
2.6063979999999991
 20
254.24585999999999
 30
0.0
 40
2.5304329999999999
 50
180.03112999999999
 51
199.616905
  0
ARC
  5
8EC
  8
_________1
 62
     7
 10
1.5677979999999989
 20
253.89375899999999
 30
0.0
 40
1.4340049999999991
 50
200.29708600000001
 51
205.553192
  0
ARC
  5
8ED
  8
_________1
 62
     7
 10
2.6063979999999991
 20
254.243112
 30
0.0
 40
2.5304329999999999
 50
160.383095
 51
179.96887000000001
  0
ARC
  5
8EE
  8
_________1
 62
     7
 10
1.5677979999999989
 20
254.595214
 30
0.0
 40
1.4340049999999991
 50
154.446808
 51
159.70291399999999
  0
ARC
  5
8EF
  8
_________1
 62
     7
 10
0.957458
 20
252.35786400000001
 30
0.0
 40
1.1415669999999991
 50
41.744625999999997
 51
126.85960799999999
  0
ARC
  5
8F0
  8
_________1
 62
     7
 10
0.9574370000000001
 20
256.12922300000002
 30
0.0
 40
1.1423920000000001
 50
233.258972
 51
318.21060799999998
  0
LINE
  5
8F1
  8
_________1
 62
     7
 10
2.07586
 20
255.048
 30
0.0
 11
2.07586
 21
253.441
 31
0.0
  0
ARC
  5
8F2
  8
_________1
 62
     7
 10
-2.7251210000000001
 20
254.24448599999999
 30
0.0
 40
7.0503669999999987
 50
353.91738400000003
 51
6.0826160000000007
  0
ARC
  5
8F3
  8
_________1
 62
     7
 10
3.1464119999999989
 20
254.31577799999999
 30
0.0
 40
1.402606
 50
238.529416
 51
324.331703
  0
ARC
  5
8F4
  8
_________1
 62
     7
 10
3.1731729999999989
 20
254.25828300000001
 30
0.0
 40
1.3685599999999991
 50
216.67308499999999
 51
236.31665100000001
  0
ARC
  5
8F5
  8
_________1
 62
     7
 10
3.1608279999999991
 20
254.24427
 30
0.0
 40
1.3505529999999999
 50
53.48411200000001
 51
143.47620800000001
  0
ARC
  5
8F6
  8
_________1
 62
     7
 10
3.1468560000000001
 20
254.23142000000001
 30
0.0
 40
1.3691990000000001
 50
33.705201000000002
 51
53.334193999999997
  0
LINE
  5
8F7
  8
_________1
 62
     7
 10
1.809199999999999
 20
255.37100000000001
 30
0.0
 11
1.809199999999999
 21
254.244
 31
0.0
  0
ARC
  5
8F8
  8
_________1
 62
     7
 10
-2.7673349999999992
 20
254.285437
 30
0.0
 40
3.205109999999999
 50
288.358069
 51
341.56901199999999
  0
ARC
  5
8F9
  8
_________1
 62
     7
 10
-2.6858270000000002
 20
254.28555800000001
 30
0.0
 40
3.2063479999999989
 50
198.374022
 51
251.562802
  0
ARC
  5
8FA
  8
_________1
 62
     7
 10
-2.6875569999999991
 20
254.20377300000001
 30
0.0
 40
3.2051910000000001
 50
108.36606999999999
 51
161.57068899999999
  0
ARC
  5
8FB
  8
_________1
 62
     7
 10
-2.7690639999999989
 20
254.20335
 30
0.0
 40
3.2065929999999998
 50
18.373760999999998
 51
71.553293000000011
  0
ARC
  5
8FC
  8
_________1
 62
     7
 10
-2.7276720000000001
 20
254.24448599999999
 30
0.0
 40
2.6613540000000002
 50
0.00001
 51
89.999980000000008
  0
ARC
  5
8FD
  8
_________1
 62
     7
 10
-2.7276709999999991
 20
254.24448599999999
 30
0.0
 40
2.6613540000000002
 50
90.0
 51
179.99996999999999
  0
ARC
  5
8FE
  8
_________1
 62
     7
 10
-2.7276720000000001
 20
254.24448599999999
 30
0.0
 40
2.6613530000000001
 50
179.99996999999999
 51
270.00002000000001
  0
ARC
  5
8FF
  8
_________1
 62
     7
 10
-2.7276720000000001
 20
254.24448699999999
 30
0.0
 40
2.6613540000000002
 50
270.00002000000001
 51
359.99999000000003
  0
ARC
  5
900
  8
_________1
 62
     7
 10
-2.8079999999999998
 20
254.16398000000001
 30
0.0
 40
2.1819570000000001
 50
2.1145019999999999
 51
87.890187000000012
  0
ARC
  5
901
  8
_________1
 62
     7
 10
-2.6471680000000002
 20
254.164162
 30
0.0
 40
2.1817820000000001
 50
92.114576000000014
 51
177.890095
  0
ARC
  5
902
  8
_________1
 62
     7
 10
-2.647011
 20
254.32496800000001
 30
0.0
 40
2.1819449999999998
 50
182.11387699999989
 51
267.88145300000002
  0
ARC
  5
903
  8
_________1
 62
     7
 10
-2.8081770000000001
 20
254.32517100000001
 30
0.0
 40
2.1821410000000001
 50
272.11429100000009
 51
357.88101899999998
  0
LINE
  5
904
  8
_________1
  6
AIGENLINE001
 62
     7
 10
-2.7934700000000001
 20
244.67099999999999
 30
0.0
 11
-2.7934700000000001
 21
263.822
 31
0.0
  0
LINE
  5
905
  8
_________1
 62
     7
 10
-43.531300000000002
 20
249.441
 30
0.0
 11
-43.854399999999998
 21
249.708
 31
0.0
  0
LINE
  5
906
  8
_________1
 62
     7
 10
-41.601300000000002
 20
249.708
 30
0.0
 11
-41.924500000000002
 21
249.441
 31
0.0
  0
LINE
  5
907
  8
_________1
 62
     7
 10
-42.727899999999991
 20
249.708
 30
0.0
 11
-43.854399999999998
 21
249.708
 31
0.0
  0
ARC
  5
908
  8
_________1
 62
     7
 10
-42.733196999999997
 20
248.882306
 30
0.0
 40
2.5583770000000001
 50
70.510021999999992
 51
89.881244999999993
  0
ARC
  5
909
  8
_________1
 62
     7
 10
-42.373541000000003
 20
249.955096
 30
0.0
 40
1.4271869999999991
 50
64.469624999999994
 51
69.752041000000006
  0
ARC
  5
90A
  8
_________1
 62
     7
 10
-44.615090999999993
 20
250.55921000000001
 30
0.0
 40
1.141839
 50
311.771049
 51
36.858646
  0
ARC
  5
90B
  8
_________1
 62
     7
 10
-40.843024
 20
250.55953600000001
 30
0.0
 40
1.1423700000000001
 50
143.257262
 51
228.223748
  0
LINE
  5
90C
  8
_________1
 62
     7
 10
-41.924500000000002
 20
249.441
 30
0.0
 11
-43.531300000000002
 21
249.441
 31
0.0
  0
ARC
  5
90D
  8
_________1
 62
     7
 10
-42.727722
 20
254.269409
 30
0.0
 40
7.077685999999999
 50
263.9409609999999
 51
276.05905899999999
  0
ARC
  5
90E
  8
_________1
 62
     7
 10
-42.656778000000003
 20
248.37046699999999
 30
0.0
 40
1.4022769999999991
 50
148.524235
 51
234.330828
  0
ARC
  5
90F
  8
_________1
 62
     7
 10
-42.723267999999997
 20
248.352509
 30
0.0
 40
1.3558699999999999
 50
126.58020999999999
 51
146.4094659999999
  0
ARC
  5
910
  8
_________1
 62
     7
 10
-42.801240999999997
 20
248.34507500000001
 30
0.0
 40
1.4037109999999999
 50
325.624415
 51
51.347673
  0
ARC
  5
911
  8
_________1
 62
     7
 10
-42.726533000000003
 20
248.35594
 30
0.0
 40
1.349154999999999
 50
303.52789100000001
 51
323.45174100000003
  0
LINE
  5
912
  8
_________1
 62
     7
 10
-41.601300000000002
 20
249.708
 30
0.0
 11
-42.727899999999991
 21
249.708
 31
0.0
  0
ARC
  5
913
  8
_________1
 62
     7
 10
-42.72260099999999
 20
248.88232500000001
 30
0.0
 40
2.5583580000000001
 50
90.118542000000005
 51
109.49003
  0
ARC
  5
914
  8
_________1
 62
     7
 10
-43.082716999999988
 20
249.95625899999999
 30
0.0
 40
1.4259349999999991
 50
110.24663099999999
 51
115.53348699999999
  0
LINE
  5
915
  8
_________1
 62
     7
 10
-47.531100000000002
 20
255.048
 30
0.0
 11
-47.264800000000001
 21
255.37100000000001
 31
0.0
  0
LINE
  5
916
  8
_________1
 62
     7
 10
-47.264800000000001
 20
253.11799999999999
 30
0.0
 11
-47.531100000000002
 21
253.441
 31
0.0
  0
LINE
  5
917
  8
_________1
 62
     7
 10
-47.264800000000001
 20
254.244
 30
0.0
 11
-47.264800000000001
 21
255.37100000000001
 31
0.0
  0
ARC
  5
918
  8
_________1
 62
     7
 10
-48.064815000000003
 20
254.245835
 30
0.0
 40
2.5332849999999989
 50
340.57979599999999
 51
359.96950800000002
  0
ARC
  5
919
  8
_________1
 62
     7
 10
-47.023478999999988
 20
253.89562799999999
 30
0.0
 40
1.434841
 50
334.38768800000003
 51
339.94264199999998
  0
ARC
  5
91A
  8
_________1
 62
     7
 10
-46.412878999999997
 20
256.13204300000001
 30
0.0
 40
1.142296999999999
 50
221.77479600000001
 51
306.84473300000002
  0
ARC
  5
91B
  8
_________1
 62
     7
 10
-46.41289299999999
 20
252.35967299999999
 30
0.0
 40
1.142525999999999
 50
53.27088599999999
 51
138.21138400000001
  0
LINE
  5
91C
  8
_________1
 62
     7
 10
-47.531100000000002
 20
253.441
 30
0.0
 11
-47.531100000000002
 21
255.048
 31
0.0
  0
ARC
  5
91D
  8
_________1
 62
     7
 10
-42.699299000000003
 20
254.244573
 30
0.0
 40
7.0816910000000002
 50
173.943669
 51
186.056331
  0
ARC
  5
91E
  8
_________1
 62
     7
 10
-48.601480000000002
 20
254.17156800000001
 30
0.0
 40
1.404061
 50
58.57309200000001
 51
144.28389100000001
  0
ARC
  5
91F
  8
_________1
 62
     7
 10
-48.629275
 20
254.231549
 30
0.0
 40
1.3684769999999991
 50
36.630806
 51
56.269995000000002
  0
ARC
  5
920
  8
_________1
 62
     7
 10
-48.627192000000001
 20
254.317554
 30
0.0
 40
1.403448
 50
235.61996199999999
 51
321.35367100000002
  0
ARC
  5
921
  8
_________1
 62
     7
 10
-48.605207999999998
 20
254.25535199999999
 30
0.0
 40
1.365564
 50
213.687219
 51
233.3844
  0
LINE
  5
922
  8
_________1
 62
     7
 10
-47.264800000000001
 20
253.11799999999999
 30
0.0
 11
-47.264800000000001
 21
254.244
 31
0.0
  0
ARC
  5
923
  8
_________1
 62
     7
 10
-48.066464000000003
 20
254.24313599999999
 30
0.0
 40
2.5349330000000001
 50
0.030521
 51
19.413826
  0
ARC
  5
924
  8
_________1
 62
     7
 10
-47.022102999999987
 20
254.594517
 30
0.0
 40
1.433243
 50
20.042743000000002
 51
25.606278
  0
LINE
  5
925
  8
_________1
 62
     7
 10
-41.924100000000003
 20
259.048
 30
0.0
 11
-41.601300000000002
 21
258.78100000000001
 31
0.0
  0
LINE
  5
926
  8
_________1
 62
     7
 10
-43.854399999999998
 20
258.78100000000001
 30
0.0
 11
-43.531300000000002
 21
259.048
 31
0.0
  0
LINE
  5
927
  8
_________1
 62
     7
 10
-42.727899999999991
 20
258.78100000000001
 30
0.0
 11
-41.601300000000002
 21
258.78100000000001
 31
0.0
  0
ARC
  5
928
  8
_________1
 62
     7
 10
-42.722588000000002
 20
259.60486100000003
 30
0.0
 40
2.556570999999999
 50
250.49586400000001
 51
269.881077
  0
ARC
  5
929
  8
_________1
 62
     7
 10
-43.079815000000004
 20
258.53822100000002
 30
0.0
 40
1.4319999999999991
 50
244.453734
 51
249.71978799999999
  0
ARC
  5
92A
  8
_________1
 62
     7
 10
-40.841062999999998
 20
257.929799
 30
0.0
 40
1.1415690000000001
 50
131.758599
 51
216.871095
  0
ARC
  5
92B
  8
_________1
 62
     7
 10
-44.612419000000003
 20
257.92989
 30
0.0
 40
1.1422600000000001
 50
323.23559799999998
 51
48.195771999999998
  0
LINE
  5
92C
  8
_________1
 62
     7
 10
-43.531300000000002
 20
259.048
 30
0.0
 11
-41.924100000000003
 21
259.048
 31
0.0
  0
ARC
  5
92D
  8
_________1
 62
     7
 10
-42.727722
 20
254.21973600000001
 30
0.0
 40
7.077685999999999
 50
83.940941000000024
 51
96.059039000000013
  0
ARC
  5
92E
  8
_________1
 62
     7
 10
-42.798791999999992
 20
260.11869000000002
 30
0.0
 40
1.4024799999999991
 50
328.5204950000001
 51
54.330471999999993
  0
ARC
  5
92F
  8
_________1
 62
     7
 10
-42.737217000000001
 20
260.14180499999998
 30
0.0
 40
1.363024999999999
 50
306.62090699999999
 51
326.339698
  0
ARC
  5
930
  8
_________1
 62
     7
 10
-42.656033000000001
 20
260.143776
 30
0.0
 40
1.4025540000000001
 50
145.58604199999999
 51
231.38757100000001
  0
ARC
  5
931
  8
_________1
 62
     7
 10
-42.718994999999993
 20
260.12343399999997
 30
0.0
 40
1.363114999999999
 50
123.656524
 51
143.38439600000001
  0
LINE
  5
932
  8
_________1
 62
     7
 10
-43.854399999999998
 20
258.78100000000001
 30
0.0
 11
-42.727899999999991
 21
258.78100000000001
 31
0.0
  0
LINE
  5
933
  8
_________1
 62
     7
 10
-37.924399999999999
 20
253.441
 30
0.0
 11
-38.1907
 21
253.11799999999999
 31
0.0
  0
LINE
  5
934
  8
_________1
 62
     7
 10
-38.1907
 20
255.37100000000001
 30
0.0
 11
-37.924399999999999
 21
255.048
 31
0.0
  0
LINE
  5
935
  8
_________1
 62
     7
 10
-38.1907
 20
254.244
 30
0.0
 11
-38.1907
 21
253.11799999999999
 31
0.0
  0
ARC
  5
936
  8
_________1
 62
     7
 10
-42.733195000000002
 20
259.60551099999998
 30
0.0
 40
2.5572209999999989
 50
270.11876100000001
 51
289.50165199999998
  0
ARC
  5
937
  8
_________1
 62
     7
 10
-42.374328999999989
 20
258.53318400000001
 30
0.0
 40
1.426745999999999
 50
290.29281700000001
 51
295.573892
  0
ARC
  5
938
  8
_________1
 62
     7
 10
-37.393825
 20
254.24585999999999
 30
0.0
 40
2.5304329999999999
 50
180.03112999999999
 51
199.616905
  0
ARC
  5
939
  8
_________1
 62
     7
 10
-38.432425000000002
 20
253.89375899999999
 30
0.0
 40
1.4340049999999991
 50
200.29708600000001
 51
205.553192
  0
ARC
  5
93A
  8
_________1
 62
     7
 10
-37.393825
 20
254.243112
 30
0.0
 40
2.5304329999999999
 50
160.383095
 51
179.96887000000001
  0
ARC
  5
93B
  8
_________1
 62
     7
 10
-38.432425000000002
 20
254.595214
 30
0.0
 40
1.4340049999999991
 50
154.446808
 51
159.70291399999999
  0
ARC
  5
93C
  8
_________1
 62
     7
 10
-39.04250600000001
 20
252.35701
 30
0.0
 40
1.1422000000000001
 50
41.773747999999991
 51
126.83048599999999
  0
ARC
  5
93D
  8
_________1
 62
     7
 10
-39.042611000000001
 20
256.12938000000003
 30
0.0
 40
1.1426229999999991
 50
233.2566470000001
 51
318.210376
  0
LINE
  5
93E
  8
_________1
 62
     7
 10
-37.924399999999999
 20
255.048
 30
0.0
 11
-37.924399999999999
 21
253.441
 31
0.0
  0
ARC
  5
93F
  8
_________1
 62
     7
 10
-42.72499899999999
 20
254.24448599999999
 30
0.0
 40
7.0503669999999987
 50
353.91738400000003
 51
6.0826160000000007
  0
ARC
  5
940
  8
_________1
 62
     7
 10
-36.853650999999999
 20
254.315653
 30
0.0
 40
1.4024039999999991
 50
238.53319400000001
 51
324.33202199999999
  0
ARC
  5
941
  8
_________1
 62
     7
 10
-36.831173
 20
254.25357600000001
 30
0.0
 40
1.3621659999999991
 50
216.62652199999999
 51
236.363214
  0
ARC
  5
942
  8
_________1
 62
     7
 10
-36.828499999999998
 20
254.17253700000001
 30
0.0
 40
1.402663999999999
 50
55.585824000000002
 51
141.377545
  0
ARC
  5
943
  8
_________1
 62
     7
 10
-36.853366999999999
 20
254.23142000000001
 30
0.0
 40
1.3691990000000001
 50
33.705201000000002
 51
53.334193999999997
  0
LINE
  5
944
  8
_________1
 62
     7
 10
-38.1907
 20
255.37100000000001
 30
0.0
 11
-38.1907
 21
254.244
 31
0.0
  0
ARC
  5
945
  8
_________1
 62
     7
 10
-42.767902999999997
 20
254.28578200000001
 30
0.0
 40
3.2055470000000001
 50
288.36197600000003
 51
341.56510500000002
  0
ARC
  5
946
  8
_________1
 62
     7
 10
-42.685706000000003
 20
254.28555800000001
 30
0.0
 40
3.2063479999999989
 50
198.374022
 51
251.562802
  0
ARC
  5
947
  8
_________1
 62
     7
 10
-42.687196999999998
 20
254.20301699999999
 30
0.0
 40
3.2059839999999991
 50
108.365864
 51
161.56117599999999
  0
ARC
  5
948
  8
_________1
 62
     7
 10
-42.768704999999997
 20
254.20341400000001
 30
0.0
 40
3.2063479999999989
 50
18.374002000000001
 51
71.562782999999996
  0
ARC
  5
949
  8
_________1
 62
     7
 10
-42.72772299999999
 20
254.244314
 30
0.0
 40
2.6615259999999989
 50
0.003718
 51
90.003688000000025
  0
ARC
  5
94A
  8
_________1
 62
     7
 10
-42.727722
 20
254.24465799999999
 30
0.0
 40
2.661181
 50
90.003708999999986
 51
180.00371899999999
  0
ARC
  5
94B
  8
_________1
 62
     7
 10
-42.72772299999999
 20
254.244314
 30
0.0
 40
2.661179999999999
 50
179.996262
 51
269.99631099999999
  0
ARC
  5
94C
  8
_________1
 62
     7
 10
-42.72772299999999
 20
254.24465900000001
 30
0.0
 40
2.6615259999999989
 50
269.99631199999999
 51
359.99628200000001
  0
ARC
  5
94D
  8
_________1
 62
     7
 10
-42.808222999999991
 20
254.16398000000001
 30
0.0
 40
2.1819570000000001
 50
2.1145019999999999
 51
87.890187000000012
  0
ARC
  5
94E
  8
_________1
 62
     7
 10
-42.727808000000003
 20
254.24457200000001
 30
0.0
 40
2.099885
 50
90.002349999999993
 51
180.00236000000001
  0
ARC
  5
94F
  8
_________1
 62
     7
 10
-42.727808999999993
 20
254.24440000000001
 30
0.0
 40
2.099885
 50
179.99762000000001
 51
269.99767000000003
  0
ARC
  5
950
  8
_________1
 62
     7
 10
-42.808399999999999
 20
254.32517100000001
 30
0.0
 40
2.1821410000000001
 50
272.11429100000009
 51
357.88101899999998
  0
LINE
  5
951
  8
_________1
  6
AIGENLINE001
 62
     7
 10
-42.793700000000001
 20
244.67099999999999
 30
0.0
 11
-42.793700000000001
 21
263.822
 31
0.0
  0
LINE
  5
952
  8
_________1
  6
AIGENLINE001
 62
     7
 10
79.041799999999995
 20
248.744
 30
0.0
 11
79.041799999999995
 21
259.745
 31
0.0
  0
LINE
  5
953
  8
_________1
  6
AIGENLINE001
 62
     7
 10
59.041600000000003
 20
248.744
 30
0.0
 11
59.041600000000003
 21
259.745
 31
0.0
  0
LINE
  5
954
  8
_________1
  6
AIGENLINE001
 62
     7
 10
84.524400000000014
 20
254.244
 30
0.0
 11
33.541499999999999
 21
254.244
 31
0.0
  0
LINE
  5
955
  8
_________1
  6
AIGENLINE001
 62
     7
 10
39.042000000000002
 20
248.744
 30
0.0
 11
39.042000000000002
 21
259.745
 31
0.0
  0
ARC
  5
956
  8
_________1
 62
     7
 10
79.042357999999993
 20
254.244315
 30
0.0
 40
3.4997229999999999
 50
270.00283999999999
 51
0.00281
  0
ARC
  5
957
  8
_________1
 62
     7
 10
79.042357999999993
 20
254.24465799999999
 30
0.0
 40
3.5000659999999999
 50
180.00282999999999
 51
270.00283999999999
  0
ARC
  5
958
  8
_________1
 62
     7
 10
79.042445999999998
 20
254.24440000000001
 30
0.0
 40
3.5001540000000002
 50
89.998589999999993
 51
179.99856
  0
ARC
  5
959
  8
_________1
 62
     7
 10
79.042271999999997
 20
254.244744
 30
0.0
 40
3.4998089999999991
 50
359.99578000000002
 51
89.995750000000001
  0
TEXT
  5
95A
  8
_________2
 62
     7
 10
169.50999999999999
 20
112.446
 30
0.0
 40
3.9357000000000002
  1
※快適にお使いいただくためには、0.2～0.3MPa程度の圧力をおすすめします。
 41
0.5
  0
TEXT
  5
95B
  8
_________2
 62
     7
 10
169.50999999999999
 20
118.526
 30
0.0
 40
3.9357000000000002
  1
0.5MPa（流動圧）
 41
0.5
  0
TEXT
  5
95C
  8
_________2
 62
     7
 10
129.49600000000001
 20
126.148
 30
0.0
 40
3.9357000000000002
  1
給水圧力
 41
0.5
  0
TEXT
  5
95D
  8
_________2
 62
     7
 10
129.49600000000001
 20
133.91
 30
0.0
 40
3.9357000000000002
  1
用途
 41
0.5
  0
TEXT
  5
95E
  8
_________2
 62
     7
 10
169.50999999999999
 20
133.91
 30
0.0
 40
3.9357000000000002
  1
一般住宅用（屋内用）
 41
0.5
  0
LINE
  5
95F
  8
_________2
 62
     7
 10
145.64099999999999
 20
131.80199999999999
 30
0.0
 11
145.64099999999999
 21
110.46599999999999
 31
0.0
  0
LINE
  5
960
  8
_________2
 62
     7
 10
166.97200000000001
 20
139.565
 30
0.0
 11
166.97200000000001
 21
61.980800000000002
 31
0.0
  0
LINE
  5
961
  8
_________2
 62
     7
 10
290.16199999999998
 20
139.565
 30
0.0
 11
126.95699999999999
 21
139.565
 31
0.0
  0
LINE
  5
962
  8
_________2
 62
     7
 10
126.95699999999999
 20
139.565
 30
0.0
 11
126.95699999999999
 21
61.980800000000002
 31
0.0
  0
LINE
  5
963
  8
_________2
 62
     7
 10
126.95699999999999
 20
61.980800000000002
 30
0.0
 11
290.16199999999998
 21
61.980800000000002
 31
0.0
  0
LINE
  5
964
  8
_________2
 62
     7
 10
290.16199999999998
 20
61.980800000000002
 30
0.0
 11
290.16199999999998
 21
139.565
 31
0.0
  0
TEXT
  5
965
  8
_________2
 62
     7
 10
147.41499999999999
 20
126.148
 30
0.0
 40
3.9357000000000002
  1
最低必要水圧
 41
0.5
  0
TEXT
  5
966
  8
_________2
 62
     7
 10
169.50999999999999
 20
126.148
 30
0.0
 40
3.9357000000000002
  1
0.1MPa（流動圧）
 41
0.5
  0
LINE
  5
967
  8
_________2
 62
     7
 10
126.95699999999999
 20
131.80199999999999
 30
0.0
 11
290.16199999999998
 21
131.80199999999999
 31
0.0
  0
TEXT
  5
968
  8
_________2
 62
     7
 10
129.49600000000001
 20
104.81100000000001
 30
0.0
 40
3.9357000000000002
  1
使用可能水質
 41
0.5
  0
TEXT
  5
969
  8
_________2
 62
     7
 10
169.50999999999999
 20
104.81100000000001
 30
0.0
 40
3.9357000000000002
  1
水道水
 41
0.5
  0
LINE
  5
96A
  8
_________2
 62
     7
 10
126.95699999999999
 20
110.46599999999999
 30
0.0
 11
290.16199999999998
 21
110.46599999999999
 31
0.0
  0
TEXT
  5
96B
  8
_________2
 62
     7
 10
147.41499999999999
 20
118.526
 30
0.0
 40
3.9357000000000002
  1
最高水圧
 41
0.5
  0
LINE
  5
96C
  8
_________2
 62
     7
 10
145.64099999999999
 20
124.04000000000001
 30
0.0
 11
290.16199999999998
 21
124.04000000000001
 31
0.0
  0
TEXT
  5
96D
  8
_________2
 62
     7
 10
129.49600000000001
 20
97.1892
 30
0.0
 40
3.9357000000000002
  1
使用環境温度
 41
0.5
  0
TEXT
  5
96E
  8
_________2
 62
     7
 10
129.49600000000001
 20
83.615099999999998
 30
0.0
 40
3.9357000000000002
  1
最高給湯温度
 41
0.5
  0
TEXT
  5
96F
  8
_________2
 62
     7
 10
129.49600000000001
 20
69.912499999999994
 30
0.0
 40
3.9357000000000002
  1
特記事項
 41
0.5
  0
TEXT
  5
970
  8
_________2
 62
     7
 10
169.50999999999999
 20
91.108900000000006
 30
0.0
 40
3.9357000000000002
  1
※寒冷地仕様ではありません、凍結が予想される場合は凍結予防をしてください。
 41
0.5
  0
TEXT
  5
971
  8
_________2
 62
     7
 10
169.50999999999999
 20
97.1892
 30
0.0
 40
3.9357000000000002
  1
1～40℃
 41
0.5
  0
LINE
  5
972
  8
_________2
 62
     7
 10
126.95699999999999
 20
102.703
 30
0.0
 11
290.16199999999998
 21
102.703
 31
0.0
  0
TEXT
  5
973
  8
_________2
 62
     7
 10
169.50999999999999
 20
77.534800000000004
 30
0.0
 40
3.9357000000000002
  1
※安全のため給湯温度は60℃以下でのご使用をおすすめします。
 41
0.5
  0
TEXT
  5
974
  8
_________2
 62
     7
 10
169.50999999999999
 20
83.615099999999998
 30
0.0
 40
3.9357000000000002
  1
65℃
 41
0.5
  0
TEXT
  5
975
  8
_________2
 62
     7
 10
169.50999999999999
 20
63.8322
 30
0.0
 40
3.9357000000000002
  1
（2）湯水を逆に配管しないでください。
 41
0.5
  0
TEXT
  5
976
  8
_________2
 62
     7
 10
169.50999999999999
 20
69.912499999999994
 30
0.0
 40
3.9357000000000002
  1
（1）水圧は湯水ほぼ同圧、且つ湯圧が水圧より高くならないように設定してください。
 41
0.5
  0
LINE
  5
977
  8
_________2
 62
     7
 10
126.95699999999999
 20
89.128999999999976
 30
0.0
 11
290.16199999999998
 21
89.128999999999976
 31
0.0
  0
LINE
  5
978
  8
_________2
 62
     7
 10
126.95699999999999
 20
75.554900000000004
 30
0.0
 11
290.16199999999998
 21
75.554900000000004
 31
0.0
  0
LINE
  5
979
  8
_________2
 62
     7
 10
244.56100000000001
 20
280.15800000000002
 30
0.0
 11
244.56100000000001
 21
252.15799999999999
 31
0.0
  0
LINE
  5
97A
  8
_________2
 62
     7
 10
269.87700000000001
 20
280.15800000000002
 30
0.0
 11
269.87700000000001
 21
252.15799999999999
 31
0.0
  0
TEXT
  5
97B
  8
_________2
 62
     7
 10
278.65833466666658
 20
254.309
 30
0.0
 40
3.3734599999999988
  1
クロム
 41
0.5
 72
     1
 11
281.58199999999999
 21
254.309
 31
0.0
  0
TEXT
  5
97C
  8
_________2
 62
     7
 10
249.4090325
 20
254.309
 30
0.0
 40
3.3734599999999988
  1
HR2260T-CH
 41
0.5
 72
     1
 11
257.42099999999999
 21
254.309
 31
0.0
  0
LINE
  5
97D
  8
_________2
 62
     7
 10
244.56100000000001
 20
252.15799999999999
 30
0.0
 11
293.459
 21
252.15799999999999
 31
0.0
  0
TEXT
  5
97E
  8
_________2
 62
     7
 10
272.69855533333327
 20
268.30900000000003
 30
0.0
 40
3.3734599999999988
  1
アンティークブラス
 41
0.5
 72
     1
 11
281.58199999999999
 21
268.30900000000003
 31
0.0
  0
TEXT
  5
97F
  8
_________2
 62
     7
 10
249.4090325
 20
268.30900000000003
 30
0.0
 40
3.3734599999999988
  1
HR2260T-AB
 41
0.5
 72
     1
 11
257.42099999999999
 21
268.30900000000003
 31
0.0
  0
LINE
  5
980
  8
_________2
 62
     7
 10
244.56100000000001
 20
266.15800000000002
 30
0.0
 11
293.459
 21
266.15800000000002
 31
0.0
  0
TEXT
  5
981
  8
_________2
 62
     7
 10
278.77078333333333
 20
261.30900000000003
 30
0.0
 40
3.3734599999999988
  1
ブラス
 41
0.5
 72
     1
 11
281.58199999999999
 21
261.30900000000003
 31
0.0
  0
TEXT
  5
982
  8
_________2
 62
     7
 10
279.7828213333334
 20
275.30900000000003
 30
0.0
 40
3.3734599999999988
  1
仕上
 41
0.5
 72
     1
 11
281.58199999999999
 21
275.30900000000003
 31
0.0
  0
TEXT
  5
983
  8
_________2
 62
     7
 10
249.4090325
 20
261.30900000000003
 30
0.0
 40
3.3734599999999988
  1
HR2260T-PB
 41
0.5
 72
     1
 11
257.42099999999999
 21
261.30900000000003
 31
0.0
  0
TEXT
  5
984
  8
_________2
 62
     7
 10
255.62182133333329
 20
275.30900000000003
 30
0.0
 40
3.3734599999999988
  1
品番
 41
0.5
 72
     1
 11
257.42099999999999
 21
275.30900000000003
 31
0.0
  0
LINE
  5
985
  8
_________2
 62
     7
 10
244.56100000000001
 20
259.15800000000002
 30
0.0
 11
293.459
 21
259.15800000000002
 31
0.0
  0
LINE
  5
986
  8
_________2
 62
     7
 10
244.56100000000001
 20
273.15800000000002
 30
0.0
 11
293.459
 21
273.15800000000002
 31
0.0
  0
TEXT
  5
987
  8
_________2
 62
     7
 10
244.56100000000001
 20
246.55799999999999
 30
0.0
 40
3.3734599999999988
  1
注：色番号はカタログを参照ください
 41
0.5
  0
TEXT
  5
988
  8
_________2
 62
     7
 10
200.4570586666666
 20
34.465299999999999
 30
0.0
 40
3.6545800000000002
  1
1 ： 5
 41
0.5
 72
     1
 11
203.86799999999999
 21
34.465299999999999
 31
0.0
  0
TEXT
  5
989
  8
_________2
 62
     7
 10
246.570525
 20
30.3553
 30
0.0
 40
3.9357000000000002
  1
図中の表参照
 41
0.5
 72
     1
 11
253.458
 21
30.3553
 31
0.0
  0
TEXT
  5
98A
  8
_________2
 62
     7
 10
149.3328003333333
 20
34.850499999999997
 30
0.0
 40
3.6545800000000002
  1
井田
 41
0.5
 72
     1
 11
151.221
 21
34.850499999999997
 31
0.0
  0
TEXT
  5
98B
  8
_________2
 62
     7
 10
130.69789066666669
 20
34.850499999999997
 30
0.0
 40
3.6545800000000002
  1
恋塚
 41
0.5
 72
     1
 11
132.64699999999999
 21
34.850499999999997
 31
0.0
  0
TEXT
  5
98C
  8
_________2
 62
     7
 10
177.69399999999999
 20
34.465299999999999
 30
0.0
 40
3.6545800000000002
  1
19.03.29
 41
0.5
  0
TEXT
  5
98D
  8
_________2
 62
     7
 10
290.64778333333328
 20
12.808299999999999
 30
0.0
 40
3.3734599999999988
  1
A3
 41
0.5
 72
     2
 11
293.459
 21
12.808299999999999
 31
0.0
  0
TEXT
  5
98E
  8
_________2
 62
     7
 10
134.495
 20
21.954699999999999
 30
0.0
 40
3.9357000000000002
  1
（社）日本水道協会認証品
 41
0.5
  0
LINE
  5
98F
  8
_________2
 62
     7
 10
315.209
 20
148.65899999999999
 30
0.0
 11
293.459
 21
148.65899999999999
 31
0.0
  0
LINE
  5
990
  8
_________2
 62
     7
 10
105.20699999999999
 20
17.156300000000002
 30
0.0
 11
105.20699999999999
 21
0.176045
 31
0.0
  0
LINE
  5
991
  8
_________2
 62
     7
 10
105.20699999999999
 20
297.178
 30
0.0
 11
105.20699999999999
 21
280.15800000000002
 31
0.0
  0
LINE
  5
992
  8
_________2
 62
     7
 10
-83.043899999999994
 20
148.65899999999999
 30
0.0
 11
-104.794
 21
148.65899999999999
 31
0.0
  0
INSERT
  5
993
  8
_________2
 62
     7
  2
AIGNBL03010002
 10
0.0
 20
0.0
 30
0.0
  0
TEXT
  5
994
  8
_________2
 62
     7
 10
214.51300000000001
 20
22.9269
 30
0.0
 40
3.0923400000000001
  1
図番
 41
0.5
  0
LINE
  5
995
  8
_________2
 62
     7
 10
213.458
 20
27.156099999999999
 30
0.0
 11
293.459
 21
27.156099999999999
 31
0.0
  0
TEXT
  5
996
  8
_________2
 62
     7
 10
214.51300000000001
 20
32.926699999999997
 30
0.0
 40
3.0923400000000001
  1
品番
 41
0.5
  0
TEXT
  5
997
  8
_________2
 62
     7
 10
214.51300000000001
 20
53.0655
 30
0.0
 40
3.0923400000000001
  1
名称
 41
0.5
  0
TEXT
  5
998
  8
_________2
 62
     7
 10
201.75325833333329
 20
48.069400000000002
 30
0.0
 40
3.6545800000000002
  1
mm
 41
0.5
 72
     1
 11
203.27600000000001
 21
48.069400000000002
 31
0.0
  0
TEXT
  5
999
  8
_________2
 62
     7
 10
195.55099999999999
 20
53.0655
 30
0.0
 40
3.0923400000000001
  1
単位
 41
0.5
  0
TEXT
  5
99A
  8
_________2
 62
     7
 10
195.55099999999999
 20
40.658200000000001
 30
0.0
 40
3.0923400000000001
  1
尺度
 41
0.5
  0
TEXT
  5
99B
  8
_________2
 62
     7
 10
247.0624875
 20
20.354800000000001
 30
0.0
 40
3.9357000000000002
  1
HR2260T
 41
0.5
 72
     1
 11
253.458
 21
20.354800000000001
 31
0.0
  0
TEXT
  5
99C
  8
_________2
 62
     7
 10
219.08699999999999
 20
45.473100000000002
 30
0.0
 40
3.9357000000000002
  1
エロイーズ　湯水混合水栓
 41
0.5
  0
TEXT
  5
99D
  8
_________2
 62
     7
 10
176.501
 20
40.658200000000001
 30
0.0
 40
3.0923400000000001
  1
日付
 41
0.5
  0
TEXT
  5
99E
  8
_________2
 62
     7
 10
139.547
 20
40.658200000000001
 30
0.0
 40
3.0923400000000001
  1
検図
 41
0.5
  0
TEXT
  5
99F
  8
_________2
 62
     7
 10
127.929
 20
26.4588
 30
0.0
 40
3.0923400000000001
  1
備考
 41
0.5
  0
TEXT
  5
9A0
  8
_________2
 62
     7
 10
127.929
 20
40.658200000000001
 30
0.0
 40
3.0923400000000001
  1
製図
 41
0.5
  0
TEXT
  5
9A1
  8
_________2
 62
     7
 10
133.69596533333331
 20
49.184199999999997
 30
0.0
 40
4.4979399999999989
  1
セラトレーディング株式会社
 41
0.5
 72
     1
 11
151.08799999999999
 21
49.184199999999997
 31
0.0
  0
LINE
  5
9A2
  8
_________2
 62
     7
 10
293.459
 20
17.156300000000002
 30
0.0
 11
-83.043899999999994
 21
17.156300000000002
 31
0.0
  0
LINE
  5
9A3
  8
_________2
 62
     7
 10
-83.043899999999994
 20
17.156300000000002
 30
0.0
 11
-83.043899999999994
 21
280.15800000000002
 31
0.0
  0
LINE
  5
9A4
  8
_________2
 62
     7
 10
-83.043899999999994
 20
280.15800000000002
 30
0.0
 11
293.459
 21
280.15800000000002
 31
0.0
  0
LINE
  5
9A5
  8
_________2
 62
     7
 10
293.459
 20
280.15800000000002
 30
0.0
 11
293.459
 21
17.156300000000002
 31
0.0
  0
LINE
  5
9A6
  8
_________2
 62
     7
 10
175.458
 20
30.656400000000001
 30
0.0
 11
175.458
 21
57.156199999999998
 31
0.0
  0
LINE
  5
9A7
  8
_________2
 62
     7
 10
194.458
 20
30.656400000000001
 30
0.0
 11
194.458
 21
57.156199999999998
 31
0.0
  0
LINE
  5
9A8
  8
_________2
 62
     7
 10
126.95699999999999
 20
17.156300000000002
 30
0.0
 11
126.95699999999999
 21
57.156199999999998
 31
0.0
  0
LINE
  5
9A9
  8
_________2
 62
     7
 10
213.458
 20
17.156300000000002
 30
0.0
 11
213.458
 21
57.156199999999998
 31
0.0
  0
LINE
  5
9AA
  8
_________2
 62
     7
 10
138.45699999999999
 20
30.656400000000001
 30
0.0
 11
138.45699999999999
 21
44.65659999999999
 31
0.0
  0
LINE
  5
9AB
  8
_________2
 62
     7
 10
126.95699999999999
 20
30.656400000000001
 30
0.0
 11
213.458
 21
30.656400000000001
 31
0.0
  0
LINE
  5
9AC
  8
_________2
 62
     7
 10
126.95699999999999
 20
44.65659999999999
 30
0.0
 11
213.458
 21
44.65659999999999
 31
0.0
  0
LINE
  5
9AD
  8
_________2
 62
     7
 10
213.458
 20
37.15590000000001
 30
0.0
 11
293.459
 21
37.15590000000001
 31
0.0
  0
LINE
  5
9AE
  8
_________2
 62
     7
 10
126.95699999999999
 20
57.156199999999998
 30
0.0
 11
293.459
 21
57.156199999999998
 31
0.0
  0
ENDSEC
  0
EOF
