  0
SECTION
  2
HEADER
  9
$ACADVER
  1
AC1009
  9
$INSBASE
 10
0.0
 20
0.0
 30
0.0
  9
$EXTMIN
 10
-4.7010300000000003
 20
-21.071000000000002
 30
0.0
  9
$EXTMAX
 10
205.30099999999999
 20
275.93099999999998
 30
0.0
  9
$LIMMIN
 10
0.0
 20
0.0
  9
$LIMMAX
 10
12.0
 20
9.0
  9
$ORTHOMODE
 70
     0
  9
$REGENMODE
 70
     1
  9
$FILLMODE
 70
     1
  9
$QTEXTMODE
 70
     0
  9
$MIRRTEXT
 70
     1
  9
$DRAGMODE
 70
     2
  9
$LTSCALE
 40
1.0
  9
$OSMODE
 70
    37
  9
$ATTMODE
 70
     1
  9
$TEXTSIZE
 40
0.0
  9
$TRACEWID
 40
0.05
  9
$TEXTSTYLE
  7
STANDARD
  9
$CLAYER
  8
0
  9
$CELTYPE
  6
CONTINUOUS
  9
$CECOLOR
 62
   256
  9
$DIMSCALE
 40
1.0
  9
$DIMASZ
 40
0.18
  9
$DIMEXO
 40
0.0625
  9
$DIMDLI
 40
0.38
  9
$DIMRND
 40
0.0
  9
$DIMDLE
 40
0.0
  9
$DIMEXE
 40
0.18
  9
$DIMTP
 40
0.0
  9
$DIMTM
 40
0.0
  9
$DIMTXT
 40
0.18
  9
$DIMCEN
 40
0.09
  9
$DIMTSZ
 40
0.0
  9
$DIMTOL
 70
     0
  9
$DIMLIM
 70
     0
  9
$DIMTIH
 70
     1
  9
$DIMTOH
 70
     1
  9
$DIMSE1
 70
     0
  9
$DIMSE2
 70
     0
  9
$DIMTAD
 70
     0
  9
$DIMZIN
 70
     0
  9
$DIMBLK
  1

  9
$DIMASO
 70
     1
  9
$DIMSHO
 70
     1
  9
$DIMPOST
  1

  9
$DIMAPOST
  1

  9
$DIMALT
 70
     0
  9
$DIMALTD
 70
     2
  9
$DIMALTF
 40
25.399999999999999
  9
$DIMLFAC
 40
1.0
  9
$DIMTOFL
 70
     0
  9
$DIMTVP
 40
0.0
  9
$DIMTIX
 70
     0
  9
$DIMSOXD
 70
     0
  9
$DIMSAH
 70
     0
  9
$DIMBLK1
  1

  9
$DIMBLK2
  1

  9
$DIMSTYLE
  2
STANDARD
  9
$DIMCLRD
 70
     0
  9
$DIMCLRE
 70
     0
  9
$DIMCLRT
 70
     0
  9
$DIMTFAC
 40
1.0
  9
$DIMGAP
 40
0.09
  9
$LUNITS
 70
     2
  9
$LUPREC
 70
     4
  9
$SKETCHINC
 40
0.1
  9
$FILLETRAD
 40
0.0
  9
$AUNITS
 70
     0
  9
$AUPREC
 70
     0
  9
$MENU
  1
.
  9
$ELEVATION
 40
0.0
  9
$PELEVATION
 40
0.0
  9
$THICKNESS
 40
0.0
  9
$LIMCHECK
 70
     0
  9
$BLIPMODE
 70
     0
  9
$CHAMFERA
 40
0.0
  9
$CHAMFERB
 40
0.0
  9
$SKPOLY
 70
     0
  9
$TDCREATE
 40
2444972.375
  9
$TDUPDATE
 40
2457345.2499383679
  9
$TDINDWG
 40
0.0000315856
  9
$TDUSRTIMER
 40
0.0000315856
  9
$USRTIMER
 70
     1
  9
$ANGBASE
 50
0.0
  9
$ANGDIR
 70
     0
  9
$PDMODE
 70
     0
  9
$PDSIZE
 40
0.0
  9
$PLINEWID
 40
0.0
  9
$COORDS
 70
     1
  9
$SPLFRAME
 70
     0
  9
$SPLINETYPE
 70
     6
  9
$SPLINESEGS
 70
     8
  9
$ATTDIA
 70
     1
  9
$ATTREQ
 70
     1
  9
$HANDLING
 70
     1
  9
$HANDSEED
  5
910
  9
$SURFTAB1
 70
     6
  9
$SURFTAB2
 70
     6
  9
$SURFTYPE
 70
     6
  9
$SURFU
 70
     6
  9
$SURFV
 70
     6
  9
$UCSNAME
  2

  9
$UCSORG
 10
0.0
 20
0.0
 30
0.0
  9
$UCSXDIR
 10
1.0
 20
0.0
 30
0.0
  9
$UCSYDIR
 10
0.0
 20
1.0
 30
0.0
  9
$PUCSNAME
  2

  9
$PUCSORG
 10
0.0
 20
0.0
 30
0.0
  9
$PUCSXDIR
 10
1.0
 20
0.0
 30
0.0
  9
$PUCSYDIR
 10
0.0
 20
1.0
 30
0.0
  9
$USERI1
 70
     0
  9
$USERI2
 70
     0
  9
$USERI3
 70
     0
  9
$USERI4
 70
     0
  9
$USERI5
 70
     0
  9
$USERR1
 40
0.0
  9
$USERR2
 40
0.0
  9
$USERR3
 40
0.0
  9
$USERR4
 40
0.0
  9
$USERR5
 40
0.0
  9
$WORLDVIEW
 70
     1
  9
$SHADEDGE
 70
     3
  9
$SHADEDIF
 70
    70
  9
$TILEMODE
 70
     1
  9
$MAXACTVP
 70
    48
  9
$PLIMCHECK
 70
     0
  9
$PEXTMIN
 10
1.0000000000000000E+020
 20
1.0000000000000000E+020
 30
1.0000000000000000E+020
  9
$PEXTMAX
 10
-1.0000000000000000E+020
 20
-1.0000000000000000E+020
 30
-1.0000000000000000E+020
  9
$PLIMMIN
 10
0.0
 20
0.0
  9
$PLIMMAX
 10
12.0
 20
9.0
  9
$UNITMODE
 70
     0
  9
$VISRETAIN
 70
     1
  9
$PLINEGEN
 70
     0
  9
$PSLTSCALE
 70
     1
  0
ENDSEC
  0
SECTION
  2
TABLES
  0
TABLE
  2
VPORT
 70
     1
  0
VPORT
  2
*ACTIVE
 70
     0
 10
0.0
 20
0.0
 11
1.0
 21
1.0
 12
165.7277138025147
 22
127.42999999999989
 13
0.0
 23
0.0
 14
1.0
 24
1.0
 15
0.0
 25
0.0
 16
0.0
 26
0.0
 36
1.0
 17
0.0
 27
0.0
 37
0.0
 40
283.528435666853
 41
2.1001926782273599
 42
50.0
 43
0.0
 44
0.0
 50
0.0
 51
0.0
 71
     0
 72
   100
 73
     1
 74
     1
 75
     0
 76
     0
 77
     0
 78
     0
  0
ENDTAB
  0
TABLE
  2
LTYPE
 70
     3
  0
LTYPE
  2
CONTINUOUS
 70
     0
  3
Solid line
 72
    65
 73
     0
 40
0.0
  0
LTYPE
  2
AIGENLINE001
 70
     0
  3
generate AI->DXF Converter
 72
    65
 73
     4
 40
5.8561449999999988
 49
3.5278
 49
-0.776115
 49
0.776115
 49
-0.776115
  0
LTYPE
  2
AIGENLINE002
 70
     0
  3
generate AI->DXF Converter
 72
    65
 73
     2
 40
1.5522299999999991
 49
0.776115
 49
-0.776115
  0
ENDTAB
  0
TABLE
  2
LAYER
 70
     2
  0
LAYER
  2
0
 70
     0
 62
     7
  6
CONTINUOUS
  0
LAYER
  2
_________2
 70
     0
 62
     7
  6
CONTINUOUS
  0
ENDTAB
  0
TABLE
  2
STYLE
 70
     1
  0
STYLE
  2
STANDARD
 70
     0
 40
0.0
 41
0.0
 50
0.0
 71
     0
 42
0.0
  3
TXT
  4
EXTFONT.SHX
  0
ENDTAB
  0
TABLE
  2
VIEW
 70
     0
  0
ENDTAB
  0
TABLE
  2
UCS
 70
     0
  0
ENDTAB
  0
TABLE
  2
APPID
 70
     3
  0
APPID
  2
ACAD
 70
     0
  0
APPID
  2
ACAD_NAV_VCDISPLAY
 70
     0
  0
APPID
  2
ACAD_MLEADERVER
 70
     0
  0
ENDTAB
  0
TABLE
  2
DIMSTYLE
 70
     1
  0
DIMSTYLE
  2
STANDARD
 70
     0
  3

  4

  5

  6

  7

 40
1.0
 41
0.18
 42
0.0625
 43
0.38
 44
0.18
 45
0.0
 46
0.0
 47
0.0
 48
0.0
140
0.18
141
0.09
142
0.0
143
25.399999999999999
144
1.0
145
0.0
146
1.0
147
0.09
 71
     0
 72
     0
 73
     1
 74
     1
 75
     0
 76
     0
 77
     0
 78
     0
170
     0
171
     2
172
     0
173
     0
174
     0
175
     0
176
     0
177
     0
178
     0
  0
ENDTAB
  0
ENDSEC
  0
SECTION
  2
BLOCKS
  0
BLOCK
  8
0
  2
$MODEL_SPACE
 70
     0
 10
0.0
 20
0.0
 30
0.0
  3
$MODEL_SPACE
  1

  0
ENDBLK
  5
1A
  8
0
  0
BLOCK
 67
     1
  8
0
  2
$PAPER_SPACE
 70
     0
 10
0.0
 20
0.0
 30
0.0
  3
$PAPER_SPACE
  1

  0
ENDBLK
  5
17
 67
     1
  8
0
  0
ENDSEC
  0
SECTION
  2
ENTITIES
  0
TEXT
  5
23
  8
0
 62
     7
 10
135.81296499999999
 20
98.164500000000004
 30
0.0
 40
3.0923400000000001
  1
%%c10
 41
0.5
 72
     2
 11
139.16300000000001
 21
98.164500000000004
 31
0.0
  0
TEXT
  5
24
  8
0
 62
     7
 10
177.90199999999999
 20
121.86444
 30
0.0
 40
3.0923400000000001
  1
%%c57
 50
90.0
 41
0.5
 72
     1
 11
177.90199999999999
 21
123.926
 31
0.0
  0
TEXT
  5
25
  8
0
 62
     7
 10
171.25200000000001
 20
122.545525
 30
0.0
 40
3.0923400000000001
  1
32
 50
90.0
 41
0.5
 72
     1
 11
171.25200000000001
 21
123.834
 31
0.0
  0
TEXT
  5
26
  8
0
 62
     7
 10
139.41937250000001
 20
70.124700000000004
 30
0.0
 40
3.0923400000000001
  1
70
 41
0.5
 72
     1
 11
140.57900000000001
 21
70.124700000000004
 31
0.0
  0
TEXT
  5
27
  8
0
 62
     7
 10
136.290525
 20
144.375
 30
0.0
 40
3.0923400000000001
  1
88
 41
0.5
 72
     1
 11
137.57900000000001
 21
144.375
 31
0.0
  0
TEXT
  5
28
  8
0
 62
     7
 10
22.165900000000001
 20
83.266372500000003
 30
0.0
 40
3.0923400000000001
  1
30
 50
90.0
 41
0.5
 72
     1
 11
22.165900000000001
 21
84.426000000000002
 31
0.0
  0
TEXT
  5
29
  8
0
 62
     7
 10
109.658
 20
99.675355000000025
 30
0.0
 40
3.0923400000000001
  1
138.5
 50
90.0
 41
0.5
 72
     1
 11
109.658
 21
102.51000000000001
 31
0.0
  0
TEXT
  5
2A
  8
0
 62
     7
 10
116.7
 20
104.623135
 30
0.0
 40
3.0923400000000001
  1
162
 50
90.0
 41
0.5
 72
     1
 11
116.7
 21
106.42700000000001
 31
0.0
  0
TEXT
  5
2B
  8
0
 62
     7
 10
62.565240000000003
 20
70.124700000000004
 30
0.0
 40
3.0923400000000001
  1
226
 41
0.5
 72
     1
 11
64.626800000000003
 21
70.124700000000004
 31
0.0
  0
ARC
  5
2C
  8
0
 62
     7
 10
28.599824000000002
 20
187.21063799999999
 30
0.0
 40
1.437797999999999
 50
45.084048000000003
 51
89.732722999999993
  0
ARC
  5
2D
  8
0
 62
     7
 10
28.407475999999999
 20
187.00507500000001
 30
0.0
 40
1.7192000000000001
 50
359.22003000000001
 51
45.38170499999999
  0
ARC
  5
2E
  8
0
 62
     7
 10
28.330763999999999
 20
186.989733
 30
0.0
 40
1.795771
 50
315.65545400000002
 51
359.74281200000001
  0
ARC
  5
2F
  8
0
 62
     7
 10
28.577003000000001
 20
186.80755500000001
 30
0.0
 40
1.492921999999999
 50
271.133329
 51
314.04989999999998
  0
ARC
  5
30
  8
0
 62
     7
 10
28.237400999999998
 20
186.989733
 30
0.0
 40
1.795771
 50
315.65545400000002
 51
359.74281200000001
  0
ARC
  5
31
  8
0
 62
     7
 10
28.483640000000001
 20
186.80755500000001
 30
0.0
 40
1.492921999999999
 50
271.133329
 51
314.04989999999998
  0
ARC
  5
32
  8
0
 62
     7
 10
28.519880000000001
 20
186.75254899999999
 30
0.0
 40
1.43764
 50
225.08146199999999
 51
269.732529
  0
ARC
  5
33
  8
0
 62
     7
 10
28.712456
 20
186.95843300000001
 30
0.0
 40
1.71943
 50
179.22555500000001
 51
225.38168300000001
  0
ARC
  5
34
  8
0
 62
     7
 10
28.788761999999998
 20
186.97361100000001
 30
0.0
 40
1.795598
 50
135.649978
 51
179.74274399999999
  0
ARC
  5
35
  8
0
 62
     7
 10
28.542845
 20
187.155607
 30
0.0
 40
1.4931080000000001
 50
91.138853999999995
 51
134.047156
  0
ARC
  5
36
  8
0
 62
     7
 10
28.506461999999999
 20
187.21063799999999
 30
0.0
 40
1.437797999999999
 50
45.084048000000003
 51
89.732722999999993
  0
ARC
  5
37
  8
0
 62
     7
 10
28.314114
 20
187.00507500000001
 30
0.0
 40
1.7192000000000001
 50
359.22003000000001
 51
45.38170499999999
  0
ARC
  5
38
  8
0
 62
     7
 10
81.602855999999989
 20
186.978981
 30
0.0
 40
10.666169
 50
179.985522
 51
183.26895300000001
  0
ARC
  5
39
  8
0
 62
     7
 10
74.817604000000003
 20
186.617604
 30
0.0
 40
3.8714390000000001
 50
183.65559200000001
 51
190.340248
  0
ARC
  5
3A
  8
0
 62
     7
 10
73.016733000000002
 20
186.30714399999999
 30
0.0
 40
2.0441679999999991
 50
190.83989600000001
 51
209.03807499999999
  0
ARC
  5
3B
  8
0
 62
     7
 10
81.602855999999989
 20
186.984364
 30
0.0
 40
10.666169
 50
176.73104699999999
 51
180.014478
  0
ARC
  5
3C
  8
0
 62
     7
 10
74.817604000000003
 20
187.345741
 30
0.0
 40
3.8714390000000001
 50
169.659752
 51
176.34440799999999
  0
ARC
  5
3D
  8
0
 62
     7
 10
73.016733000000002
 20
187.65620100000001
 30
0.0
 40
2.0441679999999991
 50
150.96192500000001
 51
169.16010399999999
  0
ARC
  5
3E
  8
0
 62
     7
 10
66.379116999999994
 20
188.581434
 30
0.0
 40
7.5997820000000003
 50
269.94045299999999
 51
294.158276
  0
ARC
  5
3F
  8
0
 62
     7
 10
66.376728999999997
 20
188.640683
 30
0.0
 40
7.6590280000000002
 50
245.91785100000001
 51
269.958777
  0
LINE
  5
40
  8
0
  6
AIGENLINE001
 62
     7
 10
66.370900000000006
 20
227.37899999999999
 30
0.0
 11
66.370900000000006
 21
178.87100000000001
 31
0.0
  0
LINE
  5
41
  8
0
 62
     7
 10
67.121200000000002
 20
222.98099999999999
 30
0.0
 11
65.621200000000002
 21
222.298
 31
0.0
  0
LINE
  5
42
  8
0
 62
     7
 10
67.121200000000002
 20
222.071
 30
0.0
 11
65.621200000000002
 21
221.387
 31
0.0
  0
LINE
  5
43
  8
0
 62
     7
 10
67.121200000000002
 20
221.161
 30
0.0
 11
65.621200000000002
 21
220.477
 31
0.0
  0
LINE
  5
44
  8
0
 62
     7
 10
67.121200000000002
 20
220.251
 30
0.0
 11
65.621200000000002
 21
219.56700000000001
 31
0.0
  0
LINE
  5
45
  8
0
 62
     7
 10
67.121200000000002
 20
219.34
 30
0.0
 11
65.621200000000002
 21
218.65600000000001
 31
0.0
  0
LINE
  5
46
  8
0
 62
     7
 10
67.121200000000002
 20
218.43000000000001
 30
0.0
 11
65.621200000000002
 21
217.74600000000001
 31
0.0
  0
LINE
  5
47
  8
0
 62
     7
 10
67.121200000000002
 20
217.52000000000001
 30
0.0
 11
65.621200000000002
 21
216.83600000000001
 31
0.0
  0
LINE
  5
48
  8
0
 62
     7
 10
67.121200000000002
 20
216.61000000000001
 30
0.0
 11
65.621200000000002
 21
215.92599999999999
 31
0.0
  0
LINE
  5
49
  8
0
 62
     7
 10
67.121200000000002
 20
215.69900000000001
 30
0.0
 11
65.621200000000002
 21
215.01599999999999
 31
0.0
  0
LINE
  5
4A
  8
0
 62
     7
 10
67.121200000000002
 20
214.78899999999999
 30
0.0
 11
65.621200000000002
 21
214.10499999999999
 31
0.0
  0
LINE
  5
4B
  8
0
 62
     7
 10
67.121200000000002
 20
213.87899999999999
 30
0.0
 11
65.621200000000002
 21
213.19499999999999
 31
0.0
  0
LINE
  5
4C
  8
0
 62
     7
 10
67.121200000000002
 20
212.96899999999999
 30
0.0
 11
65.621200000000002
 21
212.285
 31
0.0
  0
LINE
  5
4D
  8
0
 62
     7
 10
67.121200000000002
 20
212.059
 30
0.0
 11
65.621200000000002
 21
211.375
 31
0.0
  0
LINE
  5
4E
  8
0
 62
     7
 10
67.121200000000002
 20
211.148
 30
0.0
 11
65.621200000000002
 21
210.464
 31
0.0
  0
LINE
  5
4F
  8
0
 62
     7
 10
66.838000000000008
 20
222.98099999999999
 30
0.0
 11
66.370900000000006
 21
225.315
 31
0.0
  0
LINE
  5
50
  8
0
 62
     7
 10
65.903700000000001
 20
222.98099999999999
 30
0.0
 11
66.370900000000006
 21
225.315
 31
0.0
  0
LINE
  5
51
  8
0
 62
     7
 10
66.838000000000008
 20
222.98099999999999
 30
0.0
 11
66.838000000000008
 21
210.315
 31
0.0
  0
LINE
  5
52
  8
0
 62
     7
 10
65.903700000000001
 20
222.98099999999999
 30
0.0
 11
65.903700000000001
 21
210.315
 31
0.0
  0
LINE
  5
53
  8
0
 62
     7
 10
61.951000000000001
 20
205.63399999999999
 30
0.0
 11
61.990200000000002
 21
205.63399999999999
 31
0.0
  0
LINE
  5
54
  8
0
 62
     7
 10
61.990200000000002
 20
205.63399999999999
 30
0.0
 11
62.183799999999991
 21
205.63399999999999
 31
0.0
  0
LINE
  5
55
  8
0
 62
     7
 10
62.183799999999991
 20
205.63399999999999
 30
0.0
 11
62.542000000000002
 21
205.63399999999999
 31
0.0
  0
LINE
  5
56
  8
0
 62
     7
 10
62.542000000000002
 20
205.63399999999999
 30
0.0
 11
63.067399999999999
 21
205.63399999999999
 31
0.0
  0
LINE
  5
57
  8
0
 62
     7
 10
63.067399999999999
 20
205.63399999999999
 30
0.0
 11
63.742800000000003
 21
205.63399999999999
 31
0.0
  0
LINE
  5
58
  8
0
 62
     7
 10
63.742800000000003
 20
205.63399999999999
 30
0.0
 11
64.529799999999994
 21
205.63399999999999
 31
0.0
  0
LINE
  5
59
  8
0
 62
     7
 10
64.529799999999994
 20
205.63399999999999
 30
0.0
 11
65.375900000000001
 21
205.63399999999999
 31
0.0
  0
LINE
  5
5A
  8
0
 62
     7
 10
65.375900000000001
 20
205.63399999999999
 30
0.0
 11
66.226699999999994
 21
205.63399999999999
 31
0.0
  0
LINE
  5
5B
  8
0
 62
     7
 10
66.226699999999994
 20
205.63399999999999
 30
0.0
 11
67.0351
 21
205.63399999999999
 31
0.0
  0
LINE
  5
5C
  8
0
 62
     7
 10
67.0351
 20
205.63399999999999
 30
0.0
 11
67.821299999999994
 21
205.63399999999999
 31
0.0
  0
LINE
  5
5D
  8
0
 62
     7
 10
67.821299999999994
 20
205.63399999999999
 30
0.0
 11
68.600899999999996
 21
205.63399999999999
 31
0.0
  0
LINE
  5
5E
  8
0
 62
     7
 10
68.600899999999996
 20
205.63399999999999
 30
0.0
 11
69.323999999999998
 21
205.63399999999999
 31
0.0
  0
LINE
  5
5F
  8
0
 62
     7
 10
69.323999999999998
 20
205.63399999999999
 30
0.0
 11
69.937899999999999
 21
205.63399999999999
 31
0.0
  0
LINE
  5
60
  8
0
 62
     7
 10
69.937899999999999
 20
205.63399999999999
 30
0.0
 11
70.40100000000001
 21
205.63399999999999
 31
0.0
  0
LINE
  5
61
  8
0
 62
     7
 10
70.40100000000001
 20
205.63399999999999
 30
0.0
 11
70.688999999999993
 21
205.63399999999999
 31
0.0
  0
LINE
  5
62
  8
0
 62
     7
 10
70.688999999999993
 20
205.63399999999999
 30
0.0
 11
70.799199999999999
 21
205.63399999999999
 31
0.0
  0
LINE
  5
63
  8
0
 62
     7
 10
70.799199999999999
 20
205.63399999999999
 30
0.0
 11
70.790999999999997
 21
205.63399999999999
 31
0.0
  0
LINE
  5
64
  8
0
 62
     7
 10
58.848500000000001
 20
207.64099999999999
 30
0.0
 11
67.498500000000007
 21
207.64099999999999
 31
0.0
  0
LINE
  5
65
  8
0
 62
     7
 10
67.498500000000007
 20
207.64099999999999
 30
0.0
 11
73.892899999999983
 21
207.64099999999999
 31
0.0
  0
LINE
  5
66
  8
0
 62
     7
 10
75.871099999999998
 20
210.315
 30
0.0
 11
56.871099999999998
 21
210.315
 31
0.0
  0
LINE
  5
67
  8
0
 62
     7
 10
74.870000000000005
 20
208.643
 30
0.0
 11
57.871899999999989
 21
208.643
 31
0.0
  0
LINE
  5
68
  8
0
 62
     7
 10
68.346299999999999
 20
194.33500000000001
 30
0.0
 11
68.295699999999997
 21
194.33500000000001
 31
0.0
  0
LINE
  5
69
  8
0
 62
     7
 10
68.295699999999997
 20
194.33500000000001
 30
0.0
 11
67.934299999999993
 21
194.33500000000001
 31
0.0
  0
LINE
  5
6A
  8
0
 62
     7
 10
67.934299999999993
 20
194.33500000000001
 30
0.0
 11
67.333399999999997
 21
194.33500000000001
 31
0.0
  0
LINE
  5
6B
  8
0
 62
     7
 10
67.333399999999997
 20
194.33500000000001
 30
0.0
 11
66.586500000000001
 21
194.33500000000001
 31
0.0
  0
LINE
  5
6C
  8
0
 62
     7
 10
66.586500000000001
 20
194.33500000000001
 30
0.0
 11
65.807100000000005
 21
194.33500000000001
 31
0.0
  0
LINE
  5
6D
  8
0
 62
     7
 10
65.807100000000005
 20
194.33500000000001
 30
0.0
 11
65.113200000000006
 21
194.33500000000001
 31
0.0
  0
LINE
  5
6E
  8
0
 62
     7
 10
65.113200000000006
 20
194.33500000000001
 30
0.0
 11
64.611500000000007
 21
194.33500000000001
 31
0.0
  0
LINE
  5
6F
  8
0
 62
     7
 10
64.611500000000007
 20
194.33500000000001
 30
0.0
 11
64.376999999999995
 21
194.33500000000001
 31
0.0
  0
LINE
  5
70
  8
0
 62
     7
 10
64.376999999999995
 20
194.33500000000001
 30
0.0
 11
64.395799999999994
 21
194.33500000000001
 31
0.0
  0
LINE
  5
71
  8
0
 62
     7
 10
68.578500000000005
 20
194.33500000000001
 30
0.0
 11
64.434399999999997
 21
194.33500000000001
 31
0.0
  0
LINE
  5
72
  8
0
 62
     7
 10
64.434399999999997
 20
194.33500000000001
 30
0.0
 11
64.163600000000002
 21
194.33500000000001
 31
0.0
  0
LINE
  5
73
  8
0
 62
     7
 10
68.711799999999997
 20
194.46799999999999
 30
0.0
 11
64.317099999999996
 21
194.46799999999999
 31
0.0
  0
LINE
  5
74
  8
0
 62
     7
 10
64.317099999999996
 20
194.46799999999999
 30
0.0
 11
64.0304
 21
194.46799999999999
 31
0.0
  0
LINE
  5
75
  8
0
 62
     7
 10
70.716899999999995
 20
199.71700000000001
 30
0.0
 11
62.558
 21
199.71700000000001
 31
0.0
  0
LINE
  5
76
  8
0
 62
     7
 10
62.558
 20
199.71700000000001
 30
0.0
 11
62.024700000000003
 21
199.71700000000001
 31
0.0
  0
LINE
  5
77
  8
0
 62
     7
 10
62.024700000000003
 20
203.46100000000001
 30
0.0
 11
68.456500000000005
 21
203.46100000000001
 31
0.0
  0
LINE
  5
78
  8
0
 62
     7
 10
68.456500000000005
 20
203.46100000000001
 30
0.0
 11
70.716899999999995
 21
203.46100000000001
 31
0.0
  0
LINE
  5
79
  8
0
 62
     7
 10
61.891199999999991
 20
203.96299999999999
 30
0.0
 11
68.521000000000001
 21
203.96299999999999
 31
0.0
  0
LINE
  5
7A
  8
0
 62
     7
 10
68.521000000000001
 20
203.96299999999999
 30
0.0
 11
70.850899999999996
 21
203.96299999999999
 31
0.0
  0
LINE
  5
7B
  8
0
 62
     7
 10
61.7239
 20
205.63399999999999
 30
0.0
 11
68.600899999999996
 21
205.63399999999999
 31
0.0
  0
LINE
  5
7C
  8
0
 62
     7
 10
68.600899999999996
 20
205.63399999999999
 30
0.0
 11
71.018299999999996
 21
205.63399999999999
 31
0.0
  0
LINE
  5
7D
  8
0
 62
     7
 10
61.7911
 20
202.86000000000001
 30
0.0
 11
68.568899999999985
 21
202.86000000000001
 31
0.0
  0
LINE
  5
7E
  8
0
 62
     7
 10
68.568899999999985
 20
202.86000000000001
 30
0.0
 11
70.951499999999996
 21
202.86000000000001
 31
0.0
  0
ARC
  5
7F
  8
0
 62
     7
 10
66.860876000000005
 20
188.29127600000001
 30
0.0
 40
14.357189
 50
92.393362999999994
 51
93.525193999999999
  0
ARC
  5
80
  8
0
 62
     7
 10
66.214050999999998
 20
199.26879500000001
 30
0.0
 40
3.3607969999999998
 50
94.026084000000012
 51
98.152032999999975
  0
ARC
  5
81
  8
0
 62
     7
 10
66.101540999999983
 20
200.14232200000001
 30
0.0
 40
2.480175
 50
98.440640000000016
 51
110.547072
  0
ARC
  5
82
  8
0
 62
     7
 10
65.923856999999998
 20
200.65543500000001
 30
0.0
 40
1.9373899999999999
 50
110.952552
 51
121.63931100000001
  0
ARC
  5
83
  8
0
 62
     7
 10
65.557233999999994
 20
201.284888
 30
0.0
 40
1.2093089999999991
 50
122.49508400000001
 51
139.77966000000001
  0
ARC
  5
84
  8
0
 62
     7
 10
65.235148999999993
 20
201.586592
 30
0.0
 40
0.768883
 50
141.4485
 51
158.91489999999999
  0
ARC
  5
85
  8
0
 62
     7
 10
65.092173000000003
 20
201.64447000000001
 30
0.0
 40
0.614664
 50
159.15414199999989
 51
181.030878
  0
ARC
  5
86
  8
0
 62
     7
 10
65.098200000000006
 20
201.65374600000001
 30
0.0
 40
0.6209240000000001
 50
181.87668199999999
 51
200.80010899999999
  0
ARC
  5
87
  8
0
 62
     7
 10
65.162452999999999
 20
201.674644
 30
0.0
 40
0.688418
 50
200.52709300000001
 51
217.54450399999999
  0
ARC
  5
88
  8
0
 62
     7
 10
65.400041000000002
 20
201.841579
 30
0.0
 40
0.978602
 50
216.81724800000001
 51
236.41045
  0
ARC
  5
89
  8
0
 62
     7
 10
65.676597999999998
 20
202.18159299999999
 30
0.0
 40
1.4154749999999989
 50
234.69922700000001
 51
244.507214
  0
ARC
  5
8A
  8
0
 62
     7
 10
65.958154000000007
 20
202.745442
 30
0.0
 40
2.0456409999999989
 50
244.186116
 51
252.656901
  0
ARC
  5
8B
  8
0
 62
     7
 10
66.178481999999988
 20
203.43007900000001
 30
0.0
 40
2.7648369999999991
 50
252.527884
 51
267.73575699999998
  0
ARC
  5
8C
  8
0
 62
     7
 10
66.253685000000004
 20
204.27154200000001
 30
0.0
 40
3.6088569999999991
 50
267.07053100000002
 51
270.65724
  0
ARC
  5
8D
  8
0
 62
     7
 10
66.272456000000005
 20
203.92764099999999
 30
0.0
 40
3.264797999999999
 50
270.39706899999999
 51
283.92124799999999
  0
ARC
  5
8E
  8
0
 62
     7
 10
66.449034999999995
 20
203.04674800000001
 30
0.0
 40
2.367642
 50
284.9023390000001
 51
291.082674
  0
ARC
  5
8F
  8
0
 62
     7
 10
66.613286000000002
 20
202.62184600000001
 30
0.0
 40
1.912099
 50
291.07028200000002
 51
301.83842600000003
  0
ARC
  5
90
  8
0
 62
     7
 10
66.969875999999985
 20
202.00246100000001
 30
0.0
 40
1.198034
 50
302.976947
 51
320.34451799999999
  0
ARC
  5
91
  8
0
 62
     7
 10
67.278904999999995
 20
201.719696
 30
0.0
 40
0.7799310000000002
 50
321.84969200000012
 51
338.91444799999999
  0
ARC
  5
92
  8
0
 62
     7
 10
67.403106999999991
 20
201.65473299999999
 30
0.0
 40
0.640872
 50
340.33878399999998
 51
1.2663109999999991
  0
ARC
  5
93
  8
0
 62
     7
 10
67.454087999999985
 20
201.650316
 30
0.0
 40
0.5900270000000001
 50
1.804627999999999
 51
21.652766
  0
ARC
  5
94
  8
0
 62
     7
 10
67.336329000000006
 20
201.61143799999999
 30
0.0
 40
0.7138590000000001
 50
21.065543999999999
 51
37.513061999999998
  0
ARC
  5
95
  8
0
 62
     7
 10
67.099233999999996
 20
201.436509
 30
0.0
 40
1.008464
 50
37.193709000000013
 51
56.343218000000007
  0
ARC
  5
96
  8
0
 62
     7
 10
66.731483999999995
 20
200.945457
 30
0.0
 40
1.6213699999999991
 50
55.143195999999989
 51
74.581206999999992
  0
ARC
  5
97
  8
0
 62
     7
 10
66.498782999999989
 20
200.26188200000001
 30
0.0
 40
2.3425979999999988
 50
73.539681999999999
 51
81.175347000000002
  0
ARC
  5
98
  8
0
 62
     7
 10
66.239118000000005
 20
198.73124899999999
 30
0.0
 40
3.8950079999999998
 50
80.855018999999999
 51
84.205542000000008
  0
ARC
  5
99
  8
0
 62
     7
 10
65.677914000000001
 20
192.97769600000001
 30
0.0
 40
9.6758490000000013
 50
84.339022
 51
86.543247999999991
  0
ARC
  5
9A
  8
0
 62
     7
 10
62.472180000000002
 20
199.28153399999999
 30
0.0
 40
3.367116999999999
 50
94.979972999999987
 51
97.308014999999997
  0
ARC
  5
9B
  8
0
 62
     7
 10
62.161617999999997
 20
201.820492
 30
0.0
 40
0.8094170000000001
 50
98.364611999999994
 51
106.733761
  0
ARC
  5
9C
  8
0
 62
     7
 10
62.140554000000002
 20
201.910383
 30
0.0
 40
0.717291
 50
107.189812
 51
129.392314
  0
ARC
  5
9D
  8
0
 62
     7
 10
62.212972999999991
 20
201.797168
 30
0.0
 40
0.8508929999999999
 50
128.32281699999999
 51
143.368649
  0
ARC
  5
9E
  8
0
 62
     7
 10
62.270601999999997
 20
201.74341000000001
 30
0.0
 40
0.9292559999999999
 50
142.828791
 51
159.70182299999999
  0
ARC
  5
9F
  8
0
 62
     7
 10
62.438105999999998
 20
201.66773599999999
 30
0.0
 40
1.1126849999999999
 50
159.03926300000001
 51
169.882327
  0
ARC
  5
A0
  8
0
 62
     7
 10
62.516876000000003
 20
201.6516
 30
0.0
 40
1.1930659999999991
 50
169.784031
 51
180.873546
  0
ARC
  5
A1
  8
0
 62
     7
 10
62.422229999999999
 20
201.63918799999999
 30
0.0
 40
1.098296999999999
 50
180.30137199999999
 51
190.807322
  0
ARC
  5
A2
  8
0
 62
     7
 10
62.464041999999999
 20
201.633858
 30
0.0
 40
1.1384430000000001
 50
190.149238
 51
199.43064000000001
  0
ARC
  5
A3
  8
0
 62
     7
 10
62.381408999999998
 20
201.61424500000001
 30
0.0
 40
1.05403
 50
199.91948400000001
 51
213.89888099999999
  0
ARC
  5
A4
  8
0
 62
     7
 10
62.226131999999993
 20
201.515973
 30
0.0
 40
0.8703520000000001
 50
214.230334
 51
236.190676
  0
ARC
  5
A5
  8
0
 62
     7
 10
62.179161999999998
 20
201.463032
 30
0.0
 40
0.800285
 50
236.87578999999999
 51
271.19899600000002
  0
ARC
  5
A6
  8
0
 62
     7
 10
62.182237000000001
 20
201.45539299999999
 30
0.0
 40
0.792589
 50
270.988294
 51
308.78743600000001
  0
ARC
  5
A7
  8
0
 62
     7
 10
62.170304000000002
 20
201.48221599999999
 30
0.0
 40
0.8210059999999998
 50
308.26393100000001
 51
323.81019199999997
  0
ARC
  5
A8
  8
0
 62
     7
 10
62.072082000000002
 20
201.56368699999999
 30
0.0
 40
0.9484149999999999
 50
323.341634
 51
339.91011099999997
  0
ARC
  5
A9
  8
0
 62
     7
 10
61.917411000000001
 20
201.63246599999999
 30
0.0
 40
1.1173589999999991
 50
339.32217800000001
 51
350.034806
  0
ARC
  5
AA
  8
0
 62
     7
 10
61.791241999999997
 20
201.65033299999999
 30
0.0
 40
1.244723
 50
350.22981600000003
 51
0.8545440000000002
  0
ARC
  5
AB
  8
0
 62
     7
 10
61.744512
 20
201.64208400000001
 30
0.0
 40
1.2915939999999999
 50
1.1894839999999991
 51
10.074646
  0
ARC
  5
AC
  8
0
 62
     7
 10
61.862019999999987
 20
201.65107
 30
0.0
 40
1.1743840000000001
 50
10.645915
 51
19.657914999999999
  0
ARC
  5
AD
  8
0
 62
     7
 10
61.990133999999998
 20
201.691799
 30
0.0
 40
1.0400459999999989
 50
19.919163000000001
 51
34.168978000000003
  0
ARC
  5
AE
  8
0
 62
     7
 10
62.134247000000002
 20
201.78066200000001
 30
0.0
 40
0.8709319999999999
 50
34.656796999999997
 51
56.685346000000003
  0
ARC
  5
AF
  8
0
 62
     7
 10
62.219766999999997
 20
201.869294
 30
0.0
 40
0.7502410000000001
 50
58.425767000000008
 51
80.174436999999983
  0
ARC
  5
B0
  8
0
 62
     7
 10
61.865873999999998
 20
200.184415
 30
0.0
 40
2.4715539999999998
 50
78.756050000000002
 51
82.700772999999998
  0
ARC
  5
B1
  8
0
 62
     7
 10
70.762525999999994
 20
198.77943099999999
 30
0.0
 40
3.8689949999999991
 50
94.604119999999995
 51
96.788751000000005
  0
ARC
  5
B2
  8
0
 62
     7
 10
70.43453199999999
 20
201.673722
 30
0.0
 40
0.9563649999999999
 50
97.773539999999997
 51
105.42632500000001
  0
ARC
  5
B3
  8
0
 62
     7
 10
70.402248999999998
 20
201.817747
 30
0.0
 40
0.8089739999999999
 50
105.935659
 51
126.89444
  0
ARC
  5
B4
  8
0
 62
     7
 10
70.435734999999994
 20
201.750383
 30
0.0
 40
0.8830569999999999
 50
126.00798399999999
 51
141.103735
  0
ARC
  5
B5
  8
0
 62
     7
 10
70.446522000000002
 20
201.72878
 30
0.0
 40
0.905072
 50
140.46812499999999
 51
158.140027
  0
ARC
  5
B6
  8
0
 62
     7
 10
70.558378000000005
 20
201.66878299999999
 30
0.0
 40
1.03132
 50
157.36030099999999
 51
169.13392899999999
  0
ARC
  5
B7
  8
0
 62
     7
 10
70.724682999999999
 20
201.639509
 30
0.0
 40
1.200164999999999
 50
169.25810100000001
 51
180.29108400000001
  0
ARC
  5
B8
  8
0
 62
     7
 10
70.720181999999994
 20
201.65776099999999
 30
0.0
 40
1.1958969999999991
 50
181.16666699999999
 51
190.820582
  0
ARC
  5
B9
  8
0
 62
     7
 10
70.600001000000006
 20
201.64263099999999
 30
0.0
 40
1.0750399999999991
 50
191.231067
 51
201.127599
  0
ARC
  5
BA
  8
0
 62
     7
 10
70.533822999999984
 20
201.62104500000001
 30
0.0
 40
1.0055359999999991
 50
201.33946900000009
 51
216.25564900000001
  0
ARC
  5
BB
  8
0
 62
     7
 10
70.441252000000006
 20
201.55443
 30
0.0
 40
0.891493
 50
216.32171600000001
 51
238.685474
  0
ARC
  5
BC
  8
0
 62
     7
 10
70.445631999999975
 20
201.56777
 30
0.0
 40
0.9051719999999999
 50
238.88745
 51
271.53461700000003
  0
ARC
  5
BD
  8
0
 62
     7
 10
70.45564499999999
 20
201.57576299999999
 30
0.0
 40
0.9129509999999999
 50
270.89300200000002
 51
306.04483800000003
  0
ARC
  5
BE
  8
0
 62
     7
 10
70.46203100000001
 20
201.55817300000001
 30
0.0
 40
0.894987
 50
306.37690199999997
 51
321.20592299999998
  0
ARC
  5
BF
  8
0
 62
     7
 10
70.422459000000003
 20
201.589629
 30
0.0
 40
0.945537
 50
321.22263099999998
 51
338.16247900000002
  0
ARC
  5
C0
  8
0
 62
     7
 10
70.317166
 20
201.63674399999999
 30
0.0
 40
1.06081
 50
337.915796
 51
349.26263899999998
  0
ARC
  5
C1
  8
0
 62
     7
 10
70.193429000000009
 20
201.65626
 30
0.0
 40
1.186023
 50
349.45003200000002
 51
0.6104880000000001
  0
ARC
  5
C2
  8
0
 62
     7
 10
70.216797999999997
 20
201.64489900000001
 30
0.0
 40
1.162833999999999
 50
1.1824779999999999
 51
11.062528
  0
ARC
  5
C3
  8
0
 62
     7
 10
70.283653999999999
 20
201.648909
 30
0.0
 40
1.0964869999999991
 50
11.527229
 51
21.239847000000001
  0
ARC
  5
C4
  8
0
 62
     7
 10
70.367594999999994
 20
201.67723699999999
 30
0.0
 40
1.0079940000000001
 50
21.467572000000001
 51
36.437210999999998
  0
ARC
  5
C5
  8
0
 62
     7
 10
70.461131999999992
 20
201.74067400000001
 30
0.0
 40
0.8950759999999998
 50
36.726526999999997
 51
59.070616000000008
  0
ARC
  5
C6
  8
0
 62
     7
 10
70.500835999999993
 20
201.763779
 30
0.0
 40
0.855137
 50
60.557049999999997
 51
81.061284999999998
  0
ARC
  5
C7
  8
0
 62
     7
 10
70.111204999999998
 20
199.760291
 30
0.0
 40
2.8957689999999991
 50
79.604851999999994
 51
83.242163000000005
  0
LINE
  5
C8
  8
0
 62
     7
 10
62.526499999999999
 20
190.08699999999999
 30
0.0
 11
70.215599999999995
 21
190.08699999999999
 31
0.0
  0
LINE
  5
C9
  8
0
 62
     7
 10
61.857300000000002
 20
183.648
 30
0.0
 11
70.884299999999996
 21
183.648
 31
0.0
  0
LINE
  5
CA
  8
0
 62
     7
 10
61.6907
 20
189.386
 30
0.0
 11
71.051400000000001
 21
189.386
 31
0.0
  0
LINE
  5
CB
  8
0
 62
     7
 10
68.209900000000005
 20
193.499
 30
0.0
 11
64.531999999999996
 21
193.499
 31
0.0
  0
LINE
  5
CC
  8
0
 62
     7
 10
68.5441
 20
193.16499999999999
 30
0.0
 11
64.1982
 21
193.16499999999999
 31
0.0
  0
LINE
  5
CD
  8
0
 62
     7
 10
70.215599999999995
 20
190.08699999999999
 30
0.0
 11
66.371000000000009
 21
190.08699999999999
 31
0.0
  0
LINE
  5
CE
  8
0
 62
     7
 10
66.371000000000009
 20
190.08699999999999
 30
0.0
 11
62.526499999999999
 21
190.08699999999999
 31
0.0
  0
LINE
  5
CF
  8
0
 62
     7
 10
68.5441
 20
191.827
 30
0.0
 11
66.371000000000009
 21
191.827
 31
0.0
  0
LINE
  5
D0
  8
0
 62
     7
 10
66.371000000000009
 20
191.827
 30
0.0
 11
64.1982
 21
191.827
 31
0.0
  0
LINE
  5
D1
  8
0
 62
     7
 10
70.884299999999996
 20
183.023
 30
0.0
 11
70.884299999999996
 21
183.548
 31
0.0
  0
LINE
  5
D2
  8
0
 62
     7
 10
61.857900000000001
 20
183.548
 30
0.0
 11
61.857900000000001
 21
183.023
 31
0.0
  0
LINE
  5
D3
  8
0
 62
     7
 10
61.857900000000001
 20
183.023
 30
0.0
 11
61.857900000000001
 21
183.548
 31
0.0
  0
LINE
  5
D4
  8
0
 62
     7
 10
70.872299999999996
 20
183.023
 30
0.0
 11
70.872299999999996
 21
183.548
 31
0.0
  0
LINE
  5
D5
  8
0
 62
     7
 10
70.882599999999996
 20
183.548
 30
0.0
 11
70.882599999999996
 21
183.023
 31
0.0
  0
LINE
  5
D6
  8
0
 62
     7
 10
61.861899999999991
 20
183.023
 30
0.0
 11
61.861899999999991
 21
183.548
 31
0.0
  0
LINE
  5
D7
  8
0
 62
     7
 10
61.871699999999997
 20
183.548
 30
0.0
 11
61.871699999999997
 21
183.023
 31
0.0
  0
LINE
  5
D8
  8
0
 62
     7
 10
70.783699999999996
 20
183.648
 30
0.0
 11
70.858500000000006
 21
183.571
 31
0.0
  0
LINE
  5
D9
  8
0
 62
     7
 10
70.850200000000001
 20
183.571
 30
0.0
 11
70.768199999999993
 21
183.648
 31
0.0
  0
LINE
  5
DA
  8
0
 62
     7
 10
61.871699999999997
 20
183.023
 30
0.0
 11
61.871699999999997
 21
183.548
 31
0.0
  0
LINE
  5
DB
  8
0
 62
     7
 10
70.835400000000007
 20
183.023
 30
0.0
 11
70.835400000000007
 21
183.548
 31
0.0
  0
LINE
  5
DC
  8
0
 62
     7
 10
70.861199999999997
 20
183.548
 30
0.0
 11
70.861199999999997
 21
183.023
 31
0.0
  0
LINE
  5
DD
  8
0
 62
     7
 10
61.887700000000002
 20
183.023
 30
0.0
 11
61.887700000000002
 21
183.548
 31
0.0
  0
LINE
  5
DE
  8
0
 62
     7
 10
61.909599999999998
 20
183.548
 30
0.0
 11
61.909599999999998
 21
183.023
 31
0.0
  0
LINE
  5
DF
  8
0
 62
     7
 10
70.766499999999994
 20
183.648
 30
0.0
 11
70.835400000000007
 21
183.571
 31
0.0
  0
LINE
  5
E0
  8
0
 62
     7
 10
70.815399999999997
 20
183.571
 30
0.0
 11
70.727900000000005
 21
183.648
 31
0.0
  0
LINE
  5
E1
  8
0
 62
     7
 10
70.815399999999997
 20
183.01599999999999
 30
0.0
 11
70.815399999999997
 21
183.571
 31
0.0
  0
LINE
  5
E2
  8
0
 62
     7
 10
61.910299999999999
 20
183.023
 30
0.0
 11
61.910299999999999
 21
183.548
 31
0.0
  0
LINE
  5
E3
  8
0
 62
     7
 10
70.7744
 20
183.023
 30
0.0
 11
70.7744
 21
183.548
 31
0.0
  0
LINE
  5
E4
  8
0
 62
     7
 10
70.814700000000002
 20
183.548
 30
0.0
 11
70.814700000000002
 21
183.023
 31
0.0
  0
LINE
  5
E5
  8
0
 62
     7
 10
61.938400000000001
 20
183.023
 30
0.0
 11
61.938400000000001
 21
183.548
 31
0.0
  0
LINE
  5
E6
  8
0
 62
     7
 10
61.972799999999999
 20
183.548
 30
0.0
 11
61.972799999999999
 21
183.023
 31
0.0
  0
LINE
  5
E7
  8
0
 62
     7
 10
70.724800000000002
 20
183.648
 30
0.0
 11
70.788200000000003
 21
183.571
 31
0.0
  0
LINE
  5
E8
  8
0
 62
     7
 10
70.7744
 20
183.548
 30
0.0
 11
70.814700000000002
 21
183.548
 31
0.0
  0
LINE
  5
E9
  8
0
 62
     7
 10
70.755499999999984
 20
183.571
 30
0.0
 11
70.664199999999994
 21
183.648
 31
0.0
  0
LINE
  5
EA
  8
0
 62
     7
 10
70.755499999999984
 20
183.01599999999999
 30
0.0
 11
70.755499999999984
 21
183.571
 31
0.0
  0
LINE
  5
EB
  8
0
 62
     7
 10
61.972799999999999
 20
183.023
 30
0.0
 11
61.972799999999999
 21
183.548
 31
0.0
  0
LINE
  5
EC
  8
0
 62
     7
 10
70.688999999999993
 20
183.023
 30
0.0
 11
70.688999999999993
 21
183.548
 31
0.0
  0
LINE
  5
ED
  8
0
 62
     7
 10
70.744100000000003
 20
183.548
 30
0.0
 11
70.744100000000003
 21
183.023
 31
0.0
  0
LINE
  5
EE
  8
0
 62
     7
 10
62.012500000000003
 20
183.023
 30
0.0
 11
62.012500000000003
 21
183.548
 31
0.0
  0
LINE
  5
EF
  8
0
 62
     7
 10
62.059100000000001
 20
183.548
 30
0.0
 11
62.059100000000001
 21
183.023
 31
0.0
  0
LINE
  5
F0
  8
0
 62
     7
 10
70.659999999999997
 20
183.648
 30
0.0
 11
70.716899999999995
 21
183.571
 31
0.0
  0
LINE
  5
F1
  8
0
 62
     7
 10
70.688999999999993
 20
183.548
 30
0.0
 11
70.744100000000003
 21
183.548
 31
0.0
  0
LINE
  5
F2
  8
0
 62
     7
 10
70.6721
 20
183.571
 30
0.0
 11
70.575999999999993
 21
183.648
 31
0.0
  0
LINE
  5
F3
  8
0
 62
     7
 10
70.6721
 20
183.01599999999999
 30
0.0
 11
70.6721
 21
183.571
 31
0.0
  0
LINE
  5
F4
  8
0
 62
     7
 10
62.059699999999999
 20
183.02199999999999
 30
0.0
 11
62.059699999999999
 21
183.55000000000001
 31
0.0
  0
LINE
  5
F5
  8
0
 62
     7
 10
70.580100000000002
 20
183.023
 30
0.0
 11
70.580100000000002
 21
183.548
 31
0.0
  0
LINE
  5
F6
  8
0
 62
     7
 10
70.649000000000001
 20
183.548
 30
0.0
 11
70.649000000000001
 21
183.023
 31
0.0
  0
LINE
  5
F7
  8
0
 62
     7
 10
62.1113
 20
183.023
 30
0.0
 11
62.1113
 21
183.548
 31
0.0
  0
LINE
  5
F8
  8
0
 62
     7
 10
62.168900000000001
 20
183.548
 30
0.0
 11
62.168900000000001
 21
183.023
 31
0.0
  0
LINE
  5
F9
  8
0
 62
     7
 10
70.572199999999995
 20
183.648
 30
0.0
 11
70.621499999999983
 21
183.571
 31
0.0
  0
LINE
  5
FA
  8
0
 62
     7
 10
70.580100000000002
 20
183.548
 30
0.0
 11
70.649000000000001
 21
183.548
 31
0.0
  0
LINE
  5
FB
  8
0
 62
     7
 10
70.565299999999993
 20
183.571
 30
0.0
 11
70.465100000000007
 21
183.648
 31
0.0
  0
LINE
  5
FC
  8
0
 62
     7
 10
70.565299999999993
 20
183.01599999999999
 30
0.0
 11
70.565299999999993
 21
183.571
 31
0.0
  0
LINE
  5
FD
  8
0
 62
     7
 10
62.170099999999998
 20
183.02199999999999
 30
0.0
 11
62.170099999999998
 21
183.55000000000001
 31
0.0
  0
LINE
  5
FE
  8
0
 62
     7
 10
70.447800000000001
 20
183.023
 30
0.0
 11
70.447800000000001
 21
183.548
 31
0.0
  0
LINE
  5
FF
  8
0
 62
     7
 10
70.530900000000003
 20
183.548
 30
0.0
 11
70.530900000000003
 21
183.023
 31
0.0
  0
LINE
  5
100
  8
0
 62
     7
 10
62.232100000000003
 20
183.023
 30
0.0
 11
62.232100000000003
 21
183.548
 31
0.0
  0
LINE
  5
101
  8
0
 62
     7
 10
62.302399999999999
 20
183.548
 30
0.0
 11
62.302399999999999
 21
183.023
 31
0.0
  0
LINE
  5
102
  8
0
 62
     7
 10
70.435400000000001
 20
183.01599999999999
 30
0.0
 11
70.435400000000001
 21
183.571
 31
0.0
  0
LINE
  5
103
  8
0
 62
     7
 10
70.435400000000001
 20
183.571
 30
0.0
 11
70.332400000000007
 21
183.648
 31
0.0
  0
LINE
  5
104
  8
0
 62
     7
 10
70.4602
 20
183.648
 30
0.0
 11
70.502600000000001
 21
183.571
 31
0.0
  0
LINE
  5
105
  8
0
 62
     7
 10
70.447800000000001
 20
183.548
 30
0.0
 11
70.530900000000003
 21
183.548
 31
0.0
  0
LINE
  5
106
  8
0
 62
     7
 10
62.302700000000002
 20
183.02199999999999
 30
0.0
 11
62.302700000000002
 21
183.55000000000001
 31
0.0
  0
LINE
  5
107
  8
0
 62
     7
 10
70.293800000000005
 20
183.023
 30
0.0
 11
70.293800000000005
 21
183.548
 31
0.0
  0
LINE
  5
108
  8
0
 62
     7
 10
70.389899999999997
 20
183.548
 30
0.0
 11
70.389899999999997
 21
183.023
 31
0.0
  0
LINE
  5
109
  8
0
 62
     7
 10
70.283100000000005
 20
183.01599999999999
 30
0.0
 11
70.283100000000005
 21
183.56999999999999
 31
0.0
  0
LINE
  5
10A
  8
0
 62
     7
 10
70.283100000000005
 20
183.56999999999999
 30
0.0
 11
70.176999999999992
 21
183.648
 31
0.0
  0
LINE
  5
10B
  8
0
 62
     7
 10
70.3262
 20
183.648
 30
0.0
 11
70.361000000000004
 21
183.571
 31
0.0
  0
LINE
  5
10C
  8
0
 62
     7
 10
70.293800000000005
 20
183.548
 30
0.0
 11
70.389899999999997
 21
183.548
 31
0.0
  0
LINE
  5
10D
  8
0
 62
     7
 10
62.37639999999999
 20
183.023
 30
0.0
 11
62.37639999999999
 21
183.548
 31
0.0
  0
LINE
  5
10E
  8
0
 62
     7
 10
62.4574
 20
183.548
 30
0.0
 11
62.4574
 21
183.023
 31
0.0
  0
LINE
  5
10F
  8
0
 62
     7
 10
62.458100000000002
 20
183.02199999999999
 30
0.0
 11
62.458100000000002
 21
183.55099999999999
 31
0.0
  0
LINE
  5
110
  8
0
 62
     7
 10
70.109499999999997
 20
183.01599999999999
 30
0.0
 11
70.109499999999997
 21
183.56999999999999
 31
0.0
  0
LINE
  5
111
  8
0
 62
     7
 10
70.109499999999997
 20
183.56999999999999
 30
0.0
 11
70.001300000000001
 21
183.648
 31
0.0
  0
LINE
  5
112
  8
0
 62
     7
 10
70.170799999999986
 20
183.648
 30
0.0
 11
70.198400000000007
 21
183.56999999999999
 31
0.0
  0
LINE
  5
113
  8
0
 62
     7
 10
70.118099999999998
 20
183.023
 30
0.0
 11
70.118099999999998
 21
183.548
 31
0.0
  0
LINE
  5
114
  8
0
 62
     7
 10
70.118099999999998
 20
183.548
 30
0.0
 11
70.225999999999999
 21
183.548
 31
0.0
  0
LINE
  5
115
  8
0
 62
     7
 10
70.225999999999999
 20
183.548
 30
0.0
 11
70.225999999999999
 21
183.023
 31
0.0
  0
LINE
  5
116
  8
0
 62
     7
 10
62.541499999999999
 20
183.023
 30
0.0
 11
62.541499999999999
 21
183.548
 31
0.0
  0
LINE
  5
117
  8
0
 62
     7
 10
62.633999999999993
 20
183.548
 30
0.0
 11
62.633999999999993
 21
183.023
 31
0.0
  0
LINE
  5
118
  8
0
 62
     7
 10
62.634500000000003
 20
183.02199999999999
 30
0.0
 11
62.634500000000003
 21
183.55099999999999
 31
0.0
  0
LINE
  5
119
  8
0
 62
     7
 10
69.921400000000006
 20
183.023
 30
0.0
 11
69.921400000000006
 21
183.548
 31
0.0
  0
LINE
  5
11A
  8
0
 62
     7
 10
70.042000000000002
 20
183.548
 30
0.0
 11
70.042000000000002
 21
183.023
 31
0.0
  0
LINE
  5
11B
  8
0
 62
     7
 10
69.994399999999985
 20
183.648
 30
0.0
 11
70.014399999999995
 21
183.56999999999999
 31
0.0
  0
LINE
  5
11C
  8
0
 62
     7
 10
69.921400000000006
 20
183.548
 30
0.0
 11
70.042000000000002
 21
183.548
 31
0.0
  0
LINE
  5
11D
  8
0
 62
     7
 10
69.915199999999999
 20
183.56999999999999
 30
0.0
 11
69.805300000000003
 21
183.648
 31
0.0
  0
LINE
  5
11E
  8
0
 62
     7
 10
69.915199999999999
 20
183.01599999999999
 30
0.0
 11
69.915199999999999
 21
183.56999999999999
 31
0.0
  0
LINE
  5
11F
  8
0
 62
     7
 10
62.727699999999999
 20
183.023
 30
0.0
 11
62.727699999999999
 21
183.548
 31
0.0
  0
LINE
  5
120
  8
0
 62
     7
 10
62.830500000000001
 20
183.548
 30
0.0
 11
62.830500000000001
 21
183.023
 31
0.0
  0
LINE
  5
121
  8
0
 62
     7
 10
62.831699999999998
 20
183.02199999999999
 30
0.0
 11
62.831699999999998
 21
183.55099999999999
 31
0.0
  0
LINE
  5
122
  8
0
 62
     7
 10
69.701599999999985
 20
183.01599999999999
 30
0.0
 11
69.701599999999985
 21
183.56899999999999
 31
0.0
  0
LINE
  5
123
  8
0
 62
     7
 10
69.701599999999985
 20
183.56899999999999
 30
0.0
 11
69.590299999999999
 21
183.648
 31
0.0
  0
LINE
  5
124
  8
0
 62
     7
 10
69.798400000000001
 20
183.648
 30
0.0
 11
69.810500000000005
 21
183.56899999999999
 31
0.0
  0
LINE
  5
125
  8
0
 62
     7
 10
69.705699999999993
 20
183.023
 30
0.0
 11
69.705699999999993
 21
183.548
 31
0.0
  0
LINE
  5
126
  8
0
 62
     7
 10
69.705699999999993
 20
183.548
 30
0.0
 11
69.837400000000002
 21
183.548
 31
0.0
  0
LINE
  5
127
  8
0
 62
     7
 10
69.837400000000002
 20
183.548
 30
0.0
 11
69.837400000000002
 21
183.023
 31
0.0
  0
LINE
  5
128
  8
0
 62
     7
 10
62.933500000000002
 20
183.023
 30
0.0
 11
62.933500000000002
 21
183.548
 31
0.0
  0
LINE
  5
129
  8
0
 62
     7
 10
63.047199999999989
 20
183.548
 30
0.0
 11
63.047199999999989
 21
183.023
 31
0.0
  0
LINE
  5
12A
  8
0
 62
     7
 10
63.047899999999998
 20
183.02199999999999
 30
0.0
 11
63.047899999999998
 21
183.55199999999999
 31
0.0
  0
LINE
  5
12B
  8
0
 62
     7
 10
69.469399999999993
 20
183.01599999999999
 30
0.0
 11
69.469399999999993
 21
183.56899999999999
 31
0.0
  0
LINE
  5
12C
  8
0
 62
     7
 10
69.469399999999993
 20
183.56899999999999
 30
0.0
 11
69.358099999999993
 21
183.648
 31
0.0
  0
LINE
  5
12D
  8
0
 62
     7
 10
69.583799999999997
 20
183.648
 30
0.0
 11
69.587199999999996
 21
183.56899999999999
 31
0.0
  0
LINE
  5
12E
  8
0
 62
     7
 10
69.472499999999997
 20
183.023
 30
0.0
 11
69.472499999999997
 21
183.548
 31
0.0
  0
LINE
  5
12F
  8
0
 62
     7
 10
69.472499999999997
 20
183.548
 30
0.0
 11
69.613799999999998
 21
183.548
 31
0.0
  0
LINE
  5
130
  8
0
 62
     7
 10
69.613799999999998
 20
183.548
 30
0.0
 11
69.613799999999998
 21
183.023
 31
0.0
  0
LINE
  5
131
  8
0
 62
     7
 10
63.158299999999997
 20
183.023
 30
0.0
 11
63.158299999999997
 21
183.548
 31
0.0
  0
LINE
  5
132
  8
0
 62
     7
 10
63.281100000000002
 20
183.548
 30
0.0
 11
63.281100000000002
 21
183.023
 31
0.0
  0
LINE
  5
133
  8
0
 62
     7
 10
63.282299999999999
 20
183.02199999999999
 30
0.0
 11
63.282299999999999
 21
183.55199999999999
 31
0.0
  0
LINE
  5
134
  8
0
 62
     7
 10
69.351600000000005
 20
183.56399999999999
 30
0.0
 11
69.351600000000005
 21
183.648
 31
0.0
  0
LINE
  5
135
  8
0
 62
     7
 10
69.351600000000005
 20
182.976
 30
0.0
 11
69.351600000000005
 21
183.017
 31
0.0
  0
LINE
  5
136
  8
0
 62
     7
 10
63.400100000000002
 20
182.98599999999999
 30
0.0
 11
63.400100000000002
 21
183.637
 31
0.0
  0
LINE
  5
137
  8
0
 62
     7
 10
69.221400000000003
 20
183.017
 30
0.0
 11
69.221400000000003
 21
183.56800000000001
 31
0.0
  0
LINE
  5
138
  8
0
 62
     7
 10
69.221400000000003
 20
183.56800000000001
 30
0.0
 11
69.108400000000003
 21
183.648
 31
0.0
  0
LINE
  5
139
  8
0
 62
     7
 10
69.351600000000005
 20
183.648
 30
0.0
 11
69.347099999999983
 21
183.56800000000001
 31
0.0
  0
LINE
  5
13A
  8
0
 62
     7
 10
69.221400000000003
 20
183.023
 30
0.0
 11
69.221400000000003
 21
183.548
 31
0.0
  0
LINE
  5
13B
  8
0
 62
     7
 10
69.221400000000003
 20
183.548
 30
0.0
 11
69.371899999999997
 21
183.548
 31
0.0
  0
LINE
  5
13C
  8
0
 62
     7
 10
69.371899999999997
 20
183.548
 30
0.0
 11
69.371899999999997
 21
183.023
 31
0.0
  0
LINE
  5
13D
  8
0
 62
     7
 10
63.400100000000002
 20
183.023
 30
0.0
 11
63.400100000000002
 21
183.548
 31
0.0
  0
LINE
  5
13E
  8
0
 62
     7
 10
63.533000000000001
 20
183.548
 30
0.0
 11
63.533000000000001
 21
183.023
 31
0.0
  0
LINE
  5
13F
  8
0
 62
     7
 10
63.533000000000001
 20
183.02000000000001
 30
0.0
 11
63.533000000000001
 21
183.553
 31
0.0
  0
LINE
  5
140
  8
0
 62
     7
 10
69.103499999999997
 20
183.55600000000001
 30
0.0
 11
69.103499999999997
 21
183.648
 31
0.0
  0
LINE
  5
141
  8
0
 62
     7
 10
69.103499999999997
 20
182.976
 30
0.0
 11
69.103499999999997
 21
183.01900000000001
 31
0.0
  0
LINE
  5
142
  8
0
 62
     7
 10
63.650300000000001
 20
182.98500000000001
 30
0.0
 11
63.650300000000001
 21
183.63800000000001
 31
0.0
  0
LINE
  5
143
  8
0
 62
     7
 10
68.956100000000006
 20
183.56700000000001
 30
0.0
 11
68.844499999999996
 21
183.648
 31
0.0
  0
LINE
  5
144
  8
0
 62
     7
 10
69.103499999999997
 20
183.648
 30
0.0
 11
69.090100000000007
 21
183.56800000000001
 31
0.0
  0
LINE
  5
145
  8
0
 62
     7
 10
68.955100000000002
 20
183.023
 30
0.0
 11
68.955100000000002
 21
183.548
 31
0.0
  0
LINE
  5
146
  8
0
 62
     7
 10
68.955100000000002
 20
183.548
 30
0.0
 11
69.114199999999997
 21
183.548
 31
0.0
  0
LINE
  5
147
  8
0
 62
     7
 10
69.114199999999997
 20
183.548
 30
0.0
 11
69.114199999999997
 21
183.023
 31
0.0
  0
LINE
  5
148
  8
0
 62
     7
 10
63.799799999999991
 20
183.548
 30
0.0
 11
63.799799999999991
 21
183.023
 31
0.0
  0
LINE
  5
149
  8
0
 62
     7
 10
63.6584
 20
183.023
 30
0.0
 11
63.6584
 21
183.548
 31
0.0
  0
LINE
  5
14A
  8
0
 62
     7
 10
68.840699999999998
 20
183.548
 30
0.0
 11
68.840699999999998
 21
183.648
 31
0.0
  0
LINE
  5
14B
  8
0
 62
     7
 10
68.840699999999998
 20
182.977
 30
0.0
 11
68.840699999999998
 21
183.023
 31
0.0
  0
LINE
  5
14C
  8
0
 62
     7
 10
63.915399999999991
 20
182.98500000000001
 30
0.0
 11
63.915399999999991
 21
183.63800000000001
 31
0.0
  0
LINE
  5
14D
  8
0
 62
     7
 10
68.678100000000001
 20
183.56700000000001
 30
0.0
 11
68.566400000000002
 21
183.648
 31
0.0
  0
LINE
  5
14E
  8
0
 62
     7
 10
68.839600000000004
 20
183.648
 30
0.0
 11
68.818299999999994
 21
183.56700000000001
 31
0.0
  0
LINE
  5
14F
  8
0
 62
     7
 10
68.674999999999983
 20
183.023
 30
0.0
 11
68.674999999999983
 21
183.548
 31
0.0
  0
LINE
  5
150
  8
0
 62
     7
 10
68.674999999999983
 20
183.548
 30
0.0
 11
68.840699999999998
 21
183.548
 31
0.0
  0
LINE
  5
151
  8
0
 62
     7
 10
68.840699999999998
 20
183.548
 30
0.0
 11
68.840699999999998
 21
183.023
 31
0.0
  0
LINE
  5
152
  8
0
 62
     7
 10
64.081400000000002
 20
183.548
 30
0.0
 11
64.081400000000002
 21
183.023
 31
0.0
  0
LINE
  5
153
  8
0
 62
     7
 10
63.931399999999989
 20
183.023
 30
0.0
 11
63.931399999999989
 21
183.548
 31
0.0
  0
LINE
  5
154
  8
0
 62
     7
 10
68.563299999999984
 20
182.977
 30
0.0
 11
68.563299999999984
 21
183.648
 31
0.0
  0
LINE
  5
155
  8
0
 62
     7
 10
64.193600000000004
 20
182.98400000000001
 30
0.0
 11
64.193600000000004
 21
183.63900000000001
 31
0.0
  0
LINE
  5
156
  8
0
 62
     7
 10
64.217699999999994
 20
183.023
 30
0.0
 11
64.217699999999994
 21
183.548
 31
0.0
  0
LINE
  5
157
  8
0
 62
     7
 10
64.374600000000001
 20
183.548
 30
0.0
 11
64.374600000000001
 21
183.023
 31
0.0
  0
LINE
  5
158
  8
0
 62
     7
 10
68.381799999999998
 20
183.023
 30
0.0
 11
68.381799999999998
 21
183.548
 31
0.0
  0
LINE
  5
159
  8
0
 62
     7
 10
68.554400000000001
 20
183.548
 30
0.0
 11
68.554400000000001
 21
183.023
 31
0.0
  0
LINE
  5
15A
  8
0
 62
     7
 10
68.386600000000001
 20
183.565
 30
0.0
 11
68.2774
 21
183.648
 31
0.0
  0
LINE
  5
15B
  8
0
 62
     7
 10
68.563000000000002
 20
183.648
 30
0.0
 11
68.533000000000001
 21
183.56700000000001
 31
0.0
  0
LINE
  5
15C
  8
0
 62
     7
 10
68.381799999999998
 20
183.548
 30
0.0
 11
68.554400000000001
 21
183.548
 31
0.0
  0
LINE
  5
15D
  8
0
 62
     7
 10
68.275000000000006
 20
182.977
 30
0.0
 11
68.275000000000006
 21
183.648
 31
0.0
  0
LINE
  5
15E
  8
0
 62
     7
 10
64.483800000000002
 20
182.98400000000001
 30
0.0
 11
64.483800000000002
 21
183.63999999999999
 31
0.0
  0
LINE
  5
15F
  8
0
 62
     7
 10
64.516000000000005
 20
183.023
 30
0.0
 11
64.516000000000005
 21
183.548
 31
0.0
  0
LINE
  5
160
  8
0
 62
     7
 10
64.6798
 20
183.548
 30
0.0
 11
64.6798
 21
183.023
 31
0.0
  0
LINE
  5
161
  8
0
 62
     7
 10
68.078299999999999
 20
183.023
 30
0.0
 11
68.078299999999999
 21
183.548
 31
0.0
  0
LINE
  5
162
  8
0
 62
     7
 10
68.256
 20
183.548
 30
0.0
 11
68.256
 21
183.023
 31
0.0
  0
LINE
  5
163
  8
0
 62
     7
 10
68.084100000000007
 20
183.565
 30
0.0
 11
67.976600000000005
 21
183.648
 31
0.0
  0
LINE
  5
164
  8
0
 62
     7
 10
68.274600000000007
 20
183.648
 30
0.0
 11
68.236099999999993
 21
183.565
 31
0.0
  0
LINE
  5
165
  8
0
 62
     7
 10
68.078299999999999
 20
183.548
 30
0.0
 11
68.256
 21
183.548
 31
0.0
  0
LINE
  5
166
  8
0
 62
     7
 10
67.976299999999995
 20
182.97799999999989
 30
0.0
 11
67.976299999999995
 21
183.648
 31
0.0
  0
LINE
  5
167
  8
0
 62
     7
 10
64.785099999999986
 20
182.98400000000001
 30
0.0
 11
64.785099999999986
 21
183.63999999999999
 31
0.0
  0
LINE
  5
168
  8
0
 62
     7
 10
64.824200000000005
 20
183.023
 30
0.0
 11
64.824200000000005
 21
183.548
 31
0.0
  0
LINE
  5
169
  8
0
 62
     7
 10
64.993700000000004
 20
183.548
 30
0.0
 11
64.993700000000004
 21
183.023
 31
0.0
  0
LINE
  5
16A
  8
0
 62
     7
 10
67.765799999999999
 20
183.023
 30
0.0
 11
67.765799999999999
 21
183.548
 31
0.0
  0
LINE
  5
16B
  8
0
 62
     7
 10
67.946700000000007
 20
183.548
 30
0.0
 11
67.946700000000007
 21
183.023
 31
0.0
  0
LINE
  5
16C
  8
0
 62
     7
 10
67.668000000000006
 20
182.97799999999989
 30
0.0
 11
67.668000000000006
 21
183.648
 31
0.0
  0
LINE
  5
16D
  8
0
 62
     7
 10
65.093800000000002
 20
182.983
 30
0.0
 11
65.093800000000002
 21
183.64099999999999
 31
0.0
  0
LINE
  5
16E
  8
0
 62
     7
 10
65.315600000000003
 20
183.548
 30
0.0
 11
65.315600000000003
 21
183.023
 31
0.0
  0
LINE
  5
16F
  8
0
 62
     7
 10
65.140299999999996
 20
183.023
 30
0.0
 11
65.140299999999996
 21
183.548
 31
0.0
  0
LINE
  5
170
  8
0
 62
     7
 10
67.444900000000004
 20
183.023
 30
0.0
 11
67.444900000000004
 21
183.548
 31
0.0
  0
LINE
  5
171
  8
0
 62
     7
 10
67.629400000000004
 20
183.548
 30
0.0
 11
67.629400000000004
 21
183.023
 31
0.0
  0
LINE
  5
172
  8
0
 62
     7
 10
67.352900000000005
 20
182.97900000000001
 30
0.0
 11
67.352900000000005
 21
183.64699999999999
 31
0.0
  0
LINE
  5
173
  8
0
 62
     7
 10
65.409899999999993
 20
182.983
 30
0.0
 11
65.409899999999993
 21
183.643
 31
0.0
  0
LINE
  5
174
  8
0
 62
     7
 10
65.463899999999995
 20
183.023
 30
0.0
 11
65.463899999999995
 21
183.548
 31
0.0
  0
LINE
  5
175
  8
0
 62
     7
 10
65.642600000000002
 20
183.548
 30
0.0
 11
65.642600000000002
 21
183.023
 31
0.0
  0
LINE
  5
176
  8
0
 62
     7
 10
67.118999999999986
 20
183.023
 30
0.0
 11
67.118999999999986
 21
183.548
 31
0.0
  0
LINE
  5
177
  8
0
 62
     7
 10
67.304500000000004
 20
183.548
 30
0.0
 11
67.304500000000004
 21
183.023
 31
0.0
  0
LINE
  5
178
  8
0
 62
     7
 10
67.032200000000003
 20
182.97900000000001
 30
0.0
 11
67.032200000000003
 21
183.64699999999999
 31
0.0
  0
LINE
  5
179
  8
0
 62
     7
 10
65.730599999999995
 20
182.982
 30
0.0
 11
65.730599999999995
 21
183.64400000000001
 31
0.0
  0
LINE
  5
17A
  8
0
 62
     7
 10
70.048500000000004
 20
181.648
 30
0.0
 11
62.6937
 21
181.648
 31
0.0
  0
LINE
  5
17B
  8
0
 62
     7
 10
66.055499999999995
 20
182.982
 30
0.0
 11
66.055499999999995
 21
183.64400000000001
 31
0.0
  0
LINE
  5
17C
  8
0
 62
     7
 10
65.791600000000003
 20
183.023
 30
0.0
 11
65.791600000000003
 21
183.548
 31
0.0
  0
LINE
  5
17D
  8
0
 62
     7
 10
65.974299999999999
 20
183.548
 30
0.0
 11
65.974299999999999
 21
183.023
 31
0.0
  0
LINE
  5
17E
  8
0
 62
     7
 10
66.707800000000006
 20
182.97999999999999
 30
0.0
 11
66.707800000000006
 21
183.64599999999999
 31
0.0
  0
LINE
  5
17F
  8
0
 62
     7
 10
66.788399999999996
 20
183.023
 30
0.0
 11
66.788399999999996
 21
183.548
 31
0.0
  0
LINE
  5
180
  8
0
 62
     7
 10
66.975099999999998
 20
183.548
 30
0.0
 11
66.975099999999998
 21
183.023
 31
0.0
  0
LINE
  5
181
  8
0
 62
     7
 10
66.381900000000002
 20
182.97999999999999
 30
0.0
 11
66.381900000000002
 21
183.64500000000001
 31
0.0
  0
LINE
  5
182
  8
0
 62
     7
 10
66.1233
 20
183.023
 30
0.0
 11
66.1233
 21
183.548
 31
0.0
  0
LINE
  5
183
  8
0
 62
     7
 10
66.308499999999995
 20
183.548
 30
0.0
 11
66.308499999999995
 21
183.023
 31
0.0
  0
LINE
  5
184
  8
0
 62
     7
 10
66.456100000000006
 20
183.023
 30
0.0
 11
66.456100000000006
 21
183.548
 31
0.0
  0
LINE
  5
185
  8
0
 62
     7
 10
66.642300000000006
 20
183.548
 30
0.0
 11
66.642300000000006
 21
183.023
 31
0.0
  0
LINE
  5
186
  8
0
 62
     7
 10
61.861899999999991
 20
183.548
 30
0.0
 11
61.943000000000012
 21
183.63200000000001
 31
0.0
  0
LINE
  5
187
  8
0
 62
     7
 10
61.943000000000012
 20
183.63200000000001
 30
0.0
 11
61.857900000000001
 21
183.548
 31
0.0
  0
LINE
  5
188
  8
0
 62
     7
 10
67.9756
 20
183.648
 30
0.0
 11
67.928399999999996
 21
183.56399999999999
 31
0.0
  0
LINE
  5
189
  8
0
 62
     7
 10
67.765799999999999
 20
183.548
 30
0.0
 11
67.946700000000007
 21
183.548
 31
0.0
  0
LINE
  5
18A
  8
0
 62
     7
 10
67.772300000000001
 20
183.56399999999999
 30
0.0
 11
67.668000000000006
 21
183.648
 31
0.0
  0
LINE
  5
18B
  8
0
 62
     7
 10
67.668000000000006
 20
183.648
 30
0.0
 11
67.612799999999993
 21
183.56299999999999
 31
0.0
  0
LINE
  5
18C
  8
0
 62
     7
 10
67.444900000000004
 20
183.548
 30
0.0
 11
67.629400000000004
 21
183.548
 31
0.0
  0
LINE
  5
18D
  8
0
 62
     7
 10
67.453000000000003
 20
183.56299999999999
 30
0.0
 11
67.352900000000005
 21
183.64699999999999
 31
0.0
  0
LINE
  5
18E
  8
0
 62
     7
 10
67.352900000000005
 20
183.64699999999999
 30
0.0
 11
67.290400000000005
 21
183.56299999999999
 31
0.0
  0
LINE
  5
18F
  8
0
 62
     7
 10
67.118999999999986
 20
183.548
 30
0.0
 11
67.304500000000004
 21
183.548
 31
0.0
  0
LINE
  5
190
  8
0
 62
     7
 10
67.127600000000001
 20
183.56200000000001
 30
0.0
 11
67.032200000000003
 21
183.64699999999999
 31
0.0
  0
LINE
  5
191
  8
0
 62
     7
 10
67.032200000000003
 20
183.64699999999999
 30
0.0
 11
66.962599999999995
 21
183.56200000000001
 31
0.0
  0
LINE
  5
192
  8
0
 62
     7
 10
66.788399999999996
 20
183.548
 30
0.0
 11
66.975099999999998
 21
183.548
 31
0.0
  0
LINE
  5
193
  8
0
 62
     7
 10
66.797700000000006
 20
183.56200000000001
 30
0.0
 11
66.707800000000006
 21
183.64599999999999
 31
0.0
  0
LINE
  5
194
  8
0
 62
     7
 10
66.707800000000006
 20
183.64599999999999
 30
0.0
 11
66.631299999999996
 21
183.56099999999989
 31
0.0
  0
LINE
  5
195
  8
0
 62
     7
 10
66.456100000000006
 20
183.548
 30
0.0
 11
66.642300000000006
 21
183.548
 31
0.0
  0
LINE
  5
196
  8
0
 62
     7
 10
66.466000000000008
 20
183.56099999999989
 30
0.0
 11
66.381900000000002
 21
183.64500000000001
 31
0.0
  0
LINE
  5
197
  8
0
 62
     7
 10
66.381900000000002
 20
183.64500000000001
 30
0.0
 11
66.298500000000004
 21
183.56
 31
0.0
  0
LINE
  5
198
  8
0
 62
     7
 10
66.1233
 20
183.548
 30
0.0
 11
66.308499999999995
 21
183.548
 31
0.0
  0
LINE
  5
199
  8
0
 62
     7
 10
66.132999999999996
 20
183.56
 30
0.0
 11
66.055499999999995
 21
183.64400000000001
 31
0.0
  0
LINE
  5
19A
  8
0
 62
     7
 10
66.055499999999995
 20
183.64400000000001
 30
0.0
 11
65.966399999999993
 21
183.56
 31
0.0
  0
LINE
  5
19B
  8
0
 62
     7
 10
65.791600000000003
 20
183.548
 30
0.0
 11
65.974299999999999
 21
183.548
 31
0.0
  0
LINE
  5
19C
  8
0
 62
     7
 10
65.801900000000003
 20
183.559
 30
0.0
 11
65.730599999999995
 21
183.64400000000001
 31
0.0
  0
LINE
  5
19D
  8
0
 62
     7
 10
65.730599999999995
 20
183.64400000000001
 30
0.0
 11
65.636399999999995
 21
183.559
 31
0.0
  0
LINE
  5
19E
  8
0
 62
     7
 10
65.463899999999995
 20
183.548
 30
0.0
 11
65.642600000000002
 21
183.548
 31
0.0
  0
LINE
  5
19F
  8
0
 62
     7
 10
65.473100000000002
 20
183.559
 30
0.0
 11
65.409899999999993
 21
183.643
 31
0.0
  0
LINE
  5
1A0
  8
0
 62
     7
 10
65.409899999999993
 20
183.643
 30
0.0
 11
65.310500000000005
 21
183.55799999999999
 31
0.0
  0
LINE
  5
1A1
  8
0
 62
     7
 10
65.140299999999996
 20
183.548
 30
0.0
 11
65.315600000000003
 21
183.548
 31
0.0
  0
LINE
  5
1A2
  8
0
 62
     7
 10
65.150099999999995
 20
183.55799999999999
 30
0.0
 11
65.093800000000002
 21
183.64099999999999
 31
0.0
  0
LINE
  5
1A3
  8
0
 62
     7
 10
65.093800000000002
 20
183.64099999999999
 30
0.0
 11
64.989699999999985
 21
183.55799999999999
 31
0.0
  0
LINE
  5
1A4
  8
0
 62
     7
 10
64.824200000000005
 20
183.548
 30
0.0
 11
64.993700000000004
 21
183.548
 31
0.0
  0
LINE
  5
1A5
  8
0
 62
     7
 10
64.832800000000006
 20
183.55600000000001
 30
0.0
 11
64.785099999999986
 21
183.63999999999999
 31
0.0
  0
LINE
  5
1A6
  8
0
 62
     7
 10
64.785099999999986
 20
183.63999999999999
 30
0.0
 11
64.676400000000001
 21
183.55600000000001
 31
0.0
  0
LINE
  5
1A7
  8
0
 62
     7
 10
64.516000000000005
 20
183.548
 30
0.0
 11
64.6798
 21
183.548
 31
0.0
  0
LINE
  5
1A8
  8
0
 62
     7
 10
64.524600000000007
 20
183.55500000000001
 30
0.0
 11
64.483800000000002
 21
183.63999999999999
 31
0.0
  0
LINE
  5
1A9
  8
0
 62
     7
 10
64.483800000000002
 20
183.63999999999999
 30
0.0
 11
64.372900000000001
 21
183.55500000000001
 31
0.0
  0
LINE
  5
1AA
  8
0
 62
     7
 10
64.217699999999994
 20
183.548
 30
0.0
 11
64.374600000000001
 21
183.548
 31
0.0
  0
LINE
  5
1AB
  8
0
 62
     7
 10
64.225800000000007
 20
183.55500000000001
 30
0.0
 11
64.193600000000004
 21
183.63900000000001
 31
0.0
  0
LINE
  5
1AC
  8
0
 62
     7
 10
64.193600000000004
 20
183.63900000000001
 30
0.0
 11
64.080200000000005
 21
183.554
 31
0.0
  0
LINE
  5
1AD
  8
0
 62
     7
 10
63.931399999999989
 20
183.548
 30
0.0
 11
64.081400000000002
 21
183.548
 31
0.0
  0
LINE
  5
1AE
  8
0
 62
     7
 10
63.938800000000001
 20
183.554
 30
0.0
 11
63.915399999999991
 21
183.63800000000001
 31
0.0
  0
LINE
  5
1AF
  8
0
 62
     7
 10
63.915399999999991
 20
183.63800000000001
 30
0.0
 11
63.799799999999991
 21
183.554
 31
0.0
  0
LINE
  5
1B0
  8
0
 62
     7
 10
63.6584
 20
183.548
 30
0.0
 11
63.799799999999991
 21
183.548
 31
0.0
  0
LINE
  5
1B1
  8
0
 62
     7
 10
63.665300000000002
 20
183.553
 30
0.0
 11
63.650300000000001
 21
183.63800000000001
 31
0.0
  0
LINE
  5
1B2
  8
0
 62
     7
 10
63.650300000000001
 20
183.63800000000001
 30
0.0
 11
63.533000000000001
 21
183.553
 31
0.0
  0
LINE
  5
1B3
  8
0
 62
     7
 10
63.400100000000002
 20
183.548
 30
0.0
 11
63.533000000000001
 21
183.548
 31
0.0
  0
LINE
  5
1B4
  8
0
 62
     7
 10
63.406000000000013
 20
183.553
 30
0.0
 11
63.400100000000002
 21
183.637
 31
0.0
  0
LINE
  5
1B5
  8
0
 62
     7
 10
63.400100000000002
 20
183.637
 30
0.0
 11
63.282299999999999
 21
183.55199999999999
 31
0.0
  0
LINE
  5
1B6
  8
0
 62
     7
 10
63.158299999999997
 20
183.548
 30
0.0
 11
63.281100000000002
 21
183.548
 31
0.0
  0
LINE
  5
1B7
  8
0
 62
     7
 10
63.1633
 20
183.55199999999999
 30
0.0
 11
63.165700000000001
 21
183.636
 31
0.0
  0
LINE
  5
1B8
  8
0
 62
     7
 10
63.165700000000001
 20
183.636
 30
0.0
 11
63.047899999999998
 21
183.55199999999999
 31
0.0
  0
LINE
  5
1B9
  8
0
 62
     7
 10
62.933500000000002
 20
183.548
 30
0.0
 11
63.047199999999989
 21
183.548
 31
0.0
  0
LINE
  5
1BA
  8
0
 62
     7
 10
62.938000000000002
 20
183.55199999999999
 30
0.0
 11
62.9495
 21
183.636
 31
0.0
  0
LINE
  5
1BB
  8
0
 62
     7
 10
62.9495
 20
183.636
 30
0.0
 11
62.831699999999998
 21
183.55099999999999
 31
0.0
  0
LINE
  5
1BC
  8
0
 62
     7
 10
62.727699999999999
 20
183.548
 30
0.0
 11
62.830500000000001
 21
183.548
 31
0.0
  0
LINE
  5
1BD
  8
0
 62
     7
 10
62.731099999999991
 20
183.55099999999999
 30
0.0
 11
62.751300000000001
 21
183.636
 31
0.0
  0
LINE
  5
1BE
  8
0
 62
     7
 10
62.751300000000001
 20
183.636
 30
0.0
 11
62.634500000000003
 21
183.55099999999999
 31
0.0
  0
LINE
  5
1BF
  8
0
 62
     7
 10
62.541499999999999
 20
183.548
 30
0.0
 11
62.633999999999993
 21
183.548
 31
0.0
  0
LINE
  5
1C0
  8
0
 62
     7
 10
62.544199999999989
 20
183.55099999999999
 30
0.0
 11
62.573
 21
183.63399999999999
 31
0.0
  0
LINE
  5
1C1
  8
0
 62
     7
 10
62.573
 20
183.63399999999999
 30
0.0
 11
62.458100000000002
 21
183.55099999999999
 31
0.0
  0
LINE
  5
1C2
  8
0
 62
     7
 10
62.37639999999999
 20
183.548
 30
0.0
 11
62.4574
 21
183.548
 31
0.0
  0
LINE
  5
1C3
  8
0
 62
     7
 10
62.3782
 20
183.55000000000001
 30
0.0
 11
62.415500000000002
 21
183.63399999999999
 31
0.0
  0
LINE
  5
1C4
  8
0
 62
     7
 10
62.415500000000002
 20
183.63399999999999
 30
0.0
 11
62.302700000000002
 21
183.55000000000001
 31
0.0
  0
LINE
  5
1C5
  8
0
 62
     7
 10
62.232100000000003
 20
183.548
 30
0.0
 11
62.302399999999999
 21
183.548
 31
0.0
  0
LINE
  5
1C6
  8
0
 62
     7
 10
62.233800000000002
 20
183.55000000000001
 30
0.0
 11
62.279299999999999
 21
183.63300000000001
 31
0.0
  0
LINE
  5
1C7
  8
0
 62
     7
 10
62.279299999999999
 20
183.63300000000001
 30
0.0
 11
62.170099999999998
 21
183.55000000000001
 31
0.0
  0
LINE
  5
1C8
  8
0
 62
     7
 10
62.1113
 20
183.548
 30
0.0
 11
62.168900000000001
 21
183.548
 31
0.0
  0
LINE
  5
1C9
  8
0
 62
     7
 10
62.11249999999999
 20
183.55000000000001
 30
0.0
 11
62.165399999999998
 21
183.63300000000001
 31
0.0
  0
LINE
  5
1CA
  8
0
 62
     7
 10
62.165399999999998
 20
183.63300000000001
 30
0.0
 11
62.059699999999999
 21
183.55000000000001
 31
0.0
  0
LINE
  5
1CB
  8
0
 62
     7
 10
62.012500000000003
 20
183.548
 30
0.0
 11
62.059100000000001
 21
183.548
 31
0.0
  0
LINE
  5
1CC
  8
0
 62
     7
 10
62.0137
 20
183.548
 30
0.0
 11
62.074599999999997
 21
183.63300000000001
 31
0.0
  0
LINE
  5
1CD
  8
0
 62
     7
 10
62.074599999999997
 20
183.63300000000001
 30
0.0
 11
61.972799999999999
 21
183.548
 31
0.0
  0
LINE
  5
1CE
  8
0
 62
     7
 10
61.93889999999999
 20
183.548
 30
0.0
 11
62.006799999999998
 21
183.63300000000001
 31
0.0
  0
LINE
  5
1CF
  8
0
 62
     7
 10
62.006799999999998
 20
183.63300000000001
 30
0.0
 11
61.910299999999999
 21
183.548
 31
0.0
  0
LINE
  5
1D0
  8
0
 62
     7
 10
61.887700000000002
 20
183.548
 30
0.0
 11
61.963000000000001
 21
183.63200000000001
 31
0.0
  0
LINE
  5
1D1
  8
0
 62
     7
 10
61.963000000000001
 20
183.63200000000001
 30
0.0
 11
61.871699999999997
 21
183.548
 31
0.0
  0
LINE
  5
1D2
  8
0
 62
     7
 10
61.910299999999999
 20
183.023
 30
0.0
 11
62.006799999999998
 21
182.988
 31
0.0
  0
LINE
  5
1D3
  8
0
 62
     7
 10
62.006799999999998
 20
182.988
 30
0.0
 11
61.93889999999999
 21
183.023
 31
0.0
  0
LINE
  5
1D4
  8
0
 62
     7
 10
61.972799999999999
 20
183.023
 30
0.0
 11
62.074599999999997
 21
182.98699999999999
 31
0.0
  0
LINE
  5
1D5
  8
0
 62
     7
 10
62.074599999999997
 20
182.98699999999999
 30
0.0
 11
62.0137
 21
183.02199999999999
 31
0.0
  0
LINE
  5
1D6
  8
0
 62
     7
 10
62.059100000000001
 20
183.023
 30
0.0
 11
62.012500000000003
 21
183.023
 31
0.0
  0
LINE
  5
1D7
  8
0
 62
     7
 10
62.059699999999999
 20
183.02199999999999
 30
0.0
 11
62.165399999999998
 21
182.98699999999999
 31
0.0
  0
LINE
  5
1D8
  8
0
 62
     7
 10
62.165399999999998
 20
182.98699999999999
 30
0.0
 11
62.11249999999999
 21
183.02199999999999
 31
0.0
  0
LINE
  5
1D9
  8
0
 62
     7
 10
62.168900000000001
 20
183.023
 30
0.0
 11
62.1113
 21
183.023
 31
0.0
  0
LINE
  5
1DA
  8
0
 62
     7
 10
62.170099999999998
 20
183.02199999999999
 30
0.0
 11
62.279299999999999
 21
182.98699999999999
 31
0.0
  0
LINE
  5
1DB
  8
0
 62
     7
 10
62.279299999999999
 20
182.98699999999999
 30
0.0
 11
62.233800000000002
 21
183.02199999999999
 31
0.0
  0
LINE
  5
1DC
  8
0
 62
     7
 10
62.302399999999999
 20
183.023
 30
0.0
 11
62.232100000000003
 21
183.023
 31
0.0
  0
LINE
  5
1DD
  8
0
 62
     7
 10
62.302700000000002
 20
183.02199999999999
 30
0.0
 11
62.415500000000002
 21
182.98699999999999
 31
0.0
  0
LINE
  5
1DE
  8
0
 62
     7
 10
62.415500000000002
 20
182.98699999999999
 30
0.0
 11
62.3782
 21
183.02199999999999
 31
0.0
  0
LINE
  5
1DF
  8
0
 62
     7
 10
62.4574
 20
183.023
 30
0.0
 11
62.37639999999999
 21
183.023
 31
0.0
  0
LINE
  5
1E0
  8
0
 62
     7
 10
62.458100000000002
 20
183.02199999999999
 30
0.0
 11
62.573
 21
182.98699999999999
 31
0.0
  0
LINE
  5
1E1
  8
0
 62
     7
 10
62.573
 20
182.98699999999999
 30
0.0
 11
62.544199999999989
 21
183.02199999999999
 31
0.0
  0
LINE
  5
1E2
  8
0
 62
     7
 10
62.633999999999993
 20
183.023
 30
0.0
 11
62.541499999999999
 21
183.023
 31
0.0
  0
LINE
  5
1E3
  8
0
 62
     7
 10
62.634500000000003
 20
183.02199999999999
 30
0.0
 11
62.751300000000001
 21
182.98599999999999
 31
0.0
  0
LINE
  5
1E4
  8
0
 62
     7
 10
62.751300000000001
 20
182.98599999999999
 30
0.0
 11
62.731099999999991
 21
183.02199999999999
 31
0.0
  0
LINE
  5
1E5
  8
0
 62
     7
 10
62.830500000000001
 20
183.023
 30
0.0
 11
62.727699999999999
 21
183.023
 31
0.0
  0
LINE
  5
1E6
  8
0
 62
     7
 10
62.831699999999998
 20
183.02199999999999
 30
0.0
 11
62.9495
 21
182.98599999999999
 31
0.0
  0
LINE
  5
1E7
  8
0
 62
     7
 10
62.9495
 20
182.98599999999999
 30
0.0
 11
62.938000000000002
 21
183.02199999999999
 31
0.0
  0
LINE
  5
1E8
  8
0
 62
     7
 10
63.047199999999989
 20
183.023
 30
0.0
 11
62.933500000000002
 21
183.023
 31
0.0
  0
LINE
  5
1E9
  8
0
 62
     7
 10
63.047899999999998
 20
183.02199999999999
 30
0.0
 11
63.165700000000001
 21
182.98599999999999
 31
0.0
  0
LINE
  5
1EA
  8
0
 62
     7
 10
63.165700000000001
 20
182.98599999999999
 30
0.0
 11
63.1633
 21
183.02199999999999
 31
0.0
  0
LINE
  5
1EB
  8
0
 62
     7
 10
63.281100000000002
 20
183.023
 30
0.0
 11
63.158299999999997
 21
183.023
 31
0.0
  0
LINE
  5
1EC
  8
0
 62
     7
 10
63.282299999999999
 20
183.02199999999999
 30
0.0
 11
63.400100000000002
 21
182.98599999999999
 31
0.0
  0
LINE
  5
1ED
  8
0
 62
     7
 10
63.400100000000002
 20
182.98599999999999
 30
0.0
 11
63.406000000000013
 21
183.02199999999999
 31
0.0
  0
LINE
  5
1EE
  8
0
 62
     7
 10
63.533000000000001
 20
183.023
 30
0.0
 11
63.400100000000002
 21
183.023
 31
0.0
  0
LINE
  5
1EF
  8
0
 62
     7
 10
63.533000000000001
 20
183.02000000000001
 30
0.0
 11
63.650300000000001
 21
182.98500000000001
 31
0.0
  0
LINE
  5
1F0
  8
0
 62
     7
 10
63.650300000000001
 20
182.98500000000001
 30
0.0
 11
63.665300000000002
 21
183.02000000000001
 31
0.0
  0
LINE
  5
1F1
  8
0
 62
     7
 10
63.799799999999991
 20
183.023
 30
0.0
 11
63.6584
 21
183.023
 31
0.0
  0
LINE
  5
1F2
  8
0
 62
     7
 10
63.799799999999991
 20
183.02000000000001
 30
0.0
 11
63.915399999999991
 21
182.98500000000001
 31
0.0
  0
LINE
  5
1F3
  8
0
 62
     7
 10
63.915399999999991
 20
182.98500000000001
 30
0.0
 11
63.938800000000001
 21
183.02000000000001
 31
0.0
  0
LINE
  5
1F4
  8
0
 62
     7
 10
64.081400000000002
 20
183.023
 30
0.0
 11
63.931399999999989
 21
183.023
 31
0.0
  0
LINE
  5
1F5
  8
0
 62
     7
 10
64.080200000000005
 20
183.02000000000001
 30
0.0
 11
64.193600000000004
 21
182.98400000000001
 31
0.0
  0
LINE
  5
1F6
  8
0
 62
     7
 10
64.193600000000004
 20
182.98400000000001
 30
0.0
 11
64.225800000000007
 21
183.02000000000001
 31
0.0
  0
LINE
  5
1F7
  8
0
 62
     7
 10
64.374600000000001
 20
183.023
 30
0.0
 11
64.217699999999994
 21
183.023
 31
0.0
  0
LINE
  5
1F8
  8
0
 62
     7
 10
64.372900000000001
 20
183.02000000000001
 30
0.0
 11
64.483800000000002
 21
182.98400000000001
 31
0.0
  0
LINE
  5
1F9
  8
0
 62
     7
 10
64.483800000000002
 20
182.98400000000001
 30
0.0
 11
64.524600000000007
 21
183.02000000000001
 31
0.0
  0
LINE
  5
1FA
  8
0
 62
     7
 10
64.6798
 20
183.023
 30
0.0
 11
64.516000000000005
 21
183.023
 31
0.0
  0
LINE
  5
1FB
  8
0
 62
     7
 10
64.676400000000001
 20
183.02000000000001
 30
0.0
 11
64.785099999999986
 21
182.98400000000001
 31
0.0
  0
LINE
  5
1FC
  8
0
 62
     7
 10
64.785099999999986
 20
182.98400000000001
 30
0.0
 11
64.832800000000006
 21
183.02000000000001
 31
0.0
  0
LINE
  5
1FD
  8
0
 62
     7
 10
64.993700000000004
 20
183.023
 30
0.0
 11
64.824200000000005
 21
183.023
 31
0.0
  0
LINE
  5
1FE
  8
0
 62
     7
 10
64.989699999999985
 20
183.02000000000001
 30
0.0
 11
65.093800000000002
 21
182.983
 31
0.0
  0
LINE
  5
1FF
  8
0
 62
     7
 10
65.093800000000002
 20
182.983
 30
0.0
 11
65.150099999999995
 21
183.01900000000001
 31
0.0
  0
LINE
  5
200
  8
0
 62
     7
 10
65.315600000000003
 20
183.023
 30
0.0
 11
65.140299999999996
 21
183.023
 31
0.0
  0
LINE
  5
201
  8
0
 62
     7
 10
65.310500000000005
 20
183.01900000000001
 30
0.0
 11
65.409899999999993
 21
182.983
 31
0.0
  0
LINE
  5
202
  8
0
 62
     7
 10
65.409899999999993
 20
182.983
 30
0.0
 11
65.473100000000002
 21
183.01900000000001
 31
0.0
  0
LINE
  5
203
  8
0
 62
     7
 10
65.642600000000002
 20
183.023
 30
0.0
 11
65.463899999999995
 21
183.023
 31
0.0
  0
LINE
  5
204
  8
0
 62
     7
 10
65.636399999999995
 20
183.01900000000001
 30
0.0
 11
65.730599999999995
 21
182.982
 31
0.0
  0
LINE
  5
205
  8
0
 62
     7
 10
65.730599999999995
 20
182.982
 30
0.0
 11
65.801900000000003
 21
183.01900000000001
 31
0.0
  0
LINE
  5
206
  8
0
 62
     7
 10
65.974299999999999
 20
183.023
 30
0.0
 11
65.791600000000003
 21
183.023
 31
0.0
  0
LINE
  5
207
  8
0
 62
     7
 10
65.966399999999993
 20
183.01900000000001
 30
0.0
 11
66.055499999999995
 21
182.982
 31
0.0
  0
LINE
  5
208
  8
0
 62
     7
 10
66.055499999999995
 20
182.982
 30
0.0
 11
66.132999999999996
 21
183.01900000000001
 31
0.0
  0
LINE
  5
209
  8
0
 62
     7
 10
66.308499999999995
 20
183.023
 30
0.0
 11
66.1233
 21
183.023
 31
0.0
  0
LINE
  5
20A
  8
0
 62
     7
 10
66.298500000000004
 20
183.01900000000001
 30
0.0
 11
66.381900000000002
 21
182.97999999999999
 31
0.0
  0
LINE
  5
20B
  8
0
 62
     7
 10
66.381900000000002
 20
182.97999999999999
 30
0.0
 11
66.466000000000008
 21
183.01900000000001
 31
0.0
  0
LINE
  5
20C
  8
0
 62
     7
 10
66.642300000000006
 20
183.023
 30
0.0
 11
66.456100000000006
 21
183.023
 31
0.0
  0
LINE
  5
20D
  8
0
 62
     7
 10
66.631299999999996
 20
183.018
 30
0.0
 11
66.707800000000006
 21
182.97999999999999
 31
0.0
  0
LINE
  5
20E
  8
0
 62
     7
 10
66.707800000000006
 20
182.97999999999999
 30
0.0
 11
66.797700000000006
 21
183.018
 31
0.0
  0
LINE
  5
20F
  8
0
 62
     7
 10
66.975099999999998
 20
183.023
 30
0.0
 11
66.788399999999996
 21
183.023
 31
0.0
  0
LINE
  5
210
  8
0
 62
     7
 10
66.962599999999995
 20
183.018
 30
0.0
 11
67.032200000000003
 21
182.97900000000001
 31
0.0
  0
LINE
  5
211
  8
0
 62
     7
 10
67.032200000000003
 20
182.97900000000001
 30
0.0
 11
67.127600000000001
 21
183.018
 31
0.0
  0
LINE
  5
212
  8
0
 62
     7
 10
67.304500000000004
 20
183.023
 30
0.0
 11
67.118999999999986
 21
183.023
 31
0.0
  0
LINE
  5
213
  8
0
 62
     7
 10
67.290400000000005
 20
183.018
 30
0.0
 11
67.352900000000005
 21
182.97900000000001
 31
0.0
  0
LINE
  5
214
  8
0
 62
     7
 10
67.352900000000005
 20
182.97900000000001
 30
0.0
 11
67.453000000000003
 21
183.018
 31
0.0
  0
LINE
  5
215
  8
0
 62
     7
 10
67.629400000000004
 20
183.023
 30
0.0
 11
67.444900000000004
 21
183.023
 31
0.0
  0
LINE
  5
216
  8
0
 62
     7
 10
67.612799999999993
 20
183.018
 30
0.0
 11
67.668000000000006
 21
182.97799999999989
 31
0.0
  0
LINE
  5
217
  8
0
 62
     7
 10
67.668000000000006
 20
182.97799999999989
 30
0.0
 11
67.772300000000001
 21
183.018
 31
0.0
  0
LINE
  5
218
  8
0
 62
     7
 10
67.946700000000007
 20
183.023
 30
0.0
 11
67.765799999999999
 21
183.023
 31
0.0
  0
LINE
  5
219
  8
0
 62
     7
 10
67.928399999999996
 20
183.017
 30
0.0
 11
67.976299999999995
 21
182.97799999999989
 31
0.0
  0
LINE
  5
21A
  8
0
 62
     7
 10
67.976299999999995
 20
182.97799999999989
 30
0.0
 11
68.084100000000007
 21
183.017
 31
0.0
  0
LINE
  5
21B
  8
0
 62
     7
 10
68.256
 20
183.023
 30
0.0
 11
68.078299999999999
 21
183.023
 31
0.0
  0
LINE
  5
21C
  8
0
 62
     7
 10
68.236099999999993
 20
183.017
 30
0.0
 11
68.275000000000006
 21
182.977
 31
0.0
  0
LINE
  5
21D
  8
0
 62
     7
 10
68.275000000000006
 20
182.977
 30
0.0
 11
68.386600000000001
 21
183.017
 31
0.0
  0
LINE
  5
21E
  8
0
 62
     7
 10
68.554400000000001
 20
183.023
 30
0.0
 11
68.381799999999998
 21
183.023
 31
0.0
  0
LINE
  5
21F
  8
0
 62
     7
 10
68.533000000000001
 20
183.017
 30
0.0
 11
68.563299999999984
 21
182.977
 31
0.0
  0
LINE
  5
220
  8
0
 62
     7
 10
68.563299999999984
 20
182.977
 30
0.0
 11
68.678100000000001
 21
183.017
 31
0.0
  0
LINE
  5
221
  8
0
 62
     7
 10
68.840699999999998
 20
183.023
 30
0.0
 11
68.674999999999983
 21
183.023
 31
0.0
  0
LINE
  5
222
  8
0
 62
     7
 10
68.818299999999994
 20
183.017
 30
0.0
 11
68.840699999999998
 21
182.977
 31
0.0
  0
LINE
  5
223
  8
0
 62
     7
 10
68.840699999999998
 20
182.977
 30
0.0
 11
68.956100000000006
 21
183.017
 31
0.0
  0
LINE
  5
224
  8
0
 62
     7
 10
69.114199999999997
 20
183.023
 30
0.0
 11
68.955100000000002
 21
183.023
 31
0.0
  0
LINE
  5
225
  8
0
 62
     7
 10
69.090100000000007
 20
183.017
 30
0.0
 11
69.103499999999997
 21
182.976
 31
0.0
  0
LINE
  5
226
  8
0
 62
     7
 10
69.103499999999997
 20
182.976
 30
0.0
 11
69.221400000000003
 21
183.017
 31
0.0
  0
LINE
  5
227
  8
0
 62
     7
 10
69.371899999999997
 20
183.023
 30
0.0
 11
69.221400000000003
 21
183.023
 31
0.0
  0
LINE
  5
228
  8
0
 62
     7
 10
69.347099999999983
 20
183.01599999999999
 30
0.0
 11
69.351600000000005
 21
182.976
 31
0.0
  0
LINE
  5
229
  8
0
 62
     7
 10
69.351600000000005
 20
182.976
 30
0.0
 11
69.469399999999993
 21
183.01599999999999
 31
0.0
  0
LINE
  5
22A
  8
0
 62
     7
 10
69.613799999999998
 20
183.023
 30
0.0
 11
69.472499999999997
 21
183.023
 31
0.0
  0
LINE
  5
22B
  8
0
 62
     7
 10
69.587199999999996
 20
183.01599999999999
 30
0.0
 11
69.583399999999983
 21
182.97399999999999
 31
0.0
  0
LINE
  5
22C
  8
0
 62
     7
 10
69.583399999999983
 20
182.97399999999999
 30
0.0
 11
69.701599999999985
 21
183.01599999999999
 31
0.0
  0
LINE
  5
22D
  8
0
 62
     7
 10
69.837400000000002
 20
183.023
 30
0.0
 11
69.705699999999993
 21
183.023
 31
0.0
  0
LINE
  5
22E
  8
0
 62
     7
 10
69.810500000000005
 20
183.01599999999999
 30
0.0
 11
69.797700000000006
 21
182.97399999999999
 31
0.0
  0
LINE
  5
22F
  8
0
 62
     7
 10
69.797700000000006
 20
182.97399999999999
 30
0.0
 11
69.915199999999999
 21
183.01599999999999
 31
0.0
  0
LINE
  5
230
  8
0
 62
     7
 10
70.042000000000002
 20
183.023
 30
0.0
 11
69.921400000000006
 21
183.023
 31
0.0
  0
LINE
  5
231
  8
0
 62
     7
 10
70.014399999999995
 20
183.01599999999999
 30
0.0
 11
69.992699999999999
 21
182.97399999999999
 31
0.0
  0
LINE
  5
232
  8
0
 62
     7
 10
69.992699999999999
 20
182.97399999999999
 30
0.0
 11
70.109499999999997
 21
183.01599999999999
 31
0.0
  0
LINE
  5
233
  8
0
 62
     7
 10
70.225999999999999
 20
183.023
 30
0.0
 11
70.118099999999998
 21
183.023
 31
0.0
  0
LINE
  5
234
  8
0
 62
     7
 10
70.198400000000007
 20
183.01599999999999
 30
0.0
 11
70.168800000000005
 21
182.97399999999999
 31
0.0
  0
LINE
  5
235
  8
0
 62
     7
 10
70.168800000000005
 20
182.97399999999999
 30
0.0
 11
70.283100000000005
 21
183.01599999999999
 31
0.0
  0
LINE
  5
236
  8
0
 62
     7
 10
70.389899999999997
 20
183.023
 30
0.0
 11
70.293800000000005
 21
183.023
 31
0.0
  0
LINE
  5
237
  8
0
 62
     7
 10
70.361000000000004
 20
183.01599999999999
 30
0.0
 11
70.323099999999997
 21
182.9729999999999
 31
0.0
  0
LINE
  5
238
  8
0
 62
     7
 10
70.323099999999997
 20
182.9729999999999
 30
0.0
 11
70.435400000000001
 21
183.01599999999999
 31
0.0
  0
LINE
  5
239
  8
0
 62
     7
 10
70.530900000000003
 20
183.023
 30
0.0
 11
70.447800000000001
 21
183.023
 31
0.0
  0
LINE
  5
23A
  8
0
 62
     7
 10
70.502600000000001
 20
183.01599999999999
 30
0.0
 11
70.456800000000001
 21
182.9729999999999
 31
0.0
  0
LINE
  5
23B
  8
0
 62
     7
 10
70.456800000000001
 20
182.9729999999999
 30
0.0
 11
70.565299999999993
 21
183.01599999999999
 31
0.0
  0
LINE
  5
23C
  8
0
 62
     7
 10
70.649000000000001
 20
183.023
 30
0.0
 11
70.580100000000002
 21
183.023
 31
0.0
  0
LINE
  5
23D
  8
0
 62
     7
 10
70.621499999999983
 20
183.01599999999999
 30
0.0
 11
70.566999999999993
 21
182.9729999999999
 31
0.0
  0
LINE
  5
23E
  8
0
 62
     7
 10
70.566999999999993
 20
182.9729999999999
 30
0.0
 11
70.6721
 21
183.01599999999999
 31
0.0
  0
LINE
  5
23F
  8
0
 62
     7
 10
70.744100000000003
 20
183.023
 30
0.0
 11
70.688999999999993
 21
183.023
 31
0.0
  0
LINE
  5
240
  8
0
 62
     7
 10
70.716899999999995
 20
183.01599999999999
 30
0.0
 11
70.654899999999998
 21
182.9729999999999
 31
0.0
  0
LINE
  5
241
  8
0
 62
     7
 10
70.654899999999998
 20
182.9729999999999
 30
0.0
 11
70.755499999999984
 21
183.01599999999999
 31
0.0
  0
LINE
  5
242
  8
0
 62
     7
 10
70.814700000000002
 20
183.023
 30
0.0
 11
70.7744
 21
183.023
 31
0.0
  0
LINE
  5
243
  8
0
 62
     7
 10
70.788200000000003
 20
183.01599999999999
 30
0.0
 11
70.718599999999995
 21
182.9729999999999
 31
0.0
  0
LINE
  5
244
  8
0
 62
     7
 10
70.718599999999995
 20
182.9729999999999
 30
0.0
 11
70.815399999999997
 21
183.01599999999999
 31
0.0
  0
ARC
  5
245
  8
0
 62
     7
 10
70.791151999999997
 20
206.318839
 30
0.0
 40
0.684699
 50
270.90636000000001
 51
335.15047900000002
  0
ARC
  5
246
  8
0
 62
     7
 10
61.949770999999998
 20
206.31704300000001
 30
0.0
 40
0.6828850000000001
 50
204.753951
 51
269.18925000000002
  0
ARC
  5
247
  8
0
 62
     7
 10
73.934832999999983
 20
204.859993
 30
0.0
 40
2.7809859999999991
 50
90.863096000000013
 51
155.09505999999999
  0
ARC
  5
248
  8
0
 62
     7
 10
58.807229999999997
 20
204.85993300000001
 30
0.0
 40
2.7810349999999988
 50
24.905801000000011
 51
89.150536000000002
  0
ARC
  5
249
  8
0
 62
     7
 10
73.830010000000001
 20
208.67935399999999
 30
0.0
 40
1.040595999999999
 50
273.46720099999999
 51
358.00849700000009
  0
ARC
  5
24A
  8
0
 62
     7
 10
58.887880000000003
 20
208.65591599999999
 30
0.0
 40
1.016019
 50
180.71760800000001
 51
267.776431
  0
ARC
  5
24B
  8
0
 62
     7
 10
73.934618999999998
 20
210.338999
 30
0.0
 40
1.9366609999999991
 50
298.87987800000002
 51
359.282961
  0
ARC
  5
24C
  8
0
 62
     7
 10
58.805591
 20
210.33757700000001
 30
0.0
 40
1.9345909999999991
 50
180.675704
 51
241.144114
  0
LINE
  5
24D
  8
0
 62
     7
 10
64.395799999999994
 20
194.33500000000001
 30
0.0
 11
64.163600000000002
 21
194.33500000000001
 31
0.0
  0
LINE
  5
24E
  8
0
 62
     7
 10
68.578500000000005
 20
194.33500000000001
 30
0.0
 11
68.346299999999999
 21
194.33500000000001
 31
0.0
  0
LINE
  5
24F
  8
0
 62
     7
 10
64.163600000000002
 20
194.33500000000001
 30
0.0
 11
64.0304
 21
194.46799999999999
 31
0.0
  0
LINE
  5
250
  8
0
 62
     7
 10
68.711799999999997
 20
194.46799999999999
 30
0.0
 11
68.578500000000005
 21
194.33500000000001
 31
0.0
  0
LINE
  5
251
  8
0
 62
     7
 10
68.711500000000001
 20
197.27699999999999
 30
0.0
 11
68.711799999999997
 21
194.46799999999999
 31
0.0
  0
LINE
  5
252
  8
0
 62
     7
 10
64.0304
 20
194.46799999999999
 30
0.0
 11
64.030799999999999
 21
197.27699999999999
 31
0.0
  0
ARC
  5
253
  8
0
 62
     7
 10
56.738156999999987
 20
196.742491
 30
0.0
 40
7.3121869999999989
 50
4.1924419999999989
 51
5.9718830000000001
  0
ARC
  5
254
  8
0
 62
     7
 10
62.271958999999988
 20
197.30273199999999
 30
0.0
 40
1.7502269999999991
 50
6.5787849999999999
 51
12.891961
  0
ARC
  5
255
  8
0
 62
     7
 10
62.562569999999987
 20
197.36380399999999
 30
0.0
 40
1.4533249999999991
 50
13.101165
 51
33.709769000000001
  0
ARC
  5
256
  8
0
 62
     7
 10
62.324605000000012
 20
197.24638100000001
 30
0.0
 40
1.7167909999999991
 50
32.562049000000002
 51
53.581772000000001
  0
ARC
  5
257
  8
0
 62
     7
 10
62.382971999999988
 20
197.31676200000001
 30
0.0
 40
1.6255120000000001
 50
53.764517000000012
 51
66.100878000000009
  0
ARC
  5
258
  8
0
 62
     7
 10
62.434096999999987
 20
197.38144199999999
 30
0.0
 40
1.545803
 50
66.862133
 51
70.779508000000007
  0
ARC
  5
259
  8
0
 62
     7
 10
61.878455000000002
 20
195.732822
 30
0.0
 40
3.2854959999999989
 50
71.094515000000015
 51
75.632350000000002
  0
ARC
  5
25A
  8
0
 62
     7
 10
71.771917999999999
 20
192.59517099999999
 30
0.0
 40
6.5511339999999993
 50
105.25207
 51
107.130944
  0
ARC
  5
25B
  8
0
 62
     7
 10
70.334843999999975
 20
197.316283
 30
0.0
 40
1.616271
 50
107.74488100000001
 51
113.105456
  0
ARC
  5
25C
  8
0
 62
     7
 10
70.235213999999985
 20
197.53161399999999
 30
0.0
 40
1.3791349999999989
 50
112.808961
 51
127.353928
  0
ARC
  5
25D
  8
0
 62
     7
 10
70.394958000000003
 20
197.267066
 30
0.0
 40
1.6866799999999991
 50
126.214851
 51
147.61827
  0
ARC
  5
25E
  8
0
 62
     7
 10
70.308118000000007
 20
197.30758299999999
 30
0.0
 40
1.5916920000000001
 50
147.175826
 51
165.978364
  0
ARC
  5
25F
  8
0
 62
     7
 10
70.165618000000009
 20
197.3649659999999
 30
0.0
 40
1.439689999999999
 50
166.82000300000001
 51
170.97500299999999
  0
ARC
  5
260
  8
0
 62
     7
 10
71.744487000000007
 20
197.12367399999999
 30
0.0
 40
3.036877
 50
171.15166600000001
 51
177.10484
  0
ARC
  5
261
  8
0
 62
     7
 10
69.856513000000007
 20
199.75510199999999
 30
0.0
 40
0.861223
 50
282.883241
 51
357.45718499999998
  0
ARC
  5
262
  8
0
 62
     7
 10
62.885480999999999
 20
199.755617
 30
0.0
 40
0.8616659999999999
 50
182.57583799999989
 51
257.14185900000001
  0
LINE
  5
263
  8
0
 62
     7
 10
70.716899999999995
 20
200.208
 30
0.0
 11
70.716899999999995
 21
199.71700000000001
 31
0.0
  0
LINE
  5
264
  8
0
 62
     7
 10
62.024700000000003
 20
199.71700000000001
 30
0.0
 11
62.024700000000003
 21
200.208
 31
0.0
  0
ARC
  5
265
  8
0
 62
     7
 10
61.938661000000003
 20
200.20924600000001
 30
0.0
 40
0.086036
 50
359.05141600000002
 51
9.6507389999999997
  0
ARC
  5
266
  8
0
 62
     7
 10
61.918261000000001
 20
200.20049299999999
 30
0.0
 40
0.107741
 50
12.422558
 51
22.02431
  0
ARC
  5
267
  8
0
 62
     7
 10
61.905552
 20
200.184867
 30
0.0
 40
0.125758
 50
26.456683000000002
 51
36.402441000000003
  0
ARC
  5
268
  8
0
 62
     7
 10
61.868586000000001
 20
200.134919
 30
0.0
 40
0.186051
 50
42.036166999999999
 51
49.657170999999998
  0
ARC
  5
269
  8
0
 62
     7
 10
71.715950000000007
 20
199.237773
 30
0.0
 40
1.4165359999999989
 50
132.82397800000001
 51
133.83931699999999
  0
ARC
  5
26A
  8
0
 62
     7
 10
70.838688000000005
 20
200.18961200000001
 30
0.0
 40
0.125204
 50
146.07003700000001
 51
155.82072099999999
  0
ARC
  5
26B
  8
0
 62
     7
 10
70.772362000000001
 20
200.215003
 30
0.0
 40
0.054445
 50
151.603588
 51
170.84030999999999
  0
ARC
  5
26C
  8
0
 62
     7
 10
70.849508999999983
 20
200.201424
 30
0.0
 40
0.132775
 50
170.355009
 51
177.238057
  0
ARC
  5
26D
  8
0
 62
     7
 10
59.329723000000001
 20
203.42267000000001
 30
0.0
 40
2.6952400000000001
 50
0.823166
 51
3.8580540000000001
  0
ARC
  5
26E
  8
0
 62
     7
 10
61.363690000000013
 20
203.54719499999999
 30
0.0
 40
0.6576260000000002
 50
4.9569989999999988
 51
12.770311
  0
ARC
  5
26F
  8
0
 62
     7
 10
61.317208999999998
 20
203.53513100000001
 30
0.0
 40
0.7056240000000001
 50
12.891368999999999
 51
26.973700000000001
  0
ARC
  5
270
  8
0
 62
     7
 10
59.583143000000007
 20
202.71614400000001
 30
0.0
 40
2.6231390000000001
 50
25.736291000000001
 51
28.372259
  0
ARC
  5
271
  8
0
 62
     7
 10
73.47528299999999
 20
202.566284
 30
0.0
 40
2.972745999999999
 50
151.9835699999999
 51
154.84164200000001
  0
ARC
  5
272
  8
0
 62
     7
 10
71.511143999999987
 20
203.49919600000001
 30
0.0
 40
0.798388
 50
155.517348
 51
165.984072
  0
ARC
  5
273
  8
0
 62
     7
 10
71.336535999999995
 20
203.55853500000001
 30
0.0
 40
0.6147960000000001
 50
167.408646
 51
173.568431
  0
ARC
  5
274
  8
0
 62
     7
 10
72.223069999999993
 20
203.465507
 30
0.0
 40
1.5061869999999999
 50
173.82952
 51
180.15660700000001
  0
ARC
  5
275
  8
0
 62
     7
 10
59.964558999999987
 20
204.36515900000001
 30
0.0
 40
2.366887999999999
 50
320.5075470000001
 51
325.358543
  0
ARC
  5
276
  8
0
 62
     7
 10
61.345093000000013
 20
203.36884499999999
 30
0.0
 40
0.6656620000000001
 50
328.36764599999998
 51
343.605189
  0
ARC
  5
277
  8
0
 62
     7
 10
61.312029000000003
 20
203.38428500000001
 30
0.0
 40
0.701761
 50
343.15776599999998
 51
348.89749
  0
ARC
  5
278
  8
0
 62
     7
 10
60.602992000000008
 20
203.51487299999999
 30
0.0
 40
1.422698999999999
 50
349.23543799999999
 51
357.84563100000003
  0
ARC
  5
279
  8
0
 62
     7
 10
74.589937000000006
 20
203.767505
 30
0.0
 40
3.8851269999999989
 50
184.51911000000001
 51
186.95561499999999
  0
ARC
  5
27A
  8
0
 62
     7
 10
71.541616000000005
 20
203.41154499999999
 30
0.0
 40
0.8162869999999999
 50
188.065529
 51
196.40844299999989
  0
ARC
  5
27B
  8
0
 62
     7
 10
71.394629000000009
 20
203.36711
 30
0.0
 40
0.6627350000000001
 50
196.31294199999999
 51
211.61206999999999
  0
ARC
  5
27C
  8
0
 62
     7
 10
71.459701999999993
 20
203.40437700000001
 30
0.0
 40
0.73769
 50
211.42786799999999
 51
217.154719
  0
ARC
  5
27D
  8
0
 62
     7
 10
72.793816000000007
 20
204.42603800000001
 30
0.0
 40
2.4180559999999991
 50
217.35631699999999
 51
220.36810199999999
  0
ARC
  5
27E
  8
0
 62
     7
 10
70.174302999999995
 20
204.467243
 30
0.0
 40
0.844036
 50
323.28554400000002
 51
359.84456299999999
  0
ARC
  5
27F
  8
0
 62
     7
 10
62.565882999999992
 20
204.46632
 30
0.0
 40
0.841957
 50
180.092986
 51
216.74157600000001
  0
LINE
  5
280
  8
0
 62
     7
 10
71.018299999999996
 20
205.63399999999999
 30
0.0
 11
71.018299999999996
 21
204.465
 31
0.0
  0
LINE
  5
281
  8
0
 62
     7
 10
61.7239
 20
204.465
 30
0.0
 11
61.7239
 21
205.63399999999999
 31
0.0
  0
ARC
  5
282
  8
0
 62
     7
 10
69.706518000000003
 20
201.64645300000001
 30
0.0
 40
1.738497
 50
318.57429200000001
 51
44.264445000000002
  0
ARC
  5
283
  8
0
 62
     7
 10
69.76717099999999
 20
201.69153399999999
 30
0.0
 40
1.7244330000000001
 50
304.87019199999997
 51
316.11701099999999
  0
ARC
  5
284
  8
0
 62
     7
 10
63.030281999999993
 20
201.665244
 30
0.0
 40
1.7355679999999989
 50
147.25944999999999
 51
233.13370699999999
  0
ARC
  5
285
  8
0
 62
     7
 10
62.959755000000001
 20
201.62934899999999
 30
0.0
 40
1.697034999999999
 50
133.52263500000001
 51
144.951649
  0
ARC
  5
286
  8
0
 62
     7
 10
70.073689000000002
 20
189.06932499999999
 30
0.0
 40
1.027625
 50
17.929469999999998
 51
82.060976999999994
  0
ARC
  5
287
  8
0
 62
     7
 10
62.666485999999992
 20
189.071607
 30
0.0
 40
1.0251019999999991
 50
97.850588000000016
 51
162.15892600000001
  0
ARC
  5
288
  8
0
 62
     7
 10
66.608227999999997
 20
187.784222
 30
0.0
 40
5.1717420000000001
 50
161.96156999999999
 51
170.15540100000001
  0
ARC
  5
289
  8
0
 62
     7
 10
69.451056000000008
 20
187.225999
 30
0.0
 40
8.0684059999999995
 50
169.701289
 51
176.43028899999999
  0
ARC
  5
28A
  8
0
 62
     7
 10
73.514498000000003
 20
186.91942399999999
 30
0.0
 40
12.143167999999999
 50
176.18031099999999
 51
192.47107199999999
  0
ARC
  5
28B
  8
0
 62
     7
 10
66.404009000000002
 20
185.40398400000001
 30
0.0
 40
4.8735160000000004
 50
193.12711100000001
 51
201.117118
  0
ARC
  5
28C
  8
0
 62
     7
 10
66.246181000000007
 20
187.81087099999999
 30
0.0
 40
5.0567010000000003
 50
9.7714990000000004
 51
18.145378000000001
  0
ARC
  5
28D
  8
0
 62
     7
 10
60.497925000000002
 20
186.691329
 30
0.0
 40
10.854018
 50
347.43210900000003
 51
352.714673
  0
ARC
  5
28E
  8
0
 62
     7
 10
65.730846999999983
 20
185.558863
 30
0.0
 40
5.5001629999999988
 50
341.417599
 51
347.08487200000002
  0
ARC
  5
28F
  8
0
 62
     7
 10
68.310209
 20
184.71540200000001
 30
0.0
 40
2.7865790000000001
 50
337.48113899999998
 51
340.95552199999997
  0
LINE
  5
290
  8
0
 62
     7
 10
68.209900000000005
 20
194.33500000000001
 30
0.0
 11
68.209900000000005
 21
193.499
 31
0.0
  0
LINE
  5
291
  8
0
 62
     7
 10
64.531999999999996
 20
193.499
 30
0.0
 11
64.531999999999996
 21
194.33500000000001
 31
0.0
  0
LINE
  5
292
  8
0
 62
     7
 10
68.209900000000005
 20
193.499
 30
0.0
 11
68.5441
 21
193.16499999999999
 31
0.0
  0
LINE
  5
293
  8
0
 62
     7
 10
64.1982
 20
193.16499999999999
 30
0.0
 11
64.531999999999996
 21
193.499
 31
0.0
  0
LINE
  5
294
  8
0
 62
     7
 10
68.5441
 20
193.16499999999999
 30
0.0
 11
68.5441
 21
191.827
 31
0.0
  0
LINE
  5
295
  8
0
 62
     7
 10
64.1982
 20
191.827
 30
0.0
 11
64.1982
 21
193.16499999999999
 31
0.0
  0
ARC
  5
296
  8
0
 62
     7
 10
69.375262000000006
 20
190.264082
 30
0.0
 40
0.021497
 50
319.26840600000003
 51
20.92323
  0
ARC
  5
297
  8
0
 62
     7
 10
69.354738999999995
 20
190.308875
 30
0.0
 40
0.069389
 50
282.12539800000002
 51
302.04067600000002
  0
ARC
  5
298
  8
0
 62
     7
 10
69.213364999999996
 20
190.82984300000001
 30
0.0
 40
0.609112
 50
277.27750499999991
 51
284.83455800000002
  0
ARC
  5
299
  8
0
 62
     7
 10
68.790088999999995
 20
193.71753799999999
 30
0.0
 40
3.5275769999999991
 50
276.62795199999999
 51
278.15571399999999
  0
ARC
  5
29A
  8
0
 62
     7
 10
68.412560999999997
 20
197.81482700000001
 30
0.0
 40
7.6416849999999998
 50
273.45225299999998
 51
275.89381300000002
  0
ARC
  5
29B
  8
0
 62
     7
 10
68.22393000000001
 20
199.32285999999999
 30
0.0
 40
9.1588580000000004
 50
271.55453900000009
 51
274.06207899999998
  0
ARC
  5
29C
  8
0
 62
     7
 10
67.538021000000001
 20
212.55520200000001
 30
0.0
 40
22.407319999999999
 50
271.29345899999998
 51
272.38990699999999
  0
ARC
  5
29D
  8
0
 62
     7
 10
67.035938999999999
 20
238.45795200000001
 30
0.0
 40
48.314874000000003
 50
270.70173
 51
271.1953279999999
  0
ARC
  5
29E
  8
0
 62
     7
 10
67.313916000000006
 20
203.888744
 30
0.0
 40
13.745623999999999
 50
269.74535600000002
 51
271.30786599999999
  0
ARC
  5
29F
  8
0
 62
     7
 10
67.076949999999997
 20
212.00306499999999
 30
0.0
 40
21.860516000000001
 50
269.53904599999998
 51
270.46097400000002
  0
LINE
  5
2A0
  8
0
 62
     7
 10
66.9011
 20
190.143
 30
0.0
 11
66.464799999999997
 21
190.14699999999999
 31
0.0
  0
ARC
  5
2A1
  8
0
 62
     7
 10
64.884272999999993
 20
90.966338000000007
 30
0.0
 40
99.192956000000009
 50
89.087035999999998
 51
89.385657000000009
  0
ARC
  5
2A2
  8
0
 62
     7
 10
59.092919999999992
 20
-176.46321599999999
 30
0.0
 40
366.68088799999998
 50
88.928815999999998
 51
89.018997999999996
  0
ARC
  5
2A3
  8
0
 62
     7
 10
67.717236999999983
 20
297.62730099999999
 30
0.0
 40
107.488989
 50
268.42850800000002
 51
268.749146
  0
ARC
  5
2A4
  8
0
 62
     7
 10
65.723777999999996
 20
226.537746
 30
0.0
 40
36.371528000000012
 50
267.59038700000002
 51
268.49642999999998
  0
ARC
  5
2A5
  8
0
 62
     7
 10
65.177495999999991
 20
212.36272
 30
0.0
 40
22.186125000000001
 50
266.21821999999997
 51
267.460826
  0
ARC
  5
2A6
  8
0
 62
     7
 10
64.078756999999996
 20
195.97550000000001
 30
0.0
 40
5.7621399999999996
 50
264.35406599999999
 51
266.37232699999998
  0
ARC
  5
2A7
  8
0
 62
     7
 10
63.597436000000002
 20
191.20190099999999
 30
0.0
 40
0.9643909999999999
 50
258.47766899999999
 51
264.90984800000001
  0
ARC
  5
2A8
  8
0
 62
     7
 10
63.436554000000001
 20
190.38134199999999
 30
0.0
 40
0.128385
 50
241.125653
 51
255.68007700000001
  0
ARC
  5
2A9
  8
0
 62
     7
 10
63.389269999999989
 20
190.29200299999999
 30
0.0
 40
0.027375
 50
195.893382
 51
237.491084
  0
ARC
  5
2AA
  8
0
 62
     7
 10
58.184056999999989
 20
197.727281
 30
0.0
 40
9.0434999999999999
 50
304.77128099999999
 51
306.34676500000012
  0
ARC
  5
2AB
  8
0
 62
     7
 10
62.421024000000003
 20
191.94664499999999
 30
0.0
 40
1.8764380000000001
 50
306.75502299999999
 51
316.74043
  0
ARC
  5
2AC
  8
0
 62
     7
 10
62.709964999999997
 20
191.64489800000001
 30
0.0
 40
1.459387999999999
 50
317.5938470000001
 51
337.22647599999999
  0
ARC
  5
2AD
  8
0
 62
     7
 10
62.515646999999987
 20
191.76071200000001
 30
0.0
 40
1.6836839999999991
 50
336.15219300000001
 51
350.41313600000001
  0
ARC
  5
2AE
  8
0
 62
     7
 10
62.799301
 20
191.69536099999999
 30
0.0
 40
1.3932129999999989
 50
351.12041699999997
 51
355.34986099999998
  0
ARC
  5
2AF
  8
0
 62
     7
 10
60.896955000000013
 20
191.84324599999999
 30
0.0
 40
3.301294
 50
355.46834999999999
 51
359.72203400000001
  0
ARC
  5
2B0
  8
0
 62
     7
 10
59.310170999999997
 20
198.91575499999999
 30
0.0
 40
9.513522
 50
293.70549799999998
 51
295.07194700000002
  0
ARC
  5
2B1
  8
0
 62
     7
 10
62.556155000000011
 20
191.58116899999999
 30
0.0
 40
1.49298
 50
285.46185200000002
 51
292.80986300000001
  0
ARC
  5
2B2
  8
0
 62
     7
 10
62.659115
 20
191.27421799999999
 30
0.0
 40
1.169818
 50
280.01961599999998
 51
284.609532
  0
ARC
  5
2B3
  8
0
 62
     7
 10
62.533865000000013
 20
191.97133299999999
 30
0.0
 40
1.878093999999999
 50
275.46135099999998
 51
280.08220899999998
  0
ARC
  5
2B4
  8
0
 62
     7
 10
62.127685999999997
 20
196.33829700000001
 30
0.0
 40
6.263901999999999
 50
273.65012200000001
 51
275.358114
  0
ARC
  5
2B5
  8
0
 62
     7
 10
70.747728000000009
 20
197.73021499999999
 30
0.0
 40
7.6616140000000001
 50
264.26795299999998
 51
266.01757300000003
  0
ARC
  5
2B6
  8
0
 62
     7
 10
70.156278
 20
191.61656300000001
 30
0.0
 40
1.5196199999999991
 50
255.978095
 51
263.434012
  0
ARC
  5
2B7
  8
0
 62
     7
 10
70.151375999999999
 20
191.498852
 30
0.0
 40
1.404429999999999
 50
245.046019
 51
255.00853599999999
  0
ARC
  5
2B8
  8
0
 62
     7
 10
72.432827000000003
 20
196.659177
 30
0.0
 40
7.0463809999999993
 50
244.51107500000001
 51
245.929283
  0
ARC
  5
2B9
  8
0
 62
     7
 10
74.475277000000006
 20
191.931791
 30
0.0
 40
5.9321449999999993
 50
181.00998000000001
 51
182.983012
  0
ARC
  5
2BA
  8
0
 62
     7
 10
70.237468000000007
 20
191.72727599999999
 30
0.0
 40
1.6895150000000001
 50
183.53563500000001
 51
188.405497
  0
ARC
  5
2BB
  8
0
 62
     7
 10
70.033721999999997
 20
191.70403999999999
 30
0.0
 40
1.4845759999999999
 50
188.66781900000001
 51
204.857326
  0
ARC
  5
2BC
  8
0
 62
     7
 10
70.192781000000011
 20
191.747491
 30
0.0
 40
1.6473930000000001
 50
203.903043
 51
221.27667299999999
  0
ARC
  5
2BD
  8
0
 62
     7
 10
70.027237999999997
 20
191.63107199999999
 30
0.0
 40
1.446342999999999
 50
222.13694799999999
 51
231.88900000000001
  0
ARC
  5
2BE
  8
0
 62
     7
 10
71.595815999999999
 20
193.58033800000001
 30
0.0
 40
3.9482879999999989
 50
231.437377
 51
236.219358
  0
LINE
  5
2BF
  8
0
 62
     7
 10
70.784099999999995
 20
183.648
 30
0.0
 11
70.836100000000002
 21
183.59700000000001
 31
0.0
  0
ARC
  5
2C0
  8
0
 62
     7
 10
63.099533999999998
 20
182.53159500000001
 30
0.0
 40
0.972066
 50
206.13808
 51
245.32515100000001
  0
ARC
  5
2C1
  8
0
 62
     7
 10
63.196725999999998
 20
182.60224099999999
 30
0.0
 40
1.0906359999999999
 50
176.26910100000001
 51
207.22061199999999
  0
ARC
  5
2C2
  8
0
 62
     7
 10
69.553737999999996
 20
182.61045999999999
 30
0.0
 40
1.081944
 50
297.214495
 51
3.3247900000000001
  0
LINE
  5
2C3
  8
0
 62
     7
 10
61.857300000000002
 20
183.548
 30
0.0
 11
61.957900000000002
 21
183.648
 31
0.0
  0
ARC
  5
2C4
  8
0
 62
     7
 10
61.764755999999998
 20
182.693095
 30
0.0
 40
0.34422
 50
356.68808200000001
 51
60.928773999999997
  0
ARC
  5
2C5
  8
0
 62
     7
 10
70.976379000000009
 20
182.69332399999999
 30
0.0
 40
0.343108
 50
114.449933
 51
183.36097599999991
  0
ARC
  5
2C6
  8
0
 62
     7
 10
100.530287
 20
186.91832500000001
 30
0.0
 40
1.7312549999999991
 50
2.0969599999999988
 51
87.903029999999987
  0
ARC
  5
2C7
  8
0
 62
     7
 10
100.59363399999999
 20
186.981673
 30
0.0
 40
1.666747999999999
 50
270.00002000000001
 51
359.99999000000003
  0
LINE
  5
2C8
  8
0
 62
     7
 10
61.47829999999999
 20
185.315
 30
0.0
 11
28.513200000000001
 21
185.315
 31
0.0
  0
LINE
  5
2C9
  8
0
 62
     7
 10
28.513200000000001
 20
188.648
 30
0.0
 11
61.509300000000003
 21
188.648
 31
0.0
  0
LINE
  5
2CA
  8
0
 62
     7
 10
100.59399999999999
 20
185.315
 30
0.0
 11
71.264300000000006
 21
185.315
 31
0.0
  0
LINE
  5
2CB
  8
0
 62
     7
 10
71.229500000000002
 20
188.648
 30
0.0
 11
100.59399999999999
 21
188.648
 31
0.0
  0
LINE
  5
2CC
  8
0
  6
AIGENLINE001
 62
     7
 10
103.91
 20
186.982
 30
0.0
 11
25.2761
 21
186.982
 31
0.0
  0
ARC
  5
2CD
  8
0
 62
     7
 10
128.91215399999999
 20
123.92672399999999
 30
0.0
 40
1.666747999999999
 50
90.0
 51
179.99996999999999
  0
ARC
  5
2CE
  8
0
 62
     7
 10
128.91215399999999
 20
123.92672399999999
 30
0.0
 40
1.666747999999999
 50
0.00001
 51
89.999980000000008
  0
ARC
  5
2CF
  8
0
 62
     7
 10
130.50874099999999
 20
123.91745899999999
 30
0.0
 40
7.5966089999999991
 50
179.9352889999999
 51
204.163421
  0
ARC
  5
2D0
  8
0
 62
     7
 10
130.57117700000001
 20
123.92052099999999
 30
0.0
 40
7.6590410000000002
 50
155.91784100000001
 51
179.95872700000001
  0
ARC
  5
2D1
  8
0
 62
     7
 10
79.176886999999994
 20
102.50963299999999
 30
0.0
 40
19.749998999999999
 50
0.00051
 51
90.000479999999996
  0
ARC
  5
2D2
  8
0
 62
     7
 10
79.176886999999994
 20
102.509984
 30
0.0
 40
19.749998999999999
 50
269.99952000000002
 51
359.99948999999998
  0
ARC
  5
2D3
  8
0
 62
     7
 10
79.176715000000002
 20
102.509805
 30
0.0
 40
23.083667999999999
 50
0.00001
 51
89.999980000000008
  0
ARC
  5
2D4
  8
0
 62
     7
 10
79.176886999999994
 20
102.509985
 30
0.0
 40
23.083494999999999
 50
269.99959200000001
 51
359.99956300000002
  0
LINE
  5
2D5
  8
0
 62
     7
 10
159.648
 20
132.096
 30
0.0
 11
160.58699999999999
 21
130.00899999999999
 31
0.0
  0
LINE
  5
2D6
  8
0
 62
     7
 10
160.58699999999999
 20
130.00899999999999
 30
0.0
 11
160.81700000000001
 21
132.286
 31
0.0
  0
LINE
  5
2D7
  8
0
 62
     7
 10
160.81700000000001
 20
132.286
 30
0.0
 11
159.648
 21
132.096
 31
0.0
  0
LINE
  5
2D8
  8
0
 62
     7
 10
160.58699999999999
 20
130.00899999999999
 30
0.0
 11
155.673
 21
160.28
 31
0.0
  0
TEXT
  5
2D9
  8
0
 62
     7
 10
109.17700000000001
 20
156.11099999999999
 30
0.0
 40
3.0923400000000001
  1
（%%c6\U+00D730樹脂プラグ付）
 41
0.5
  0
TEXT
  5
2DA
  8
0
 62
     7
 10
109.17700000000001
 20
161.54499999999999
 30
0.0
 40
3.0923400000000001
  1
%%c4.5\U+00D749SUS 十字穴付皿頭タッピングネジ
 41
0.5
  0
LINE
  5
2DB
  8
0
 62
     7
 10
155.673
 20
160.28
 30
0.0
 11
109.17700000000001
 21
160.28
 31
0.0
  0
LINE
  5
2DC
  8
0
 62
     7
 10
125.03400000000001
 20
96.879499999999993
 30
0.0
 11
127.245
 21
97.472000000000008
 31
0.0
  0
LINE
  5
2DD
  8
0
 62
     7
 10
127.245
 20
97.472000000000008
 30
0.0
 11
125.03400000000001
 21
98.064600000000013
 31
0.0
  0
LINE
  5
2DE
  8
0
 62
     7
 10
125.03400000000001
 20
98.064600000000013
 30
0.0
 11
125.03400000000001
 21
96.879499999999993
 31
0.0
  0
LINE
  5
2DF
  8
0
 62
     7
 10
132.78999999999999
 20
96.879499999999993
 30
0.0
 11
130.57900000000001
 21
97.472000000000008
 31
0.0
  0
LINE
  5
2E0
  8
0
 62
     7
 10
130.57900000000001
 20
97.472000000000008
 30
0.0
 11
132.78999999999999
 21
98.064600000000013
 31
0.0
  0
LINE
  5
2E1
  8
0
 62
     7
 10
132.78999999999999
 20
98.064600000000013
 30
0.0
 11
132.78999999999999
 21
96.879499999999993
 31
0.0
  0
LINE
  5
2E2
  8
0
 62
     7
 10
139.16300000000001
 20
97.464399999999983
 30
0.0
 11
123.982
 21
97.464399999999983
 31
0.0
  0
LINE
  5
2E3
  8
0
 62
     7
 10
179.18700000000001
 20
116.637
 30
0.0
 11
178.595
 21
114.426
 31
0.0
  0
LINE
  5
2E4
  8
0
 62
     7
 10
178.595
 20
114.426
 30
0.0
 11
178.00200000000001
 21
116.637
 31
0.0
  0
LINE
  5
2E5
  8
0
 62
     7
 10
178.00200000000001
 20
116.637
 30
0.0
 11
179.18700000000001
 21
116.637
 31
0.0
  0
LINE
  5
2E6
  8
0
 62
     7
 10
178.017
 20
131.215
 30
0.0
 11
178.60900000000001
 21
133.42599999999999
 31
0.0
  0
LINE
  5
2E7
  8
0
 62
     7
 10
178.60900000000001
 20
133.42599999999999
 30
0.0
 11
179.202
 21
131.215
 31
0.0
  0
LINE
  5
2E8
  8
0
 62
     7
 10
179.202
 20
131.215
 30
0.0
 11
178.017
 21
131.215
 31
0.0
  0
LINE
  5
2E9
  8
0
 62
     7
 10
178.602
 20
114.426
 30
0.0
 11
178.602
 21
133.42599999999999
 31
0.0
  0
LINE
  5
2EA
  8
0
 62
     7
 10
172.53700000000001
 20
120.803
 30
0.0
 11
171.94399999999999
 21
118.593
 31
0.0
  0
LINE
  5
2EB
  8
0
 62
     7
 10
171.94399999999999
 20
118.593
 30
0.0
 11
171.352
 21
120.803
 31
0.0
  0
LINE
  5
2EC
  8
0
 62
     7
 10
171.352
 20
120.803
 30
0.0
 11
172.53700000000001
 21
120.803
 31
0.0
  0
LINE
  5
2ED
  8
0
 62
     7
 10
171.36699999999999
 20
127.04900000000001
 30
0.0
 11
171.959
 21
129.25999999999999
 31
0.0
  0
LINE
  5
2EE
  8
0
 62
     7
 10
171.959
 20
129.25999999999999
 30
0.0
 11
172.55099999999999
 21
127.04900000000001
 31
0.0
  0
LINE
  5
2EF
  8
0
 62
     7
 10
172.55099999999999
 20
127.04900000000001
 30
0.0
 11
171.36699999999999
 21
127.04900000000001
 31
0.0
  0
LINE
  5
2F0
  8
0
 62
     7
 10
171.952
 20
118.593
 30
0.0
 11
171.952
 21
129.25999999999999
 31
0.0
  0
LINE
  5
2F1
  8
0
 62
     7
 10
131.12299999999999
 20
68.839600000000004
 30
0.0
 11
128.91200000000001
 21
69.432199999999995
 31
0.0
  0
LINE
  5
2F2
  8
0
 62
     7
 10
128.91200000000001
 20
69.432199999999995
 30
0.0
 11
131.12299999999999
 21
70.024799999999999
 31
0.0
  0
LINE
  5
2F3
  8
0
 62
     7
 10
131.12299999999999
 20
70.024799999999999
 30
0.0
 11
131.12299999999999
 21
68.839600000000004
 31
0.0
  0
LINE
  5
2F4
  8
0
 62
     7
 10
150.03399999999999
 20
70.009600000000006
 30
0.0
 11
152.245
 21
69.417699999999996
 31
0.0
  0
LINE
  5
2F5
  8
0
 62
     7
 10
152.245
 20
69.417699999999996
 30
0.0
 11
150.03399999999999
 21
68.825199999999995
 31
0.0
  0
LINE
  5
2F6
  8
0
 62
     7
 10
150.03399999999999
 20
68.825199999999995
 30
0.0
 11
150.03399999999999
 21
70.009600000000006
 31
0.0
  0
LINE
  5
2F7
  8
0
 62
     7
 10
128.91200000000001
 20
69.424599999999998
 30
0.0
 11
152.245
 21
69.424599999999998
 31
0.0
  0
LINE
  5
2F8
  8
0
 62
     7
 10
125.123
 20
143.09
 30
0.0
 11
122.91200000000001
 21
143.68299999999999
 31
0.0
  0
LINE
  5
2F9
  8
0
 62
     7
 10
122.91200000000001
 20
143.68299999999999
 30
0.0
 11
125.123
 21
144.27500000000001
 31
0.0
  0
LINE
  5
2FA
  8
0
 62
     7
 10
125.123
 20
144.27500000000001
 30
0.0
 11
125.123
 21
143.09
 31
0.0
  0
LINE
  5
2FB
  8
0
 62
     7
 10
150.03399999999999
 20
144.25999999999999
 30
0.0
 11
152.245
 21
143.66800000000001
 31
0.0
  0
LINE
  5
2FC
  8
0
 62
     7
 10
152.245
 20
143.66800000000001
 30
0.0
 11
150.03399999999999
 21
143.07599999999999
 31
0.0
  0
LINE
  5
2FD
  8
0
 62
     7
 10
150.03399999999999
 20
143.07599999999999
 30
0.0
 11
150.03399999999999
 21
144.25999999999999
 31
0.0
  0
LINE
  5
2FE
  8
0
 62
     7
 10
122.91200000000001
 20
143.67500000000001
 30
0.0
 11
152.245
 21
143.67500000000001
 31
0.0
  0
LINE
  5
2FF
  8
0
 62
     7
 10
172.65899999999999
 20
129.25999999999999
 30
0.0
 11
169.053
 21
129.25999999999999
 31
0.0
  0
LINE
  5
300
  8
0
 62
     7
 10
179.309
 20
133.42599999999999
 30
0.0
 11
152.94499999999999
 21
133.42599999999999
 31
0.0
  0
LINE
  5
301
  8
0
  6
AIGENLINE001
 62
     7
 10
78.799800000000005
 20
123.926
 30
0.0
 11
54.2134
 21
123.926
 31
0.0
  0
LINE
  5
302
  8
0
  6
AIGENLINE001
 62
     7
 10
155.17699999999999
 20
123.926
 30
0.0
 11
120.801
 21
123.926
 31
0.0
  0
LINE
  5
303
  8
0
 62
     7
 10
179.309
 20
114.426
 30
0.0
 11
152.94499999999999
 21
114.426
 31
0.0
  0
LINE
  5
304
  8
0
 62
     7
 10
172.65899999999999
 20
118.593
 30
0.0
 11
169.053
 21
118.593
 31
0.0
  0
LINE
  5
305
  8
0
 62
     7
 10
23.450900000000001
 20
87.214500000000001
 30
0.0
 11
22.8584
 21
89.425299999999993
 31
0.0
  0
LINE
  5
306
  8
0
 62
     7
 10
22.8584
 20
89.425299999999993
 30
0.0
 11
22.265799999999999
 21
87.214500000000001
 31
0.0
  0
LINE
  5
307
  8
0
 62
     7
 10
22.265799999999999
 20
87.214500000000001
 30
0.0
 11
23.450900000000001
 21
87.214500000000001
 31
0.0
  0
LINE
  5
308
  8
0
 62
     7
 10
22.280999999999999
 20
81.637600000000006
 30
0.0
 11
22.872800000000002
 21
79.426500000000004
 31
0.0
  0
LINE
  5
309
  8
0
 62
     7
 10
22.872800000000002
 20
79.426500000000004
 30
0.0
 11
23.465399999999999
 21
81.637600000000006
 31
0.0
  0
LINE
  5
30A
  8
0
 62
     7
 10
23.465399999999999
 20
81.637600000000006
 30
0.0
 11
22.280999999999999
 21
81.637600000000006
 31
0.0
  0
LINE
  5
30B
  8
0
 62
     7
 10
22.8659
 20
89.425299999999993
 30
0.0
 11
22.8659
 21
79.426500000000004
 31
0.0
  0
LINE
  5
30C
  8
0
 62
     7
 10
110.943
 20
123.383
 30
0.0
 11
110.351
 21
125.593
 31
0.0
  0
LINE
  5
30D
  8
0
 62
     7
 10
110.351
 20
125.593
 30
0.0
 11
109.758
 21
123.383
 31
0.0
  0
LINE
  5
30E
  8
0
 62
     7
 10
109.758
 20
123.383
 30
0.0
 11
110.943
 21
123.383
 31
0.0
  0
LINE
  5
30F
  8
0
 62
     7
 10
109.773
 20
81.637600000000006
 30
0.0
 11
110.36499999999999
 21
79.426500000000004
 31
0.0
  0
LINE
  5
310
  8
0
 62
     7
 10
110.36499999999999
 20
79.426500000000004
 30
0.0
 11
110.958
 21
81.637600000000006
 31
0.0
  0
LINE
  5
311
  8
0
 62
     7
 10
110.958
 20
81.637600000000006
 30
0.0
 11
109.773
 21
81.637600000000006
 31
0.0
  0
LINE
  5
312
  8
0
 62
     7
 10
110.358
 20
125.593
 30
0.0
 11
110.358
 21
79.426500000000004
 31
0.0
  0
LINE
  5
313
  8
0
 62
     7
 10
117.985
 20
131.21600000000001
 30
0.0
 11
117.393
 21
133.42599999999999
 31
0.0
  0
LINE
  5
314
  8
0
 62
     7
 10
117.393
 20
133.42599999999999
 30
0.0
 11
116.8
 21
131.21600000000001
 31
0.0
  0
LINE
  5
315
  8
0
 62
     7
 10
116.8
 20
131.21600000000001
 30
0.0
 11
117.985
 21
131.21600000000001
 31
0.0
  0
LINE
  5
316
  8
0
 62
     7
 10
116.815
 20
81.637600000000006
 30
0.0
 11
117.407
 21
79.426500000000004
 31
0.0
  0
LINE
  5
317
  8
0
 62
     7
 10
117.407
 20
79.426500000000004
 30
0.0
 11
118.0
 21
81.637600000000006
 31
0.0
  0
LINE
  5
318
  8
0
 62
     7
 10
118.0
 20
81.637600000000006
 30
0.0
 11
116.815
 21
81.637600000000006
 31
0.0
  0
LINE
  5
319
  8
0
 62
     7
 10
117.40000000000001
 20
133.42599999999999
 30
0.0
 11
117.40000000000001
 21
79.426500000000004
 31
0.0
  0
LINE
  5
31A
  8
0
 62
     7
 10
22.164200000000001
 20
89.425299999999993
 30
0.0
 11
27.814699999999998
 21
89.425299999999993
 31
0.0
  0
LINE
  5
31B
  8
0
 62
     7
 10
22.172799999999999
 20
79.426500000000004
 30
0.0
 11
34.782899999999998
 21
79.426500000000004
 31
0.0
  0
LINE
  5
31C
  8
0
 62
     7
 10
85.549199999999999
 20
79.426500000000004
 30
0.0
 11
118.093
 21
79.426500000000004
 31
0.0
  0
LINE
  5
31D
  8
0
 62
     7
 10
85.530400000000014
 20
125.593
 30
0.0
 11
111.051
 21
125.593
 31
0.0
  0
LINE
  5
31E
  8
0
 62
     7
 10
69.145600000000002
 20
133.42599999999999
 30
0.0
 11
118.093
 21
133.42599999999999
 31
0.0
  0
LINE
  5
31F
  8
0
 62
     7
 10
100.05
 20
68.839600000000004
 30
0.0
 11
102.26000000000001
 21
69.432199999999995
 31
0.0
  0
LINE
  5
320
  8
0
 62
     7
 10
102.26000000000001
 20
69.432199999999995
 30
0.0
 11
100.05
 21
70.024799999999999
 31
0.0
  0
LINE
  5
321
  8
0
 62
     7
 10
100.05
 20
70.024799999999999
 30
0.0
 11
100.05
 21
68.839600000000004
 31
0.0
  0
LINE
  5
322
  8
0
 62
     7
 10
29.2043
 20
70.009600000000006
 30
0.0
 11
26.993200000000002
 21
69.417699999999996
 31
0.0
  0
LINE
  5
323
  8
0
 62
     7
 10
26.993200000000002
 20
69.417699999999996
 30
0.0
 11
29.2043
 21
68.825199999999995
 31
0.0
  0
LINE
  5
324
  8
0
 62
     7
 10
29.2043
 20
68.825199999999995
 30
0.0
 11
29.2043
 21
70.009600000000006
 31
0.0
  0
LINE
  5
325
  8
0
 62
     7
 10
102.26000000000001
 20
69.424599999999998
 30
0.0
 11
26.993200000000002
 21
69.424599999999998
 31
0.0
  0
LINE
  5
326
  8
0
 62
     7
 10
152.245
 20
113.726
 30
0.0
 11
152.245
 21
68.680499999999995
 31
0.0
  0
LINE
  5
327
  8
0
 62
     7
 10
128.91200000000001
 20
77.077299999999994
 30
0.0
 11
128.91200000000001
 21
68.680499999999995
 31
0.0
  0
LINE
  5
328
  8
0
 62
     7
 10
152.245
 20
144.38300000000001
 30
0.0
 11
152.245
 21
134.126
 31
0.0
  0
LINE
  5
329
  8
0
 62
     7
 10
122.91200000000001
 20
144.38300000000001
 30
0.0
 11
122.91200000000001
 21
128.00200000000001
 31
0.0
  0
LINE
  5
32A
  8
0
 62
     7
 10
26.993200000000002
 20
85.113
 30
0.0
 11
26.993200000000002
 21
68.732200000000006
 31
0.0
  0
LINE
  5
32B
  8
0
 62
     7
 10
102.26000000000001
 20
92.823499999999996
 30
0.0
 11
102.26000000000001
 21
68.732200000000006
 31
0.0
  0
LINE
  5
32C
  8
0
 62
     7
 10
71.109099999999998
 20
122.26000000000001
 30
0.0
 11
71.109099999999998
 21
122.18600000000001
 31
0.0
  0
LINE
  5
32D
  8
0
 62
     7
 10
71.109099999999998
 20
122.18600000000001
 30
0.0
 11
71.109099999999998
 21
122.151
 31
0.0
  0
LINE
  5
32E
  8
0
 62
     7
 10
71.109099999999998
 20
125.593
 30
0.0
 11
71.109099999999998
 21
125.705
 31
0.0
  0
LINE
  5
32F
  8
0
 62
     7
 10
71.109099999999998
 20
125.705
 30
0.0
 11
71.109099999999998
 21
125.66500000000001
 31
0.0
  0
LINE
  5
330
  8
0
 62
     7
 10
71.109099999999998
 20
125.66500000000001
 30
0.0
 11
71.109099999999998
 21
125.702
 31
0.0
  0
ARC
  5
331
  8
0
 62
     7
 10
70.536603999999997
 20
128.47493
 30
0.0
 40
1.2716689999999999
 50
238.72663
 51
240.11494300000001
  0
ARC
  5
332
  8
0
 62
     7
 10
35.129714
 20
66.894648000000004
 30
0.0
 40
69.761977000000002
 50
59.88089200000001
 51
60.102102000000009
  0
ARC
  5
333
  8
0
 62
     7
 10
64.910713000000001
 20
118.022417
 30
0.0
 40
10.5937
 50
59.829014000000001
 51
60.444584999999996
  0
ARC
  5
334
  8
0
 62
     7
 10
71.053953000000007
 20
128.555633
 30
0.0
 40
1.600152
 50
239.21290999999999
 51
240.440077
  0
LINE
  5
335
  8
0
 62
     7
 10
70.2654
 20
120.68899999999999
 30
0.0
 11
70.267799999999994
 21
120.69
 31
0.0
  0
ARC
  5
336
  8
0
 62
     7
 10
70.316052999999997
 20
120.566469
 30
0.0
 40
0.132649
 50
111.32342800000001
 51
128.656274
  0
ARC
  5
337
  8
0
 62
     7
 10
36.501905000000001
 20
179.30564000000001
 30
0.0
 40
67.645632999999975
 50
299.82674300000002
 51
299.91053099999999
  0
ARC
  5
338
  8
0
 62
     7
 10
19.923537
 20
207.51597699999999
 30
0.0
 40
100.365388
 50
299.88970599999999
 51
300.02715499999999
  0
ARC
  5
339
  8
0
 62
     7
 10
60.658618999999987
 20
136.37714399999999
 30
0.0
 40
18.389887999999999
 50
299.9070200000001
 51
300.307165
  0
ARC
  5
33A
  8
0
 62
     7
 10
66.338607999999994
 20
123.922434
 30
0.0
 40
5.0926269999999993
 50
20.448830000000001
 51
39.549465000000012
  0
ARC
  5
33B
  8
0
 62
     7
 10
66.345763000000005
 20
123.926293
 30
0.0
 40
5.0846339999999994
 50
320.445177
 51
339.56195400000001
  0
ARC
  5
33C
  8
0
 62
     7
 10
66.253512000000001
 20
123.79297800000001
 30
0.0
 40
5.1017529999999987
 50
20.661683
 51
88.962406999999985
  0
ARC
  5
33D
  8
0
 62
     7
 10
66.254283000000001
 20
124.05846699999999
 30
0.0
 40
5.1007680000000004
 50
271.02913100000012
 51
339.35407199999997
  0
ARC
  5
33E
  8
0
 62
     7
 10
66.432535000000001
 20
124.052982
 30
0.0
 40
5.095197999999999
 50
202.17224100000001
 51
269.02570500000002
  0
ARC
  5
33F
  8
0
  6
AIGENLINE002
 62
     7
 10
66.341937000000001
 20
118.621917
 30
0.0
 40
0.779463
 50
272.12751900000001
 51
357.89880299999999
  0
ARC
  5
340
  8
0
  6
AIGENLINE002
 62
     7
 10
66.399872000000002
 20
118.62197999999999
 30
0.0
 40
0.7795270000000001
 50
182.10564500000001
 51
267.86807199999998
  0
ARC
  5
341
  8
0
  6
AIGENLINE002
 62
     7
 10
66.399461000000002
 20
118.564751
 30
0.0
 40
0.7791140000000001
 50
92.102779999999996
 51
177.89718999999999
  0
ARC
  5
342
  8
0
  6
AIGENLINE002
 62
     7
 10
66.341898
 20
118.564364
 30
0.0
 40
0.779516
 50
2.130196999999999
 51
87.869793000000001
  0
LINE
  5
343
  8
0
  6
AIGENLINE001
 62
     7
 10
64.004099999999994
 20
118.593
 30
0.0
 11
68.737499999999997
 21
118.593
 31
0.0
  0
ARC
  5
344
  8
0
  6
AIGENLINE002
 62
     7
 10
66.370873000000003
 20
129.259939
 30
0.0
 40
0.7500020000000001
 50
270.00002000000001
 51
359.99999000000003
  0
ARC
  5
345
  8
0
  6
AIGENLINE002
 62
     7
 10
66.370873000000003
 20
129.25993799999989
 30
0.0
 40
0.7500020000000001
 50
179.99996999999999
 51
270.00002000000001
  0
ARC
  5
346
  8
0
  6
AIGENLINE002
 62
     7
 10
66.370873000000003
 20
129.25993799999989
 30
0.0
 40
0.7500020000000001
 50
90.0
 51
179.99996999999999
  0
ARC
  5
347
  8
0
  6
AIGENLINE002
 62
     7
 10
66.370873000000003
 20
129.25993799999989
 30
0.0
 40
0.7500020000000001
 50
0.00001
 51
89.999980000000008
  0
LINE
  5
348
  8
0
 62
     7
 10
26.9999
 20
87.567300000000003
 30
0.0
 11
27.0337
 21
87.581800000000015
 31
0.0
  0
LINE
  5
349
  8
0
 62
     7
 10
27.0337
 20
87.581800000000015
 30
0.0
 11
27.132400000000001
 21
87.623800000000003
 31
0.0
  0
LINE
  5
34A
  8
0
 62
     7
 10
27.132400000000001
 20
87.623800000000003
 30
0.0
 11
27.292899999999999
 21
87.692000000000007
 31
0.0
  0
LINE
  5
34B
  8
0
 62
     7
 10
27.292899999999999
 20
87.692000000000007
 30
0.0
 11
27.507400000000001
 21
87.783699999999996
 31
0.0
  0
LINE
  5
34C
  8
0
 62
     7
 10
27.507400000000001
 20
87.783699999999996
 30
0.0
 11
27.7666
 21
87.893900000000002
 31
0.0
  0
LINE
  5
34D
  8
0
 62
     7
 10
27.7666
 20
87.893900000000002
 30
0.0
 11
28.059999999999999
 21
88.017899999999997
 31
0.0
  0
LINE
  5
34E
  8
0
 62
     7
 10
28.059999999999999
 20
88.017899999999997
 30
0.0
 11
28.3733
 21
88.151600000000002
 31
0.0
  0
LINE
  5
34F
  8
0
 62
     7
 10
28.3733
 20
88.151600000000002
 30
0.0
 11
28.693899999999999
 21
88.287999999999997
 31
0.0
  0
LINE
  5
350
  8
0
 62
     7
 10
28.693899999999999
 20
88.287999999999997
 30
0.0
 11
29.0077
 21
88.421700000000016
 31
0.0
  0
LINE
  5
351
  8
0
 62
     7
 10
29.0077
 20
88.421700000000016
 30
0.0
 11
29.300599999999999
 21
88.546099999999996
 31
0.0
  0
LINE
  5
352
  8
0
 62
     7
 10
29.300599999999999
 20
88.546099999999996
 30
0.0
 11
29.559799999999999
 21
88.656599999999997
 31
0.0
  0
LINE
  5
353
  8
0
 62
     7
 10
29.559799999999999
 20
88.656599999999997
 30
0.0
 11
29.7743
 21
88.747900000000001
 31
0.0
  0
LINE
  5
354
  8
0
 62
     7
 10
29.7743
 20
88.747900000000001
 30
0.0
 11
29.934799999999999
 21
88.816199999999995
 31
0.0
  0
LINE
  5
355
  8
0
 62
     7
 10
29.934799999999999
 20
88.816199999999995
 30
0.0
 11
30.0335
 21
88.858199999999997
 31
0.0
  0
LINE
  5
356
  8
0
 62
     7
 10
30.0335
 20
88.858199999999997
 30
0.0
 11
30.067399999999999
 21
88.872699999999995
 31
0.0
  0
LINE
  5
357
  8
0
 62
     7
 10
28.8749
 20
89.353300000000004
 30
0.0
 11
28.840499999999999
 21
89.338800000000006
 31
0.0
  0
LINE
  5
358
  8
0
 62
     7
 10
28.840499999999999
 20
89.338800000000006
 30
0.0
 11
28.741800000000001
 21
89.2971
 31
0.0
  0
LINE
  5
359
  8
0
 62
     7
 10
28.741800000000001
 20
89.2971
 30
0.0
 11
28.587399999999999
 21
89.230900000000005
 31
0.0
  0
LINE
  5
35A
  8
0
 62
     7
 10
28.587399999999999
 20
89.230900000000005
 30
0.0
 11
28.392900000000001
 21
89.148300000000006
 31
0.0
  0
LINE
  5
35B
  8
0
 62
     7
 10
28.392900000000001
 20
89.148300000000006
 30
0.0
 11
28.177800000000001
 21
89.056299999999993
 31
0.0
  0
LINE
  5
35C
  8
0
 62
     7
 10
28.177800000000001
 20
89.056299999999993
 30
0.0
 11
27.9621
 21
88.965000000000003
 31
0.0
  0
LINE
  5
35D
  8
0
 62
     7
 10
27.9621
 20
88.965000000000003
 30
0.0
 11
27.767800000000001
 21
88.882599999999996
 31
0.0
  0
LINE
  5
35E
  8
0
 62
     7
 10
27.767800000000001
 20
88.882599999999996
 30
0.0
 11
27.613499999999998
 21
88.816800000000015
 31
0.0
  0
LINE
  5
35F
  8
0
 62
     7
 10
27.613499999999998
 20
88.816800000000015
 30
0.0
 11
27.514600000000002
 21
88.774799999999999
 31
0.0
  0
LINE
  5
360
  8
0
 62
     7
 10
27.514600000000002
 20
88.774799999999999
 30
0.0
 11
27.4803
 21
88.760000000000005
 31
0.0
  0
LINE
  5
361
  8
0
 62
     7
 10
27.059200000000001
 20
87.428100000000001
 30
0.0
 11
27.092600000000001
 21
87.442599999999999
 31
0.0
  0
LINE
  5
362
  8
0
 62
     7
 10
27.092600000000001
 20
87.442599999999999
 30
0.0
 11
27.192
 21
87.484599999999986
 31
0.0
  0
LINE
  5
363
  8
0
 62
     7
 10
27.192
 20
87.484599999999986
 30
0.0
 11
27.352
 21
87.552099999999996
 31
0.0
  0
LINE
  5
364
  8
0
 62
     7
 10
27.352
 20
87.552099999999996
 30
0.0
 11
27.566500000000001
 21
87.643799999999999
 31
0.0
  0
LINE
  5
365
  8
0
 62
     7
 10
27.566500000000001
 20
87.643799999999999
 30
0.0
 11
27.8262
 21
87.753999999999991
 31
0.0
  0
LINE
  5
366
  8
0
 62
     7
 10
27.8262
 20
87.753999999999991
 30
0.0
 11
28.119
 21
87.878699999999995
 31
0.0
  0
LINE
  5
367
  8
0
 62
     7
 10
28.119
 20
87.878699999999995
 30
0.0
 11
28.432700000000001
 21
88.012399999999985
 31
0.0
  0
LINE
  5
368
  8
0
 62
     7
 10
28.432700000000001
 20
88.012399999999985
 30
0.0
 11
28.753299999999999
 21
88.148799999999994
 31
0.0
  0
LINE
  5
369
  8
0
 62
     7
 10
28.753299999999999
 20
88.148799999999994
 30
0.0
 11
29.066600000000001
 21
88.282499999999999
 31
0.0
  0
LINE
  5
36A
  8
0
 62
     7
 10
29.066600000000001
 20
88.282499999999999
 30
0.0
 11
29.3598
 21
88.406899999999993
 31
0.0
  0
LINE
  5
36B
  8
0
 62
     7
 10
29.3598
 20
88.406899999999993
 30
0.0
 11
29.6189
 21
88.517499999999998
 31
0.0
  0
LINE
  5
36C
  8
0
 62
     7
 10
29.6189
 20
88.517499999999998
 30
0.0
 11
29.8337
 21
88.608799999999988
 31
0.0
  0
LINE
  5
36D
  8
0
 62
     7
 10
29.8337
 20
88.608799999999988
 30
0.0
 11
29.9939
 21
88.677000000000007
 31
0.0
  0
LINE
  5
36E
  8
0
 62
     7
 10
29.9939
 20
88.677000000000007
 30
0.0
 11
30.0931
 21
88.719300000000004
 31
0.0
  0
LINE
  5
36F
  8
0
 62
     7
 10
30.0931
 20
88.719300000000004
 30
0.0
 11
30.1265
 21
88.733099999999993
 31
0.0
  0
LINE
  5
370
  8
0
 62
     7
 10
29.987300000000001
 20
88.673900000000003
 30
0.0
 11
29.927700000000002
 21
88.813100000000006
 31
0.0
  0
LINE
  5
371
  8
0
 62
     7
 10
27.139299999999999
 20
87.626599999999996
 30
0.0
 11
27.198699999999999
 21
87.488100000000003
 31
0.0
  0
ARC
  5
372
  8
0
 62
     7
 10
29.212326000000001
 20
88.470668999999987
 30
0.0
 40
0.9448819999999999
 50
25.178301000000001
 51
110.92237299999999
  0
ARC
  5
373
  8
0
 62
     7
 10
27.836513
 20
87.923419999999993
 30
0.0
 40
0.909253
 50
113.062802
 51
203.05786800000001
  0
LINE
  5
374
  8
0
 62
     7
 10
79.176699999999997
 20
82.760000000000005
 30
0.0
 11
39.59470000000001
 21
82.760000000000005
 31
0.0
  0
LINE
  5
375
  8
0
 62
     7
 10
39.59470000000001
 20
79.426500000000004
 30
0.0
 11
79.176699999999997
 21
79.426500000000004
 31
0.0
  0
ARC
  5
376
  8
0
 62
     7
 10
39.292028000000002
 20
90.601596000000001
 30
0.0
 40
9.1658190000000008
 50
203.01879199999999
 51
211.59934000000001
  0
ARC
  5
377
  8
0
 62
     7
 10
36.966408000000001
 20
89.228368000000003
 30
0.0
 40
6.4656589999999987
 50
212.03306699999999
 51
226.141549
  0
ARC
  5
378
  8
0
 62
     7
 10
36.268872999999999
 20
88.592516999999987
 30
0.0
 40
5.5242209999999989
 50
226.788679
 51
248.01693700000001
  0
ARC
  5
379
  8
0
 62
     7
 10
36.92758400000001
 20
90.088514000000004
 30
0.0
 40
7.1582080000000001
 50
247.61017200000001
 51
257.22677700000003
  0
ARC
  5
37A
  8
0
 62
     7
 10
37.676791999999999
 20
93.072310999999999
 30
0.0
 40
10.234055
 50
256.82944099999997
 51
262.62228800000003
  0
ARC
  5
37B
  8
0
 62
     7
 10
38.357182999999999
 20
97.863125999999994
 30
0.0
 40
15.072694
 50
262.39584500000001
 51
265.92326800000001
  0
ARC
  5
37C
  8
0
 62
     7
 10
38.951314000000004
 20
105.65002800000001
 30
0.0
 40
22.882165000000001
 50
265.82552099999998
 51
268.51250299999998
  0
ARC
  5
37D
  8
0
 62
     7
 10
39.49615
 20
124.05359799999999
 30
0.0
 40
41.293729999999996
 50
268.41965899999991
 51
270.136796
  0
ARC
  5
37E
  8
0
 62
     7
 10
39.096583000000003
 20
90.516851000000003
 30
0.0
 40
12.285641
 50
203.016886
 51
213.198418
  0
ARC
  5
37F
  8
0
 62
     7
 10
36.351797999999988
 20
88.824438999999998
 30
0.0
 40
9.0626130000000007
 50
213.7465839999999
 51
239.79565199999999
  0
ARC
  5
380
  8
0
 62
     7
 10
36.578271000000001
 20
89.424378000000004
 30
0.0
 40
9.6956170000000004
 50
240.422628
 51
252.695291
  0
ARC
  5
381
  8
0
 62
     7
 10
37.622523999999999
 20
92.467894000000001
 30
0.0
 40
12.912315
 50
252.288467
 51
260.03445900000003
  0
ARC
  5
382
  8
0
 62
     7
 10
38.597177000000002
 20
97.491198999999995
 30
0.0
 40
18.028725999999999
 50
259.74642
 51
265.64476300000001
  0
ARC
  5
383
  8
0
 62
     7
 10
39.339341999999988
 20
105.61776
 30
0.0
 40
26.188468
 50
265.37590299999999
 51
269.15549399999998
  0
ARC
  5
384
  8
0
 62
     7
 10
39.588648999999997
 20
115.163895
 30
0.0
 40
35.737406
 50
268.98141500000003
 51
270.00976400000002
  0
LINE
  5
385
  8
0
 62
     7
 10
30.856000000000002
 20
87.017499999999998
 30
0.0
 11
30.1265
 21
88.733099999999993
 31
0.0
  0
LINE
  5
386
  8
0
 62
     7
 10
27.059200000000001
 20
87.428100000000001
 30
0.0
 11
27.789000000000001
 21
85.713099999999997
 31
0.0
  0
LINE
  5
387
  8
0
 62
     7
 10
70.936499999999995
 20
122.26000000000001
 30
0.0
 11
74.680800000000005
 21
122.26000000000001
 31
0.0
  0
LINE
  5
388
  8
0
 62
     7
 10
74.680800000000005
 20
122.26000000000001
 30
0.0
 11
75.699399999999983
 21
122.26000000000001
 31
0.0
  0
LINE
  5
389
  8
0
 62
     7
 10
75.699399999999983
 20
122.26000000000001
 30
0.0
 11
79.176699999999997
 21
122.26000000000001
 31
0.0
  0
LINE
  5
38A
  8
0
 62
     7
 10
79.176699999999997
 20
125.593
 30
0.0
 11
75.699600000000004
 21
125.593
 31
0.0
  0
LINE
  5
38B
  8
0
 62
     7
 10
75.699600000000004
 20
125.593
 30
0.0
 11
70.937899999999999
 21
125.593
 31
0.0
  0
ARC
  5
38C
  8
0
 62
     7
 10
66.133870999999999
 20
124.18645100000001
 30
0.0
 40
8.7617279999999997
 50
271.38326599999999
 51
347.29838599999999
  0
ARC
  5
38D
  8
0
 62
     7
 10
66.345464000000007
 20
123.926637
 30
0.0
 40
8.4993610000000004
 50
179.99939000000001
 51
269.999439
  0
ARC
  5
38E
  8
0
 62
     7
 10
66.345208
 20
123.926551
 30
0.0
 40
8.4991059999999994
 50
89.998839000000004
 51
179.99880899999999
  0
ARC
  5
38F
  8
0
 62
     7
 10
66.128154000000009
 20
123.657764
 30
0.0
 40
8.7705830000000002
 50
13.059818
 51
88.580771999999996
  0
ARC
  5
390
  8
0
 62
     7
 10
66.098693999999995
 20
124.222825
 30
0.0
 40
9.7994610000000009
 50
271.44249000000002
 51
348.445404
  0
ARC
  5
391
  8
0
 62
     7
 10
66.345464000000007
 20
123.926637
 30
0.0
 40
9.5001679999999986
 50
179.99945099999999
 51
269.99950000000001
  0
ARC
  5
392
  8
0
 62
     7
 10
66.345208999999997
 20
123.926551
 30
0.0
 40
9.4999130000000012
 50
89.998960999999994
 51
179.998931
  0
ARC
  5
393
  8
0
 62
     7
 10
66.088346999999999
 20
123.617709
 30
0.0
 40
9.8121210000000012
 50
11.614412
 51
88.498933999999991
  0
LINE
  5
394
  8
0
 62
     7
 10
164.91200000000001
 20
128.50899999999999
 30
0.0
 11
164.22799999999989
 21
130.00899999999999
 31
0.0
  0
LINE
  5
395
  8
0
 62
     7
 10
164.00200000000001
 20
128.50899999999999
 30
0.0
 11
163.31800000000001
 21
130.00899999999999
 31
0.0
  0
LINE
  5
396
  8
0
 62
     7
 10
163.09200000000001
 20
128.50899999999999
 30
0.0
 11
162.40700000000001
 21
130.00899999999999
 31
0.0
  0
LINE
  5
397
  8
0
 62
     7
 10
162.18100000000001
 20
128.50899999999999
 30
0.0
 11
161.49700000000001
 21
130.00899999999999
 31
0.0
  0
LINE
  5
398
  8
0
 62
     7
 10
161.27099999999999
 20
128.50899999999999
 30
0.0
 11
160.58699999999999
 21
130.00899999999999
 31
0.0
  0
LINE
  5
399
  8
0
 62
     7
 10
160.36099999999999
 20
128.50899999999999
 30
0.0
 11
159.67699999999999
 21
130.00899999999999
 31
0.0
  0
LINE
  5
39A
  8
0
 62
     7
 10
159.44999999999999
 20
128.50899999999999
 30
0.0
 11
158.767
 21
130.00899999999999
 31
0.0
  0
LINE
  5
39B
  8
0
 62
     7
 10
158.53999999999999
 20
128.50899999999999
 30
0.0
 11
157.85599999999999
 21
130.00899999999999
 31
0.0
  0
LINE
  5
39C
  8
0
 62
     7
 10
157.63
 20
128.50899999999999
 30
0.0
 11
156.946
 21
130.00899999999999
 31
0.0
  0
LINE
  5
39D
  8
0
 62
     7
 10
156.72
 20
128.50899999999999
 30
0.0
 11
156.036
 21
130.00899999999999
 31
0.0
  0
LINE
  5
39E
  8
0
 62
     7
 10
155.81
 20
128.50899999999999
 30
0.0
 11
155.126
 21
130.00899999999999
 31
0.0
  0
LINE
  5
39F
  8
0
 62
     7
 10
154.899
 20
128.50899999999999
 30
0.0
 11
154.21600000000001
 21
130.00899999999999
 31
0.0
  0
LINE
  5
3A0
  8
0
 62
     7
 10
153.989
 20
128.50899999999999
 30
0.0
 11
153.30500000000001
 21
130.00899999999999
 31
0.0
  0
LINE
  5
3A1
  8
0
 62
     7
 10
153.07900000000001
 20
128.50899999999999
 30
0.0
 11
152.39500000000001
 21
130.00899999999999
 31
0.0
  0
LINE
  5
3A2
  8
0
 62
     7
 10
164.91200000000001
 20
128.792
 30
0.0
 11
167.245
 21
129.25899999999999
 31
0.0
  0
LINE
  5
3A3
  8
0
 62
     7
 10
164.91200000000001
 20
129.726
 30
0.0
 11
167.245
 21
129.25899999999999
 31
0.0
  0
LINE
  5
3A4
  8
0
 62
     7
 10
164.91200000000001
 20
128.792
 30
0.0
 11
152.245
 21
128.792
 31
0.0
  0
LINE
  5
3A5
  8
0
 62
     7
 10
164.91200000000001
 20
129.726
 30
0.0
 11
152.245
 21
129.726
 31
0.0
  0
LINE
  5
3A6
  8
0
  6
AIGENLINE001
 62
     7
 10
66.370900000000006
 20
112.49299999999999
 30
0.0
 11
66.370900000000006
 21
135.828
 31
0.0
  0
LINE
  5
3A7
  8
0
  6
AIGENLINE001
 62
     7
 10
64.004099999999994
 20
129.25999999999999
 30
0.0
 11
68.737499999999997
 21
129.25999999999999
 31
0.0
  0
LINE
  5
3A8
  8
0
  6
AIGENLINE001
 62
     7
 10
168.35300000000001
 20
129.25899999999999
 30
0.0
 11
151.44999999999999
 21
129.25899999999999
 31
0.0
  0
LINE
  5
3A9
  8
0
 62
     7
 10
164.91200000000001
 20
117.842
 30
0.0
 11
164.22799999999989
 21
119.342
 31
0.0
  0
LINE
  5
3AA
  8
0
 62
     7
 10
164.00200000000001
 20
117.842
 30
0.0
 11
163.31800000000001
 21
119.342
 31
0.0
  0
LINE
  5
3AB
  8
0
 62
     7
 10
163.09200000000001
 20
117.842
 30
0.0
 11
162.40700000000001
 21
119.342
 31
0.0
  0
LINE
  5
3AC
  8
0
 62
     7
 10
162.18100000000001
 20
117.842
 30
0.0
 11
161.49700000000001
 21
119.342
 31
0.0
  0
LINE
  5
3AD
  8
0
 62
     7
 10
161.27099999999999
 20
117.842
 30
0.0
 11
160.58699999999999
 21
119.342
 31
0.0
  0
LINE
  5
3AE
  8
0
 62
     7
 10
160.36099999999999
 20
117.842
 30
0.0
 11
159.67699999999999
 21
119.342
 31
0.0
  0
LINE
  5
3AF
  8
0
 62
     7
 10
159.44999999999999
 20
117.842
 30
0.0
 11
158.767
 21
119.342
 31
0.0
  0
LINE
  5
3B0
  8
0
 62
     7
 10
158.53999999999999
 20
117.842
 30
0.0
 11
157.85599999999999
 21
119.342
 31
0.0
  0
LINE
  5
3B1
  8
0
 62
     7
 10
157.63
 20
117.842
 30
0.0
 11
156.946
 21
119.342
 31
0.0
  0
LINE
  5
3B2
  8
0
 62
     7
 10
156.72
 20
117.842
 30
0.0
 11
156.036
 21
119.342
 31
0.0
  0
LINE
  5
3B3
  8
0
 62
     7
 10
155.81
 20
117.842
 30
0.0
 11
155.126
 21
119.342
 31
0.0
  0
LINE
  5
3B4
  8
0
 62
     7
 10
154.899
 20
117.842
 30
0.0
 11
154.21600000000001
 21
119.342
 31
0.0
  0
LINE
  5
3B5
  8
0
 62
     7
 10
153.989
 20
117.842
 30
0.0
 11
153.30500000000001
 21
119.342
 31
0.0
  0
LINE
  5
3B6
  8
0
 62
     7
 10
153.07900000000001
 20
117.842
 30
0.0
 11
152.39500000000001
 21
119.342
 31
0.0
  0
LINE
  5
3B7
  8
0
 62
     7
 10
164.91200000000001
 20
118.125
 30
0.0
 11
167.245
 21
118.593
 31
0.0
  0
LINE
  5
3B8
  8
0
 62
     7
 10
164.91200000000001
 20
119.06
 30
0.0
 11
167.245
 21
118.593
 31
0.0
  0
LINE
  5
3B9
  8
0
 62
     7
 10
164.91200000000001
 20
118.125
 30
0.0
 11
152.245
 21
118.125
 31
0.0
  0
LINE
  5
3BA
  8
0
 62
     7
 10
164.91200000000001
 20
119.06
 30
0.0
 11
152.245
 21
119.06
 31
0.0
  0
LINE
  5
3BB
  8
0
  6
AIGENLINE001
 62
     7
 10
168.35300000000001
 20
118.593
 30
0.0
 11
151.44999999999999
 21
118.593
 31
0.0
  0
LINE
  5
3BC
  8
0
 62
     7
 10
147.565
 20
128.346
 30
0.0
 11
147.565
 21
128.30699999999999
 31
0.0
  0
LINE
  5
3BD
  8
0
 62
     7
 10
147.565
 20
128.30699999999999
 30
0.0
 11
147.565
 21
128.113
 31
0.0
  0
LINE
  5
3BE
  8
0
 62
     7
 10
147.565
 20
128.113
 30
0.0
 11
147.565
 21
127.755
 31
0.0
  0
LINE
  5
3BF
  8
0
 62
     7
 10
147.565
 20
127.755
 30
0.0
 11
147.565
 21
127.23
 31
0.0
  0
LINE
  5
3C0
  8
0
 62
     7
 10
147.565
 20
127.23
 30
0.0
 11
147.565
 21
126.55500000000001
 31
0.0
  0
LINE
  5
3C1
  8
0
 62
     7
 10
147.565
 20
126.55500000000001
 30
0.0
 11
147.565
 21
125.767
 31
0.0
  0
LINE
  5
3C2
  8
0
 62
     7
 10
147.565
 20
125.767
 30
0.0
 11
147.565
 21
124.92100000000001
 31
0.0
  0
LINE
  5
3C3
  8
0
 62
     7
 10
147.565
 20
124.92100000000001
 30
0.0
 11
147.565
 21
124.071
 31
0.0
  0
LINE
  5
3C4
  8
0
 62
     7
 10
147.565
 20
124.071
 30
0.0
 11
147.565
 21
123.262
 31
0.0
  0
LINE
  5
3C5
  8
0
 62
     7
 10
147.565
 20
123.262
 30
0.0
 11
147.565
 21
122.476
 31
0.0
  0
LINE
  5
3C6
  8
0
 62
     7
 10
147.565
 20
122.476
 30
0.0
 11
147.565
 21
121.696
 31
0.0
  0
LINE
  5
3C7
  8
0
 62
     7
 10
147.565
 20
121.696
 30
0.0
 11
147.565
 21
120.973
 31
0.0
  0
LINE
  5
3C8
  8
0
 62
     7
 10
147.565
 20
120.973
 30
0.0
 11
147.565
 21
120.35899999999999
 31
0.0
  0
LINE
  5
3C9
  8
0
 62
     7
 10
147.565
 20
120.35899999999999
 30
0.0
 11
147.565
 21
119.896
 31
0.0
  0
LINE
  5
3CA
  8
0
 62
     7
 10
147.565
 20
119.896
 30
0.0
 11
147.565
 21
119.608
 31
0.0
  0
LINE
  5
3CB
  8
0
 62
     7
 10
147.565
 20
119.608
 30
0.0
 11
147.565
 21
119.498
 31
0.0
  0
LINE
  5
3CC
  8
0
 62
     7
 10
147.565
 20
119.498
 30
0.0
 11
147.565
 21
119.506
 31
0.0
  0
LINE
  5
3CD
  8
0
 62
     7
 10
149.571
 20
131.44900000000001
 30
0.0
 11
149.571
 21
122.79900000000001
 31
0.0
  0
LINE
  5
3CE
  8
0
 62
     7
 10
149.571
 20
122.79900000000001
 30
0.0
 11
149.571
 21
116.404
 31
0.0
  0
LINE
  5
3CF
  8
0
 62
     7
 10
152.245
 20
114.426
 30
0.0
 11
152.245
 21
133.42599999999999
 31
0.0
  0
LINE
  5
3D0
  8
0
 62
     7
 10
150.57400000000001
 20
115.42700000000001
 30
0.0
 11
150.57400000000001
 21
132.42500000000001
 31
0.0
  0
LINE
  5
3D1
  8
0
 62
     7
 10
136.26499999999999
 20
121.95099999999999
 30
0.0
 11
136.26499999999999
 21
122.002
 31
0.0
  0
LINE
  5
3D2
  8
0
 62
     7
 10
136.26499999999999
 20
122.002
 30
0.0
 11
136.26499999999999
 21
122.363
 31
0.0
  0
LINE
  5
3D3
  8
0
 62
     7
 10
136.26499999999999
 20
122.363
 30
0.0
 11
136.26499999999999
 21
122.964
 31
0.0
  0
LINE
  5
3D4
  8
0
 62
     7
 10
136.26499999999999
 20
122.964
 30
0.0
 11
136.26499999999999
 21
123.711
 31
0.0
  0
LINE
  5
3D5
  8
0
 62
     7
 10
136.26499999999999
 20
123.711
 30
0.0
 11
136.26499999999999
 21
124.48999999999999
 31
0.0
  0
LINE
  5
3D6
  8
0
 62
     7
 10
136.26499999999999
 20
124.48999999999999
 30
0.0
 11
136.26499999999999
 21
125.184
 31
0.0
  0
LINE
  5
3D7
  8
0
 62
     7
 10
136.26499999999999
 20
125.184
 30
0.0
 11
136.26499999999999
 21
125.68600000000001
 31
0.0
  0
LINE
  5
3D8
  8
0
 62
     7
 10
136.26499999999999
 20
125.68600000000001
 30
0.0
 11
136.26499999999999
 21
125.92
 31
0.0
  0
LINE
  5
3D9
  8
0
 62
     7
 10
136.26499999999999
 20
125.92
 30
0.0
 11
136.26499999999999
 21
125.901
 31
0.0
  0
LINE
  5
3DA
  8
0
 62
     7
 10
136.26499999999999
 20
121.71899999999999
 30
0.0
 11
136.26499999999999
 21
125.863
 31
0.0
  0
LINE
  5
3DB
  8
0
 62
     7
 10
136.26499999999999
 20
125.863
 30
0.0
 11
136.26499999999999
 21
126.134
 31
0.0
  0
LINE
  5
3DC
  8
0
 62
     7
 10
136.399
 20
121.58499999999999
 30
0.0
 11
136.399
 21
125.98
 31
0.0
  0
LINE
  5
3DD
  8
0
 62
     7
 10
136.399
 20
125.98
 30
0.0
 11
136.399
 21
126.267
 31
0.0
  0
LINE
  5
3DE
  8
0
 62
     7
 10
141.64699999999999
 20
119.58
 30
0.0
 11
141.64699999999999
 21
127.739
 31
0.0
  0
LINE
  5
3DF
  8
0
 62
     7
 10
141.64699999999999
 20
127.739
 30
0.0
 11
141.64699999999999
 21
128.273
 31
0.0
  0
LINE
  5
3E0
  8
0
 62
     7
 10
145.392
 20
128.273
 30
0.0
 11
145.392
 21
121.84099999999999
 31
0.0
  0
LINE
  5
3E1
  8
0
 62
     7
 10
145.392
 20
121.84099999999999
 30
0.0
 11
145.392
 21
119.58
 31
0.0
  0
LINE
  5
3E2
  8
0
 62
     7
 10
145.893
 20
128.40600000000001
 30
0.0
 11
145.893
 21
121.776
 31
0.0
  0
LINE
  5
3E3
  8
0
 62
     7
 10
145.893
 20
121.776
 30
0.0
 11
145.893
 21
119.446
 31
0.0
  0
LINE
  5
3E4
  8
0
 62
     7
 10
147.565
 20
128.57300000000001
 30
0.0
 11
147.565
 21
121.696
 31
0.0
  0
LINE
  5
3E5
  8
0
 62
     7
 10
147.565
 20
121.696
 30
0.0
 11
147.565
 21
119.279
 31
0.0
  0
LINE
  5
3E6
  8
0
 62
     7
 10
144.78999999999999
 20
128.506
 30
0.0
 11
144.78999999999999
 21
121.72799999999999
 31
0.0
  0
LINE
  5
3E7
  8
0
 62
     7
 10
144.78999999999999
 20
121.72799999999999
 30
0.0
 11
144.78999999999999
 21
119.346
 31
0.0
  0
ARC
  5
3E8
  8
0
 62
     7
 10
133.265567
 20
123.59424
 30
0.0
 40
11.309483999999999
 50
2.2382719999999998
 51
3.675287
  0
ARC
  5
3E9
  8
0
 62
     7
 10
141.18136699999999
 20
124.081452
 30
0.0
 40
3.378798999999999
 50
4.0349190000000004
 51
8.1412580000000005
  0
ARC
  5
3EA
  8
0
 62
     7
 10
142.1268
 20
124.20984300000001
 30
0.0
 40
2.424722
 50
8.301677999999999
 51
20.686055
  0
ARC
  5
3EB
  8
0
 62
     7
 10
142.65025499999999
 20
124.405361
 30
0.0
 40
1.8659490000000001
 50
20.747351999999999
 51
31.844529999999988
  0
ARC
  5
3EC
  8
0
 62
     7
 10
143.204567
 20
124.73016800000001
 30
0.0
 40
1.223808
 50
32.619194999999998
 51
49.691313000000001
  0
ARC
  5
3ED
  8
0
 62
     7
 10
143.51945799999999
 20
125.066265
 30
0.0
 40
0.7641440000000001
 50
51.393911000000003
 51
68.96950799999999
  0
ARC
  5
3EE
  8
0
 62
     7
 10
143.57409699999999
 20
125.202838
 30
0.0
 40
0.617063
 50
69.154123999999996
 51
90.947529000000003
  0
ARC
  5
3EF
  8
0
 62
     7
 10
143.58537699999999
 20
125.195994
 30
0.0
 40
0.624193
 50
91.972470000000015
 51
110.799049
  0
ARC
  5
3F0
  8
0
 62
     7
 10
143.60872599999999
 20
125.128315
 30
0.0
 40
0.6957560000000002
 50
110.617453
 51
127.45408399999999
  0
ARC
  5
3F1
  8
0
 62
     7
 10
143.75617500000001
 20
124.911852
 30
0.0
 40
0.9573709999999998
 50
126.58118399999999
 51
146.60572300000001
  0
ARC
  5
3F2
  8
0
 62
     7
 10
144.22537600000001
 20
124.547792
 30
0.0
 40
1.5501599999999991
 50
144.916033
 51
159.861548
  0
ARC
  5
3F3
  8
0
 62
     7
 10
145.03007199999999
 20
124.210976
 30
0.0
 40
2.421937999999999
 50
158.934729
 51
162.2611
  0
ARC
  5
3F4
  8
0
 62
     7
 10
145.32837599999999
 20
124.12432800000001
 30
0.0
 40
2.732472
 50
162.43638200000001
 51
177.82539399999999
  0
ARC
  5
3F5
  8
0
 62
     7
 10
146.23552100000001
 20
124.043082
 30
0.0
 40
3.642347
 50
177.08971199999999
 51
180.64355399999999
  0
ARC
  5
3F6
  8
0
 62
     7
 10
145.857067
 20
124.024809
 30
0.0
 40
3.2637419999999988
 50
180.39741599999991
 51
193.92431400000001
  0
ARC
  5
3F7
  8
0
 62
     7
 10
144.96910800000001
 20
123.84523799999999
 30
0.0
 40
2.358992999999999
 50
194.88091299999999
 51
201.08609300000001
  0
ARC
  5
3F8
  8
0
 62
     7
 10
144.473071
 20
123.64505
 30
0.0
 40
1.824166999999999
 50
200.82462799999999
 51
212.10861600000001
  0
ARC
  5
3F9
  8
0
 62
     7
 10
143.910965
 20
123.30741999999999
 30
0.0
 40
1.1686510000000001
 50
212.73554900000011
 51
230.549679
  0
ARC
  5
3FA
  8
0
 62
     7
 10
143.66646700000001
 20
123.04700099999999
 30
0.0
 40
0.8125399999999999
 50
232.19453100000001
 51
248.56962799999991
  0
ARC
  5
3FB
  8
0
 62
     7
 10
143.58633
 20
122.901033
 30
0.0
 40
0.6477330000000001
 50
250.45086900000001
 51
271.154247
  0
ARC
  5
3FC
  8
0
 62
     7
 10
143.579948
 20
122.847257
 30
0.0
 40
0.594143
 50
271.874076
 51
291.58333800000003
  0
ARC
  5
3FD
  8
0
 62
     7
 10
143.54066599999999
 20
122.96315800000001
 30
0.0
 40
0.7163930000000001
 50
291.09484600000002
 51
307.48378000000002
  0
ARC
  5
3FE
  8
0
 62
     7
 10
143.385706
 20
123.180043
 30
0.0
 40
0.9828379999999999
 50
306.958057
 51
326.61917499999998
  0
ARC
  5
3FF
  8
0
 62
     7
 10
142.875281
 20
123.5664
 30
0.0
 40
1.6221719999999991
 50
325.14318900000001
 51
344.56591300000002
  0
ARC
  5
400
  8
0
 62
     7
 10
142.192364
 20
123.79846999999999
 30
0.0
 40
2.3425979999999988
 50
343.539692
 51
351.17535700000002
  0
ARC
  5
401
  8
0
 62
     7
 10
140.68642399999999
 20
124.05489799999999
 30
0.0
 40
3.8701150000000002
 50
350.8442500000001
 51
354.21633100000003
  0
ARC
  5
402
  8
0
 62
     7
 10
134.96888300000001
 20
124.614499
 30
0.0
 40
9.6149620000000002
 50
354.33205199999998
 51
356.55023799999998
  0
ARC
  5
403
  8
0
 62
     7
 10
141.917632
 20
127.901239
 30
0.0
 40
2.657592999999999
 50
4.6646799999999997
 51
7.614361999999999
  0
ARC
  5
404
  8
0
 62
     7
 10
143.748673
 20
128.13504800000001
 30
0.0
 40
0.8117889999999999
 50
8.3818869999999972
 51
16.726700999999998
  0
ARC
  5
405
  8
0
 62
     7
 10
143.85457700000001
 20
128.16408000000001
 30
0.0
 40
0.702016
 50
16.945095999999999
 51
39.637050000000002
  0
ARC
  5
406
  8
0
 62
     7
 10
143.720392
 20
128.07680500000001
 30
0.0
 40
0.861223
 50
38.413575000000002
 51
53.277910999999989
  0
ARC
  5
407
  8
0
 62
     7
 10
143.67039600000001
 20
128.020276
 30
0.0
 40
0.9364489999999999
 50
52.894067
 51
69.636566999999999
  0
ARC
  5
408
  8
0
 62
     7
 10
143.60336699999999
 20
127.877669
 30
0.0
 40
1.0935479999999991
 50
68.94410400000001
 51
79.977506000000005
  0
ARC
  5
409
  8
0
 62
     7
 10
143.584158
 20
127.805785
 30
0.0
 40
1.167695999999999
 50
79.663181000000009
 51
90.994376000000017
  0
ARC
  5
40A
  8
0
 62
     7
 10
143.56967
 20
127.875023
 30
0.0
 40
1.098296999999999
 50
90.301342000000005
 51
100.807293
  0
ARC
  5
40B
  8
0
 62
     7
 10
143.57078200000001
 20
127.80880999999999
 30
0.0
 40
1.163599
 50
100.249751
 51
109.3300669999999
  0
ARC
  5
40C
  8
0
 62
     7
 10
143.529764
 20
127.945325
 30
0.0
 40
1.0212229999999991
 50
109.693731
 51
124.12457499999999
  0
ARC
  5
40D
  8
0
 62
     7
 10
143.44825599999999
 20
128.069333
 30
0.0
 40
0.872844
 50
124.262032
 51
146.15891999999999
  0
ARC
  5
40E
  8
0
 62
     7
 10
143.38789700000001
 20
128.119698
 30
0.0
 40
0.794705
 50
146.751475
 51
181.32328999999999
  0
ARC
  5
40F
  8
0
 62
     7
 10
143.38593499999999
 20
128.115038
 30
0.0
 40
0.7926490000000001
 50
180.98980099999989
 51
218.7859490000001
  0
ARC
  5
410
  8
0
 62
     7
 10
143.423742
 20
128.13840099999999
 30
0.0
 40
0.836772
 50
218.41127800000001
 51
233.66286400000001
  0
ARC
  5
411
  8
0
 62
     7
 10
143.48395400000001
 20
128.20625899999999
 30
0.0
 40
0.9271499999999999
 50
233.15025600000001
 51
250.10150899999999
  0
ARC
  5
412
  8
0
 62
     7
 10
143.56024099999999
 20
128.36996499999989
 30
0.0
 40
1.107162999999999
 50
249.272716
 51
260.08428700000002
  0
ARC
  5
413
  8
0
 62
     7
 10
143.58058399999999
 20
128.50305800000001
 30
0.0
 40
1.2417750000000001
 50
260.217174
 51
270.86720500000001
  0
ARC
  5
414
  8
0
 62
     7
 10
143.574162
 20
128.53655000000001
 30
0.0
 40
1.275372999999999
 50
271.13287700000001
 51
280.13127300000008
  0
ARC
  5
415
  8
0
 62
     7
 10
143.58540199999999
 20
128.42101099999999
 30
0.0
 40
1.1596959999999989
 50
280.58873299999999
 51
289.71511800000002
  0
ARC
  5
416
  8
0
 62
     7
 10
143.63683900000001
 20
128.27860100000001
 30
0.0
 40
1.0082809999999991
 50
289.69349099999999
 51
304.39466900000002
  0
ARC
  5
417
  8
0
 62
     7
 10
143.71114399999999
 20
128.163006
 30
0.0
 40
0.8709319999999999
 50
304.65680700000001
 51
326.68535600000013
  0
ARC
  5
418
  8
0
 62
     7
 10
143.79977600000001
 20
128.07748699999999
 30
0.0
 40
0.7502410000000001
 50
328.42577699999998
 51
350.1744470000001
  0
ARC
  5
419
  8
0
 62
     7
 10
142.11489700000001
 20
128.43137899999999
 30
0.0
 40
2.4715539999999998
 50
348.75605999999999
 51
352.700783
  0
ARC
  5
41A
  8
0
 62
     7
 10
141.512327
 20
119.614991
 30
0.0
 40
3.062765999999999
 50
4.3123930000000001
 51
7.0721759999999989
  0
ARC
  5
41B
  8
0
 62
     7
 10
143.60142999999999
 20
119.86207
 30
0.0
 40
0.9592129999999999
 50
7.7895929999999991
 51
15.41976
  0
ARC
  5
41C
  8
0
 62
     7
 10
143.769104
 20
119.905373
 30
0.0
 40
0.786065
 50
15.626659
 51
37.203460999999997
  0
ARC
  5
41D
  8
0
 62
     7
 10
143.66805500000001
 20
119.849339
 30
0.0
 40
0.9005819999999999
 50
36.155701999999998
 51
50.956037000000002
  0
ARC
  5
41E
  8
0
 62
     7
 10
143.64867599999999
 20
119.8329
 30
0.0
 40
0.9255690000000001
 50
50.665315999999997
 51
67.942856000000006
  0
ARC
  5
41F
  8
0
 62
     7
 10
143.603894
 20
119.754255
 30
0.0
 40
1.0153449999999999
 50
67.267356000000007
 51
79.226894000000001
  0
ARC
  5
420
  8
0
 62
     7
 10
143.572362
 20
119.598502
 30
0.0
 40
1.1742479999999991
 50
79.135967000000008
 51
90.413199000000006
  0
ARC
  5
421
  8
0
 62
     7
 10
143.58578299999999
 20
119.600488
 30
0.0
 40
1.172436
 50
91.069811999999985
 51
100.917377
  0
ARC
  5
422
  8
0
 62
     7
 10
143.57311299999989
 20
119.69725200000001
 30
0.0
 40
1.0750399999999991
 50
101.231037
 51
111.12756899999999
  0
ARC
  5
423
  8
0
 62
     7
 10
143.545063
 20
119.775189
 30
0.0
 40
0.992233
 50
111.238862
 51
126.35619699999999
  0
ARC
  5
424
  8
0
 62
     7
 10
143.492119
 20
119.84939799999999
 30
0.0
 40
0.9010849999999999
 50
126.442224
 51
148.56490700000001
  0
ARC
  5
425
  8
0
 62
     7
 10
143.49175700000001
 20
119.853335
 30
0.0
 40
0.898728
 50
148.767067
 51
181.65498099999999
  0
ARC
  5
426
  8
0
 62
     7
 10
143.50624400000001
 20
119.84160799999999
 30
0.0
 40
0.9129509999999999
 50
180.893012
 51
216.044847
  0
ARC
  5
427
  8
0
 62
     7
 10
143.497874
 20
119.844061
 30
0.0
 40
0.9076529999999999
 50
216.48094499999999
 51
231.1019
  0
ARC
  5
428
  8
0
 62
     7
 10
143.51599999999999
 20
119.867761
 30
0.0
 40
0.9374809999999998
 50
231.14931000000001
 51
248.2358200000001
  0
ARC
  5
429
  8
0
 62
     7
 10
143.56584599999999
 20
119.97540499999999
 30
0.0
 40
1.0559529999999999
 50
247.889622
 51
259.28883200000001
  0
ARC
  5
42A
  8
0
 62
     7
 10
143.58644799999999
 20
120.100452
 30
0.0
 40
1.1826540000000001
 50
259.43409600000001
 51
270.62644299999999
  0
ARC
  5
42B
  8
0
 62
     7
 10
143.57468600000001
 20
120.08693700000001
 30
0.0
 40
1.1693290000000001
 50
271.20999399999999
 51
281.035032
  0
ARC
  5
42C
  8
0
 62
     7
 10
143.584022
 20
119.99784699999999
 30
0.0
 40
1.0801279999999991
 50
281.453509
 51
291.31358699999998
  0
ARC
  5
42D
  8
0
 62
     7
 10
143.60597000000001
 20
119.932818
 30
0.0
 40
1.0115739999999991
 50
291.49421999999998
 51
306.41058199999998
  0
ARC
  5
42E
  8
0
 62
     7
 10
143.67593600000001
 20
119.831801
 30
0.0
 40
0.8887549999999999
 50
306.64604300000002
 51
329.15111999999999
  0
ARC
  5
42F
  8
0
 62
     7
 10
143.69602399999999
 20
119.795441
 30
0.0
 40
0.8531209999999999
 50
330.555925
 51
350.85488600000002
  0
ARC
  5
430
  8
0
 62
     7
 10
141.77098000000001
 20
120.174341
 30
0.0
 40
2.8147410000000002
 50
349.46801199999999
 51
353.28670199999999
  0
LINE
  5
431
  8
0
 62
     7
 10
132.018
 20
127.771
 30
0.0
 11
132.018
 21
120.08199999999999
 31
0.0
  0
LINE
  5
432
  8
0
 62
     7
 10
125.57899999999999
 20
128.44
 30
0.0
 11
125.57899999999999
 21
119.413
 31
0.0
  0
LINE
  5
433
  8
0
 62
     7
 10
131.316
 20
128.607
 30
0.0
 11
131.316
 21
119.246
 31
0.0
  0
LINE
  5
434
  8
0
 62
     7
 10
135.43000000000001
 20
122.087
 30
0.0
 11
135.43000000000001
 21
125.765
 31
0.0
  0
LINE
  5
435
  8
0
 62
     7
 10
135.095
 20
121.753
 30
0.0
 11
135.095
 21
126.099
 31
0.0
  0
LINE
  5
436
  8
0
 62
     7
 10
132.018
 20
120.08199999999999
 30
0.0
 11
132.018
 21
123.926
 31
0.0
  0
LINE
  5
437
  8
0
 62
     7
 10
132.018
 20
123.926
 30
0.0
 11
132.018
 21
127.771
 31
0.0
  0
LINE
  5
438
  8
0
 62
     7
 10
133.7579999999999
 20
121.753
 30
0.0
 11
133.7579999999999
 21
123.926
 31
0.0
  0
LINE
  5
439
  8
0
 62
     7
 10
133.7579999999999
 20
123.926
 30
0.0
 11
133.7579999999999
 21
126.099
 31
0.0
  0
LINE
  5
43A
  8
0
 62
     7
 10
124.953
 20
119.413
 30
0.0
 11
125.479
 21
119.413
 31
0.0
  0
LINE
  5
43B
  8
0
 62
     7
 10
125.479
 20
128.43899999999999
 30
0.0
 11
124.953
 21
128.43899999999999
 31
0.0
  0
LINE
  5
43C
  8
0
 62
     7
 10
124.953
 20
128.43899999999999
 30
0.0
 11
125.479
 21
128.43899999999999
 31
0.0
  0
LINE
  5
43D
  8
0
 62
     7
 10
124.953
 20
119.425
 30
0.0
 11
125.479
 21
119.425
 31
0.0
  0
LINE
  5
43E
  8
0
 62
     7
 10
125.479
 20
119.41500000000001
 30
0.0
 11
124.953
 21
119.41500000000001
 31
0.0
  0
LINE
  5
43F
  8
0
 62
     7
 10
124.953
 20
128.435
 30
0.0
 11
125.479
 21
128.435
 31
0.0
  0
LINE
  5
440
  8
0
 62
     7
 10
125.479
 20
128.42599999999999
 30
0.0
 11
124.953
 21
128.42599999999999
 31
0.0
  0
LINE
  5
441
  8
0
 62
     7
 10
125.57899999999999
 20
119.514
 30
0.0
 11
125.502
 21
119.43899999999999
 31
0.0
  0
LINE
  5
442
  8
0
 62
     7
 10
125.502
 20
119.447
 30
0.0
 11
125.57899999999999
 21
119.529
 31
0.0
  0
LINE
  5
443
  8
0
 62
     7
 10
124.953
 20
128.42599999999999
 30
0.0
 11
125.479
 21
128.42599999999999
 31
0.0
  0
LINE
  5
444
  8
0
 62
     7
 10
124.953
 20
119.462
 30
0.0
 11
125.479
 21
119.462
 31
0.0
  0
LINE
  5
445
  8
0
 62
     7
 10
125.479
 20
119.43600000000001
 30
0.0
 11
124.953
 21
119.43600000000001
 31
0.0
  0
LINE
  5
446
  8
0
 62
     7
 10
124.953
 20
128.41
 30
0.0
 11
125.479
 21
128.41
 31
0.0
  0
LINE
  5
447
  8
0
 62
     7
 10
125.479
 20
128.38800000000001
 30
0.0
 11
124.953
 21
128.38800000000001
 31
0.0
  0
LINE
  5
448
  8
0
 62
     7
 10
125.57899999999999
 20
119.53100000000001
 30
0.0
 11
125.502
 21
119.462
 31
0.0
  0
LINE
  5
449
  8
0
 62
     7
 10
125.502
 20
119.482
 30
0.0
 11
125.57899999999999
 21
119.569
 31
0.0
  0
LINE
  5
44A
  8
0
 62
     7
 10
124.946
 20
119.482
 30
0.0
 11
125.502
 21
119.482
 31
0.0
  0
LINE
  5
44B
  8
0
 62
     7
 10
124.953
 20
128.387
 30
0.0
 11
125.479
 21
128.387
 31
0.0
  0
LINE
  5
44C
  8
0
 62
     7
 10
124.953
 20
119.523
 30
0.0
 11
125.479
 21
119.523
 31
0.0
  0
LINE
  5
44D
  8
0
 62
     7
 10
125.479
 20
119.483
 30
0.0
 11
124.953
 21
119.483
 31
0.0
  0
LINE
  5
44E
  8
0
 62
     7
 10
124.953
 20
128.35900000000001
 30
0.0
 11
125.479
 21
128.35900000000001
 31
0.0
  0
LINE
  5
44F
  8
0
 62
     7
 10
125.479
 20
128.32400000000001
 30
0.0
 11
124.953
 21
128.32400000000001
 31
0.0
  0
LINE
  5
450
  8
0
 62
     7
 10
125.57899999999999
 20
119.572
 30
0.0
 11
125.502
 21
119.509
 31
0.0
  0
LINE
  5
451
  8
0
 62
     7
 10
125.479
 20
119.523
 30
0.0
 11
125.479
 21
119.483
 31
0.0
  0
LINE
  5
452
  8
0
 62
     7
 10
125.502
 20
119.542
 30
0.0
 11
125.57899999999999
 21
119.633
 31
0.0
  0
LINE
  5
453
  8
0
 62
     7
 10
124.946
 20
119.542
 30
0.0
 11
125.502
 21
119.542
 31
0.0
  0
LINE
  5
454
  8
0
 62
     7
 10
124.953
 20
128.32400000000001
 30
0.0
 11
125.479
 21
128.32400000000001
 31
0.0
  0
LINE
  5
455
  8
0
 62
     7
 10
124.953
 20
119.608
 30
0.0
 11
125.479
 21
119.608
 31
0.0
  0
LINE
  5
456
  8
0
 62
     7
 10
125.479
 20
119.553
 30
0.0
 11
124.953
 21
119.553
 31
0.0
  0
LINE
  5
457
  8
0
 62
     7
 10
124.953
 20
128.285
 30
0.0
 11
125.479
 21
128.285
 31
0.0
  0
LINE
  5
458
  8
0
 62
     7
 10
125.479
 20
128.238
 30
0.0
 11
124.953
 21
128.238
 31
0.0
  0
LINE
  5
459
  8
0
 62
     7
 10
125.57899999999999
 20
119.637
 30
0.0
 11
125.502
 21
119.58
 31
0.0
  0
LINE
  5
45A
  8
0
 62
     7
 10
125.479
 20
119.608
 30
0.0
 11
125.479
 21
119.553
 31
0.0
  0
LINE
  5
45B
  8
0
 62
     7
 10
125.502
 20
119.625
 30
0.0
 11
125.57899999999999
 21
119.721
 31
0.0
  0
LINE
  5
45C
  8
0
 62
     7
 10
124.946
 20
119.625
 30
0.0
 11
125.502
 21
119.625
 31
0.0
  0
LINE
  5
45D
  8
0
 62
     7
 10
124.952
 20
128.238
 30
0.0
 11
125.48
 21
128.238
 31
0.0
  0
LINE
  5
45E
  8
0
 62
     7
 10
124.953
 20
119.717
 30
0.0
 11
125.479
 21
119.717
 31
0.0
  0
LINE
  5
45F
  8
0
 62
     7
 10
125.479
 20
119.648
 30
0.0
 11
124.953
 21
119.648
 31
0.0
  0
LINE
  5
460
  8
0
 62
     7
 10
124.953
 20
128.18600000000001
 30
0.0
 11
125.479
 21
128.18600000000001
 31
0.0
  0
LINE
  5
461
  8
0
 62
     7
 10
125.479
 20
128.12799999999999
 30
0.0
 11
124.953
 21
128.12799999999999
 31
0.0
  0
LINE
  5
462
  8
0
 62
     7
 10
125.57899999999999
 20
119.72499999999999
 30
0.0
 11
125.502
 21
119.676
 31
0.0
  0
LINE
  5
463
  8
0
 62
     7
 10
125.479
 20
119.717
 30
0.0
 11
125.479
 21
119.648
 31
0.0
  0
LINE
  5
464
  8
0
 62
     7
 10
125.502
 20
119.732
 30
0.0
 11
125.57899999999999
 21
119.83199999999999
 31
0.0
  0
LINE
  5
465
  8
0
 62
     7
 10
124.946
 20
119.732
 30
0.0
 11
125.502
 21
119.732
 31
0.0
  0
LINE
  5
466
  8
0
 62
     7
 10
124.952
 20
128.12700000000001
 30
0.0
 11
125.48
 21
128.12700000000001
 31
0.0
  0
LINE
  5
467
  8
0
 62
     7
 10
124.953
 20
119.849
 30
0.0
 11
125.479
 21
119.849
 31
0.0
  0
LINE
  5
468
  8
0
 62
     7
 10
125.479
 20
119.76600000000001
 30
0.0
 11
124.953
 21
119.76600000000001
 31
0.0
  0
LINE
  5
469
  8
0
 62
     7
 10
124.953
 20
128.065
 30
0.0
 11
125.479
 21
128.065
 31
0.0
  0
LINE
  5
46A
  8
0
 62
     7
 10
125.479
 20
127.995
 30
0.0
 11
124.953
 21
127.995
 31
0.0
  0
LINE
  5
46B
  8
0
 62
     7
 10
124.946
 20
119.86199999999999
 30
0.0
 11
125.502
 21
119.86199999999999
 31
0.0
  0
LINE
  5
46C
  8
0
 62
     7
 10
125.502
 20
119.86199999999999
 30
0.0
 11
125.57899999999999
 21
119.965
 31
0.0
  0
LINE
  5
46D
  8
0
 62
     7
 10
125.57899999999999
 20
119.837
 30
0.0
 11
125.502
 21
119.795
 31
0.0
  0
LINE
  5
46E
  8
0
 62
     7
 10
125.479
 20
119.849
 30
0.0
 11
125.479
 21
119.76600000000001
 31
0.0
  0
LINE
  5
46F
  8
0
 62
     7
 10
124.952
 20
127.995
 30
0.0
 11
125.48
 21
127.995
 31
0.0
  0
LINE
  5
470
  8
0
 62
     7
 10
124.953
 20
120.003
 30
0.0
 11
125.479
 21
120.003
 31
0.0
  0
LINE
  5
471
  8
0
 62
     7
 10
125.479
 20
119.907
 30
0.0
 11
124.953
 21
119.907
 31
0.0
  0
LINE
  5
472
  8
0
 62
     7
 10
124.946
 20
120.014
 30
0.0
 11
125.501
 21
120.014
 31
0.0
  0
LINE
  5
473
  8
0
 62
     7
 10
125.501
 20
120.014
 30
0.0
 11
125.57899999999999
 21
120.12
 31
0.0
  0
LINE
  5
474
  8
0
 62
     7
 10
125.57899999999999
 20
119.971
 30
0.0
 11
125.502
 21
119.93600000000001
 31
0.0
  0
LINE
  5
475
  8
0
 62
     7
 10
125.479
 20
120.003
 30
0.0
 11
125.479
 21
119.907
 31
0.0
  0
LINE
  5
476
  8
0
 62
     7
 10
124.953
 20
127.92100000000001
 30
0.0
 11
125.479
 21
127.92100000000001
 31
0.0
  0
LINE
  5
477
  8
0
 62
     7
 10
125.479
 20
127.84
 30
0.0
 11
124.953
 21
127.84
 31
0.0
  0
LINE
  5
478
  8
0
 62
     7
 10
124.952
 20
127.839
 30
0.0
 11
125.48099999999999
 21
127.839
 31
0.0
  0
LINE
  5
479
  8
0
 62
     7
 10
124.946
 20
120.188
 30
0.0
 11
125.501
 21
120.188
 31
0.0
  0
LINE
  5
47A
  8
0
 62
     7
 10
125.501
 20
120.188
 30
0.0
 11
125.57899999999999
 21
120.29600000000001
 31
0.0
  0
LINE
  5
47B
  8
0
 62
     7
 10
125.57899999999999
 20
120.126
 30
0.0
 11
125.501
 21
120.099
 31
0.0
  0
LINE
  5
47C
  8
0
 62
     7
 10
124.953
 20
120.179
 30
0.0
 11
125.479
 21
120.179
 31
0.0
  0
LINE
  5
47D
  8
0
 62
     7
 10
125.479
 20
120.179
 30
0.0
 11
125.479
 21
120.071
 31
0.0
  0
LINE
  5
47E
  8
0
 62
     7
 10
125.479
 20
120.071
 30
0.0
 11
124.953
 21
120.071
 31
0.0
  0
LINE
  5
47F
  8
0
 62
     7
 10
124.953
 20
127.756
 30
0.0
 11
125.479
 21
127.756
 31
0.0
  0
LINE
  5
480
  8
0
 62
     7
 10
125.479
 20
127.663
 30
0.0
 11
124.953
 21
127.663
 31
0.0
  0
LINE
  5
481
  8
0
 62
     7
 10
124.952
 20
127.663
 30
0.0
 11
125.48099999999999
 21
127.663
 31
0.0
  0
LINE
  5
482
  8
0
 62
     7
 10
124.953
 20
120.376
 30
0.0
 11
125.479
 21
120.376
 31
0.0
  0
LINE
  5
483
  8
0
 62
     7
 10
125.479
 20
120.255
 30
0.0
 11
124.953
 21
120.255
 31
0.0
  0
LINE
  5
484
  8
0
 62
     7
 10
125.57899999999999
 20
120.303
 30
0.0
 11
125.501
 21
120.283
 31
0.0
  0
LINE
  5
485
  8
0
 62
     7
 10
125.479
 20
120.376
 30
0.0
 11
125.479
 21
120.255
 31
0.0
  0
LINE
  5
486
  8
0
 62
     7
 10
125.501
 20
120.38200000000001
 30
0.0
 11
125.57899999999999
 21
120.492
 31
0.0
  0
LINE
  5
487
  8
0
 62
     7
 10
124.946
 20
120.38200000000001
 30
0.0
 11
125.501
 21
120.38200000000001
 31
0.0
  0
LINE
  5
488
  8
0
 62
     7
 10
124.953
 20
127.56999999999999
 30
0.0
 11
125.479
 21
127.56999999999999
 31
0.0
  0
LINE
  5
489
  8
0
 62
     7
 10
125.479
 20
127.467
 30
0.0
 11
124.953
 21
127.467
 31
0.0
  0
LINE
  5
48A
  8
0
 62
     7
 10
124.952
 20
127.46599999999999
 30
0.0
 11
125.48099999999999
 21
127.46599999999999
 31
0.0
  0
LINE
  5
48B
  8
0
 62
     7
 10
124.946
 20
120.596
 30
0.0
 11
125.499
 21
120.596
 31
0.0
  0
LINE
  5
48C
  8
0
 62
     7
 10
125.499
 20
120.596
 30
0.0
 11
125.57899999999999
 21
120.70699999999999
 31
0.0
  0
LINE
  5
48D
  8
0
 62
     7
 10
125.57899999999999
 20
120.499
 30
0.0
 11
125.499
 21
120.48699999999999
 31
0.0
  0
LINE
  5
48E
  8
0
 62
     7
 10
124.953
 20
120.592
 30
0.0
 11
125.479
 21
120.592
 31
0.0
  0
LINE
  5
48F
  8
0
 62
     7
 10
125.479
 20
120.592
 30
0.0
 11
125.479
 21
120.45999999999999
 31
0.0
  0
LINE
  5
490
  8
0
 62
     7
 10
125.479
 20
120.45999999999999
 30
0.0
 11
124.953
 21
120.45999999999999
 31
0.0
  0
LINE
  5
491
  8
0
 62
     7
 10
124.953
 20
127.364
 30
0.0
 11
125.479
 21
127.364
 31
0.0
  0
LINE
  5
492
  8
0
 62
     7
 10
125.479
 20
127.25
 30
0.0
 11
124.953
 21
127.25
 31
0.0
  0
LINE
  5
493
  8
0
 62
     7
 10
124.952
 20
127.249
 30
0.0
 11
125.482
 21
127.249
 31
0.0
  0
LINE
  5
494
  8
0
 62
     7
 10
124.946
 20
120.828
 30
0.0
 11
125.499
 21
120.828
 31
0.0
  0
LINE
  5
495
  8
0
 62
     7
 10
125.499
 20
120.828
 30
0.0
 11
125.57899999999999
 21
120.93899999999999
 31
0.0
  0
LINE
  5
496
  8
0
 62
     7
 10
125.57899999999999
 20
120.71299999999999
 30
0.0
 11
125.499
 21
120.70999999999999
 31
0.0
  0
LINE
  5
497
  8
0
 62
     7
 10
124.953
 20
120.825
 30
0.0
 11
125.479
 21
120.825
 31
0.0
  0
LINE
  5
498
  8
0
 62
     7
 10
125.479
 20
120.825
 30
0.0
 11
125.479
 21
120.68300000000001
 31
0.0
  0
LINE
  5
499
  8
0
 62
     7
 10
125.479
 20
120.68300000000001
 30
0.0
 11
124.953
 21
120.68300000000001
 31
0.0
  0
LINE
  5
49A
  8
0
 62
     7
 10
124.953
 20
127.139
 30
0.0
 11
125.479
 21
127.139
 31
0.0
  0
LINE
  5
49B
  8
0
 62
     7
 10
125.479
 20
127.01600000000001
 30
0.0
 11
124.953
 21
127.01600000000001
 31
0.0
  0
LINE
  5
49C
  8
0
 62
     7
 10
124.952
 20
127.015
 30
0.0
 11
125.482
 21
127.015
 31
0.0
  0
LINE
  5
49D
  8
0
 62
     7
 10
125.495
 20
120.946
 30
0.0
 11
125.57899999999999
 21
120.946
 31
0.0
  0
LINE
  5
49E
  8
0
 62
     7
 10
124.90600000000001
 20
120.946
 30
0.0
 11
124.94799999999999
 21
120.946
 31
0.0
  0
LINE
  5
49F
  8
0
 62
     7
 10
124.917
 20
126.89700000000001
 30
0.0
 11
125.56699999999999
 21
126.89700000000001
 31
0.0
  0
LINE
  5
4A0
  8
0
 62
     7
 10
124.94799999999999
 20
121.07599999999999
 30
0.0
 11
125.498
 21
121.07599999999999
 31
0.0
  0
LINE
  5
4A1
  8
0
 62
     7
 10
125.498
 20
121.07599999999999
 30
0.0
 11
125.57899999999999
 21
121.18899999999999
 31
0.0
  0
LINE
  5
4A2
  8
0
 62
     7
 10
125.57899999999999
 20
120.946
 30
0.0
 11
125.498
 21
120.95
 31
0.0
  0
LINE
  5
4A3
  8
0
 62
     7
 10
124.953
 20
121.07599999999999
 30
0.0
 11
125.479
 21
121.07599999999999
 31
0.0
  0
LINE
  5
4A4
  8
0
 62
     7
 10
125.479
 20
121.07599999999999
 30
0.0
 11
125.479
 21
120.925
 31
0.0
  0
LINE
  5
4A5
  8
0
 62
     7
 10
125.479
 20
120.925
 30
0.0
 11
124.953
 21
120.925
 31
0.0
  0
LINE
  5
4A6
  8
0
 62
     7
 10
124.953
 20
126.89700000000001
 30
0.0
 11
125.479
 21
126.89700000000001
 31
0.0
  0
LINE
  5
4A7
  8
0
 62
     7
 10
125.479
 20
126.764
 30
0.0
 11
124.953
 21
126.764
 31
0.0
  0
LINE
  5
4A8
  8
0
 62
     7
 10
124.95099999999999
 20
126.764
 30
0.0
 11
125.48399999999999
 21
126.764
 31
0.0
  0
LINE
  5
4A9
  8
0
 62
     7
 10
125.48699999999999
 20
121.194
 30
0.0
 11
125.57899999999999
 21
121.194
 31
0.0
  0
LINE
  5
4AA
  8
0
 62
     7
 10
124.90600000000001
 20
121.194
 30
0.0
 11
124.95
 21
121.194
 31
0.0
  0
LINE
  5
4AB
  8
0
 62
     7
 10
124.91500000000001
 20
126.64700000000001
 30
0.0
 11
125.568
 21
126.64700000000001
 31
0.0
  0
LINE
  5
4AC
  8
0
 62
     7
 10
125.497
 20
121.34099999999999
 30
0.0
 11
125.57899999999999
 21
121.453
 31
0.0
  0
LINE
  5
4AD
  8
0
 62
     7
 10
125.57899999999999
 20
121.194
 30
0.0
 11
125.498
 21
121.20699999999999
 31
0.0
  0
LINE
  5
4AE
  8
0
 62
     7
 10
124.953
 20
121.342
 30
0.0
 11
125.479
 21
121.342
 31
0.0
  0
LINE
  5
4AF
  8
0
 62
     7
 10
125.479
 20
121.342
 30
0.0
 11
125.479
 21
121.18300000000001
 31
0.0
  0
LINE
  5
4B0
  8
0
 62
     7
 10
125.479
 20
121.18300000000001
 30
0.0
 11
124.953
 21
121.18300000000001
 31
0.0
  0
LINE
  5
4B1
  8
0
 62
     7
 10
125.479
 20
126.497
 30
0.0
 11
124.953
 21
126.497
 31
0.0
  0
LINE
  5
4B2
  8
0
 62
     7
 10
124.953
 20
126.639
 30
0.0
 11
125.479
 21
126.639
 31
0.0
  0
LINE
  5
4B3
  8
0
 62
     7
 10
125.479
 20
121.45699999999999
 30
0.0
 11
125.57899999999999
 21
121.45699999999999
 31
0.0
  0
LINE
  5
4B4
  8
0
 62
     7
 10
124.907
 20
121.45699999999999
 30
0.0
 11
124.953
 21
121.45699999999999
 31
0.0
  0
LINE
  5
4B5
  8
0
 62
     7
 10
124.91500000000001
 20
126.38200000000001
 30
0.0
 11
125.568
 21
126.38200000000001
 31
0.0
  0
LINE
  5
4B6
  8
0
 62
     7
 10
125.497
 20
121.619
 30
0.0
 11
125.57899999999999
 21
121.73099999999999
 31
0.0
  0
LINE
  5
4B7
  8
0
 62
     7
 10
125.57899999999999
 20
121.458
 30
0.0
 11
125.497
 21
121.479
 31
0.0
  0
LINE
  5
4B8
  8
0
 62
     7
 10
124.953
 20
121.622
 30
0.0
 11
125.479
 21
121.622
 31
0.0
  0
LINE
  5
4B9
  8
0
 62
     7
 10
125.479
 20
121.622
 30
0.0
 11
125.479
 21
121.45699999999999
 31
0.0
  0
LINE
  5
4BA
  8
0
 62
     7
 10
125.479
 20
121.45699999999999
 30
0.0
 11
124.953
 21
121.45699999999999
 31
0.0
  0
LINE
  5
4BB
  8
0
 62
     7
 10
125.479
 20
126.21599999999999
 30
0.0
 11
124.953
 21
126.21599999999999
 31
0.0
  0
LINE
  5
4BC
  8
0
 62
     7
 10
124.953
 20
126.366
 30
0.0
 11
125.479
 21
126.366
 31
0.0
  0
LINE
  5
4BD
  8
0
 62
     7
 10
124.907
 20
121.73399999999999
 30
0.0
 11
125.57899999999999
 21
121.73399999999999
 31
0.0
  0
LINE
  5
4BE
  8
0
 62
     7
 10
124.914
 20
126.104
 30
0.0
 11
125.56999999999999
 21
126.104
 31
0.0
  0
LINE
  5
4BF
  8
0
 62
     7
 10
124.953
 20
126.08
 30
0.0
 11
125.479
 21
126.08
 31
0.0
  0
LINE
  5
4C0
  8
0
 62
     7
 10
125.479
 20
125.923
 30
0.0
 11
124.953
 21
125.923
 31
0.0
  0
LINE
  5
4C1
  8
0
 62
     7
 10
124.953
 20
121.91500000000001
 30
0.0
 11
125.479
 21
121.91500000000001
 31
0.0
  0
LINE
  5
4C2
  8
0
 62
     7
 10
125.479
 20
121.74299999999999
 30
0.0
 11
124.953
 21
121.74299999999999
 31
0.0
  0
LINE
  5
4C3
  8
0
 62
     7
 10
125.496
 20
121.911
 30
0.0
 11
125.57899999999999
 21
122.02
 31
0.0
  0
LINE
  5
4C4
  8
0
 62
     7
 10
125.57899999999999
 20
121.73399999999999
 30
0.0
 11
125.497
 21
121.764
 31
0.0
  0
LINE
  5
4C5
  8
0
 62
     7
 10
125.479
 20
121.91500000000001
 30
0.0
 11
125.479
 21
121.74299999999999
 31
0.0
  0
LINE
  5
4C6
  8
0
 62
     7
 10
124.907
 20
122.02200000000001
 30
0.0
 11
125.57899999999999
 21
122.02200000000001
 31
0.0
  0
LINE
  5
4C7
  8
0
 62
     7
 10
124.914
 20
125.81399999999999
 30
0.0
 11
125.571
 21
125.81399999999999
 31
0.0
  0
LINE
  5
4C8
  8
0
 62
     7
 10
124.953
 20
125.78100000000001
 30
0.0
 11
125.479
 21
125.78100000000001
 31
0.0
  0
LINE
  5
4C9
  8
0
 62
     7
 10
125.479
 20
125.61799999999999
 30
0.0
 11
124.953
 21
125.61799999999999
 31
0.0
  0
LINE
  5
4CA
  8
0
 62
     7
 10
124.953
 20
122.21899999999999
 30
0.0
 11
125.479
 21
122.21899999999999
 31
0.0
  0
LINE
  5
4CB
  8
0
 62
     7
 10
125.479
 20
122.041
 30
0.0
 11
124.953
 21
122.041
 31
0.0
  0
LINE
  5
4CC
  8
0
 62
     7
 10
125.496
 20
122.21299999999999
 30
0.0
 11
125.57899999999999
 21
122.321
 31
0.0
  0
LINE
  5
4CD
  8
0
 62
     7
 10
125.57899999999999
 20
122.023
 30
0.0
 11
125.496
 21
122.06100000000001
 31
0.0
  0
LINE
  5
4CE
  8
0
 62
     7
 10
125.479
 20
122.21899999999999
 30
0.0
 11
125.479
 21
122.041
 31
0.0
  0
LINE
  5
4CF
  8
0
 62
     7
 10
124.90900000000001
 20
122.321
 30
0.0
 11
125.57899999999999
 21
122.321
 31
0.0
  0
LINE
  5
4D0
  8
0
 62
     7
 10
124.914
 20
125.512
 30
0.0
 11
125.571
 21
125.512
 31
0.0
  0
LINE
  5
4D1
  8
0
 62
     7
 10
124.953
 20
125.473
 30
0.0
 11
125.479
 21
125.473
 31
0.0
  0
LINE
  5
4D2
  8
0
 62
     7
 10
125.479
 20
125.304
 30
0.0
 11
124.953
 21
125.304
 31
0.0
  0
LINE
  5
4D3
  8
0
 62
     7
 10
124.953
 20
122.53100000000001
 30
0.0
 11
125.479
 21
122.53100000000001
 31
0.0
  0
LINE
  5
4D4
  8
0
 62
     7
 10
125.479
 20
122.351
 30
0.0
 11
124.953
 21
122.351
 31
0.0
  0
LINE
  5
4D5
  8
0
 62
     7
 10
124.90900000000001
 20
122.629
 30
0.0
 11
125.57899999999999
 21
122.629
 31
0.0
  0
LINE
  5
4D6
  8
0
 62
     7
 10
124.913
 20
125.203
 30
0.0
 11
125.572
 21
125.203
 31
0.0
  0
LINE
  5
4D7
  8
0
 62
     7
 10
125.479
 20
124.982
 30
0.0
 11
124.953
 21
124.982
 31
0.0
  0
LINE
  5
4D8
  8
0
 62
     7
 10
124.953
 20
125.157
 30
0.0
 11
125.479
 21
125.157
 31
0.0
  0
LINE
  5
4D9
  8
0
 62
     7
 10
124.953
 20
122.85299999999999
 30
0.0
 11
125.479
 21
122.85299999999999
 31
0.0
  0
LINE
  5
4DA
  8
0
 62
     7
 10
125.479
 20
122.66800000000001
 30
0.0
 11
124.953
 21
122.66800000000001
 31
0.0
  0
LINE
  5
4DB
  8
0
 62
     7
 10
124.91
 20
122.94499999999999
 30
0.0
 11
125.578
 21
122.94499999999999
 31
0.0
  0
LINE
  5
4DC
  8
0
 62
     7
 10
124.913
 20
124.88800000000001
 30
0.0
 11
125.57299999999999
 21
124.88800000000001
 31
0.0
  0
LINE
  5
4DD
  8
0
 62
     7
 10
124.953
 20
124.833
 30
0.0
 11
125.479
 21
124.833
 31
0.0
  0
LINE
  5
4DE
  8
0
 62
     7
 10
125.479
 20
124.655
 30
0.0
 11
124.953
 21
124.655
 31
0.0
  0
LINE
  5
4DF
  8
0
 62
     7
 10
124.953
 20
123.178
 30
0.0
 11
125.479
 21
123.178
 31
0.0
  0
LINE
  5
4E0
  8
0
 62
     7
 10
125.479
 20
122.99299999999999
 30
0.0
 11
124.953
 21
122.99299999999999
 31
0.0
  0
LINE
  5
4E1
  8
0
 62
     7
 10
124.91
 20
123.265
 30
0.0
 11
125.578
 21
123.265
 31
0.0
  0
LINE
  5
4E2
  8
0
 62
     7
 10
124.91200000000001
 20
124.56699999999999
 30
0.0
 11
125.574
 21
124.56699999999999
 31
0.0
  0
LINE
  5
4E3
  8
0
 62
     7
 10
123.57899999999999
 20
120.249
 30
0.0
 11
123.57899999999999
 21
127.604
 31
0.0
  0
LINE
  5
4E4
  8
0
 62
     7
 10
124.91200000000001
 20
124.242
 30
0.0
 11
125.574
 21
124.242
 31
0.0
  0
LINE
  5
4E5
  8
0
 62
     7
 10
124.953
 20
124.506
 30
0.0
 11
125.479
 21
124.506
 31
0.0
  0
LINE
  5
4E6
  8
0
 62
     7
 10
125.479
 20
124.32299999999999
 30
0.0
 11
124.953
 21
124.32299999999999
 31
0.0
  0
LINE
  5
4E7
  8
0
 62
     7
 10
124.911
 20
123.589
 30
0.0
 11
125.577
 21
123.589
 31
0.0
  0
LINE
  5
4E8
  8
0
 62
     7
 10
124.953
 20
123.509
 30
0.0
 11
125.479
 21
123.509
 31
0.0
  0
LINE
  5
4E9
  8
0
 62
     7
 10
125.479
 20
123.322
 30
0.0
 11
124.953
 21
123.322
 31
0.0
  0
LINE
  5
4EA
  8
0
 62
     7
 10
124.911
 20
123.91500000000001
 30
0.0
 11
125.575
 21
123.91500000000001
 31
0.0
  0
LINE
  5
4EB
  8
0
 62
     7
 10
124.953
 20
124.17400000000001
 30
0.0
 11
125.479
 21
124.17400000000001
 31
0.0
  0
LINE
  5
4EC
  8
0
 62
     7
 10
125.479
 20
123.989
 30
0.0
 11
124.953
 21
123.989
 31
0.0
  0
LINE
  5
4ED
  8
0
 62
     7
 10
124.953
 20
123.84099999999999
 30
0.0
 11
125.479
 21
123.84099999999999
 31
0.0
  0
LINE
  5
4EE
  8
0
 62
     7
 10
125.479
 20
123.655
 30
0.0
 11
124.953
 21
123.655
 31
0.0
  0
LINE
  5
4EF
  8
0
 62
     7
 10
125.479
 20
128.435
 30
0.0
 11
125.563
 21
128.35400000000001
 31
0.0
  0
LINE
  5
4F0
  8
0
 62
     7
 10
125.563
 20
128.35400000000001
 30
0.0
 11
125.479
 21
128.43899999999999
 31
0.0
  0
LINE
  5
4F1
  8
0
 62
     7
 10
125.57899999999999
 20
122.322
 30
0.0
 11
125.495
 21
122.369
 31
0.0
  0
LINE
  5
4F2
  8
0
 62
     7
 10
125.479
 20
122.53100000000001
 30
0.0
 11
125.479
 21
122.351
 31
0.0
  0
LINE
  5
4F3
  8
0
 62
     7
 10
125.495
 20
122.52500000000001
 30
0.0
 11
125.57899999999999
 21
122.629
 31
0.0
  0
LINE
  5
4F4
  8
0
 62
     7
 10
125.57899999999999
 20
122.629
 30
0.0
 11
125.494
 21
122.684
 31
0.0
  0
LINE
  5
4F5
  8
0
 62
     7
 10
125.479
 20
122.85299999999999
 30
0.0
 11
125.479
 21
122.66800000000001
 31
0.0
  0
LINE
  5
4F6
  8
0
 62
     7
 10
125.494
 20
122.84399999999999
 30
0.0
 11
125.578
 21
122.94499999999999
 31
0.0
  0
LINE
  5
4F7
  8
0
 62
     7
 10
125.578
 20
122.94499999999999
 30
0.0
 11
125.494
 21
123.00700000000001
 31
0.0
  0
LINE
  5
4F8
  8
0
 62
     7
 10
125.479
 20
123.178
 30
0.0
 11
125.479
 21
122.99299999999999
 31
0.0
  0
LINE
  5
4F9
  8
0
 62
     7
 10
125.49299999999999
 20
123.17
 30
0.0
 11
125.578
 21
123.265
 31
0.0
  0
LINE
  5
4FA
  8
0
 62
     7
 10
125.578
 20
123.265
 30
0.0
 11
125.49299999999999
 21
123.33499999999999
 31
0.0
  0
LINE
  5
4FB
  8
0
 62
     7
 10
125.479
 20
123.509
 30
0.0
 11
125.479
 21
123.322
 31
0.0
  0
LINE
  5
4FC
  8
0
 62
     7
 10
125.49299999999999
 20
123.5
 30
0.0
 11
125.577
 21
123.589
 31
0.0
  0
LINE
  5
4FD
  8
0
 62
     7
 10
125.577
 20
123.589
 30
0.0
 11
125.491
 21
123.666
 31
0.0
  0
LINE
  5
4FE
  8
0
 62
     7
 10
125.479
 20
123.84099999999999
 30
0.0
 11
125.479
 21
123.655
 31
0.0
  0
LINE
  5
4FF
  8
0
 62
     7
 10
125.491
 20
123.831
 30
0.0
 11
125.575
 21
123.91500000000001
 31
0.0
  0
LINE
  5
500
  8
0
 62
     7
 10
125.575
 20
123.91500000000001
 30
0.0
 11
125.48999999999999
 21
123.999
 31
0.0
  0
LINE
  5
501
  8
0
 62
     7
 10
125.479
 20
124.17400000000001
 30
0.0
 11
125.479
 21
123.989
 31
0.0
  0
LINE
  5
502
  8
0
 62
     7
 10
125.48999999999999
 20
124.164
 30
0.0
 11
125.574
 21
124.242
 31
0.0
  0
LINE
  5
503
  8
0
 62
     7
 10
125.574
 20
124.242
 30
0.0
 11
125.48999999999999
 21
124.331
 31
0.0
  0
LINE
  5
504
  8
0
 62
     7
 10
125.479
 20
124.506
 30
0.0
 11
125.479
 21
124.32299999999999
 31
0.0
  0
LINE
  5
505
  8
0
 62
     7
 10
125.489
 20
124.496
 30
0.0
 11
125.574
 21
124.56699999999999
 31
0.0
  0
LINE
  5
506
  8
0
 62
     7
 10
125.574
 20
124.56699999999999
 30
0.0
 11
125.489
 21
124.661
 31
0.0
  0
LINE
  5
507
  8
0
 62
     7
 10
125.479
 20
124.833
 30
0.0
 11
125.479
 21
124.655
 31
0.0
  0
LINE
  5
508
  8
0
 62
     7
 10
125.489
 20
124.824
 30
0.0
 11
125.57299999999999
 21
124.88800000000001
 31
0.0
  0
LINE
  5
509
  8
0
 62
     7
 10
125.57299999999999
 20
124.88800000000001
 30
0.0
 11
125.488
 21
124.98699999999999
 31
0.0
  0
LINE
  5
50A
  8
0
 62
     7
 10
125.479
 20
125.157
 30
0.0
 11
125.479
 21
124.982
 31
0.0
  0
LINE
  5
50B
  8
0
 62
     7
 10
125.488
 20
125.14700000000001
 30
0.0
 11
125.572
 21
125.203
 31
0.0
  0
LINE
  5
50C
  8
0
 62
     7
 10
125.572
 20
125.203
 30
0.0
 11
125.488
 21
125.30800000000001
 31
0.0
  0
LINE
  5
50D
  8
0
 62
     7
 10
125.479
 20
125.473
 30
0.0
 11
125.479
 21
125.304
 31
0.0
  0
LINE
  5
50E
  8
0
 62
     7
 10
125.48699999999999
 20
125.465
 30
0.0
 11
125.571
 21
125.512
 31
0.0
  0
LINE
  5
50F
  8
0
 62
     7
 10
125.571
 20
125.512
 30
0.0
 11
125.48699999999999
 21
125.621
 31
0.0
  0
LINE
  5
510
  8
0
 62
     7
 10
125.479
 20
125.78100000000001
 30
0.0
 11
125.479
 21
125.61799999999999
 31
0.0
  0
LINE
  5
511
  8
0
 62
     7
 10
125.486
 20
125.773
 30
0.0
 11
125.571
 21
125.81399999999999
 31
0.0
  0
LINE
  5
512
  8
0
 62
     7
 10
125.571
 20
125.81399999999999
 30
0.0
 11
125.486
 21
125.925
 31
0.0
  0
LINE
  5
513
  8
0
 62
     7
 10
125.479
 20
126.08
 30
0.0
 11
125.479
 21
125.923
 31
0.0
  0
LINE
  5
514
  8
0
 62
     7
 10
125.486
 20
126.072
 30
0.0
 11
125.56999999999999
 21
126.104
 31
0.0
  0
LINE
  5
515
  8
0
 62
     7
 10
125.56999999999999
 20
126.104
 30
0.0
 11
125.485
 21
126.217
 31
0.0
  0
LINE
  5
516
  8
0
 62
     7
 10
125.479
 20
126.366
 30
0.0
 11
125.479
 21
126.21599999999999
 31
0.0
  0
LINE
  5
517
  8
0
 62
     7
 10
125.485
 20
126.35899999999999
 30
0.0
 11
125.568
 21
126.38200000000001
 31
0.0
  0
LINE
  5
518
  8
0
 62
     7
 10
125.568
 20
126.38200000000001
 30
0.0
 11
125.485
 21
126.497
 31
0.0
  0
LINE
  5
519
  8
0
 62
     7
 10
125.479
 20
126.639
 30
0.0
 11
125.479
 21
126.497
 31
0.0
  0
LINE
  5
51A
  8
0
 62
     7
 10
125.48399999999999
 20
126.63200000000001
 30
0.0
 11
125.568
 21
126.64700000000001
 31
0.0
  0
LINE
  5
51B
  8
0
 62
     7
 10
125.568
 20
126.64700000000001
 30
0.0
 11
125.48399999999999
 21
126.764
 31
0.0
  0
LINE
  5
51C
  8
0
 62
     7
 10
125.479
 20
126.89700000000001
 30
0.0
 11
125.479
 21
126.764
 31
0.0
  0
LINE
  5
51D
  8
0
 62
     7
 10
125.48399999999999
 20
126.89100000000001
 30
0.0
 11
125.56699999999999
 21
126.89700000000001
 31
0.0
  0
LINE
  5
51E
  8
0
 62
     7
 10
125.56699999999999
 20
126.89700000000001
 30
0.0
 11
125.482
 21
127.015
 31
0.0
  0
LINE
  5
51F
  8
0
 62
     7
 10
125.479
 20
127.139
 30
0.0
 11
125.479
 21
127.01600000000001
 31
0.0
  0
LINE
  5
520
  8
0
 62
     7
 10
125.482
 20
127.134
 30
0.0
 11
125.566
 21
127.13200000000001
 31
0.0
  0
LINE
  5
521
  8
0
 62
     7
 10
125.566
 20
127.13200000000001
 30
0.0
 11
125.482
 21
127.249
 31
0.0
  0
LINE
  5
522
  8
0
 62
     7
 10
125.479
 20
127.364
 30
0.0
 11
125.479
 21
127.25
 31
0.0
  0
LINE
  5
523
  8
0
 62
     7
 10
125.482
 20
127.35899999999999
 30
0.0
 11
125.566
 21
127.348
 31
0.0
  0
LINE
  5
524
  8
0
 62
     7
 10
125.566
 20
127.348
 30
0.0
 11
125.48099999999999
 21
127.46599999999999
 31
0.0
  0
LINE
  5
525
  8
0
 62
     7
 10
125.479
 20
127.56999999999999
 30
0.0
 11
125.479
 21
127.467
 31
0.0
  0
LINE
  5
526
  8
0
 62
     7
 10
125.48099999999999
 20
127.566
 30
0.0
 11
125.566
 21
127.54600000000001
 31
0.0
  0
LINE
  5
527
  8
0
 62
     7
 10
125.566
 20
127.54600000000001
 30
0.0
 11
125.48099999999999
 21
127.663
 31
0.0
  0
LINE
  5
528
  8
0
 62
     7
 10
125.479
 20
127.756
 30
0.0
 11
125.479
 21
127.663
 31
0.0
  0
LINE
  5
529
  8
0
 62
     7
 10
125.48099999999999
 20
127.753
 30
0.0
 11
125.565
 21
127.724
 31
0.0
  0
LINE
  5
52A
  8
0
 62
     7
 10
125.565
 20
127.724
 30
0.0
 11
125.48099999999999
 21
127.839
 31
0.0
  0
LINE
  5
52B
  8
0
 62
     7
 10
125.479
 20
127.92100000000001
 30
0.0
 11
125.479
 21
127.84
 31
0.0
  0
LINE
  5
52C
  8
0
 62
     7
 10
125.48
 20
127.919
 30
0.0
 11
125.565
 21
127.88200000000001
 31
0.0
  0
LINE
  5
52D
  8
0
 62
     7
 10
125.565
 20
127.88200000000001
 30
0.0
 11
125.48
 21
127.995
 31
0.0
  0
LINE
  5
52E
  8
0
 62
     7
 10
125.479
 20
128.065
 30
0.0
 11
125.479
 21
127.995
 31
0.0
  0
LINE
  5
52F
  8
0
 62
     7
 10
125.48
 20
128.06299999999999
 30
0.0
 11
125.56399999999999
 21
128.018
 31
0.0
  0
LINE
  5
530
  8
0
 62
     7
 10
125.56399999999999
 20
128.018
 30
0.0
 11
125.48
 21
128.12700000000001
 31
0.0
  0
LINE
  5
531
  8
0
 62
     7
 10
125.479
 20
128.18600000000001
 30
0.0
 11
125.479
 21
128.12799999999999
 31
0.0
  0
LINE
  5
532
  8
0
 62
     7
 10
125.48
 20
128.185
 30
0.0
 11
125.56399999999999
 21
128.13200000000001
 31
0.0
  0
LINE
  5
533
  8
0
 62
     7
 10
125.56399999999999
 20
128.13200000000001
 30
0.0
 11
125.48
 21
128.238
 31
0.0
  0
LINE
  5
534
  8
0
 62
     7
 10
125.479
 20
128.285
 30
0.0
 11
125.479
 21
128.238
 31
0.0
  0
LINE
  5
535
  8
0
 62
     7
 10
125.479
 20
128.28399999999999
 30
0.0
 11
125.56399999999999
 21
128.22300000000001
 31
0.0
  0
LINE
  5
536
  8
0
 62
     7
 10
125.56399999999999
 20
128.22300000000001
 30
0.0
 11
125.479
 21
128.32400000000001
 31
0.0
  0
LINE
  5
537
  8
0
 62
     7
 10
125.479
 20
128.358
 30
0.0
 11
125.56399999999999
 21
128.28999999999999
 31
0.0
  0
LINE
  5
538
  8
0
 62
     7
 10
125.56399999999999
 20
128.28999999999999
 30
0.0
 11
125.479
 21
128.387
 31
0.0
  0
LINE
  5
539
  8
0
 62
     7
 10
125.479
 20
128.41
 30
0.0
 11
125.563
 21
128.334
 31
0.0
  0
LINE
  5
53A
  8
0
 62
     7
 10
125.563
 20
128.334
 30
0.0
 11
125.479
 21
128.42599999999999
 31
0.0
  0
LINE
  5
53B
  8
0
 62
     7
 10
124.953
 20
128.387
 30
0.0
 11
124.919
 21
128.28999999999999
 31
0.0
  0
LINE
  5
53C
  8
0
 62
     7
 10
124.919
 20
128.28999999999999
 30
0.0
 11
124.953
 21
128.358
 31
0.0
  0
LINE
  5
53D
  8
0
 62
     7
 10
124.953
 20
128.32400000000001
 30
0.0
 11
124.91800000000001
 21
128.22300000000001
 31
0.0
  0
LINE
  5
53E
  8
0
 62
     7
 10
124.91800000000001
 20
128.22300000000001
 30
0.0
 11
124.952
 21
128.28399999999999
 31
0.0
  0
LINE
  5
53F
  8
0
 62
     7
 10
124.953
 20
128.238
 30
0.0
 11
124.953
 21
128.285
 31
0.0
  0
LINE
  5
540
  8
0
 62
     7
 10
124.952
 20
128.238
 30
0.0
 11
124.91800000000001
 21
128.13200000000001
 31
0.0
  0
LINE
  5
541
  8
0
 62
     7
 10
124.91800000000001
 20
128.13200000000001
 30
0.0
 11
124.952
 21
128.185
 31
0.0
  0
LINE
  5
542
  8
0
 62
     7
 10
124.953
 20
128.12799999999999
 30
0.0
 11
124.953
 21
128.18600000000001
 31
0.0
  0
LINE
  5
543
  8
0
 62
     7
 10
124.952
 20
128.12700000000001
 30
0.0
 11
124.91800000000001
 21
128.018
 31
0.0
  0
LINE
  5
544
  8
0
 62
     7
 10
124.91800000000001
 20
128.018
 30
0.0
 11
124.952
 21
128.06299999999999
 31
0.0
  0
LINE
  5
545
  8
0
 62
     7
 10
124.953
 20
127.995
 30
0.0
 11
124.953
 21
128.065
 31
0.0
  0
LINE
  5
546
  8
0
 62
     7
 10
124.952
 20
127.995
 30
0.0
 11
124.91800000000001
 21
127.88200000000001
 31
0.0
  0
LINE
  5
547
  8
0
 62
     7
 10
124.91800000000001
 20
127.88200000000001
 30
0.0
 11
124.952
 21
127.919
 31
0.0
  0
LINE
  5
548
  8
0
 62
     7
 10
124.953
 20
127.84
 30
0.0
 11
124.953
 21
127.92100000000001
 31
0.0
  0
LINE
  5
549
  8
0
 62
     7
 10
124.952
 20
127.839
 30
0.0
 11
124.91800000000001
 21
127.724
 31
0.0
  0
LINE
  5
54A
  8
0
 62
     7
 10
124.91800000000001
 20
127.724
 30
0.0
 11
124.952
 21
127.753
 31
0.0
  0
LINE
  5
54B
  8
0
 62
     7
 10
124.953
 20
127.663
 30
0.0
 11
124.953
 21
127.756
 31
0.0
  0
LINE
  5
54C
  8
0
 62
     7
 10
124.952
 20
127.663
 30
0.0
 11
124.917
 21
127.54600000000001
 31
0.0
  0
LINE
  5
54D
  8
0
 62
     7
 10
124.917
 20
127.54600000000001
 30
0.0
 11
124.952
 21
127.566
 31
0.0
  0
LINE
  5
54E
  8
0
 62
     7
 10
124.953
 20
127.467
 30
0.0
 11
124.953
 21
127.56999999999999
 31
0.0
  0
LINE
  5
54F
  8
0
 62
     7
 10
124.952
 20
127.46599999999999
 30
0.0
 11
124.917
 21
127.348
 31
0.0
  0
LINE
  5
550
  8
0
 62
     7
 10
124.917
 20
127.348
 30
0.0
 11
124.952
 21
127.35899999999999
 31
0.0
  0
LINE
  5
551
  8
0
 62
     7
 10
124.953
 20
127.25
 30
0.0
 11
124.953
 21
127.364
 31
0.0
  0
LINE
  5
552
  8
0
 62
     7
 10
124.952
 20
127.249
 30
0.0
 11
124.917
 21
127.13200000000001
 31
0.0
  0
LINE
  5
553
  8
0
 62
     7
 10
124.917
 20
127.13200000000001
 30
0.0
 11
124.952
 21
127.134
 31
0.0
  0
LINE
  5
554
  8
0
 62
     7
 10
124.953
 20
127.01600000000001
 30
0.0
 11
124.953
 21
127.139
 31
0.0
  0
LINE
  5
555
  8
0
 62
     7
 10
124.952
 20
127.015
 30
0.0
 11
124.917
 21
126.89700000000001
 31
0.0
  0
LINE
  5
556
  8
0
 62
     7
 10
124.917
 20
126.89700000000001
 30
0.0
 11
124.952
 21
126.89100000000001
 31
0.0
  0
LINE
  5
557
  8
0
 62
     7
 10
124.953
 20
126.764
 30
0.0
 11
124.953
 21
126.89700000000001
 31
0.0
  0
LINE
  5
558
  8
0
 62
     7
 10
124.95099999999999
 20
126.764
 30
0.0
 11
124.91500000000001
 21
126.64700000000001
 31
0.0
  0
LINE
  5
559
  8
0
 62
     7
 10
124.91500000000001
 20
126.64700000000001
 30
0.0
 11
124.95099999999999
 21
126.63200000000001
 31
0.0
  0
LINE
  5
55A
  8
0
 62
     7
 10
124.953
 20
126.497
 30
0.0
 11
124.953
 21
126.639
 31
0.0
  0
LINE
  5
55B
  8
0
 62
     7
 10
124.95099999999999
 20
126.497
 30
0.0
 11
124.91500000000001
 21
126.38200000000001
 31
0.0
  0
LINE
  5
55C
  8
0
 62
     7
 10
124.91500000000001
 20
126.38200000000001
 30
0.0
 11
124.95099999999999
 21
126.35899999999999
 31
0.0
  0
LINE
  5
55D
  8
0
 62
     7
 10
124.953
 20
126.21599999999999
 30
0.0
 11
124.953
 21
126.366
 31
0.0
  0
LINE
  5
55E
  8
0
 62
     7
 10
124.95099999999999
 20
126.217
 30
0.0
 11
124.914
 21
126.104
 31
0.0
  0
LINE
  5
55F
  8
0
 62
     7
 10
124.914
 20
126.104
 30
0.0
 11
124.95099999999999
 21
126.072
 31
0.0
  0
LINE
  5
560
  8
0
 62
     7
 10
124.953
 20
125.923
 30
0.0
 11
124.953
 21
126.08
 31
0.0
  0
LINE
  5
561
  8
0
 62
     7
 10
124.95099999999999
 20
125.925
 30
0.0
 11
124.914
 21
125.81399999999999
 31
0.0
  0
LINE
  5
562
  8
0
 62
     7
 10
124.914
 20
125.81399999999999
 30
0.0
 11
124.95099999999999
 21
125.773
 31
0.0
  0
LINE
  5
563
  8
0
 62
     7
 10
124.953
 20
125.61799999999999
 30
0.0
 11
124.953
 21
125.78100000000001
 31
0.0
  0
LINE
  5
564
  8
0
 62
     7
 10
124.95099999999999
 20
125.621
 30
0.0
 11
124.914
 21
125.512
 31
0.0
  0
LINE
  5
565
  8
0
 62
     7
 10
124.914
 20
125.512
 30
0.0
 11
124.95099999999999
 21
125.465
 31
0.0
  0
LINE
  5
566
  8
0
 62
     7
 10
124.953
 20
125.304
 30
0.0
 11
124.953
 21
125.473
 31
0.0
  0
LINE
  5
567
  8
0
 62
     7
 10
124.95099999999999
 20
125.30800000000001
 30
0.0
 11
124.913
 21
125.203
 31
0.0
  0
LINE
  5
568
  8
0
 62
     7
 10
124.913
 20
125.203
 30
0.0
 11
124.95
 21
125.14700000000001
 31
0.0
  0
LINE
  5
569
  8
0
 62
     7
 10
124.953
 20
124.982
 30
0.0
 11
124.953
 21
125.157
 31
0.0
  0
LINE
  5
56A
  8
0
 62
     7
 10
124.95
 20
124.98699999999999
 30
0.0
 11
124.913
 21
124.88800000000001
 31
0.0
  0
LINE
  5
56B
  8
0
 62
     7
 10
124.913
 20
124.88800000000001
 30
0.0
 11
124.95
 21
124.824
 31
0.0
  0
LINE
  5
56C
  8
0
 62
     7
 10
124.953
 20
124.655
 30
0.0
 11
124.953
 21
124.833
 31
0.0
  0
LINE
  5
56D
  8
0
 62
     7
 10
124.95
 20
124.661
 30
0.0
 11
124.91200000000001
 21
124.56699999999999
 31
0.0
  0
LINE
  5
56E
  8
0
 62
     7
 10
124.91200000000001
 20
124.56699999999999
 30
0.0
 11
124.95
 21
124.496
 31
0.0
  0
LINE
  5
56F
  8
0
 62
     7
 10
124.953
 20
124.32299999999999
 30
0.0
 11
124.953
 21
124.506
 31
0.0
  0
LINE
  5
570
  8
0
 62
     7
 10
124.95
 20
124.331
 30
0.0
 11
124.91200000000001
 21
124.242
 31
0.0
  0
LINE
  5
571
  8
0
 62
     7
 10
124.91200000000001
 20
124.242
 30
0.0
 11
124.95
 21
124.164
 31
0.0
  0
LINE
  5
572
  8
0
 62
     7
 10
124.953
 20
123.989
 30
0.0
 11
124.953
 21
124.17400000000001
 31
0.0
  0
LINE
  5
573
  8
0
 62
     7
 10
124.95
 20
123.999
 30
0.0
 11
124.911
 21
123.91500000000001
 31
0.0
  0
LINE
  5
574
  8
0
 62
     7
 10
124.911
 20
123.91500000000001
 30
0.0
 11
124.95
 21
123.831
 31
0.0
  0
LINE
  5
575
  8
0
 62
     7
 10
124.953
 20
123.655
 30
0.0
 11
124.953
 21
123.84099999999999
 31
0.0
  0
LINE
  5
576
  8
0
 62
     7
 10
124.949
 20
123.666
 30
0.0
 11
124.911
 21
123.589
 31
0.0
  0
LINE
  5
577
  8
0
 62
     7
 10
124.911
 20
123.589
 30
0.0
 11
124.949
 21
123.5
 31
0.0
  0
LINE
  5
578
  8
0
 62
     7
 10
124.953
 20
123.322
 30
0.0
 11
124.953
 21
123.509
 31
0.0
  0
LINE
  5
579
  8
0
 62
     7
 10
124.949
 20
123.33499999999999
 30
0.0
 11
124.91
 21
123.265
 31
0.0
  0
LINE
  5
57A
  8
0
 62
     7
 10
124.91
 20
123.265
 30
0.0
 11
124.949
 21
123.17
 31
0.0
  0
LINE
  5
57B
  8
0
 62
     7
 10
124.953
 20
122.99299999999999
 30
0.0
 11
124.953
 21
123.178
 31
0.0
  0
LINE
  5
57C
  8
0
 62
     7
 10
124.949
 20
123.00700000000001
 30
0.0
 11
124.91
 21
122.94499999999999
 31
0.0
  0
LINE
  5
57D
  8
0
 62
     7
 10
124.91
 20
122.94499999999999
 30
0.0
 11
124.949
 21
122.84399999999999
 31
0.0
  0
LINE
  5
57E
  8
0
 62
     7
 10
124.953
 20
122.66800000000001
 30
0.0
 11
124.953
 21
122.85299999999999
 31
0.0
  0
LINE
  5
57F
  8
0
 62
     7
 10
124.949
 20
122.684
 30
0.0
 11
124.90900000000001
 21
122.629
 31
0.0
  0
LINE
  5
580
  8
0
 62
     7
 10
124.90900000000001
 20
122.629
 30
0.0
 11
124.949
 21
122.52500000000001
 31
0.0
  0
LINE
  5
581
  8
0
 62
     7
 10
124.953
 20
122.351
 30
0.0
 11
124.953
 21
122.53100000000001
 31
0.0
  0
LINE
  5
582
  8
0
 62
     7
 10
124.94799999999999
 20
122.369
 30
0.0
 11
124.90900000000001
 21
122.321
 31
0.0
  0
LINE
  5
583
  8
0
 62
     7
 10
124.90900000000001
 20
122.321
 30
0.0
 11
124.94799999999999
 21
122.21299999999999
 31
0.0
  0
LINE
  5
584
  8
0
 62
     7
 10
124.953
 20
122.041
 30
0.0
 11
124.953
 21
122.21899999999999
 31
0.0
  0
LINE
  5
585
  8
0
 62
     7
 10
124.94799999999999
 20
122.06100000000001
 30
0.0
 11
124.907
 21
122.02200000000001
 31
0.0
  0
LINE
  5
586
  8
0
 62
     7
 10
124.907
 20
122.02200000000001
 30
0.0
 11
124.94799999999999
 21
121.911
 31
0.0
  0
LINE
  5
587
  8
0
 62
     7
 10
124.953
 20
121.74299999999999
 30
0.0
 11
124.953
 21
121.91500000000001
 31
0.0
  0
LINE
  5
588
  8
0
 62
     7
 10
124.94799999999999
 20
121.764
 30
0.0
 11
124.907
 21
121.73399999999999
 31
0.0
  0
LINE
  5
589
  8
0
 62
     7
 10
124.907
 20
121.73399999999999
 30
0.0
 11
124.94799999999999
 21
121.619
 31
0.0
  0
LINE
  5
58A
  8
0
 62
     7
 10
124.953
 20
121.45699999999999
 30
0.0
 11
124.953
 21
121.622
 31
0.0
  0
LINE
  5
58B
  8
0
 62
     7
 10
124.94799999999999
 20
121.479
 30
0.0
 11
124.907
 21
121.45699999999999
 31
0.0
  0
LINE
  5
58C
  8
0
 62
     7
 10
124.907
 20
121.45699999999999
 30
0.0
 11
124.94799999999999
 21
121.34099999999999
 31
0.0
  0
LINE
  5
58D
  8
0
 62
     7
 10
124.953
 20
121.18300000000001
 30
0.0
 11
124.953
 21
121.342
 31
0.0
  0
LINE
  5
58E
  8
0
 62
     7
 10
124.94799999999999
 20
121.20699999999999
 30
0.0
 11
124.90600000000001
 21
121.194
 31
0.0
  0
LINE
  5
58F
  8
0
 62
     7
 10
124.90600000000001
 20
121.194
 30
0.0
 11
124.94799999999999
 21
121.07599999999999
 31
0.0
  0
LINE
  5
590
  8
0
 62
     7
 10
124.953
 20
120.925
 30
0.0
 11
124.953
 21
121.07599999999999
 31
0.0
  0
LINE
  5
591
  8
0
 62
     7
 10
124.946
 20
120.95
 30
0.0
 11
124.90600000000001
 21
120.946
 31
0.0
  0
LINE
  5
592
  8
0
 62
     7
 10
124.90600000000001
 20
120.946
 30
0.0
 11
124.946
 21
120.828
 31
0.0
  0
LINE
  5
593
  8
0
 62
     7
 10
124.953
 20
120.68300000000001
 30
0.0
 11
124.953
 21
120.825
 31
0.0
  0
LINE
  5
594
  8
0
 62
     7
 10
124.946
 20
120.70999999999999
 30
0.0
 11
124.905
 21
120.714
 31
0.0
  0
LINE
  5
595
  8
0
 62
     7
 10
124.905
 20
120.714
 30
0.0
 11
124.946
 21
120.596
 31
0.0
  0
LINE
  5
596
  8
0
 62
     7
 10
124.953
 20
120.45999999999999
 30
0.0
 11
124.953
 21
120.592
 31
0.0
  0
LINE
  5
597
  8
0
 62
     7
 10
124.946
 20
120.48699999999999
 30
0.0
 11
124.905
 21
120.5
 31
0.0
  0
LINE
  5
598
  8
0
 62
     7
 10
124.905
 20
120.5
 30
0.0
 11
124.946
 21
120.38200000000001
 31
0.0
  0
LINE
  5
599
  8
0
 62
     7
 10
124.953
 20
120.255
 30
0.0
 11
124.953
 21
120.376
 31
0.0
  0
LINE
  5
59A
  8
0
 62
     7
 10
124.946
 20
120.283
 30
0.0
 11
124.905
 21
120.30500000000001
 31
0.0
  0
LINE
  5
59B
  8
0
 62
     7
 10
124.905
 20
120.30500000000001
 30
0.0
 11
124.946
 21
120.188
 31
0.0
  0
LINE
  5
59C
  8
0
 62
     7
 10
124.953
 20
120.071
 30
0.0
 11
124.953
 21
120.179
 31
0.0
  0
LINE
  5
59D
  8
0
 62
     7
 10
124.946
 20
120.099
 30
0.0
 11
124.905
 21
120.128
 31
0.0
  0
LINE
  5
59E
  8
0
 62
     7
 10
124.905
 20
120.128
 30
0.0
 11
124.946
 21
120.014
 31
0.0
  0
LINE
  5
59F
  8
0
 62
     7
 10
124.953
 20
119.907
 30
0.0
 11
124.953
 21
120.003
 31
0.0
  0
LINE
  5
5A0
  8
0
 62
     7
 10
124.946
 20
119.93600000000001
 30
0.0
 11
124.904
 21
119.974
 31
0.0
  0
LINE
  5
5A1
  8
0
 62
     7
 10
124.904
 20
119.974
 30
0.0
 11
124.946
 21
119.86199999999999
 31
0.0
  0
LINE
  5
5A2
  8
0
 62
     7
 10
124.953
 20
119.76600000000001
 30
0.0
 11
124.953
 21
119.849
 31
0.0
  0
LINE
  5
5A3
  8
0
 62
     7
 10
124.946
 20
119.795
 30
0.0
 11
124.904
 21
119.84
 31
0.0
  0
LINE
  5
5A4
  8
0
 62
     7
 10
124.904
 20
119.84
 30
0.0
 11
124.946
 21
119.732
 31
0.0
  0
LINE
  5
5A5
  8
0
 62
     7
 10
124.953
 20
119.648
 30
0.0
 11
124.953
 21
119.717
 31
0.0
  0
LINE
  5
5A6
  8
0
 62
     7
 10
124.946
 20
119.676
 30
0.0
 11
124.904
 21
119.73
 31
0.0
  0
LINE
  5
5A7
  8
0
 62
     7
 10
124.904
 20
119.73
 30
0.0
 11
124.946
 21
119.625
 31
0.0
  0
LINE
  5
5A8
  8
0
 62
     7
 10
124.953
 20
119.553
 30
0.0
 11
124.953
 21
119.608
 31
0.0
  0
LINE
  5
5A9
  8
0
 62
     7
 10
124.946
 20
119.58
 30
0.0
 11
124.904
 21
119.642
 31
0.0
  0
LINE
  5
5AA
  8
0
 62
     7
 10
124.904
 20
119.642
 30
0.0
 11
124.946
 21
119.542
 31
0.0
  0
LINE
  5
5AB
  8
0
 62
     7
 10
124.953
 20
119.483
 30
0.0
 11
124.953
 21
119.523
 31
0.0
  0
LINE
  5
5AC
  8
0
 62
     7
 10
124.946
 20
119.509
 30
0.0
 11
124.904
 21
119.57899999999999
 31
0.0
  0
LINE
  5
5AD
  8
0
 62
     7
 10
124.904
 20
119.57899999999999
 30
0.0
 11
124.946
 21
119.482
 31
0.0
  0
ARC
  5
5AE
  8
0
 62
     7
 10
148.24932100000001
 20
119.506101
 30
0.0
 40
0.684699
 50
180.9063699999999
 51
245.15048900000011
  0
ARC
  5
5AF
  8
0
 62
     7
 10
148.249268
 20
128.346349
 30
0.0
 40
0.684646
 50
114.846733
 51
179.096408
  0
ARC
  5
5B0
  8
0
 62
     7
 10
146.7904739999999
 20
116.36242
 30
0.0
 40
2.7809859999999991
 50
0.8631059999999999
 51
65.095069000000009
  0
ARC
  5
5B1
  8
0
 62
     7
 10
146.78865500000001
 20
131.491164
 30
0.0
 40
2.7828110000000001
 50
294.928764
 51
359.12759299999999
  0
ARC
  5
5B2
  8
0
 62
     7
 10
150.609835
 20
116.467243
 30
0.0
 40
1.040595999999999
 50
183.46721099999999
 51
268.00850700000001
  0
ARC
  5
5B3
  8
0
 62
     7
 10
150.58639299999999
 20
131.409378
 30
0.0
 40
1.0160139999999991
 50
90.717320000000001
 51
177.776659
  0
ARC
  5
5B4
  8
0
 62
     7
 10
152.270081
 20
116.363637
 30
0.0
 40
1.937670999999999
 50
208.897268
 51
269.26558999999997
  0
ARC
  5
5B5
  8
0
 62
     7
 10
152.26805899999999
 20
131.49166099999999
 30
0.0
 40
1.934591999999999
 50
90.675692999999995
 51
151.14406500000001
  0
LINE
  5
5B6
  8
0
 62
     7
 10
136.26499999999999
 20
125.901
 30
0.0
 11
136.26499999999999
 21
126.134
 31
0.0
  0
LINE
  5
5B7
  8
0
 62
     7
 10
136.26499999999999
 20
121.71899999999999
 30
0.0
 11
136.26499999999999
 21
121.95099999999999
 31
0.0
  0
LINE
  5
5B8
  8
0
 62
     7
 10
136.26499999999999
 20
126.134
 30
0.0
 11
136.399
 21
126.267
 31
0.0
  0
LINE
  5
5B9
  8
0
 62
     7
 10
136.399
 20
121.58499999999999
 30
0.0
 11
136.26499999999999
 21
121.71899999999999
 31
0.0
  0
LINE
  5
5BA
  8
0
 62
     7
 10
139.208
 20
121.586
 30
0.0
 11
136.399
 21
121.58499999999999
 31
0.0
  0
LINE
  5
5BB
  8
0
 62
     7
 10
136.399
 20
126.267
 30
0.0
 11
139.208
 21
126.267
 31
0.0
  0
ARC
  5
5BC
  8
0
 62
     7
 10
138.58166299999999
 20
134.58820800000001
 30
0.0
 40
8.3450629999999997
 50
274.30122999999998
 51
275.86041
  0
ARC
  5
5BD
  8
0
 62
     7
 10
139.232767
 20
128.027784
 30
0.0
 40
1.7525859999999991
 50
276.58461
 51
282.88931000000002
  0
ARC
  5
5BE
  8
0
 62
     7
 10
139.293778
 20
127.737039
 30
0.0
 40
1.455565999999999
 50
283.101158
 51
303.67495000000002
  0
ARC
  5
5BF
  8
0
 62
     7
 10
139.169228
 20
127.98081500000001
 30
0.0
 40
1.7277839999999991
 50
302.629683
 51
323.51415800000001
  0
ARC
  5
5C0
  8
0
 62
     7
 10
139.28777600000001
 20
127.890816
 30
0.0
 40
1.5789569999999991
 50
323.58192300000002
 51
336.28349200000002
  0
ARC
  5
5C1
  8
0
 62
     7
 10
139.45693399999999
 20
127.806584
 30
0.0
 40
1.3902350000000001
 50
336.657759
 51
340.89591000000001
  0
ARC
  5
5C2
  8
0
 62
     7
 10
137.72702200000001
 20
128.40015199999999
 30
0.0
 40
3.219144
 50
340.99018899999999
 51
345.67243100000002
  0
ARC
  5
5C3
  8
0
 62
     7
 10
134.91217499999999
 20
118.633971
 30
0.0
 40
6.149646999999999
 50
15.22293
 51
17.30432399999999
  0
ARC
  5
5C4
  8
0
 62
     7
 10
139.276556
 20
119.97390300000001
 30
0.0
 40
1.58436
 50
17.987397999999999
 51
23.145952000000001
  0
ARC
  5
5C5
  8
0
 62
     7
 10
139.45473699999999
 20
120.057777
 30
0.0
 40
1.3875699999999991
 50
22.853421000000001
 51
37.309488000000002
  0
ARC
  5
5C6
  8
0
 62
     7
 10
139.186521
 20
119.890505
 30
0.0
 40
1.7025449999999991
 50
36.315741000000003
 51
57.51739899999999
  0
ARC
  5
5C7
  8
0
 62
     7
 10
139.23806499999989
 20
119.989136
 30
0.0
 40
1.5916920000000001
 50
57.175836000000011
 51
75.978374000000002
  0
ARC
  5
5C8
  8
0
 62
     7
 10
139.30331200000001
 20
120.17071
 30
0.0
 40
1.3998509999999991
 50
76.768750999999995
 51
80.908085999999997
  0
ARC
  5
5C9
  8
0
 62
     7
 10
139.05523600000001
 20
118.565313
 30
0.0
 40
3.0242919999999991
 50
81.073344000000006
 51
87.113292999999999
  0
ARC
  5
5CA
  8
0
 62
     7
 10
141.68558300000001
 20
120.44074000000001
 30
0.0
 40
0.861223
 50
192.883251
 51
267.45719500000001
  0
ARC
  5
5CB
  8
0
 62
     7
 10
141.68704700000001
 20
127.41063699999999
 30
0.0
 40
0.8628429999999999
 50
92.635317999999998
 51
167.08232000000001
  0
LINE
  5
5CC
  8
0
 62
     7
 10
142.13800000000001
 20
119.58
 30
0.0
 11
141.64699999999999
 21
119.58
 31
0.0
  0
LINE
  5
5CD
  8
0
 62
     7
 10
141.64699999999999
 20
128.273
 30
0.0
 11
142.13800000000001
 21
128.273
 31
0.0
  0
LINE
  5
5CE
  8
0
 62
     7
 10
142.13800000000001
 20
128.273
 30
0.0
 11
142.154
 21
128.274
 31
0.0
  0
ARC
  5
5CF
  8
0
 62
     7
 10
142.11132799999999
 20
128.44236599999999
 30
0.0
 40
0.173946
 50
284.25196499999998
 51
290.19492400000001
  0
ARC
  5
5D0
  8
0
 62
     7
 10
142.120462
 20
128.38333399999999
 30
0.0
 40
0.115992
 50
296.03680600000001
 51
306.822338
  0
ARC
  5
5D1
  8
0
 62
     7
 10
142.06151
 20
128.432444
 30
0.0
 40
0.191462
 50
312.14400499999999
 51
319.549353
  0
ARC
  5
5D2
  8
0
 62
     7
 10
141.31146799999999
 20
118.71641
 30
0.0
 40
1.219659
 50
42.742038000000001
 51
43.921277999999987
  0
ARC
  5
5D3
  8
0
 62
     7
 10
142.12009399999999
 20
119.45856499999999
 30
0.0
 40
0.125204
 50
56.070047000000002
 51
65.820731000000009
  0
ARC
  5
5D4
  8
0
 62
     7
 10
142.14564799999999
 20
119.525372
 30
0.0
 40
0.053944
 50
61.513348999999998
 51
80.930568999999977
  0
ARC
  5
5D5
  8
0
 62
     7
 10
142.13127399999999
 20
119.441934
 30
0.0
 40
0.138609
 50
80.500047999999992
 51
87.093038000000007
  0
ARC
  5
5D6
  8
0
 62
     7
 10
145.33748399999999
 20
131.40625
 30
0.0
 40
3.1341540000000001
 50
270.99433599999998
 51
273.53799500000002
  0
ARC
  5
5D7
  8
0
 62
     7
 10
145.47639699999999
 20
128.9407139999999
 30
0.0
 40
0.664882
 50
274.70146399999999
 51
282.741578
  0
ARC
  5
5D8
  8
0
 62
     7
 10
145.46719999999999
 20
128.97648799999999
 30
0.0
 40
0.701804
 50
282.82979799999998
 51
297.17851999999999
  0
ARC
  5
5D9
  8
0
 62
     7
 10
144.60500500000001
 20
130.794724
 30
0.0
 40
2.713848
 50
295.83761600000003
 51
298.33667100000002
  0
ARC
  5
5DA
  8
0
 62
     7
 10
144.36771300000001
 20
116.56411799999999
 30
0.0
 40
3.261009
 50
62.10992499999999
 51
64.715306999999996
  0
ARC
  5
5DB
  8
0
 62
     7
 10
145.43044800000001
 20
118.78831599999999
 30
0.0
 40
0.79606
 50
65.502010000000013
 51
75.999431000000001
  0
ARC
  5
5DC
  8
0
 62
     7
 10
145.492132
 20
118.97931199999999
 30
0.0
 40
0.59597
 50
77.311268999999996
 51
83.665828000000005
  0
ARC
  5
5DD
  8
0
 62
     7
 10
145.39542499999999
 20
118.063445
 30
0.0
 40
1.5169239999999991
 50
83.851943000000006
 51
90.134163999999998
  0
ARC
  5
5DE
  8
0
 62
     7
 10
146.284244
 20
130.31760800000001
 30
0.0
 40
2.347998
 50
230.488032
 51
235.37807799999999
  0
ARC
  5
5DF
  8
0
 62
     7
 10
145.300712
 20
128.95527100000001
 30
0.0
 40
0.669037
 50
238.40631999999999
 51
253.56653499999999
  0
ARC
  5
5E0
  8
0
 62
     7
 10
145.309991
 20
128.96603300000001
 30
0.0
 40
0.68201
 50
253.074592
 51
258.980684
  0
ARC
  5
5E1
  8
0
 62
     7
 10
145.44535400000001
 20
129.69426100000001
 30
0.0
 40
1.422698999999999
 50
259.23544800000002
 51
267.845641
  0
ARC
  5
5E2
  8
0
 62
     7
 10
145.65826799999999
 20
116.102633
 30
0.0
 40
3.487919999999999
 50
94.380319999999983
 51
97.094346000000016
  0
ARC
  5
5E3
  8
0
 62
     7
 10
145.34246399999989
 20
118.75362199999999
 30
0.0
 40
0.8183439999999999
 50
98.076004000000012
 51
106.397909
  0
ARC
  5
5E4
  8
0
 62
     7
 10
145.30146500000001
 20
118.893907
 30
0.0
 40
0.672191
 50
106.42114599999999
 51
121.50380699999999
  0
ARC
  5
5E5
  8
0
 62
     7
 10
145.34783999999999
 20
118.81851399999999
 30
0.0
 40
0.760705
 50
121.514537
 51
127.06798999999999
  0
ARC
  5
5E6
  8
0
 62
     7
 10
146.344233
 20
117.51868399999999
 30
0.0
 40
2.398482
 50
127.34399500000001
 51
130.38036399999999
  0
ARC
  5
5E7
  8
0
 62
     7
 10
146.39773500000001
 20
120.12298199999999
 30
0.0
 40
0.844068
 50
233.28627499999999
 51
269.84385099999997
  0
ARC
  5
5E8
  8
0
 62
     7
 10
146.39680100000001
 20
127.73137
 30
0.0
 40
0.8419579999999999
 50
90.092974999999996
 51
126.741527
  0
LINE
  5
5E9
  8
0
 62
     7
 10
147.565
 20
119.279
 30
0.0
 11
146.39500000000001
 21
119.279
 31
0.0
  0
LINE
  5
5EA
  8
0
 62
     7
 10
146.39500000000001
 20
128.57300000000001
 30
0.0
 11
147.565
 21
128.57300000000001
 31
0.0
  0
ARC
  5
5EB
  8
0
 62
     7
 10
143.576954
 20
120.589941
 30
0.0
 40
1.7379150000000001
 50
228.55649399999999
 51
314.282263
  0
ARC
  5
5EC
  8
0
 62
     7
 10
143.603936
 20
120.514644
 30
0.0
 40
1.700774
 50
214.791721
 51
226.19550100000001
  0
ARC
  5
5ED
  8
0
 62
     7
 10
143.59594200000001
 20
127.265766
 30
0.0
 40
1.7364639999999989
 50
57.286969999999997
 51
143.106167
  0
ARC
  5
5EE
  8
0
 62
     7
 10
143.57825800000001
 20
127.358874
 30
0.0
 40
1.6689560000000001
 50
43.426172999999991
 51
55.048132000000003
  0
ARC
  5
5EF
  8
0
 62
     7
 10
130.99980600000001
 20
120.223564
 30
0.0
 40
1.027625
 50
287.92947900000001
 51
352.06098700000001
  0
ARC
  5
5F0
  8
0
 62
     7
 10
131.00208900000001
 20
127.63076700000001
 30
0.0
 40
1.0251019999999991
 50
7.8505979999999989
 51
72.158934999999985
  0
ARC
  5
5F1
  8
0
 62
     7
 10
129.71356900000001
 20
123.68425000000001
 30
0.0
 40
5.1766339999999991
 50
71.966013000000004
 51
80.152190000000004
  0
ARC
  5
5F2
  8
0
 62
     7
 10
129.15611799999999
 20
120.844151
 30
0.0
 40
8.0704770000000003
 50
79.701430999999999
 51
86.428558999999979
  0
ARC
  5
5F3
  8
0
 62
     7
 10
128.85029499999999
 20
116.777777
 30
0.0
 40
12.148116
 50
86.183670999999975
 51
102.467817
  0
ARC
  5
5F4
  8
0
 62
     7
 10
127.334823
 20
123.892143
 30
0.0
 40
4.8746710000000002
 50
103.12835800000001
 51
111.11634599999999
  0
ARC
  5
5F5
  8
0
 62
     7
 10
129.74135200000001
 20
124.051072
 30
0.0
 40
5.0567010000000003
 50
279.77150899999998
 51
288.14538800000003
  0
ARC
  5
5F6
  8
0
 62
     7
 10
128.618302
 20
129.779133
 30
0.0
 40
10.833541
 50
257.42704500000002
 51
262.71954399999998
  0
ARC
  5
5F7
  8
0
 62
     7
 10
127.488421
 20
124.563351
 30
0.0
 40
5.4969769999999993
 50
251.416472
 51
257.08724999999998
  0
ARC
  5
5F8
  8
0
 62
     7
 10
126.64393200000001
 20
121.98174
 30
0.0
 40
2.7809319999999991
 50
247.476428
 51
250.957662
  0
LINE
  5
5F9
  8
0
 62
     7
 10
136.26499999999999
 20
122.087
 30
0.0
 11
135.43000000000001
 21
122.087
 31
0.0
  0
LINE
  5
5FA
  8
0
 62
     7
 10
135.43000000000001
 20
125.765
 30
0.0
 11
136.26499999999999
 21
125.765
 31
0.0
  0
LINE
  5
5FB
  8
0
 62
     7
 10
135.43000000000001
 20
122.087
 30
0.0
 11
135.095
 21
121.753
 31
0.0
  0
LINE
  5
5FC
  8
0
 62
     7
 10
135.095
 20
126.099
 30
0.0
 11
135.43000000000001
 21
125.765
 31
0.0
  0
LINE
  5
5FD
  8
0
 62
     7
 10
135.095
 20
121.753
 30
0.0
 11
133.7579999999999
 21
121.753
 31
0.0
  0
LINE
  5
5FE
  8
0
 62
     7
 10
133.7579999999999
 20
126.099
 30
0.0
 11
135.095
 21
126.099
 31
0.0
  0
ARC
  5
5FF
  8
0
 62
     7
 10
132.194571
 20
120.92203000000001
 30
0.0
 40
0.021531
 50
229.32164300000011
 51
290.87001299999997
  0
ARC
  5
600
  8
0
 62
     7
 10
132.23718299999999
 20
120.94139
 30
0.0
 40
0.066952
 50
192.49001799999999
 51
212.21176299999999
  0
ARC
  5
601
  8
0
 62
     7
 10
132.73958099999999
 20
121.079745
 30
0.0
 40
0.5879760000000001
 50
187.31330399999999
 51
195.06617399999999
  0
ARC
  5
602
  8
0
 62
     7
 10
135.73939200000001
 20
121.519283
 30
0.0
 40
3.619737999999999
 50
186.65155999999999
 51
188.169701
  0
ARC
  5
603
  8
0
 62
     7
 10
139.74530899999999
 20
121.884692
 30
0.0
 40
7.6416849999999998
 50
183.45226299999999
 51
185.893823
  0
ARC
  5
604
  8
0
 62
     7
 10
141.25334099999989
 20
122.073323
 30
0.0
 40
9.1588580000000004
 50
181.55454900000001
 51
184.06208899999999
  0
ARC
  5
605
  8
0
 62
     7
 10
148.49890500000001
 20
122.566731
 30
0.0
 40
16.417821
 50
181.093458
 51
182.58992799999999
  0
ARC
  5
606
  8
0
 62
     7
 10
388.83165200000002
 20
126.712361
 30
0.0
 40
256.786295
 50
180.90210300000001
 51
180.9949739999999
  0
ARC
  5
607
  8
0
 62
     7
 10
151.15829299999999
 20
123.032409
 30
0.0
 40
19.084558000000001
 50
179.96389199999999
 51
181.08931000000001
  0
ARC
  5
608
  8
0
 62
     7
 10
153.975897
 20
123.220303
 30
0.0
 40
21.902864999999998
 50
179.539908
 51
180.460092
  0
ARC
  5
609
  8
0
 62
     7
 10
274.26860599999998
 20
122.492143
 30
0.0
 40
142.19774200000001
 50
179.45983200000001
 51
179.635715
  0
LINE
  5
60A
  8
0
 62
     7
 10
132.077
 20
123.833
 30
0.0
 11
132.084
 21
124.349
 31
0.0
  0
ARC
  5
60B
  8
0
 62
     7
 10
-234.532735
 20
131.20433299999999
 30
0.0
 40
366.68088799999998
 50
358.92882500000002
 51
359.01900799999999
  0
ARC
  5
60C
  8
0
 62
     7
 10
238.94105300000001
 20
122.59605000000001
 30
0.0
 40
106.872056
 50
178.42791
 51
178.75049200000001
  0
ARC
  5
60D
  8
0
 62
     7
 10
182.46526700000001
 20
124.09487300000001
 30
0.0
 40
50.376434000000003
 50
177.715813
 51
178.36977300000001
  0
ARC
  5
60E
  8
0
 62
     7
 10
150.19381999999999
 20
125.34655600000001
 30
0.0
 40
18.080777000000001
 50
176.07796999999999
 51
177.60327699999999
  0
ARC
  5
60F
  8
0
 62
     7
 10
137.99760599999999
 20
126.212833
 30
0.0
 40
5.8539500000000002
 50
174.45794699999999
 51
176.37203600000001
  0
ARC
  5
610
  8
0
 62
     7
 10
133.18525600000001
 20
126.69086900000001
 30
0.0
 40
1.017987999999999
 50
168.5785929999999
 51
175.079553
  0
ARC
  5
611
  8
0
 62
     7
 10
132.31729000000001
 20
126.85873599999999
 30
0.0
 40
0.134168
 50
151.686172
 51
165.44511399999999
  0
ARC
  5
612
  8
0
 62
     7
 10
132.222556
 20
126.907843
 30
0.0
 40
0.027529
 50
105.95586900000001
 51
148.144991
  0
ARC
  5
613
  8
0
 62
     7
 10
139.71775500000001
 20
132.16240999999999
 30
0.0
 40
9.1208489999999998
 50
214.810316
 51
216.399958
  0
ARC
  5
614
  8
0
 62
     7
 10
133.86977999999999
 20
127.869801
 30
0.0
 40
1.866595999999999
 50
216.86643900000001
 51
226.76581899999999
  0
ARC
  5
615
  8
0
 62
     7
 10
133.56222600000001
 20
127.566886
 30
0.0
 40
1.4353320000000001
 50
227.42766399999999
 51
247.39267899999999
  0
ARC
  5
616
  8
0
 62
     7
 10
133.690493
 20
127.77944599999999
 30
0.0
 40
1.681266999999999
 50
246.141899
 51
260.42345
  0
ARC
  5
617
  8
0
 62
     7
 10
133.62044599999999
 20
127.446158
 30
0.0
 40
1.34104
 50
261.005493
 51
265.28402299999999
  0
ARC
  5
618
  8
0
 62
     7
 10
133.769822
 20
129.32486700000001
 30
0.0
 40
3.225674999999999
 50
265.38332800000001
 51
269.78489100000002
  0
ARC
  5
619
  8
0
 62
     7
 10
138.77318500000001
 20
130.041214
 30
0.0
 40
7.2350149999999989
 50
203.369597
 51
205.24397999999999
  0
ARC
  5
61A
  8
0
 62
     7
 10
133.48056
 20
127.730734
 30
0.0
 40
1.4602529999999989
 50
195.39513099999999
 51
202.52342999999999
  0
ARC
  5
61B
  8
0
 62
     7
 10
133.20802599999999
 20
127.63900099999999
 30
0.0
 40
1.173254999999999
 50
190.03272899999999
 51
194.60930400000001
  0
ARC
  5
61C
  8
0
 62
     7
 10
133.901804
 20
127.763389
 30
0.0
 40
1.878093999999999
 50
185.46136100000001
 51
190.08221900000001
  0
ARC
  5
61D
  8
0
 62
     7
 10
138.31564499999999
 20
128.17289600000001
 30
0.0
 40
6.3108859999999991
 50
183.6532
 51
185.34846899999999
  0
ARC
  5
61E
  8
0
 62
     7
 10
140.088077
 20
119.519677
 30
0.0
 40
8.0900350000000003
 50
174.431545
 51
176.016874
  0
ARC
  5
61F
  8
0
 62
     7
 10
133.575459
 20
120.135531
 30
0.0
 40
1.5485079999999991
 50
166.03737799999999
 51
173.72848500000001
  0
ARC
  5
620
  8
0
 62
     7
 10
133.42981900000001
 20
120.145747
 30
0.0
 40
1.4049320000000001
 50
155.04989900000001
 51
165.008487
  0
ARC
  5
621
  8
0
 62
     7
 10
138.62609499999999
 20
117.84726499999999
 30
0.0
 40
7.0866569999999998
 50
154.51256699999999
 51
155.92279099999999
  0
ARC
  5
622
  8
0
 62
     7
 10
133.88958799999989
 20
115.038394
 30
0.0
 40
6.7161009999999992
 50
91.125112999999985
 51
92.867818999999983
  0
ARC
  5
623
  8
0
 62
     7
 10
133.658376
 20
120.053867
 30
0.0
 40
1.695459
 50
93.544147999999979
 51
98.396924999999996
  0
ARC
  5
624
  8
0
 62
     7
 10
133.63299799999999
 20
120.26858900000001
 30
0.0
 40
1.4793469999999991
 50
98.638983999999994
 51
114.886101
  0
ARC
  5
625
  8
0
 62
     7
 10
133.67062799999999
 20
120.11596
 30
0.0
 40
1.633915999999999
 50
113.830803
 51
131.34885399999999
  0
ARC
  5
626
  8
0
 62
     7
 10
133.572754
 20
120.259603
 30
0.0
 40
1.461579999999999
 50
132.188649
 51
141.83895100000001
  0
ARC
  5
627
  8
0
 62
     7
 10
135.51796899999999
 20
118.69616000000001
 30
0.0
 40
3.9571629999999991
 50
141.44219200000001
 51
146.21337800000001
  0
LINE
  5
628
  8
0
 62
     7
 10
125.57899999999999
 20
119.51300000000001
 30
0.0
 11
125.527
 21
119.461
 31
0.0
  0
ARC
  5
629
  8
0
 62
     7
 10
124.47659899999999
 20
127.187855
 30
0.0
 40
0.989385
 50
109.82475599999999
 51
155.15715
  0
ARC
  5
62A
  8
0
 62
     7
 10
124.53075
 20
127.11069000000001
 30
0.0
 40
1.0806260000000001
 50
86.129694999999998
 51
111.13831
  0
ARC
  5
62B
  8
0
 62
     7
 10
124.540942
 20
120.743515
 30
0.0
 40
1.081944
 50
207.214505
 51
273.32479999999998
  0
LINE
  5
62C
  8
0
 62
     7
 10
125.479
 20
128.44
 30
0.0
 11
125.57899999999999
 21
128.339
 31
0.0
  0
ARC
  5
62D
  8
0
 62
     7
 10
124.623817
 20
128.53206
 30
0.0
 40
0.343798
 50
266.64391499999999
 51
330.972961
  0
ARC
  5
62E
  8
0
 62
     7
 10
124.62334199999999
 20
119.32010699999999
 30
0.0
 40
0.343847
 50
24.534478
 51
93.276411999999993
  0
ARC
  5
62F
  8
0
 62
     7
 10
128.84802199999999
 20
81.157368999999989
 30
0.0
 40
1.7320669999999989
 50
272.12193600000001
 51
357.87807400000003
  0
ARC
  5
630
  8
0
 62
     7
 10
128.91215399999999
 20
81.093237000000002
 30
0.0
 40
1.666747
 50
179.99996999999999
 51
270.00002000000001
  0
LINE
  5
631
  8
0
 62
     7
 10
127.245
 20
93.192099999999996
 30
0.0
 11
127.245
 21
123.92700000000001
 31
0.0
  0
LINE
  5
632
  8
0
 62
     7
 10
130.57900000000001
 20
123.92700000000001
 30
0.0
 11
130.57900000000001
 21
93.192099999999996
 31
0.0
  0
LINE
  5
633
  8
0
  6
AIGENLINE001
 62
     7
 10
128.91200000000001
 20
77.777299999999997
 30
0.0
 11
128.91200000000001
 21
130.06700000000001
 31
0.0
  0
LINE
  5
634
  8
0
 62
     7
 10
127.245
 20
81.093199999999996
 30
0.0
 11
127.245
 21
91.477199999999996
 31
0.0
  0
LINE
  5
635
  8
0
 62
     7
 10
130.57900000000001
 20
91.477199999999996
 30
0.0
 11
130.57900000000001
 21
81.093199999999996
 31
0.0
  0
LINE
  5
636
  8
0
 62
     7
 10
127.245
 20
91.477199999999996
 30
0.0
 11
127.245
 21
93.192099999999996
 31
0.0
  0
LINE
  5
637
  8
0
 62
     7
 10
130.57900000000001
 20
93.192099999999996
 30
0.0
 11
130.57900000000001
 21
91.477199999999996
 31
0.0
  0
LINE
  5
638
  8
0
 62
     7
 10
61.5822
 20
122.64400000000001
 30
0.0
 11
61.5822
 21
122.569
 31
0.0
  0
LINE
  5
639
  8
0
 62
     7
 10
61.5822
 20
122.569
 30
0.0
 11
61.5822
 21
122.3
 31
0.0
  0
LINE
  5
63A
  8
0
 62
     7
 10
61.5822
 20
122.3
 30
0.0
 11
61.5822
 21
122.18600000000001
 31
0.0
  0
LINE
  5
63B
  8
0
 62
     7
 10
61.5822
 20
122.18600000000001
 30
0.0
 11
61.5822
 21
122.152
 31
0.0
  0
LINE
  5
63C
  8
0
 62
     7
 10
61.5822
 20
125.702
 30
0.0
 11
61.5822
 21
125.705
 31
0.0
  0
LINE
  5
63D
  8
0
 62
     7
 10
61.5822
 20
125.705
 30
0.0
 11
61.5822
 21
125.66500000000001
 31
0.0
  0
LINE
  5
63E
  8
0
 62
     7
 10
61.5822
 20
125.66500000000001
 30
0.0
 11
61.5822
 21
125.566
 31
0.0
  0
LINE
  5
63F
  8
0
 62
     7
 10
61.5822
 20
125.566
 30
0.0
 11
61.5822
 21
125.325
 31
0.0
  0
LINE
  5
640
  8
0
 62
     7
 10
61.5822
 20
125.325
 30
0.0
 11
61.5822
 21
125.245
 31
0.0
  0
ARC
  5
641
  8
0
 62
     7
 10
62.283045000000001
 20
128.258027
 30
0.0
 40
1.0193509999999999
 50
299.71324099999998
 51
301.44522599999999
  0
ARC
  5
642
  8
0
 62
     7
 10
97.561560999999998
 20
66.894992000000002
 30
0.0
 40
69.761977000000002
 50
119.897879
 51
120.119088
  0
ARC
  5
643
  8
0
 62
     7
 10
67.749868000000006
 20
118.07622000000001
 30
0.0
 40
10.532056000000001
 50
119.553594
 51
120.172768
  0
ARC
  5
644
  8
0
 62
     7
 10
61.690703999999997
 20
128.46416099999999
 30
0.0
 40
1.493951
 50
299.516323
 51
300.83073000000002
  0
LINE
  5
645
  8
0
 62
     7
 10
65.5017
 20
128.94
 30
0.0
 11
65.504300000000001
 21
128.941
 31
0.0
  0
ARC
  5
646
  8
0
 62
     7
 10
68.153683000000001
 20
124.26366
 30
0.0
 40
5.3753719999999996
 50
119.530227
 51
119.95950999999999
  0
ARC
  5
647
  8
0
 62
     7
 10
50.851917
 20
154.13492600000001
 30
0.0
 40
29.144832999999998
 50
299.90775300000001
 51
300.102102
  0
ARC
  5
648
  8
0
 62
     7
 10
78.960701999999998
 20
105.10856800000001
 30
0.0
 40
27.367947000000001
 50
119.741789
 51
120.24603500000001
  0
ARC
  5
649
  8
0
 62
     7
 10
65.280016000000003
 20
128.55887200000001
 30
0.0
 40
0.218852
 50
118.653688
 51
121.098271
  0
ARC
  5
64A
  8
0
 62
     7
 10
67.430312000000001
 20
128.505505
 30
0.0
 40
0.255264
 50
57.710442999999998
 51
61.696647000000013
  0
ARC
  5
64B
  8
0
 62
     7
 10
5.2606659999999996
 20
21.066486000000001
 30
0.0
 40
124.384946
 50
59.947745999999988
 51
60.071881000000012
  0
ARC
  5
64C
  8
0
 62
     7
 10
63.687632999999998
 20
122.69441500000001
 30
0.0
 40
7.1592369999999992
 50
59.530495999999992
 51
60.442751999999999
  0
ARC
  5
64D
  8
0
 62
     7
 10
66.306828999999993
 20
127.37307
 30
0.0
 40
1.7976599999999989
 50
59.499145000000013
 51
60.576473999999997
  0
LINE
  5
64E
  8
0
 62
     7
 10
70.264499999999998
 20
127.164
 30
0.0
 11
70.266999999999996
 21
127.16200000000001
 31
0.0
  0
ARC
  5
64F
  8
0
 62
     7
 10
70.063861000000003
 20
126.85028
 30
0.0
 40
0.372217
 50
56.931903999999989
 51
63.088354000000002
  0
ARC
  5
650
  8
0
 62
     7
 10
68.463929000000007
 20
124.230403
 30
0.0
 40
3.440971999999999
 50
59.074314000000001
 51
60.715530000000001
  0
ARC
  5
651
  8
0
 62
     7
 10
52.028672
 20
96.146529000000015
 30
0.0
 40
35.979987000000001
 50
59.76361
 51
60.14767299999999
  0
ARC
  5
652
  8
0
 62
     7
 10
70.373260999999999
 20
128.13242299999999
 30
0.0
 40
0.8931229999999999
 50
239.26100400000001
 51
240.85513800000001
  0
ARC
  5
653
  8
0
 62
     7
 10
65.167695999999992
 20
128.752127
 30
0.0
 40
9.5313369999999988
 50
299.44508999999999
 51
299.78454700000009
  0
ARC
  5
654
  8
0
 62
     7
 10
-56.056533999999999
 20
338.44580200000001
 30
0.0
 40
251.74345400000001
 50
300.022899
 51
300.084273
  0
ARC
  5
655
  8
0
 62
     7
 10
-1.4925969999999991
 20
245.10181399999999
 30
0.0
 40
143.62310400000001
 50
299.91562599999997
 51
299.96106400000008
  0
ARC
  5
656
  8
0
 62
     7
 10
69.821221999999992
 20
121.407685
 30
0.0
 40
0.8439639999999998
 50
299.31223899999998
 51
301.61886399999997
  0
LINE
  5
657
  8
0
 62
     7
 10
67.189599999999999
 20
118.914
 30
0.0
 11
67.186700000000002
 21
118.91200000000001
 31
0.0
  0
ARC
  5
658
  8
0
 62
     7
 10
66.868422999999993
 20
119.509888
 30
0.0
 40
0.6770000000000001
 50
298.04039
 51
301.449386
  0
ARC
  5
659
  8
0
 62
     7
 10
62.781739000000002
 20
126.630083
 30
0.0
 40
8.8863960000000013
 50
299.97549600000002
 51
300.60962499999999
  0
ARC
  5
65A
  8
0
 62
     7
 10
28.582561999999999
 20
186.82466700000001
 30
0.0
 40
78.11647099999999
 50
299.71733699999999
 51
299.89424700000001
  0
ARC
  5
65B
  8
0
 62
     7
 10
70.911911000000003
 20
113.38495399999999
 30
0.0
 40
6.6495069999999998
 50
119.66108199999999
 51
120.7119629999999
  0
ARC
  5
65C
  8
0
 62
     7
 10
67.165621999999999
 20
122.731391
 30
0.0
 40
4.1383529999999986
 50
239.44619800000001
 51
240.67916299999999
  0
ARC
  5
65D
  8
0
 62
     7
 10
99.151743000000025
 20
177.681714
 30
0.0
 40
67.719729000000001
 50
239.85061400000001
 51
240.07889299999999
  0
ARC
  5
65E
  8
0
 62
     7
 10
74.863647999999998
 20
135.32539700000001
 30
0.0
 40
18.894038999999999
 50
239.84589800000001
 51
240.19084899999999
  0
ARC
  5
65F
  8
0
 62
     7
 10
65.134015000000005
 20
118.328985
 30
0.0
 40
0.6902680000000001
 50
57.901321000000003
 51
60.760812000000001
  0
LINE
  5
660
  8
0
 62
     7
 10
62.425899999999992
 20
120.68899999999999
 30
0.0
 11
62.423499999999997
 21
120.691
 31
0.0
  0
ARC
  5
661
  8
0
 62
     7
 10
61.286313
 20
118.714073
 30
0.0
 40
2.280406999999999
 50
59.079920999999992
 51
60.088685999999988
  0
ARC
  5
662
  8
0
 62
     7
 10
59.920527999999997
 20
116.152545
 30
0.0
 40
5.1817159999999998
 50
59.584442000000003
 51
60.678284999999988
  0
ARC
  5
663
  8
0
 62
     7
 10
30.865628000000012
 20
65.577055999999999
 30
0.0
 40
63.508749000000002
 50
59.861905000000007
 51
60.079278000000002
  0
ARC
  5
664
  8
0
 62
     7
 10
32.871617999999998
 20
68.562659999999994
 30
0.0
 40
59.920029999999997
 50
59.964723999999997
 51
60.08736600000001
  0
ARC
  5
665
  8
0
 62
     7
 10
70.933338000000006
 20
125.723997
 30
0.0
 40
0.028746
 50
26.424219000000001
 51
55.947621999999988
  0
ARC
  5
666
  8
0
 62
     7
 10
70.959438000000006
 20
125.73699999999999
 30
0.0
 40
0.014732
 50
132.77415199999999
 51
180.652523
  0
ARC
  5
667
  8
0
 62
     7
 10
71.410062999999994
 20
125.662128
 30
0.0
 40
0.4713130000000001
 50
170.87996299999989
 51
179.46345400000001
  0
ARC
  5
668
  8
0
 62
     7
 10
72.777958999999996
 20
125.578947
 30
0.0
 40
1.8412740000000001
 50
177.27323899999999
 51
180.07331999999991
  0
ARC
  5
669
  8
0
 62
     7
 10
81.354746000000006
 20
125.39847899999999
 30
0.0
 40
10.419582
 50
179.02051700000001
 51
180.97948299999999
  0
ARC
  5
66A
  8
0
 62
     7
 10
155.20640399999999
 20
126.15501500000001
 30
0.0
 40
84.274900000000002
 50
180.63547
 51
180.97676699999991
  0
ARC
  5
66B
  8
0
 62
     7
 10
-10.955678000000001
 20
123.707628
 30
0.0
 40
81.905664999999999
 50
0.292805
 51
0.707096
  0
ARC
  5
66C
  8
0
 62
     7
 10
21.56841
 20
123.902368
 30
0.0
 40
49.381015000000012
 50
359.54737999999998
 51
0.259705
  0
ARC
  5
66D
  8
0
 62
     7
 10
-14.495271000000001
 20
124.292028
 30
0.0
 40
85.446712000000005
 50
359.096632
 51
359.47713599999997
  0
ARC
  5
66E
  8
0
 62
     7
 10
264.58885700000002
 20
120.381382
 30
0.0
 40
193.66500300000001
 50
179.24155200000001
 51
179.376814
  0
ARC
  5
66F
  8
0
 62
     7
 10
81.483068999999986
 20
122.42968500000001
 30
0.0
 40
10.547919
 50
179.68485000000001
 51
180.92190699999989
  0
ARC
  5
670
  8
0
 62
     7
 10
71.359170999999989
 20
122.287076
 30
0.0
 40
0.423524
 50
183.66856300000001
 51
197.206425
  0
LINE
  5
671
  8
0
 62
     7
 10
66.685199999999995
 20
119.43899999999999
 30
0.0
 11
66.575000000000003
 21
119.432
 31
0.0
  0
LINE
  5
672
  8
0
 62
     7
 10
67.014600000000002
 20
119.477
 30
0.0
 11
66.944999999999993
 21
119.46599999999999
 31
0.0
  0
LINE
  5
673
  8
0
 62
     7
 10
66.944999999999993
 20
119.46599999999999
 30
0.0
 11
66.877799999999993
 21
119.458
 31
0.0
  0
LINE
  5
674
  8
0
 62
     7
 10
67.349999999999994
 20
119.54000000000001
 30
0.0
 11
67.196299999999994
 21
119.508
 31
0.0
  0
LINE
  5
675
  8
0
 62
     7
 10
67.668599999999998
 20
119.625
 30
0.0
 11
67.559100000000001
 21
119.593
 31
0.0
  0
LINE
  5
676
  8
0
 62
     7
 10
67.976299999999995
 20
119.732
 30
0.0
 11
67.853499999999997
 21
119.687
 31
0.0
  0
LINE
  5
677
  8
0
 62
     7
 10
68.297200000000004
 20
119.871
 30
0.0
 11
68.161299999999997
 21
119.809
 31
0.0
  0
LINE
  5
678
  8
0
 62
     7
 10
68.582099999999997
 20
120.02200000000001
 30
0.0
 11
68.477000000000004
 21
119.96299999999999
 31
0.0
  0
LINE
  5
679
  8
0
 62
     7
 10
68.865499999999983
 20
120.19799999999999
 30
0.0
 11
68.743899999999996
 21
120.119
 31
0.0
  0
LINE
  5
67A
  8
0
 62
     7
 10
69.134699999999995
 20
120.395
 30
0.0
 11
69.134399999999999
 21
120.395
 31
0.0
  0
LINE
  5
67B
  8
0
 62
     7
 10
69.134399999999999
 20
120.395
 30
0.0
 11
69.028800000000004
 21
120.31399999999999
 31
0.0
  0
LINE
  5
67C
  8
0
 62
     7
 10
69.395899999999983
 20
120.61799999999999
 30
0.0
 11
69.279600000000002
 21
120.514
 31
0.0
  0
LINE
  5
67D
  8
0
 62
     7
 10
69.625799999999984
 20
120.846
 30
0.0
 11
69.579999999999998
 21
120.798
 31
0.0
  0
LINE
  5
67E
  8
0
 62
     7
 10
69.579999999999998
 20
120.798
 30
0.0
 11
69.5471
 21
120.764
 31
0.0
  0
LINE
  5
67F
  8
0
 62
     7
 10
69.840800000000002
 20
121.092
 30
0.0
 11
69.758099999999999
 21
120.99299999999999
 31
0.0
  0
LINE
  5
680
  8
0
 62
     7
 10
70.043400000000005
 20
121.363
 30
0.0
 11
69.9679
 21
121.25700000000001
 31
0.0
  0
LINE
  5
681
  8
0
 62
     7
 10
69.9679
 20
121.25700000000001
 30
0.0
 11
69.965500000000006
 21
121.254
 31
0.0
  0
LINE
  5
682
  8
0
 62
     7
 10
70.224800000000002
 20
121.646
 30
0.0
 11
70.145700000000005
 21
121.51600000000001
 31
0.0
  0
LINE
  5
683
  8
0
 62
     7
 10
70.381
 20
121.935
 30
0.0
 11
70.316400000000002
 21
121.809
 31
0.0
  0
LINE
  5
684
  8
0
 62
     7
 10
70.518999999999991
 20
122.244
 30
0.0
 11
70.468000000000004
 21
122.122
 31
0.0
  0
LINE
  5
685
  8
0
 62
     7
 10
70.632499999999993
 20
122.55800000000001
 30
0.0
 11
70.586699999999993
 21
122.422
 31
0.0
  0
LINE
  5
686
  8
0
 62
     7
 10
70.721900000000005
 20
122.879
 30
0.0
 11
70.688599999999994
 21
122.749
 31
0.0
  0
LINE
  5
687
  8
0
 62
     7
 10
70.785300000000007
 20
123.193
 30
0.0
 11
70.7637
 21
123.072
 31
0.0
  0
LINE
  5
688
  8
0
 62
     7
 10
70.828500000000005
 20
123.53700000000001
 30
0.0
 11
70.822999999999993
 21
123.476
 31
0.0
  0
LINE
  5
689
  8
0
 62
     7
 10
70.822999999999993
 20
123.476
 30
0.0
 11
70.814899999999994
 21
123.40300000000001
 31
0.0
  0
LINE
  5
68A
  8
0
 62
     7
 10
70.844999999999999
 20
123.87
 30
0.0
 11
70.840699999999998
 21
123.71599999999999
 31
0.0
  0
LINE
  5
68B
  8
0
 62
     7
 10
70.837500000000006
 20
124.19499999999999
 30
0.0
 11
70.843000000000004
 21
124.077
 31
0.0
  0
LINE
  5
68C
  8
0
 62
     7
 10
70.843000000000004
 20
124.077
 30
0.0
 11
70.843500000000006
 21
124.05500000000001
 31
0.0
  0
LINE
  5
68D
  8
0
 62
     7
 10
70.805800000000005
 20
124.52200000000001
 30
0.0
 11
70.819900000000004
 21
124.404
 31
0.0
  0
LINE
  5
68E
  8
0
 62
     7
 10
70.747200000000007
 20
124.86199999999999
 30
0.0
 11
70.774100000000004
 21
124.72499999999999
 31
0.0
  0
LINE
  5
68F
  8
0
 62
     7
 10
70.665700000000001
 20
125.185
 30
0.0
 11
70.706599999999995
 21
125.035
 31
0.0
  0
LINE
  5
690
  8
0
 62
     7
 10
70.5655
 20
125.489
 30
0.0
 11
70.606800000000007
 21
125.373
 31
0.0
  0
LINE
  5
691
  8
0
 62
     7
 10
70.433000000000007
 20
125.80800000000001
 30
0.0
 11
70.486800000000002
 21
125.688
 31
0.0
  0
LINE
  5
692
  8
0
 62
     7
 10
70.282600000000002
 20
126.105
 30
0.0
 11
70.353300000000004
 21
125.973
 31
0.0
  0
LINE
  5
693
  8
0
 62
     7
 10
70.111199999999997
 20
126.39
 30
0.0
 11
70.138499999999993
 21
126.348
 31
0.0
  0
LINE
  5
694
  8
0
 62
     7
 10
70.138499999999993
 20
126.348
 30
0.0
 11
70.193100000000001
 21
126.26000000000001
 31
0.0
  0
LINE
  5
695
  8
0
 62
     7
 10
69.928299999999993
 20
126.649
 30
0.0
 11
69.996499999999983
 21
126.557
 31
0.0
  0
LINE
  5
696
  8
0
 62
     7
 10
69.713300000000004
 20
126.911
 30
0.0
 11
69.781700000000001
 21
126.83199999999999
 31
0.0
  0
LINE
  5
697
  8
0
 62
     7
 10
69.781700000000001
 20
126.83199999999999
 30
0.0
 11
69.796700000000001
 21
126.81399999999999
 31
0.0
  0
LINE
  5
698
  8
0
 62
     7
 10
69.480599999999995
 20
127.154
 30
0.0
 11
69.592100000000002
 21
127.04300000000001
 31
0.0
  0
LINE
  5
699
  8
0
 62
     7
 10
69.230099999999993
 20
127.38
 30
0.0
 11
69.333699999999993
 21
127.291
 31
0.0
  0
LINE
  5
69A
  8
0
 62
     7
 10
68.967299999999994
 20
127.584
 30
0.0
 11
69.072199999999995
 21
127.50700000000001
 31
0.0
  0
LINE
  5
69B
  8
0
 62
     7
 10
68.6905
 20
127.767
 30
0.0
 11
68.820899999999995
 21
127.685
 31
0.0
  0
LINE
  5
69C
  8
0
 62
     7
 10
68.411199999999994
 20
127.92400000000001
 30
0.0
 11
68.535600000000002
 21
127.858
 31
0.0
  0
LINE
  5
69D
  8
0
 62
     7
 10
68.100300000000004
 20
128.06999999999999
 30
0.0
 11
68.218999999999994
 21
128.018
 31
0.0
  0
LINE
  5
69E
  8
0
 62
     7
 10
67.789699999999996
 20
128.18899999999999
 30
0.0
 11
67.821399999999997
 21
128.178
 31
0.0
  0
LINE
  5
69F
  8
0
 62
     7
 10
67.821399999999997
 20
128.178
 30
0.0
 11
67.930599999999998
 21
128.13800000000001
 31
0.0
  0
LINE
  5
6A0
  8
0
 62
     7
 10
67.472099999999983
 20
128.28299999999999
 30
0.0
 11
67.631799999999998
 21
128.239
 31
0.0
  0
LINE
  5
6A1
  8
0
 62
     7
 10
67.163899999999998
 20
128.351
 30
0.0
 11
67.241600000000005
 21
128.33699999999999
 31
0.0
  0
LINE
  5
6A2
  8
0
 62
     7
 10
67.241600000000005
 20
128.33699999999999
 30
0.0
 11
67.283500000000004
 21
128.328
 31
0.0
  0
LINE
  5
6A3
  8
0
 62
     7
 10
66.819299999999998
 20
128.40100000000001
 30
0.0
 11
66.947800000000001
 21
128.386
 31
0.0
  0
LINE
  5
6A4
  8
0
 62
     7
 10
66.502600000000001
 20
128.42400000000001
 30
0.0
 11
66.631500000000003
 21
128.41800000000001
 31
0.0
  0
LINE
  5
6A5
  8
0
 62
     7
 10
66.176900000000003
 20
128.423
 30
0.0
 11
66.323300000000003
 21
128.42599999999999
 31
0.0
  0
LINE
  5
6A6
  8
0
 62
     7
 10
65.8262
 20
128.39599999999999
 30
0.0
 11
65.956299999999985
 21
128.41
 31
0.0
  0
LINE
  5
6A7
  8
0
 62
     7
 10
65.498400000000004
 20
128.346
 30
0.0
 11
65.662199999999999
 21
128.374
 31
0.0
  0
LINE
  5
6A8
  8
0
 62
     7
 10
65.177099999999996
 20
128.27199999999999
 30
0.0
 11
65.325500000000005
 21
128.309
 31
0.0
  0
LINE
  5
6A9
  8
0
 62
     7
 10
64.872900000000001
 20
128.179
 30
0.0
 11
64.992800000000003
 21
128.21899999999999
 31
0.0
  0
LINE
  5
6AA
  8
0
 62
     7
 10
64.566000000000003
 20
128.06
 30
0.0
 11
64.669200000000004
 21
128.10300000000001
 31
0.0
  0
LINE
  5
6AB
  8
0
 62
     7
 10
64.251099999999994
 20
127.91
 30
0.0
 11
64.315700000000007
 21
127.943
 31
0.0
  0
LINE
  5
6AC
  8
0
 62
     7
 10
64.315700000000007
 20
127.943
 30
0.0
 11
64.3767
 21
127.973
 31
0.0
  0
LINE
  5
6AD
  8
0
 62
     7
 10
63.963799999999999
 20
127.745
 30
0.0
 11
64.104200000000006
 21
127.82899999999999
 31
0.0
  0
LINE
  5
6AE
  8
0
 62
     7
 10
63.702599999999997
 20
127.569
 30
0.0
 11
63.798400000000001
 21
127.636
 31
0.0
  0
LINE
  5
6AF
  8
0
 62
     7
 10
63.798400000000001
 20
127.636
 30
0.0
 11
63.810099999999991
 21
127.645
 31
0.0
  0
LINE
  5
6B0
  8
0
 62
     7
 10
63.439399999999992
 20
127.36199999999999
 30
0.0
 11
63.530500000000004
 21
127.437
 31
0.0
  0
LINE
  5
6B1
  8
0
 62
     7
 10
63.184699999999999
 20
127.13
 30
0.0
 11
63.294199999999989
 21
127.235
 31
0.0
  0
LINE
  5
6B2
  8
0
 62
     7
 10
62.964700000000001
 20
126.89700000000001
 30
0.0
 11
63.055500000000002
 21
126.997
 31
0.0
  0
LINE
  5
6B3
  8
0
 62
     7
 10
62.75780000000001
 20
126.643
 30
0.0
 11
62.836399999999998
 21
126.744
 31
0.0
  0
LINE
  5
6B4
  8
0
 62
     7
 10
62.562800000000003
 20
126.364
 30
0.0
 11
62.636200000000002
 21
126.47499999999999
 31
0.0
  0
LINE
  5
6B5
  8
0
 62
     7
 10
62.3919
 20
126.07599999999999
 30
0.0
 11
62.465299999999992
 21
126.206
 31
0.0
  0
LINE
  5
6B6
  8
0
 62
     7
 10
62.2483
 20
125.788
 30
0.0
 11
62.263399999999997
 21
125.821
 31
0.0
  0
LINE
  5
6B7
  8
0
 62
     7
 10
62.263399999999997
 20
125.821
 30
0.0
 11
62.300800000000002
 21
125.899
 31
0.0
  0
LINE
  5
6B8
  8
0
 62
     7
 10
62.1218
 20
125.48
 30
0.0
 11
62.164700000000011
 21
125.592
 31
0.0
  0
LINE
  5
6B9
  8
0
 62
     7
 10
62.015000000000001
 20
125.15000000000001
 30
0.0
 11
62.0473
 21
125.26000000000001
 31
0.0
  0
LINE
  5
6BA
  8
0
 62
     7
 10
62.0473
 20
125.26000000000001
 30
0.0
 11
62.058799999999998
 21
125.297
 31
0.0
  0
LINE
  5
6BB
  8
0
 62
     7
 10
61.938400000000001
 20
124.83799999999999
 30
0.0
 11
61.9694
 21
124.977
 31
0.0
  0
LINE
  5
6BC
  8
0
 62
     7
 10
61.884300000000003
 20
124.51600000000001
 30
0.0
 11
61.901499999999999
 21
124.634
 31
0.0
  0
LINE
  5
6BD
  8
0
 62
     7
 10
61.8523
 20
124.17400000000001
 30
0.0
 11
61.861699999999999
 21
124.31100000000001
 31
0.0
  0
LINE
  5
6BE
  8
0
 62
     7
 10
61.8461
 20
123.84
 30
0.0
 11
61.845700000000001
 21
123.994
 31
0.0
  0
LINE
  5
6BF
  8
0
 62
     7
 10
61.863799999999991
 20
123.51900000000001
 30
0.0
 11
61.8538
 21
123.65000000000001
 31
0.0
  0
LINE
  5
6C0
  8
0
 62
     7
 10
61.906999999999989
 20
123.181
 30
0.0
 11
61.8874
 21
123.312
 31
0.0
  0
LINE
  5
6C1
  8
0
 62
     7
 10
61.976100000000002
 20
122.84999999999999
 30
0.0
 11
61.967799999999997
 21
122.884
 31
0.0
  0
LINE
  5
6C2
  8
0
 62
     7
 10
61.967799999999997
 20
122.884
 30
0.0
 11
61.94169999999999
 21
123.0
 31
0.0
  0
LINE
  5
6C3
  8
0
 62
     7
 10
62.064799999999991
 20
122.538
 30
0.0
 11
62.031599999999997
 21
122.645
 31
0.0
  0
LINE
  5
6C4
  8
0
 62
     7
 10
62.176299999999991
 20
122.232
 30
0.0
 11
62.145800000000001
 21
122.309
 31
0.0
  0
LINE
  5
6C5
  8
0
 62
     7
 10
62.145800000000001
 20
122.309
 30
0.0
 11
62.130600000000001
 21
122.349
 31
0.0
  0
LINE
  5
6C6
  8
0
 62
     7
 10
62.315600000000003
 20
121.923
 30
0.0
 11
62.257599999999996
 21
122.045
 31
0.0
  0
LINE
  5
6C7
  8
0
 62
     7
 10
62.479799999999997
 20
121.622
 30
0.0
 11
62.414700000000003
 21
121.735
 31
0.0
  0
LINE
  5
6C8
  8
0
 62
     7
 10
62.655799999999992
 20
121.34999999999999
 30
0.0
 11
62.575600000000001
 21
121.46899999999999
 31
0.0
  0
LINE
  5
6C9
  8
0
 62
     7
 10
62.856499999999997
 20
121.08499999999999
 30
0.0
 11
62.773800000000001
 21
121.18899999999999
 31
0.0
  0
LINE
  5
6CA
  8
0
 62
     7
 10
63.076000000000001
 20
120.83499999999999
 30
0.0
 11
62.983600000000003
 21
120.935
 31
0.0
  0
LINE
  5
6CB
  8
0
 62
     7
 10
63.315100000000001
 20
120.599
 30
0.0
 11
63.230800000000002
 21
120.678
 31
0.0
  0
LINE
  5
6CC
  8
0
 62
     7
 10
63.567100000000003
 20
120.386
 30
0.0
 11
63.556600000000003
 21
120.395
 31
0.0
  0
LINE
  5
6CD
  8
0
 62
     7
 10
63.556600000000003
 20
120.395
 30
0.0
 11
63.466299999999997
 21
120.468
 31
0.0
  0
LINE
  5
6CE
  8
0
 62
     7
 10
63.836100000000002
 20
120.191
 30
0.0
 11
63.724200000000003
 21
120.268
 31
0.0
  0
LINE
  5
6CF
  8
0
 62
     7
 10
64.119799999999984
 20
120.015
 30
0.0
 11
64.052099999999996
 21
120.05500000000001
 31
0.0
  0
LINE
  5
6D0
  8
0
 62
     7
 10
64.052099999999996
 20
120.05500000000001
 30
0.0
 11
64.0167
 21
120.07599999999999
 31
0.0
  0
LINE
  5
6D1
  8
0
 62
     7
 10
64.415300000000002
 20
119.861
 30
0.0
 11
64.295500000000004
 21
119.92
 31
0.0
  0
LINE
  5
6D2
  8
0
 62
     7
 10
64.717699999999994
 20
119.73099999999999
 30
0.0
 11
64.596999999999994
 21
119.78
 31
0.0
  0
LINE
  5
6D3
  8
0
 62
     7
 10
65.0471
 20
119.61799999999999
 30
0.0
 11
64.898300000000006
 21
119.66500000000001
 31
0.0
  0
LINE
  5
6D4
  8
0
 62
     7
 10
65.376999999999995
 20
119.532
 30
0.0
 11
65.226399999999984
 21
119.568
 31
0.0
  0
LINE
  5
6D5
  8
0
 62
     7
 10
65.682699999999997
 20
119.476
 30
0.0
 11
65.550200000000004
 21
119.497
 31
0.0
  0
LINE
  5
6D6
  8
0
 62
     7
 10
66.028099999999995
 20
119.437
 30
0.0
 11
65.881699999999995
 21
119.45
 31
0.0
  0
LINE
  5
6D7
  8
0
 62
     7
 10
66.345399999999998
 20
119.426
 30
0.0
 11
66.233099999999993
 21
119.428
 31
0.0
  0
ARC
  5
6D8
  8
0
 62
     7
 10
66.353324999999998
 20
123.86404899999999
 30
0.0
 40
4.562441999999999
 50
88.306224999999998
 51
90.376668999999993
  0
LINE
  5
6D9
  8
0
 62
     7
 10
66.323300000000003
 20
128.42599999999999
 30
0.0
 11
66.242000000000004
 21
128.34100000000001
 31
0.0
  0
LINE
  5
6DA
  8
0
 62
     7
 10
66.242000000000004
 20
128.34100000000001
 30
0.0
 11
66.156800000000004
 21
128.422
 31
0.0
  0
ARC
  5
6DB
  8
0
 62
     7
 10
66.302464000000001
 20
124.51903799999999
 30
0.0
 40
3.9061110000000001
 50
92.137721999999997
 51
94.560082000000008
  0
LINE
  5
6DC
  8
0
 62
     7
 10
65.991900000000001
 20
128.41200000000001
 30
0.0
 11
65.917000000000002
 21
128.322
 31
0.0
  0
LINE
  5
6DD
  8
0
 62
     7
 10
65.917000000000002
 20
128.322
 30
0.0
 11
65.8262
 21
128.39599999999999
 31
0.0
  0
ARC
  5
6DE
  8
0
 62
     7
 10
66.159610999999984
 20
125.319684
 30
0.0
 40
3.0947480000000001
 50
96.184728000000007
 51
99.248885000000016
  0
LINE
  5
6DF
  8
0
 62
     7
 10
65.662599999999983
 20
128.374
 30
0.0
 11
65.594899999999996
 21
128.27799999999999
 31
0.0
  0
LINE
  5
6E0
  8
0
 62
     7
 10
65.594899999999996
 20
128.27799999999999
 30
0.0
 11
65.498099999999994
 21
128.346
 31
0.0
  0
ARC
  5
6E1
  8
0
 62
     7
 10
66.368226000000007
 20
123.787155
 30
0.0
 40
4.6412040000000001
 50
100.80192599999999
 51
102.84645399999999
  0
LINE
  5
6E2
  8
0
 62
     7
 10
65.336799999999997
 20
128.31200000000001
 30
0.0
 11
65.276200000000003
 21
128.21100000000001
 31
0.0
  0
LINE
  5
6E3
  8
0
 62
     7
 10
65.276200000000003
 20
128.21100000000001
 30
0.0
 11
65.1751
 21
128.27099999999999
 31
0.0
  0
ARC
  5
6E4
  8
0
 62
     7
 10
66.032968000000011
 20
125.030249
 30
0.0
 40
3.3531409999999999
 50
104.81774299999999
 51
107.65991699999999
  0
LINE
  5
6E5
  8
0
 62
     7
 10
65.016599999999997
 20
128.22499999999999
 30
0.0
 11
64.963700000000003
 21
128.12
 31
0.0
  0
LINE
  5
6E6
  8
0
 62
     7
 10
64.963700000000003
 20
128.12
 30
0.0
 11
64.858099999999993
 21
128.173
 31
0.0
  0
ARC
  5
6E7
  8
0
 62
     7
 10
66.413083999999984
 20
123.768653
 30
0.0
 40
4.6716430000000004
 50
109.437431
 51
111.480459
  0
LINE
  5
6E8
  8
0
 62
     7
 10
64.703800000000001
 20
128.11500000000001
 30
0.0
 11
64.658299999999997
 21
128.006
 31
0.0
  0
LINE
  5
6E9
  8
0
 62
     7
 10
64.658299999999997
 20
128.006
 30
0.0
 11
64.549599999999984
 21
128.05099999999999
 31
0.0
  0
ARC
  5
6EA
  8
0
 62
     7
 10
66.145364000000001
 20
124.36029000000001
 30
0.0
 40
4.0225619999999997
 50
113.366716
 51
115.74610699999999
  0
LINE
  5
6EB
  8
0
 62
     7
 10
64.399600000000007
 20
127.983
 30
0.0
 11
64.362499999999997
 21
127.871
 31
0.0
  0
LINE
  5
6EC
  8
0
 62
     7
 10
64.362499999999997
 20
127.871
 30
0.0
 11
64.250600000000006
 21
127.908
 31
0.0
  0
ARC
  5
6ED
  8
0
 62
     7
 10
66.306488999999999
 20
123.996111
 30
0.0
 40
4.4204349999999986
 50
117.708663
 51
119.887171
  0
LINE
  5
6EE
  8
0
 62
     7
 10
64.106200000000001
 20
127.828
 30
0.0
 11
64.077799999999996
 21
127.71299999999999
 31
0.0
  0
LINE
  5
6EF
  8
0
 62
     7
 10
64.077799999999996
 20
127.71299999999999
 30
0.0
 11
63.9634
 21
127.742
 31
0.0
  0
ARC
  5
6F0
  8
0
 62
     7
 10
65.995316000000003
 20
124.474495
 30
0.0
 40
3.8499239999999988
 50
121.849141
 51
124.36501
  0
LINE
  5
6F1
  8
0
 62
     7
 10
63.8249
 20
127.652
 30
0.0
 11
63.804900000000004
 21
127.536
 31
0.0
  0
LINE
  5
6F2
  8
0
 62
     7
 10
63.804900000000004
 20
127.536
 30
0.0
 11
63.689
 21
127.556
 31
0.0
  0
ARC
  5
6F3
  8
0
 62
     7
 10
66.196648999999994
 20
124.130319
 30
0.0
 40
4.247897
 50
126.17985299999999
 51
128.46768900000001
  0
LINE
  5
6F4
  8
0
 62
     7
 10
63.557400000000001
 20
127.455
 30
0.0
 11
63.546000000000006
 21
127.33799999999999
 31
0.0
  0
LINE
  5
6F5
  8
0
 62
     7
 10
63.546000000000006
 20
127.33799999999999
 30
0.0
 11
63.428899999999999
 21
127.34999999999999
 31
0.0
  0
ARC
  5
6F6
  8
0
 62
     7
 10
66.379040000000003
 20
123.88833700000001
 30
0.0
 40
4.5509519999999988
 50
130.409279
 51
132.56032999999999
  0
LINE
  5
6F7
  8
0
 62
     7
 10
63.305900000000001
 20
127.23999999999999
 30
0.0
 11
63.302700000000002
 21
127.122
 31
0.0
  0
LINE
  5
6F8
  8
0
 62
     7
 10
63.302700000000002
 20
127.122
 30
0.0
 11
63.185000000000002
 21
127.125
 31
0.0
  0
ARC
  5
6F9
  8
0
 62
     7
 10
66.560416000000004
 20
123.72353699999999
 30
0.0
 40
4.7956789999999989
 50
134.74210199999999
 51
136.79863800000001
  0
LINE
  5
6FA
  8
0
 62
     7
 10
63.06989999999999
 20
127.006
 30
0.0
 11
63.076300000000003
 21
126.88800000000001
 31
0.0
  0
LINE
  5
6FB
  8
0
 62
     7
 10
63.076300000000003
 20
126.88800000000001
 30
0.0
 11
62.958500000000001
 21
126.883
 31
0.0
  0
ARC
  5
6FC
  8
0
 62
     7
 10
65.764392999999998
 20
124.400564
 30
0.0
 40
3.7504699999999991
 50
138.45006900000001
 51
141.090597
  0
LINE
  5
6FD
  8
0
 62
     7
 10
62.852400000000003
 20
126.756
 30
0.0
 11
62.866799999999998
 21
126.639
 31
0.0
  0
LINE
  5
6FE
  8
0
 62
     7
 10
62.866799999999998
 20
126.639
 30
0.0
 11
62.750100000000003
 21
126.625
 31
0.0
  0
ARC
  5
6FF
  8
0
 62
     7
 10
67.857493000000005
 20
122.835266
 30
0.0
 40
6.3647809999999989
 50
143.388375
 51
144.95669899999999
  0
LINE
  5
700
  8
0
 62
     7
 10
62.653799999999997
 20
126.491
 30
0.0
 11
62.677
 21
126.375
 31
0.0
  0
LINE
  5
701
  8
0
 62
     7
 10
62.677
 20
126.375
 30
0.0
 11
62.561399999999999
 21
126.351
 31
0.0
  0
ARC
  5
702
  8
0
 62
     7
 10
66.404607999999996
 20
123.883565
 30
0.0
 40
4.5732349999999986
 50
147.234127
 51
149.42512199999999
  0
LINE
  5
703
  8
0
 62
     7
 10
62.475299999999997
 20
126.20999999999999
 30
0.0
 11
62.5075
 21
126.09699999999999
 31
0.0
  0
LINE
  5
704
  8
0
 62
     7
 10
62.5075
 20
126.09699999999999
 30
0.0
 11
62.393799999999999
 21
126.066
 31
0.0
  0
ARC
  5
705
  8
0
 62
     7
 10
67.832367000000005
 20
123.157246
 30
0.0
 40
6.1742099999999986
 50
151.81573399999999
 51
153.450154
  0
LINE
  5
706
  8
0
 62
     7
 10
62.317999999999998
 20
125.919
 30
0.0
 11
62.358199999999997
 21
125.80800000000001
 31
0.0
  0
LINE
  5
707
  8
0
 62
     7
 10
62.358199999999997
 20
125.80800000000001
 30
0.0
 11
62.247399999999999
 21
125.767
 31
0.0
  0
ARC
  5
708
  8
0
 62
     7
 10
66.056438
 20
124.05395900000001
 30
0.0
 40
4.1844529999999986
 50
155.692669
 51
158.12866199999999
  0
LINE
  5
709
  8
0
 62
     7
 10
62.1828
 20
125.616
 30
0.0
 11
62.230899999999998
 21
125.508
 31
0.0
  0
LINE
  5
70A
  8
0
 62
     7
 10
62.230899999999998
 20
125.508
 30
0.0
 11
62.123399999999997
 21
125.45999999999999
 31
0.0
  0
ARC
  5
70B
  8
0
 62
     7
 10
66.031736999999993
 20
124.022004
 30
0.0
 40
4.1724940000000004
 50
159.70712
 51
162.16986900000001
  0
LINE
  5
70C
  8
0
 62
     7
 10
62.070500000000003
 20
125.304
 30
0.0
 11
62.126300000000001
 21
125.2
 31
0.0
  0
LINE
  5
70D
  8
0
 62
     7
 10
62.126300000000001
 20
125.2
 30
0.0
 11
62.022300000000001
 21
125.14400000000001
 31
0.0
  0
ARC
  5
70E
  8
0
 62
     7
 10
66.266056999999975
 20
123.94763399999999
 30
0.0
 40
4.4180140000000003
 50
164.15544700000001
 51
166.50178199999999
  0
LINE
  5
70F
  8
0
 62
     7
 10
61.981400000000001
 20
124.98399999999999
 30
0.0
 11
62.044800000000002
 21
124.88500000000001
 31
0.0
  0
LINE
  5
710
  8
0
 62
     7
 10
62.044800000000002
 20
124.88500000000001
 30
0.0
 11
61.945599999999999
 21
124.822
 31
0.0
  0
ARC
  5
711
  8
0
 62
     7
 10
65.512837000000005
 20
124.077592
 30
0.0
 40
3.6540849999999989
 50
168.094641
 51
170.94608799999989
  0
LINE
  5
712
  8
0
 62
     7
 10
61.916000000000011
 20
124.65900000000001
 30
0.0
 11
61.986600000000003
 21
124.565
 31
0.0
  0
LINE
  5
713
  8
0
 62
     7
 10
61.986600000000003
 20
124.565
 30
0.0
 11
61.892200000000003
 21
124.494
 31
0.0
  0
ARC
  5
714
  8
0
 62
     7
 10
66.043653000000006
 20
123.951049
 30
0.0
 40
4.1975040000000003
 50
172.42848000000001
 51
174.92683
  0
LINE
  5
715
  8
0
 62
     7
 10
61.874699999999997
 20
124.33
 30
0.0
 11
61.952199999999991
 21
124.241
 31
0.0
  0
LINE
  5
716
  8
0
 62
     7
 10
61.952199999999991
 20
124.241
 30
0.0
 11
61.863300000000002
 21
124.164
 31
0.0
  0
ARC
  5
717
  8
0
 62
     7
 10
65.878315000000001
 20
123.93858
 30
0.0
 40
4.032919999999999
 50
176.657163
 51
179.28248400000001
  0
LINE
  5
718
  8
0
 62
     7
 10
61.8581
 20
123.999
 30
0.0
 11
61.94169999999999
 21
123.916
 31
0.0
  0
LINE
  5
719
  8
0
 62
     7
 10
61.94169999999999
 20
123.916
 30
0.0
 11
61.858600000000003
 21
123.83199999999999
 31
0.0
  0
ARC
  5
71A
  8
0
 62
     7
 10
66.571033999999997
 20
123.936414
 30
0.0
 40
4.7259209999999987
 50
181.14504600000001
 51
183.4066059999999
  0
LINE
  5
71B
  8
0
 62
     7
 10
61.865900000000003
 20
123.667
 30
0.0
 11
61.955300000000001
 21
123.59099999999999
 31
0.0
  0
LINE
  5
71C
  8
0
 62
     7
 10
61.955300000000001
 20
123.59099999999999
 30
0.0
 11
61.879100000000001
 21
123.501
 31
0.0
  0
ARC
  5
71D
  8
0
 62
     7
 10
66.633304999999993
 20
123.950289
 30
0.0
 40
4.7889089999999994
 50
185.272682
 51
187.51253799999989
  0
LINE
  5
71E
  8
0
 62
     7
 10
61.8979
 20
123.337
 30
0.0
 11
61.993299999999991
 21
123.267
 31
0.0
  0
LINE
  5
71F
  8
0
 62
     7
 10
61.993299999999991
 20
123.267
 30
0.0
 11
61.9236
 21
123.172
 31
0.0
  0
ARC
  5
720
  8
0
 62
     7
 10
68.267095999999995
 20
124.294471
 30
0.0
 40
6.4567600000000001
 50
189.92853099999999
 51
191.605907
  0
LINE
  5
721
  8
0
 62
     7
 10
61.954599999999999
 20
123.01000000000001
 30
0.0
 11
62.054299999999991
 21
122.94799999999999
 31
0.0
  0
LINE
  5
722
  8
0
 62
     7
 10
62.054299999999991
 20
122.94799999999999
 30
0.0
 11
61.992100000000001
 21
122.848
 31
0.0
  0
ARC
  5
723
  8
0
 62
     7
 10
65.815499000000003
 20
123.77886700000001
 30
0.0
 40
3.9502570000000001
 50
193.51068599999999
 51
196.272032
  0
LINE
  5
724
  8
0
 62
     7
 10
62.03520000000001
 20
122.688
 30
0.0
 11
62.139400000000002
 21
122.633
 31
0.0
  0
LINE
  5
725
  8
0
 62
     7
 10
62.139400000000002
 20
122.633
 30
0.0
 11
62.084600000000002
 21
122.529
 31
0.0
  0
ARC
  5
726
  8
0
 62
     7
 10
67.497683999999992
 20
124.338701
 30
0.0
 40
5.7237220000000004
 50
198.355065
 51
200.27366799999999
  0
LINE
  5
727
  8
0
 62
     7
 10
62.139099999999999
 20
122.373
 30
0.0
 11
62.247399999999999
 21
122.32599999999999
 31
0.0
  0
LINE
  5
728
  8
0
 62
     7
 10
62.247399999999999
 20
122.32599999999999
 30
0.0
 11
62.200600000000001
 21
122.218
 31
0.0
  0
ARC
  5
729
  8
0
 62
     7
 10
67.117742000000007
 20
124.26062400000001
 30
0.0
 40
5.3417639999999986
 50
202.41431900000001
 51
204.48070799999999
  0
LINE
  5
72A
  8
0
 62
     7
 10
62.266199999999998
 20
122.06699999999999
 30
0.0
 11
62.377499999999998
 21
122.027
 31
0.0
  0
LINE
  5
72B
  8
0
 62
     7
 10
62.377499999999998
 20
122.027
 30
0.0
 11
62.338500000000003
 21
121.917
 31
0.0
  0
ARC
  5
72C
  8
0
 62
     7
 10
65.909227999999999
 20
123.68733
 30
0.0
 40
4.003010999999999
 50
206.17856900000001
 51
208.954553
  0
LINE
  5
72D
  8
0
 62
     7
 10
62.415500000000002
 20
121.771
 30
0.0
 11
62.529400000000003
 21
121.73999999999999
 31
0.0
  0
LINE
  5
72E
  8
0
 62
     7
 10
62.529400000000003
 20
121.73999999999999
 30
0.0
 11
62.498899999999999
 21
121.626
 31
0.0
  0
ARC
  5
72F
  8
0
 62
     7
 10
66.338765000000009
 20
123.932558
 30
0.0
 40
4.4976900000000004
 50
210.80552800000001
 51
213.291068
  0
LINE
  5
730
  8
0
 62
     7
 10
62.58639999999999
 20
121.486
 30
0.0
 11
62.702300000000001
 21
121.464
 31
0.0
  0
LINE
  5
731
  8
0
 62
     7
 10
62.702300000000001
 20
121.464
 30
0.0
 11
62.679900000000011
 21
121.349
 31
0.0
  0
LINE
  5
732
  8
0
 62
     7
 10
62.679900000000011
 20
121.349
 30
0.0
 11
62.655799999999992
 21
121.34999999999999
 31
0.0
  0
ARC
  5
733
  8
0
 62
     7
 10
67.629576
 20
124.874546
 30
0.0
 40
6.096074999999999
 50
215.32426899999999
 51
217.16720100000001
  0
LINE
  5
734
  8
0
 62
     7
 10
62.771799999999999
 20
121.19199999999999
 30
0.0
 11
62.777799999999992
 21
121.215
 31
0.0
  0
LINE
  5
735
  8
0
 62
     7
 10
62.777799999999992
 20
121.215
 30
0.0
 11
62.8949
 21
121.202
 31
0.0
  0
LINE
  5
736
  8
0
 62
     7
 10
62.8949
 20
121.202
 30
0.0
 11
62.881300000000003
 21
121.08499999999999
 31
0.0
  0
LINE
  5
737
  8
0
 62
     7
 10
62.881300000000003
 20
121.08499999999999
 30
0.0
 11
62.856499999999997
 21
121.08499999999999
 31
0.0
  0
ARC
  5
738
  8
0
 62
     7
 10
65.908422999999999
 20
123.545956
 30
0.0
 40
3.920833
 50
218.88715500000001
 51
221.77340899999999
  0
LINE
  5
739
  8
0
 62
     7
 10
62.98429999999999
 20
120.934
 30
0.0
 11
62.98899999999999
 21
120.959
 31
0.0
  0
LINE
  5
73A
  8
0
 62
     7
 10
62.98899999999999
 20
120.959
 30
0.0
 11
63.10649999999999
 21
120.955
 31
0.0
  0
LINE
  5
73B
  8
0
 62
     7
 10
63.10649999999999
 20
120.955
 30
0.0
 11
63.101599999999991
 21
120.837
 31
0.0
  0
LINE
  5
73C
  8
0
 62
     7
 10
63.101599999999991
 20
120.837
 30
0.0
 11
63.076000000000001
 21
120.83499999999999
 31
0.0
  0
ARC
  5
73D
  8
0
 62
     7
 10
66.129556999999991
 20
123.704441
 30
0.0
 40
4.1904260000000004
 50
223.221881
 51
225.93350899999999
  0
LINE
  5
73E
  8
0
 62
     7
 10
63.215099999999993
 20
120.693
 30
0.0
 11
63.2179
 21
120.72
 31
0.0
  0
LINE
  5
73F
  8
0
 62
     7
 10
63.2179
 20
120.72
 30
0.0
 11
63.335599999999999
 21
120.723
 31
0.0
  0
LINE
  5
740
  8
0
 62
     7
 10
63.335599999999999
 20
120.723
 30
0.0
 11
63.339500000000001
 21
120.60599999999999
 31
0.0
  0
LINE
  5
741
  8
0
 62
     7
 10
63.339500000000001
 20
120.60599999999999
 30
0.0
 11
63.313000000000002
 21
120.601
 31
0.0
  0
ARC
  5
742
  8
0
 62
     7
 10
66.253596000000002
 20
123.81869
 30
0.0
 40
4.3586130000000001
 50
227.571788
 51
230.195932
  0
LINE
  5
743
  8
0
 62
     7
 10
63.4634
 20
120.47
 30
0.0
 11
63.463900000000002
 21
120.497
 31
0.0
  0
LINE
  5
744
  8
0
 62
     7
 10
63.463900000000002
 20
120.497
 30
0.0
 11
63.581499999999998
 21
120.51000000000001
 31
0.0
  0
LINE
  5
745
  8
0
 62
     7
 10
63.581499999999998
 20
120.51000000000001
 30
0.0
 11
63.593899999999998
 21
120.392
 31
0.0
  0
LINE
  5
746
  8
0
 62
     7
 10
63.593899999999998
 20
120.392
 30
0.0
 11
63.567100000000003
 21
120.386
 31
0.0
  0
ARC
  5
747
  8
0
 62
     7
 10
65.827134999999998
 20
123.24516
 30
0.0
 40
3.6444059999999991
 50
231.67308199999999
 51
234.82358400000001
  0
LINE
  5
748
  8
0
 62
     7
 10
63.727600000000002
 20
120.26600000000001
 30
0.0
 11
63.726199999999999
 21
120.294
 31
0.0
  0
LINE
  5
749
  8
0
 62
     7
 10
63.726199999999999
 20
120.294
 30
0.0
 11
63.842199999999998
 21
120.315
 31
0.0
  0
LINE
  5
74A
  8
0
 62
     7
 10
63.842199999999998
 20
120.315
 30
0.0
 11
63.863199999999999
 21
120.199
 31
0.0
  0
LINE
  5
74B
  8
0
 62
     7
 10
63.863199999999999
 20
120.199
 30
0.0
 11
63.83659999999999
 21
120.19
 31
0.0
  0
ARC
  5
74C
  8
0
 62
     7
 10
66.629981999999998
 20
124.37625800000001
 30
0.0
 40
5.0322300000000002
 50
236.28314399999999
 51
238.57106899999999
  0
LINE
  5
74D
  8
0
 62
     7
 10
64.006
 20
120.08199999999999
 30
0.0
 11
64.002399999999994
 21
120.111
 31
0.0
  0
LINE
  5
74E
  8
0
 62
     7
 10
64.002399999999994
 20
120.111
 30
0.0
 11
64.116200000000006
 21
120.14
 31
0.0
  0
LINE
  5
74F
  8
0
 62
     7
 10
64.116200000000006
 20
120.14
 30
0.0
 11
64.145799999999994
 21
120.026
 31
0.0
  0
LINE
  5
750
  8
0
 62
     7
 10
64.145799999999994
 20
120.026
 30
0.0
 11
64.119799999999984
 21
120.015
 31
0.0
  0
ARC
  5
751
  8
0
 62
     7
 10
66.13659100000001
 20
123.52636200000001
 30
0.0
 40
4.0488989999999987
 50
240.12561500000001
 51
242.98138599999999
  0
LINE
  5
752
  8
0
 62
     7
 10
64.297300000000007
 20
119.919
 30
0.0
 11
64.291200000000003
 21
119.94799999999999
 31
0.0
  0
LINE
  5
753
  8
0
 62
     7
 10
64.291200000000003
 20
119.94799999999999
 30
0.0
 11
64.403199999999984
 21
119.986
 31
0.0
  0
LINE
  5
754
  8
0
 62
     7
 10
64.403199999999984
 20
119.986
 30
0.0
 11
64.440899999999999
 21
119.874
 31
0.0
  0
LINE
  5
755
  8
0
 62
     7
 10
64.440899999999999
 20
119.874
 30
0.0
 11
64.415300000000002
 21
119.861
 31
0.0
  0
ARC
  5
756
  8
0
 62
     7
 10
65.981560000000002
 20
123.136791
 30
0.0
 40
3.6308679999999991
 50
244.44441699999999
 51
247.63063099999999
  0
LINE
  5
757
  8
0
 62
     7
 10
64.599699999999999
 20
119.779
 30
0.0
 11
64.591800000000006
 21
119.807
 31
0.0
  0
LINE
  5
758
  8
0
 62
     7
 10
64.591800000000006
 20
119.807
 30
0.0
 11
64.700000000000003
 21
119.85299999999999
 31
0.0
  0
LINE
  5
759
  8
0
 62
     7
 10
64.700000000000003
 20
119.85299999999999
 30
0.0
 11
64.746700000000004
 21
119.744
 31
0.0
  0
LINE
  5
75A
  8
0
 62
     7
 10
64.746700000000004
 20
119.744
 30
0.0
 11
64.721000000000004
 21
119.73
 31
0.0
  0
ARC
  5
75B
  8
0
 62
     7
 10
66.359509000000003
 20
124.005607
 30
0.0
 40
4.5792419999999989
 50
249.03419199999999
 51
251.56632200000001
  0
LINE
  5
75C
  8
0
 62
     7
 10
64.911500000000004
 20
119.661
 30
0.0
 11
64.901899999999998
 21
119.68899999999999
 31
0.0
  0
LINE
  5
75D
  8
0
 62
     7
 10
64.901899999999998
 20
119.68899999999999
 30
0.0
 11
65.006399999999999
 21
119.74299999999999
 31
0.0
  0
LINE
  5
75E
  8
0
 62
     7
 10
65.006399999999999
 20
119.74299999999999
 30
0.0
 11
65.060400000000001
 21
119.63800000000001
 31
0.0
  0
LINE
  5
75F
  8
0
 62
     7
 10
65.060400000000001
 20
119.63800000000001
 30
0.0
 11
65.036199999999994
 21
119.621
 31
0.0
  0
ARC
  5
760
  8
0
 62
     7
 10
66.381659999999997
 20
124.046791
 30
0.0
 40
4.6257589999999986
 50
253.090857
 51
255.60595000000001
  0
LINE
  5
761
  8
0
 62
     7
 10
65.231700000000004
 20
119.566
 30
0.0
 11
65.219700000000003
 21
119.59399999999999
 31
0.0
  0
LINE
  5
762
  8
0
 62
     7
 10
65.219700000000003
 20
119.59399999999999
 30
0.0
 11
65.319900000000004
 21
119.655
 31
0.0
  0
LINE
  5
763
  8
0
 62
     7
 10
65.319900000000004
 20
119.655
 30
0.0
 11
65.381600000000006
 21
119.55500000000001
 31
0.0
  0
ARC
  5
764
  8
0
 62
     7
 10
66.165144999999995
 20
123.036412
 30
0.0
 40
3.592222
 50
257.02381500000001
 51
260.26096100000001
  0
LINE
  5
765
  8
0
 62
     7
 10
65.557500000000005
 20
119.496
 30
0.0
 11
65.543400000000005
 21
119.52200000000001
 31
0.0
  0
LINE
  5
766
  8
0
 62
     7
 10
65.543400000000005
 20
119.52200000000001
 30
0.0
 11
65.638999999999996
 21
119.59099999999999
 31
0.0
  0
LINE
  5
767
  8
0
 62
     7
 10
65.638999999999996
 20
119.59099999999999
 30
0.0
 11
65.707999999999998
 21
119.495
 31
0.0
  0
ARC
  5
768
  8
0
 62
     7
 10
66.436802999999983
 20
124.680575
 30
0.0
 40
5.2595219999999996
 50
261.79086100000001
 51
264.00726500000002
  0
LINE
  5
769
  8
0
 62
     7
 10
65.887699999999995
 20
119.45
 30
0.0
 11
65.872
 21
119.47499999999999
 31
0.0
  0
LINE
  5
76A
  8
0
 62
     7
 10
65.872
 20
119.47499999999999
 30
0.0
 11
65.961799999999997
 21
119.551
 31
0.0
  0
LINE
  5
76B
  8
0
 62
     7
 10
65.961799999999997
 20
119.551
 30
0.0
 11
66.037700000000001
 21
119.45999999999999
 31
0.0
  0
ARC
  5
76C
  8
0
 62
     7
 10
66.300208999999995
 20
123.114507
 30
0.0
 40
3.6869299999999998
 50
265.60351900000001
 51
268.76379800000001
  0
LINE
  5
76D
  8
0
 62
     7
 10
66.220699999999994
 20
119.428
 30
0.0
 11
66.202799999999996
 21
119.452
 31
0.0
  0
LINE
  5
76E
  8
0
 62
     7
 10
66.202799999999996
 20
119.452
 30
0.0
 11
66.287300000000002
 21
119.53400000000001
 31
0.0
  0
LINE
  5
76F
  8
0
 62
     7
 10
66.287300000000002
 20
119.53400000000001
 30
0.0
 11
66.369500000000002
 21
119.45
 31
0.0
  0
ARC
  5
770
  8
0
 62
     7
 10
66.319692000000003
 20
125.02775099999999
 30
0.0
 40
5.6014689999999989
 50
270.31738100000001
 51
272.39894900000007
  0
LINE
  5
771
  8
0
 62
     7
 10
66.534300000000002
 20
119.45399999999999
 30
0.0
 11
66.612700000000004
 21
119.542
 31
0.0
  0
LINE
  5
772
  8
0
 62
     7
 10
66.612700000000004
 20
119.542
 30
0.0
 11
66.700900000000004
 21
119.464
 31
0.0
  0
LINE
  5
773
  8
0
 62
     7
 10
66.700900000000004
 20
119.464
 30
0.0
 11
66.684200000000004
 21
119.43899999999999
 31
0.0
  0
ARC
  5
774
  8
0
 62
     7
 10
66.370772000000002
 20
123.569315
 30
0.0
 40
4.1420760000000003
 50
274.33977700000003
 51
277.14913100000001
  0
LINE
  5
775
  8
0
 62
     7
 10
66.865099999999998
 20
119.48
 30
0.0
 11
66.936400000000006
 21
119.574
 31
0.0
  0
LINE
  5
776
  8
0
 62
     7
 10
66.936400000000006
 20
119.574
 30
0.0
 11
67.030299999999997
 21
119.503
 31
0.0
  0
LINE
  5
777
  8
0
 62
     7
 10
67.030299999999997
 20
119.503
 30
0.0
 11
67.015299999999996
 21
119.477
 31
0.0
  0
ARC
  5
778
  8
0
 62
     7
 10
66.489570999999998
 20
123.12611699999999
 30
0.0
 40
3.687120999999999
 50
278.19720799999999
 51
281.35109699999998
  0
LINE
  5
779
  8
0
 62
     7
 10
67.192700000000002
 20
119.53
 30
0.0
 11
67.257000000000005
 21
119.629
 31
0.0
  0
LINE
  5
77A
  8
0
 62
     7
 10
67.257000000000005
 20
119.629
 30
0.0
 11
67.356200000000001
 21
119.565
 31
0.0
  0
LINE
  5
77B
  8
0
 62
     7
 10
67.356200000000001
 20
119.565
 30
0.0
 11
67.343299999999985
 21
119.538
 31
0.0
  0
ARC
  5
77C
  8
0
 62
     7
 10
65.894121999999996
 20
125.69332300000001
 30
0.0
 40
6.3236160000000003
 50
283.24777799999998
 51
285.08451600000001
  0
LINE
  5
77D
  8
0
 62
     7
 10
67.516199999999984
 20
119.605
 30
0.0
 11
67.572699999999998
 21
119.709
 31
0.0
  0
LINE
  5
77E
  8
0
 62
     7
 10
67.572699999999998
 20
119.709
 30
0.0
 11
67.675899999999999
 21
119.652
 31
0.0
  0
LINE
  5
77F
  8
0
 62
     7
 10
67.675899999999999
 20
119.652
 30
0.0
 11
67.665400000000005
 21
119.624
 31
0.0
  0
ARC
  5
780
  8
0
 62
     7
 10
66.237354000000011
 20
124.27828100000001
 30
0.0
 40
4.867985
 50
287.05861800000002
 51
289.44124799999997
  0
LINE
  5
781
  8
0
 62
     7
 10
67.857600000000005
 20
119.688
 30
0.0
 11
67.832800000000006
 21
119.703
 31
0.0
  0
LINE
  5
782
  8
0
 62
     7
 10
67.832800000000006
 20
119.703
 30
0.0
 11
67.882099999999994
 21
119.81
 31
0.0
  0
LINE
  5
783
  8
0
 62
     7
 10
67.882099999999994
 20
119.81
 30
0.0
 11
67.989199999999997
 21
119.761
 31
0.0
  0
LINE
  5
784
  8
0
 62
     7
 10
67.989199999999997
 20
119.761
 30
0.0
 11
67.980800000000002
 21
119.73399999999999
 31
0.0
  0
ARC
  5
785
  8
0
 62
     7
 10
66.383050999999995
 20
123.852827
 30
0.0
 40
4.4175199999999988
 50
291.20336200000003
 51
293.817927
  0
LINE
  5
786
  8
0
 62
     7
 10
68.167000000000002
 20
119.812
 30
0.0
 11
68.141300000000001
 21
119.825
 31
0.0
  0
LINE
  5
787
  8
0
 62
     7
 10
68.141300000000001
 20
119.825
 30
0.0
 11
68.182699999999997
 21
119.93600000000001
 31
0.0
  0
LINE
  5
788
  8
0
 62
     7
 10
68.182699999999997
 20
119.93600000000001
 30
0.0
 11
68.293199999999999
 21
119.89400000000001
 31
0.0
  0
LINE
  5
789
  8
0
 62
     7
 10
68.293199999999999
 20
119.89400000000001
 30
0.0
 11
68.286500000000004
 21
119.867
 31
0.0
  0
ARC
  5
78A
  8
0
 62
     7
 10
66.700881999999993
 20
123.227881
 30
0.0
 40
3.7161559999999989
 50
295.25771600000002
 51
298.35572100000002
  0
LINE
  5
78B
  8
0
 62
     7
 10
68.465800000000002
 20
119.958
 30
0.0
 11
68.4405
 21
119.96899999999999
 31
0.0
  0
LINE
  5
78C
  8
0
 62
     7
 10
68.4405
 20
119.96899999999999
 30
0.0
 11
68.473600000000005
 21
120.08199999999999
 31
0.0
  0
LINE
  5
78D
  8
0
 62
     7
 10
68.473600000000005
 20
120.08199999999999
 30
0.0
 11
68.586299999999994
 21
120.04900000000001
 31
0.0
  0
LINE
  5
78E
  8
0
 62
     7
 10
68.586299999999994
 20
120.04900000000001
 30
0.0
 11
68.582099999999997
 21
120.02200000000001
 31
0.0
  0
ARC
  5
78F
  8
0
 62
     7
 10
66.034984999999992
 20
124.43947799999999
 30
0.0
 40
5.0994910000000004
 50
299.96617099999997
 51
302.21506299999999
  0
LINE
  5
790
  8
0
 62
     7
 10
68.753500000000003
 20
120.125
 30
0.0
 11
68.727900000000005
 21
120.134
 31
0.0
  0
LINE
  5
791
  8
0
 62
     7
 10
68.727900000000005
 20
120.134
 30
0.0
 11
68.751999999999995
 21
120.25
 31
0.0
  0
LINE
  5
792
  8
0
 62
     7
 10
68.751999999999995
 20
120.25
 30
0.0
 11
68.867500000000007
 21
120.22499999999999
 31
0.0
  0
LINE
  5
793
  8
0
 62
     7
 10
68.867500000000007
 20
120.22499999999999
 30
0.0
 11
68.865499999999983
 21
120.19799999999999
 31
0.0
  0
ARC
  5
794
  8
0
 62
     7
 10
66.244056999999998
 20
124.075379
 30
0.0
 40
4.6800309999999987
 50
304.06478600000003
 51
306.50374699999998
  0
LINE
  5
795
  8
0
 62
     7
 10
69.028099999999995
 20
120.313
 30
0.0
 11
69.002300000000005
 21
120.321
 31
0.0
  0
LINE
  5
796
  8
0
 62
     7
 10
69.002300000000005
 20
120.321
 30
0.0
 11
69.018399999999986
 21
120.437
 31
0.0
  0
LINE
  5
797
  8
0
 62
     7
 10
69.018399999999986
 20
120.437
 30
0.0
 11
69.134699999999995
 21
120.422
 31
0.0
  0
LINE
  5
798
  8
0
 62
     7
 10
69.134699999999995
 20
120.422
 30
0.0
 11
69.134699999999995
 21
120.395
 31
0.0
  0
ARC
  5
799
  8
0
 62
     7
 10
65.877081000000004
 20
124.501295
 30
0.0
 40
5.2414459999999989
 50
308.42686600000002
 51
310.59925199999998
  0
LINE
  5
79A
  8
0
 62
     7
 10
69.287999999999997
 20
120.52200000000001
 30
0.0
 11
69.262399999999985
 21
120.527
 31
0.0
  0
LINE
  5
79B
  8
0
 62
     7
 10
69.262399999999985
 20
120.527
 30
0.0
 11
69.269099999999995
 21
120.64400000000001
 31
0.0
  0
LINE
  5
79C
  8
0
 62
     7
 10
69.269099999999995
 20
120.64400000000001
 30
0.0
 11
69.387100000000004
 21
120.637
 31
0.0
  0
LINE
  5
79D
  8
0
 62
     7
 10
69.387100000000004
 20
120.637
 30
0.0
 11
69.388599999999997
 21
120.611
 31
0.0
  0
ARC
  5
79E
  8
0
 62
     7
 10
66.688761
 20
123.566136
 30
0.0
 40
4.0023999999999988
 50
312.42007899999999
 51
315.24741999999998
  0
LINE
  5
79F
  8
0
 62
     7
 10
69.531099999999995
 20
120.748
 30
0.0
 11
69.506299999999996
 21
120.751
 31
0.0
  0
LINE
  5
7A0
  8
0
 62
     7
 10
69.506299999999996
 20
120.751
 30
0.0
 11
69.504599999999996
 21
120.869
 31
0.0
  0
LINE
  5
7A1
  8
0
 62
     7
 10
69.504599999999996
 20
120.869
 30
0.0
 11
69.622500000000002
 21
120.871
 31
0.0
  0
LINE
  5
7A2
  8
0
 62
     7
 10
69.622500000000002
 20
120.871
 30
0.0
 11
69.625799999999984
 21
120.846
 31
0.0
  0
ARC
  5
7A3
  8
0
 62
     7
 10
66.065464000000006
 20
124.178585
 30
0.0
 40
4.8766369999999997
 50
316.89346399999999
 51
319.20664599999998
  0
LINE
  5
7A4
  8
0
 62
     7
 10
69.757400000000004
 20
120.99299999999999
 30
0.0
 11
69.733000000000004
 21
120.99299999999999
 31
0.0
  0
LINE
  5
7A5
  8
0
 62
     7
 10
69.733000000000004
 20
120.99299999999999
 30
0.0
 11
69.722800000000007
 21
121.111
 31
0.0
  0
LINE
  5
7A6
  8
0
 62
     7
 10
69.722800000000007
 20
121.111
 30
0.0
 11
69.8399
 21
121.121
 31
0.0
  0
ARC
  5
7A7
  8
0
 62
     7
 10
67.008881000000002
 20
123.41174700000001
 30
0.0
 40
3.6604419999999989
 50
320.793905
 51
323.84674699999999
  0
LINE
  5
7A8
  8
0
 62
     7
 10
69.941000000000003
 20
121.252
 30
0.0
 11
69.922300000000007
 21
121.36799999999999
 31
0.0
  0
LINE
  5
7A9
  8
0
 62
     7
 10
69.922300000000007
 20
121.36799999999999
 30
0.0
 11
70.038700000000006
 21
121.387
 31
0.0
  0
ARC
  5
7AA
  8
0
 62
     7
 10
66.433037999999996
 20
123.876447
 30
0.0
 40
4.3993880000000001
 50
325.18857100000002
 51
327.713686
  0
LINE
  5
7AB
  8
0
 62
     7
 10
70.129999999999995
 20
121.524
 30
0.0
 11
70.102500000000006
 21
121.639
 31
0.0
  0
LINE
  5
7AC
  8
0
 62
     7
 10
70.102500000000006
 20
121.639
 30
0.0
 11
70.216800000000006
 21
121.666
 31
0.0
  0
ARC
  5
7AD
  8
0
 62
     7
 10
65.711562999999998
 20
124.27551099999999
 30
0.0
 40
5.2234790000000002
 50
329.77100300000001
 51
331.891704
  0
LINE
  5
7AE
  8
0
 62
     7
 10
70.297799999999995
 20
121.81
 30
0.0
 11
70.261600000000001
 21
121.923
 31
0.0
  0
LINE
  5
7AF
  8
0
 62
     7
 10
70.261600000000001
 20
121.923
 30
0.0
 11
70.374099999999999
 21
121.959
 31
0.0
  0
ARC
  5
7B0
  8
0
 62
     7
 10
65.560862999999998
 20
124.28467499999999
 30
0.0
 40
5.3621800000000004
 50
334.06165099999998
 51
336.11551100000003
  0
LINE
  5
7B1
  8
0
 62
     7
 10
70.443899999999985
 20
122.108
 30
0.0
 11
70.400099999999995
 21
122.217
 31
0.0
  0
LINE
  5
7B2
  8
0
 62
     7
 10
70.400099999999995
 20
122.217
 30
0.0
 11
70.509299999999996
 21
122.261
 31
0.0
  0
ARC
  5
7B3
  8
0
 62
     7
 10
66.04875899999999
 20
124.042568
 30
0.0
 40
4.8184170000000002
 50
338.08426400000002
 51
340.34105
  0
LINE
  5
7B4
  8
0
 62
     7
 10
70.567700000000002
 20
122.416
 30
0.0
 11
70.516000000000005
 21
122.521
 31
0.0
  0
LINE
  5
7B5
  8
0
 62
     7
 10
70.516000000000005
 20
122.521
 30
0.0
 11
70.622
 21
122.57299999999999
 31
0.0
  0
ARC
  5
7B6
  8
0
 62
     7
 10
65.321559999999991
 20
124.224284
 30
0.0
 40
5.5661899999999989
 50
342.580735
 51
344.52205199999997
  0
LINE
  5
7B7
  8
0
 62
     7
 10
70.668800000000005
 20
122.732
 30
0.0
 11
70.609099999999984
 21
122.834
 31
0.0
  0
LINE
  5
7B8
  8
0
 62
     7
 10
70.609099999999984
 20
122.834
 30
0.0
 11
70.710700000000003
 21
122.89400000000001
 31
0.0
  0
ARC
  5
7B9
  8
0
 62
     7
 10
65.936362000000003
 20
124.013986
 30
0.0
 40
4.9182579999999989
 50
346.65836999999999
 51
348.84338600000001
  0
LINE
  5
7BA
  8
0
 62
     7
 10
70.746300000000005
 20
123.054
 30
0.0
 11
70.679299999999998
 21
123.151
 31
0.0
  0
LINE
  5
7BB
  8
0
 62
     7
 10
70.679299999999998
 20
123.151
 30
0.0
 11
70.776099999999985
 21
123.218
 31
0.0
  0
ARC
  5
7BC
  8
0
 62
     7
 10
66.658963999999997
 20
123.88260099999999
 30
0.0
 40
4.1834530000000001
 50
350.69260400000002
 51
353.24215299999997
  0
LINE
  5
7BD
  8
0
 62
     7
 10
70.799700000000001
 20
123.38200000000001
 30
0.0
 11
70.725499999999997
 21
123.474
 31
0.0
  0
LINE
  5
7BE
  8
0
 62
     7
 10
70.725499999999997
 20
123.474
 30
0.0
 11
70.816999999999993
 21
123.547
 31
0.0
  0
ARC
  5
7BF
  8
0
 62
     7
 10
66.297464000000005
 20
123.929958
 30
0.0
 40
4.5480769999999993
 50
355.04008900000002
 51
357.36730299999999
  0
LINE
  5
7C0
  8
0
 62
     7
 10
70.828500000000005
 20
123.712
 30
0.0
 11
70.747900000000001
 21
123.798
 31
0.0
  0
LINE
  5
7C1
  8
0
 62
     7
 10
70.747900000000001
 20
123.798
 30
0.0
 11
70.8339
 21
123.878
 31
0.0
  0
ARC
  5
7C2
  8
0
 62
     7
 10
66.274114999999995
 20
123.93110799999999
 30
0.0
 40
4.5713470000000003
 50
359.228251
 51
1.5256299999999989
  0
LINE
  5
7C3
  8
0
 62
     7
 10
70.832999999999998
 20
124.044
 30
0.0
 11
70.746300000000005
 21
124.123
 31
0.0
  0
LINE
  5
7C4
  8
0
 62
     7
 10
70.746300000000005
 20
124.123
 30
0.0
 11
70.825800000000001
 21
124.211
 31
0.0
  0
ARC
  5
7C5
  8
0
 62
     7
 10
66.550791000000004
 20
123.943979
 30
0.0
 40
4.2941120000000002
 50
3.449287
 51
5.88002
  0
LINE
  5
7C6
  8
0
 62
     7
 10
70.813000000000002
 20
124.375
 30
0.0
 11
70.720299999999995
 21
124.44799999999999
 31
0.0
  0
LINE
  5
7C7
  8
0
 62
     7
 10
70.720299999999995
 20
124.44799999999999
 30
0.0
 11
70.793700000000001
 21
124.54000000000001
 31
0.0
  0
ARC
  5
7C8
  8
0
 62
     7
 10
65.898684000000003
 20
123.863135
 30
0.0
 40
4.9512119999999991
 50
7.7884029999999989
 51
9.878425
  0
LINE
  5
7C9
  8
0
 62
     7
 10
70.7684
 20
124.70399999999999
 30
0.0
 11
70.670900000000003
 21
124.77
 31
0.0
  0
LINE
  5
7CA
  8
0
 62
     7
 10
70.670900000000003
 20
124.77
 30
0.0
 11
70.737200000000001
 21
124.867
 31
0.0
  0
ARC
  5
7CB
  8
0
 62
     7
 10
65.655771000000001
 20
123.757008
 30
0.0
 40
5.2100519999999992
 50
12.249478999999999
 51
14.218935
  0
LINE
  5
7CC
  8
0
 62
     7
 10
70.700000000000003
 20
125.02800000000001
 30
0.0
 11
70.597999999999999
 21
125.087
 31
0.0
  0
LINE
  5
7CD
  8
0
 62
     7
 10
70.597999999999999
 20
125.087
 30
0.0
 11
70.656599999999997
 21
125.18899999999999
 31
0.0
  0
ARC
  5
7CE
  8
0
 62
     7
 10
66.535254000000009
 20
123.99197599999999
 30
0.0
 40
4.2992839999999992
 50
16.109030999999991
 51
18.479862000000001
  0
LINE
  5
7CF
  8
0
 62
     7
 10
70.607699999999994
 20
125.34699999999999
 30
0.0
 11
70.501199999999983
 21
125.398
 31
0.0
  0
LINE
  5
7D0
  8
0
 62
     7
 10
70.501199999999983
 20
125.398
 30
0.0
 11
70.552599999999998
 21
125.504
 31
0.0
  0
ARC
  5
7D1
  8
0
 62
     7
 10
67.134903000000008
 20
124.239234
 30
0.0
 40
3.6511010000000002
 50
20.219918
 51
22.988040999999999
  0
LINE
  5
7D2
  8
0
 62
     7
 10
70.491600000000005
 20
125.658
 30
0.0
 11
70.382000000000005
 21
125.70099999999999
 31
0.0
  0
LINE
  5
7D3
  8
0
 62
     7
 10
70.382000000000005
 20
125.70099999999999
 30
0.0
 11
70.425399999999996
 21
125.81
 31
0.0
  0
ARC
  5
7D4
  8
0
 62
     7
 10
66.192312000000001
 20
123.85482500000001
 30
0.0
 40
4.6690649999999989
 50
24.734777999999991
 51
26.880980999999998
  0
LINE
  5
7D5
  8
0
 62
     7
 10
70.3536
 20
125.959
 30
0.0
 11
70.240799999999993
 21
125.994
 31
0.0
  0
LINE
  5
7D6
  8
0
 62
     7
 10
70.240799999999993
 20
125.994
 30
0.0
 11
70.275700000000001
 21
126.10599999999999
 31
0.0
  0
ARC
  5
7D7
  8
0
 62
     7
 10
67.019055000000009
 20
124.327821
 30
0.0
 40
3.7161209999999989
 50
28.571456999999999
 51
31.255828999999999
  0
LINE
  5
7D8
  8
0
 62
     7
 10
70.193600000000004
 20
126.249
 30
0.0
 11
70.078299999999999
 21
126.276
 31
0.0
  0
LINE
  5
7D9
  8
0
 62
     7
 10
70.078299999999999
 20
126.276
 30
0.0
 11
70.104900000000001
 21
126.39100000000001
 31
0.0
  0
ARC
  5
7DA
  8
0
 62
     7
 10
66.213600999999997
 20
123.83063900000001
 30
0.0
 40
4.6630000000000003
 50
33.294046000000002
 51
35.417006999999998
  0
LINE
  5
7DB
  8
0
 62
     7
 10
70.012
 20
126.527
 30
0.0
 11
69.895700000000005
 21
126.545
 31
0.0
  0
LINE
  5
7DC
  8
0
 62
     7
 10
69.895700000000005
 20
126.545
 30
0.0
 11
69.913300000000007
 21
126.66200000000001
 31
0.0
  0
ARC
  5
7DD
  8
0
 62
     7
 10
66.92491600000001
 20
124.39514699999999
 30
0.0
 40
3.7548149999999998
 50
37.12634400000001
 51
39.743957999999999
  0
LINE
  5
7DE
  8
0
 62
     7
 10
69.811199999999999
 20
126.791
 30
0.0
 11
69.6935
 21
126.8
 31
0.0
  0
LINE
  5
7DF
  8
0
 62
     7
 10
69.6935
 20
126.8
 30
0.0
 11
69.702799999999996
 21
126.91800000000001
 31
0.0
  0
ARC
  5
7E0
  8
0
 62
     7
 10
66.976786000000004
 20
124.506514
 30
0.0
 40
3.6426539999999998
 50
41.448887999999997
 51
44.133332000000003
  0
LINE
  5
7E1
  8
0
 62
     7
 10
69.590900000000005
 20
127.039
 30
0.0
 11
69.472899999999996
 21
127.04000000000001
 31
0.0
  0
LINE
  5
7E2
  8
0
 62
     7
 10
69.472899999999996
 20
127.04000000000001
 30
0.0
 11
69.473200000000006
 21
127.158
 31
0.0
  0
ARC
  5
7E3
  8
0
 62
     7
 10
65.805616000000001
 20
123.34857100000001
 30
0.0
 40
5.2906839999999988
 50
46.060425000000002
 51
47.89511199999999
  0
LINE
  5
7E4
  8
0
 62
     7
 10
69.353000000000009
 20
127.27
 30
0.0
 11
69.235299999999995
 21
127.262
 31
0.0
  0
LINE
  5
7E5
  8
0
 62
     7
 10
69.235299999999995
 20
127.262
 30
0.0
 11
69.227400000000003
 21
127.38
 31
0.0
  0
ARC
  5
7E6
  8
0
 62
     7
 10
64.834783999999999
 20
122.037189
 30
0.0
 40
6.9187949999999994
 50
50.559316999999993
 51
51.956622999999993
  0
LINE
  5
7E7
  8
0
 62
     7
 10
69.099100000000007
 20
127.483
 30
0.0
 11
68.982299999999995
 21
127.46599999999999
 31
0.0
  0
LINE
  5
7E8
  8
0
 62
     7
 10
68.982299999999995
 20
127.46599999999999
 30
0.0
 11
68.9649
 21
127.583
 31
0.0
  0
ARC
  5
7E9
  8
0
 62
     7
 10
66.834851
 20
124.64063
 30
0.0
 40
3.6342849999999989
 50
54.072927000000007
 51
56.722476999999991
  0
LINE
  5
7EA
  8
0
 62
     7
 10
68.829300000000003
 20
127.67700000000001
 30
0.0
 11
68.714100000000002
 21
127.651
 31
0.0
  0
LINE
  5
7EB
  8
0
 62
     7
 10
68.714100000000002
 20
127.651
 30
0.0
 11
68.688900000000004
 21
127.76600000000001
 31
0.0
  0
ARC
  5
7EC
  8
0
 62
     7
 10
65.944901000000002
 20
123.23732200000001
 30
0.0
 40
5.2969489999999988
 50
58.779670000000003
 51
60.588483000000011
  0
LINE
  5
7ED
  8
0
 62
     7
 10
68.546499999999995
 20
127.84999999999999
 30
0.0
 11
68.433800000000005
 21
127.816
 31
0.0
  0
LINE
  5
7EE
  8
0
 62
     7
 10
68.433800000000005
 20
127.816
 30
0.0
 11
68.399699999999996
 21
127.929
 31
0.0
  0
ARC
  5
7EF
  8
0
 62
     7
 10
65.433265000000006
 20
122.065431
 30
0.0
 40
6.5724789999999986
 50
63.158372
 51
64.611704000000003
  0
LINE
  5
7F0
  8
0
 62
     7
 10
68.251599999999996
 20
128.00200000000001
 30
0.0
 11
68.141300000000001
 21
127.95999999999999
 31
0.0
  0
LINE
  5
7F1
  8
0
 62
     7
 10
68.141300000000001
 20
127.95999999999999
 30
0.0
 11
68.099599999999995
 21
128.06999999999999
 31
0.0
  0
ARC
  5
7F2
  8
0
 62
     7
 10
66.049090000000007
 20
123.196395
 30
0.0
 40
5.2878360000000004
 50
67.175150000000002
 51
68.979936999999993
  0
LINE
  5
7F3
  8
0
 62
     7
 10
67.946299999999994
 20
128.131
 30
0.0
 11
67.839500000000001
 21
128.08099999999999
 31
0.0
  0
LINE
  5
7F4
  8
0
 62
     7
 10
67.839500000000001
 20
128.08099999999999
 30
0.0
 11
67.789400000000001
 21
128.18799999999999
 31
0.0
  0
ARC
  5
7F5
  8
0
 62
     7
 10
66.417202000000003
 20
124.137289
 30
0.0
 40
4.2774099999999988
 50
71.283734999999993
 51
73.503706999999991
  0
LINE
  5
7F6
  8
0
 62
     7
 10
67.632099999999994
 20
128.238
 30
0.0
 11
67.529499999999999
 21
128.18100000000001
 31
0.0
  0
LINE
  5
7F7
  8
0
 62
     7
 10
67.529499999999999
 20
128.18100000000001
 30
0.0
 11
67.471599999999995
 21
128.28299999999999
 31
0.0
  0
ARC
  5
7F8
  8
0
 62
     7
 10
66.21476899999999
 20
123.395146
 30
0.0
 40
5.0470540000000002
 50
75.574381000000002
 51
77.452697999999984
  0
LINE
  5
7F9
  8
0
 62
     7
 10
67.311199999999999
 20
128.322
 30
0.0
 11
67.212900000000005
 21
128.256
 31
0.0
  0
LINE
  5
7FA
  8
0
 62
     7
 10
67.212900000000005
 20
128.256
 30
0.0
 11
67.147400000000005
 21
128.35400000000001
 31
0.0
  0
ARC
  5
7FB
  8
0
 62
     7
 10
66.252646999999996
 20
123.376723
 30
0.0
 40
5.0576150000000002
 50
79.810012999999984
 51
81.678514000000007
  0
LINE
  5
7FC
  8
0
 62
     7
 10
66.9846
 20
128.381
 30
0.0
 11
66.891900000000007
 21
128.309
 31
0.0
  0
LINE
  5
7FD
  8
0
 62
     7
 10
66.891900000000007
 20
128.309
 30
0.0
 11
66.819299999999998
 21
128.40100000000001
 31
0.0
  0
ARC
  5
7FE
  8
0
 62
     7
 10
66.283404000000004
 20
123.31241799999999
 30
0.0
 40
5.1171309999999988
 50
83.989121999999995
 51
85.838414999999998
  0
LINE
  5
7FF
  8
0
 62
     7
 10
66.654799999999994
 20
128.416
 30
0.0
 11
66.567800000000005
 21
128.33699999999999
 31
0.0
  0
LINE
  5
800
  8
0
 62
     7
 10
66.567800000000005
 20
128.33699999999999
 30
0.0
 11
66.488200000000006
 21
128.42400000000001
 31
0.0
  0
ARC
  5
801
  8
0
 62
     7
 10
66.345206000000005
 20
123.926552
 30
0.0
 40
3.500067
 50
359.99718999999999
 51
89.997159999999994
  0
ARC
  5
802
  8
0
 62
     7
 10
66.345466000000002
 20
123.926466
 30
0.0
 40
3.5001540000000002
 50
90.001410000000007
 51
180.00142
  0
ARC
  5
803
  8
0
 62
     7
 10
66.345292999999998
 20
123.926466
 30
0.0
 40
3.4999799999999999
 50
180.00142
 51
270.00143000000003
  0
ARC
  5
804
  8
0
 62
     7
 10
66.345379000000008
 20
123.92638100000001
 30
0.0
 40
3.4998949999999991
 50
270.00002000000001
 51
359.99999000000003
  0
ARC
  5
805
  8
0
 62
     7
 10
66.345292000000001
 20
123.926466
 30
0.0
 40
3.666725
 50
359.99866400000002
 51
89.998633999999996
  0
ARC
  5
806
  8
0
 62
     7
 10
66.345466000000002
 20
123.926466
 30
0.0
 40
3.666725
 50
90.001345999999998
 51
180.00135599999999
  0
ARC
  5
807
  8
0
 62
     7
 10
66.345379000000008
 20
123.92637999999999
 30
0.0
 40
3.666637999999999
 50
179.99996999999999
 51
270.00002000000001
  0
ARC
  5
808
  8
0
 62
     7
 10
66.345379000000008
 20
123.92638100000001
 30
0.0
 40
3.6666389999999991
 50
270.00002000000001
 51
359.99999000000003
  0
ARC
  5
809
  8
0
 62
     7
 10
66.352667000000011
 20
123.92277900000001
 30
0.0
 40
5.0926269999999993
 50
140.450515
 51
159.55115000000001
  0
ARC
  5
80A
  8
0
 62
     7
 10
66.337975999999998
 20
123.922286
 30
0.0
 40
5.076052999999999
 50
200.42175499999999
 51
219.57115300000001
  0
ARC
  5
80B
  8
0
 62
     7
 10
66.345976000000007
 20
123.948913
 30
0.0
 40
5.1066370000000001
 50
260.47351099999997
 51
279.50312500000001
  0
ARC
  5
80C
  8
0
 62
     7
 10
66.352631000000002
 20
123.92334200000001
 30
0.0
 40
5.076484999999999
 50
320.40734600000002
 51
338.86866099999997
  0
ARC
  5
80D
  8
0
 62
     7
 10
66.340932999999993
 20
123.923024
 30
0.0
 40
5.0899510000000001
 50
21.158238000000001
 51
39.563217000000009
  0
ARC
  5
80E
  8
0
 62
     7
 10
66.345551999999998
 20
123.933329
 30
0.0
 40
5.0777760000000001
 50
80.427638999999999
 51
99.572340999999994
  0
ARC
  5
80F
  8
0
 62
     7
 10
66.345380000000006
 20
123.926379
 30
0.0
 40
4.9678599999999991
 50
90.0
 51
179.99996999999999
  0
ARC
  5
810
  8
0
 62
     7
 10
66.345033999999984
 20
123.92672399999999
 30
0.0
 40
4.9675139999999987
 50
180.003984
 51
270.00399299999998
  0
ARC
  5
811
  8
0
 62
     7
 10
66.258740000000003
 20
124.05367200000001
 30
0.0
 40
5.095197999999999
 50
270.97431499999999
 51
337.82777900000008
  0
ARC
  5
812
  8
0
 62
     7
 10
66.345379000000008
 20
123.926379
 30
0.0
 40
4.2529979999999998
 50
0.00001
 51
89.999980000000008
  0
ARC
  5
813
  8
0
 62
     7
 10
66.345466000000002
 20
123.926466
 30
0.0
 40
4.2529120000000002
 50
90.001160000000013
 51
180.00117
  0
ARC
  5
814
  8
0
 62
     7
 10
66.507963000000004
 20
124.0895
 30
0.0
 40
4.4184209999999986
 50
182.11575599999989
 51
267.89123599999999
  0
ARC
  5
815
  8
0
 62
     7
 10
66.182699
 20
124.089775
 30
0.0
 40
4.4186990000000002
 50
272.10989999999998
 51
357.88082600000001
  0
LINE
  5
816
  8
_________2
 62
     7
 10
134.93899999999999
 20
258.911
 30
0.0
 11
134.93899999999999
 21
230.911
 31
0.0
  0
LINE
  5
817
  8
_________2
 62
     7
 10
159.30500000000001
 20
258.911
 30
0.0
 11
159.30500000000001
 21
230.911
 31
0.0
  0
TEXT
  5
818
  8
_________2
 62
     7
 10
168.38133466666659
 20
233.06100000000001
 30
0.0
 40
3.3734599999999988
  1
クロム
 41
0.5
 72
     1
 11
171.30500000000001
 21
233.06100000000001
 31
0.0
  0
TEXT
  5
819
  8
_________2
 62
     7
 10
139.10903250000001
 20
233.06200000000001
 30
0.0
 40
3.3734599999999988
  1
HR63609-CH
 41
0.5
 72
     1
 11
147.12100000000001
 21
233.06200000000001
 31
0.0
  0
LINE
  5
81A
  8
_________2
 62
     7
 10
134.93899999999999
 20
230.911
 30
0.0
 11
183.55099999999999
 21
230.911
 31
0.0
  0
TEXT
  5
81B
  8
_________2
 62
     7
 10
162.42155533333329
 20
240.06100000000001
 30
0.0
 40
3.3734599999999988
  1
ポリッシュクブラス
 41
0.5
 72
     1
 11
171.30500000000001
 21
240.06100000000001
 31
0.0
  0
TEXT
  5
81C
  8
_________2
 62
     7
 10
162.42155533333329
 20
247.06200000000001
 30
0.0
 40
3.3734599999999988
  1
アンティークブラス
 41
0.5
 72
     1
 11
171.30500000000001
 21
247.06200000000001
 31
0.0
  0
TEXT
  5
81D
  8
_________2
 62
     7
 10
169.5058213333333
 20
254.06200000000001
 30
0.0
 40
3.3734599999999988
  1
仕上
 41
0.5
 72
     1
 11
171.30500000000001
 21
254.06200000000001
 31
0.0
  0
TEXT
  5
81E
  8
_________2
 62
     7
 10
139.10903250000001
 20
240.06200000000001
 30
0.0
 40
3.3734599999999988
  1
HR63609-PB
 41
0.5
 72
     1
 11
147.12100000000001
 21
240.06200000000001
 31
0.0
  0
TEXT
  5
81F
  8
_________2
 62
     7
 10
139.10903250000001
 20
247.06200000000001
 30
0.0
 40
3.3734599999999988
  1
HR63609-AB
 41
0.5
 72
     1
 11
147.12100000000001
 21
247.06200000000001
 31
0.0
  0
TEXT
  5
820
  8
_________2
 62
     7
 10
145.3218213333333
 20
254.06200000000001
 30
0.0
 40
3.3734599999999988
  1
品番
 41
0.5
 72
     1
 11
147.12100000000001
 21
254.06200000000001
 31
0.0
  0
LINE
  5
821
  8
_________2
 62
     7
 10
134.93899999999999
 20
237.911
 30
0.0
 11
183.55099999999999
 21
237.911
 31
0.0
  0
LINE
  5
822
  8
_________2
 62
     7
 10
134.93899999999999
 20
244.911
 30
0.0
 11
183.55099999999999
 21
244.911
 31
0.0
  0
LINE
  5
823
  8
_________2
 62
     7
 10
134.93899999999999
 20
251.911
 30
0.0
 11
183.55099999999999
 21
251.911
 31
0.0
  0
TEXT
  5
824
  8
_________2
 62
     7
 10
136.66252499999999
 20
9.1082000000000001
 30
0.0
 40
3.9357000000000002
  1
図中の表参照
 41
0.5
 72
     1
 11
143.55000000000001
 21
9.1082000000000001
 31
0.0
  0
TEXT
  5
825
  8
_________2
 62
     7
 10
137.15448749999999
 20
-0.8926299999999999
 30
0.0
 40
3.9357000000000002
  1
HR63609
 41
0.5
 72
     1
 11
143.55000000000001
 21
-0.8926299999999999
 31
0.0
  0
LINE
  5
826
  8
_________2
 62
     7
 10
205.30099999999999
 20
127.411
 30
0.0
 11
183.55099999999999
 21
127.411
 31
0.0
  0
LINE
  5
827
  8
_________2
 62
     7
 10
100.3
 20
-4.0910799999999998
 30
0.0
 11
100.3
 21
-21.071000000000002
 31
0.0
  0
LINE
  5
828
  8
_________2
 62
     7
 10
100.3
 20
275.93099999999998
 30
0.0
 11
100.3
 21
258.911
 31
0.0
  0
LINE
  5
829
  8
_________2
 62
     7
 10
17.049399999999999
 20
127.411
 30
0.0
 11
-4.7010300000000003
 21
127.411
 31
0.0
  0
LINE
  5
82A
  8
_________2
 62
     7
 10
76.740799999999993
 20
29.8047
 30
0.0
 11
74.554599999999994
 21
29.8047
 31
0.0
  0
LINE
  5
82B
  8
_________2
 62
     7
 10
77.233500000000006
 20
29.8047
 30
0.0
 11
76.981300000000005
 21
29.8047
 31
0.0
  0
LINE
  5
82C
  8
_________2
 62
     7
 10
77.726200000000006
 20
29.8047
 30
0.0
 11
80.6511
 21
29.8047
 31
0.0
  0
LINE
  5
82D
  8
_________2
 62
     7
 10
77.233500000000006
 20
29.8047
 30
0.0
 11
77.485699999999994
 21
29.8047
 31
0.0
  0
LINE
  5
82E
  8
_________2
 62
     7
 10
70.837299999999999
 20
29.8047
 30
0.0
 11
68.650300000000001
 21
29.8047
 31
0.0
  0
LINE
  5
82F
  8
_________2
 62
     7
 10
71.329300000000003
 20
29.8047
 30
0.0
 11
71.077799999999996
 21
29.8047
 31
0.0
  0
LINE
  5
830
  8
_________2
 62
     7
 10
71.329300000000003
 20
30.2974
 30
0.0
 11
71.329300000000003
 21
32.484400000000001
 31
0.0
  0
LINE
  5
831
  8
_________2
 62
     7
 10
71.329300000000003
 20
29.8047
 30
0.0
 11
71.329300000000003
 21
30.057300000000001
 31
0.0
  0
LINE
  5
832
  8
_________2
 62
     7
 10
71.821899999999999
 20
29.8047
 30
0.0
 11
74.008899999999997
 21
29.8047
 31
0.0
  0
LINE
  5
833
  8
_________2
 62
     7
 10
71.329300000000003
 20
29.8047
 30
0.0
 11
71.581400000000002
 21
29.8047
 31
0.0
  0
LINE
  5
834
  8
_________2
 62
     7
 10
71.329300000000003
 20
29.312799999999999
 30
0.0
 11
71.329300000000003
 21
27.126200000000001
 31
0.0
  0
LINE
  5
835
  8
_________2
 62
     7
 10
71.329300000000003
 20
29.8047
 30
0.0
 11
71.329300000000003
 21
29.5532
 31
0.0
  0
LINE
  5
836
  8
_________2
 62
     7
 10
75.040300000000002
 20
28.5852
 30
0.0
 11
80.218299999999985
 21
27.720400000000001
 31
0.0
  0
LINE
  5
837
  8
_________2
 62
     7
 10
75.040300000000002
 20
31.024699999999999
 30
0.0
 11
80.218299999999985
 21
31.8901
 31
0.0
  0
LINE
  5
838
  8
_________2
 62
     7
 10
80.218299999999985
 20
27.720400000000001
 30
0.0
 11
80.218299999999985
 21
31.8901
 31
0.0
  0
LINE
  5
839
  8
_________2
 62
     7
 10
75.040300000000002
 20
28.5852
 30
0.0
 11
75.040300000000002
 21
31.024699999999999
 31
0.0
  0
ARC
  5
83A
  8
_________2
 62
     7
 10
71.282674
 20
29.757801000000001
 30
0.0
 40
1.267714
 50
2.1220840000000001
 51
87.894083999999992
  0
ARC
  5
83B
  8
_________2
 62
     7
 10
71.375812999999994
 20
29.758545999999999
 30
0.0
 40
1.2669680000000001
 50
92.105782999999988
 51
177.91037
  0
ARC
  5
83C
  8
_________2
 62
     7
 10
71.376186000000004
 20
29.851671
 30
0.0
 40
1.2673680000000001
 50
182.12203600000001
 51
267.877993
  0
ARC
  5
83D
  8
_________2
 62
     7
 10
71.282368999999989
 20
29.852347999999999
 30
0.0
 40
1.2680439999999991
 50
272.11916400000001
 51
357.84848499999998
  0
ARC
  5
83E
  8
_________2
 62
     7
 10
71.248890000000003
 20
29.724731999999999
 30
0.0
 40
2.1668310000000002
 50
2.1161439999999989
 51
87.874379000000005
  0
ARC
  5
83F
  8
_________2
 62
     7
 10
71.408928000000003
 20
29.726146
 30
0.0
 40
2.165392999999999
 50
92.108508999999998
 51
177.91986499999999
  0
ARC
  5
840
  8
_________2
 62
     7
 10
71.409267
 20
29.884751999999999
 30
0.0
 40
2.1657829999999998
 50
182.117133
 51
267.88289700000001
  0
ARC
  5
841
  8
_________2
 62
     7
 10
71.249286999999995
 20
29.885429999999999
 30
0.0
 40
2.1664590000000001
 50
272.11546800000002
 51
357.86560400000002
  0
TEXT
  5
842
  8
_________2
 62
     7
 10
104.605
 20
1.6794899999999999
 30
0.0
 40
3.0923400000000001
  1
図番
 41
0.5
  0
LINE
  5
843
  8
_________2
 62
     7
 10
103.55
 20
5.9087199999999989
 30
0.0
 11
183.55099999999999
 21
5.9087199999999989
 31
0.0
  0
TEXT
  5
844
  8
_________2
 62
     7
 10
104.605
 20
11.6793
 30
0.0
 40
3.0923400000000001
  1
品番
 41
0.5
  0
TEXT
  5
845
  8
_________2
 62
     7
 10
104.605
 20
31.8184
 30
0.0
 40
3.0923400000000001
  1
名称
 41
0.5
  0
TEXT
  5
846
  8
_________2
 62
     7
 10
91.844958333333338
 20
26.822299999999998
 30
0.0
 40
3.6545800000000002
  1
mm
 41
0.5
 72
     1
 11
93.367699999999985
 21
26.822299999999998
 31
0.0
  0
TEXT
  5
847
  8
_________2
 62
     7
 10
85.642999999999986
 20
31.8184
 30
0.0
 40
3.0923400000000001
  1
単位
 41
0.5
  0
TEXT
  5
848
  8
_________2
 62
     7
 10
85.642999999999986
 20
19.410799999999998
 30
0.0
 40
3.0923400000000001
  1
尺度
 41
0.5
  0
TEXT
  5
849
  8
_________2
 62
     7
 10
90.548558666666679
 20
13.2182
 30
0.0
 40
3.6545800000000002
  1
1 ： 3
 41
0.5
 72
     1
 11
93.959500000000006
 21
13.2182
 31
0.0
  0
TEXT
  5
84A
  8
_________2
 62
     7
 10
109.179
 20
24.226099999999999
 30
0.0
 40
3.9357000000000002
  1
ニューレトロ タオルリング
 41
0.5
  0
TEXT
  5
84B
  8
_________2
 62
     7
 10
39.425100333333333
 20
13.603400000000001
 30
0.0
 40
3.6545800000000002
  1
早川
 41
0.5
 72
     1
 11
41.313299999999998
 21
13.603400000000001
 31
0.0
  0
TEXT
  5
84C
  8
_________2
 62
     7
 10
20.790190666666671
 20
13.603400000000001
 30
0.0
 40
3.6545800000000002
  1
菅原
 41
0.5
 72
     1
 11
22.7393
 21
13.603400000000001
 31
0.0
  0
TEXT
  5
84D
  8
_________2
 62
     7
 10
67.785600000000002
 20
13.2182
 30
0.0
 40
3.6545800000000002
  1
15.11.17
 41
0.5
  0
TEXT
  5
84E
  8
_________2
 62
     7
 10
66.5929
 20
19.410799999999998
 30
0.0
 40
3.0923400000000001
  1
日付
 41
0.5
  0
TEXT
  5
84F
  8
_________2
 62
     7
 10
29.639199999999999
 20
19.410799999999998
 30
0.0
 40
3.0923400000000001
  1
検図
 41
0.5
  0
TEXT
  5
850
  8
_________2
 62
     7
 10
18.020900000000001
 20
5.21143
 30
0.0
 40
3.0923400000000001
  1
備考
 41
0.5
  0
TEXT
  5
851
  8
_________2
 62
     7
 10
18.020900000000001
 20
19.410799999999998
 30
0.0
 40
3.0923400000000001
  1
製図
 41
0.5
  0
TEXT
  5
852
  8
_________2
 62
     7
 10
23.788265333333339
 20
27.936800000000002
 30
0.0
 40
4.4979399999999989
  1
セラトレーディング株式会社
 41
0.5
 72
     1
 11
41.180300000000003
 21
27.936800000000002
 31
0.0
  0
LINE
  5
853
  8
_________2
 62
     7
 10
183.55099999999999
 20
-4.0910799999999998
 30
0.0
 11
17.049399999999999
 21
-4.0910799999999998
 31
0.0
  0
LINE
  5
854
  8
_________2
 62
     7
 10
17.049399999999999
 20
-4.0910799999999998
 30
0.0
 11
17.049399999999999
 21
258.911
 31
0.0
  0
LINE
  5
855
  8
_________2
 62
     7
 10
17.049399999999999
 20
258.911
 30
0.0
 11
183.55099999999999
 21
258.911
 31
0.0
  0
LINE
  5
856
  8
_________2
 62
     7
 10
183.55099999999999
 20
258.911
 30
0.0
 11
183.55099999999999
 21
-4.0910799999999998
 31
0.0
  0
LINE
  5
857
  8
_________2
 62
     7
 10
65.549700000000001
 20
9.4092999999999982
 30
0.0
 11
65.549700000000001
 21
35.909100000000002
 31
0.0
  0
LINE
  5
858
  8
_________2
 62
     7
 10
84.549599999999984
 20
9.4092999999999982
 30
0.0
 11
84.549599999999984
 21
35.909100000000002
 31
0.0
  0
LINE
  5
859
  8
_________2
 62
     7
 10
103.55
 20
-4.0910799999999998
 30
0.0
 11
103.55
 21
35.909100000000002
 31
0.0
  0
LINE
  5
85A
  8
_________2
 62
     7
 10
28.549199999999999
 20
9.4092999999999982
 30
0.0
 11
28.549199999999999
 21
23.409199999999998
 31
0.0
  0
LINE
  5
85B
  8
_________2
 62
     7
 10
17.049399999999999
 20
9.4092999999999982
 30
0.0
 11
103.55
 21
9.4092999999999982
 31
0.0
  0
LINE
  5
85C
  8
_________2
 62
     7
 10
17.049399999999999
 20
23.409199999999998
 30
0.0
 11
103.55
 21
23.409199999999998
 31
0.0
  0
LINE
  5
85D
  8
_________2
 62
     7
 10
103.55
 20
15.9085
 30
0.0
 11
183.55099999999999
 21
15.9085
 31
0.0
  0
LINE
  5
85E
  8
_________2
 62
     7
 10
17.049399999999999
 20
35.909100000000002
 30
0.0
 11
183.55099999999999
 21
35.909100000000002
 31
0.0
  0
ENDSEC
  0
EOF
