  0
SECTION
  2
HEADER
  9
$ACADVER
  1
AC1009
  9
$INSBASE
 10
0.0
 20
0.0
 30
0.0
  9
$EXTMIN
 10
-4.7010300000000003
 20
-21.071000000000002
 30
0.0
  9
$EXTMAX
 10
205.30099999999999
 20
275.93099999999998
 30
0.0
  9
$LIMMIN
 10
0.0
 20
0.0
  9
$LIMMAX
 10
12.0
 20
9.0
  9
$ORTHOMODE
 70
     0
  9
$REGENMODE
 70
     1
  9
$FILLMODE
 70
     1
  9
$QTEXTMODE
 70
     0
  9
$MIRRTEXT
 70
     1
  9
$DRAGMODE
 70
     2
  9
$LTSCALE
 40
1.0
  9
$OSMODE
 70
    37
  9
$ATTMODE
 70
     1
  9
$TEXTSIZE
 40
0.0
  9
$TRACEWID
 40
0.05
  9
$TEXTSTYLE
  7
STANDARD
  9
$CLAYER
  8
0
  9
$CELTYPE
  6
CONTINUOUS
  9
$CECOLOR
 62
   256
  9
$DIMSCALE
 40
1.0
  9
$DIMASZ
 40
0.18
  9
$DIMEXO
 40
0.0625
  9
$DIMDLI
 40
0.38
  9
$DIMRND
 40
0.0
  9
$DIMDLE
 40
0.0
  9
$DIMEXE
 40
0.18
  9
$DIMTP
 40
0.0
  9
$DIMTM
 40
0.0
  9
$DIMTXT
 40
0.18
  9
$DIMCEN
 40
0.09
  9
$DIMTSZ
 40
0.0
  9
$DIMTOL
 70
     0
  9
$DIMLIM
 70
     0
  9
$DIMTIH
 70
     1
  9
$DIMTOH
 70
     1
  9
$DIMSE1
 70
     0
  9
$DIMSE2
 70
     0
  9
$DIMTAD
 70
     0
  9
$DIMZIN
 70
     0
  9
$DIMBLK
  1

  9
$DIMASO
 70
     1
  9
$DIMSHO
 70
     1
  9
$DIMPOST
  1

  9
$DIMAPOST
  1

  9
$DIMALT
 70
     0
  9
$DIMALTD
 70
     2
  9
$DIMALTF
 40
25.399999999999999
  9
$DIMLFAC
 40
1.0
  9
$DIMTOFL
 70
     0
  9
$DIMTVP
 40
0.0
  9
$DIMTIX
 70
     0
  9
$DIMSOXD
 70
     0
  9
$DIMSAH
 70
     0
  9
$DIMBLK1
  1

  9
$DIMBLK2
  1

  9
$DIMSTYLE
  2
STANDARD
  9
$DIMCLRD
 70
     0
  9
$DIMCLRE
 70
     0
  9
$DIMCLRT
 70
     0
  9
$DIMTFAC
 40
1.0
  9
$DIMGAP
 40
0.09
  9
$LUNITS
 70
     2
  9
$LUPREC
 70
     4
  9
$SKETCHINC
 40
0.1
  9
$FILLETRAD
 40
0.0
  9
$AUNITS
 70
     0
  9
$AUPREC
 70
     0
  9
$MENU
  1
.
  9
$ELEVATION
 40
0.0
  9
$PELEVATION
 40
0.0
  9
$THICKNESS
 40
0.0
  9
$LIMCHECK
 70
     0
  9
$BLIPMODE
 70
     0
  9
$CHAMFERA
 40
0.0
  9
$CHAMFERB
 40
0.0
  9
$SKPOLY
 70
     0
  9
$TDCREATE
 40
2444972.375
  9
$TDUPDATE
 40
2457367.2550169439
  9
$TDINDWG
 40
0.0000342824
  9
$TDUSRTIMER
 40
0.0000342824
  9
$USRTIMER
 70
     1
  9
$ANGBASE
 50
0.0
  9
$ANGDIR
 70
     0
  9
$PDMODE
 70
     0
  9
$PDSIZE
 40
0.0
  9
$PLINEWID
 40
0.0
  9
$COORDS
 70
     1
  9
$SPLFRAME
 70
     0
  9
$SPLINETYPE
 70
     6
  9
$SPLINESEGS
 70
     8
  9
$ATTDIA
 70
     1
  9
$ATTREQ
 70
     1
  9
$HANDLING
 70
     1
  9
$HANDSEED
  5
9BD
  9
$SURFTAB1
 70
     6
  9
$SURFTAB2
 70
     6
  9
$SURFTYPE
 70
     6
  9
$SURFU
 70
     6
  9
$SURFV
 70
     6
  9
$UCSNAME
  2

  9
$UCSORG
 10
0.0
 20
0.0
 30
0.0
  9
$UCSXDIR
 10
1.0
 20
0.0
 30
0.0
  9
$UCSYDIR
 10
0.0
 20
1.0
 30
0.0
  9
$PUCSNAME
  2

  9
$PUCSORG
 10
0.0
 20
0.0
 30
0.0
  9
$PUCSXDIR
 10
1.0
 20
0.0
 30
0.0
  9
$PUCSYDIR
 10
0.0
 20
1.0
 30
0.0
  9
$USERI1
 70
     0
  9
$USERI2
 70
     0
  9
$USERI3
 70
     0
  9
$USERI4
 70
     0
  9
$USERI5
 70
     0
  9
$USERR1
 40
0.0
  9
$USERR2
 40
0.0
  9
$USERR3
 40
0.0
  9
$USERR4
 40
0.0
  9
$USERR5
 40
0.0
  9
$WORLDVIEW
 70
     1
  9
$SHADEDGE
 70
     3
  9
$SHADEDIF
 70
    70
  9
$TILEMODE
 70
     1
  9
$MAXACTVP
 70
    48
  9
$PLIMCHECK
 70
     0
  9
$PEXTMIN
 10
1.0000000000000000E+020
 20
1.0000000000000000E+020
 30
1.0000000000000000E+020
  9
$PEXTMAX
 10
-1.0000000000000000E+020
 20
-1.0000000000000000E+020
 30
-1.0000000000000000E+020
  9
$PLIMMIN
 10
0.0
 20
0.0
  9
$PLIMMAX
 10
12.0
 20
9.0
  9
$UNITMODE
 70
     0
  9
$VISRETAIN
 70
     1
  9
$PLINEGEN
 70
     0
  9
$PSLTSCALE
 70
     1
  0
ENDSEC
  0
SECTION
  2
TABLES
  0
TABLE
  2
VPORT
 70
     1
  0
VPORT
  2
*ACTIVE
 70
     0
 10
0.0
 20
0.0
 11
1.0
 21
1.0
 12
165.7277138025147
 22
127.42999999999989
 13
0.0
 23
0.0
 14
1.0
 24
1.0
 15
0.0
 25
0.0
 16
0.0
 26
0.0
 36
1.0
 17
0.0
 27
0.0
 37
0.0
 40
283.528435666853
 41
2.1001926782273599
 42
50.0
 43
0.0
 44
0.0
 50
0.0
 51
0.0
 71
     0
 72
   100
 73
     1
 74
     1
 75
     0
 76
     0
 77
     0
 78
     0
  0
ENDTAB
  0
TABLE
  2
LTYPE
 70
     3
  0
LTYPE
  2
CONTINUOUS
 70
     0
  3
Solid line
 72
    65
 73
     0
 40
0.0
  0
LTYPE
  2
AIGENLINE001
 70
     0
  3
generate AI->DXF Converter
 72
    65
 73
     4
 40
5.8561449999999988
 49
3.5278
 49
-0.776115
 49
0.776115
 49
-0.776115
  0
LTYPE
  2
AIGENLINE002
 70
     0
  3
generate AI->DXF Converter
 72
    65
 73
     2
 40
1.5522299999999991
 49
0.776115
 49
-0.776115
  0
ENDTAB
  0
TABLE
  2
LAYER
 70
     2
  0
LAYER
  2
0
 70
     0
 62
     7
  6
CONTINUOUS
  0
LAYER
  2
_________2
 70
     0
 62
     7
  6
CONTINUOUS
  0
ENDTAB
  0
TABLE
  2
STYLE
 70
     1
  0
STYLE
  2
STANDARD
 70
     0
 40
0.0
 41
0.0
 50
0.0
 71
     0
 42
0.0
  3
TXT
  4
EXTFONT.SHX
  0
ENDTAB
  0
TABLE
  2
VIEW
 70
     0
  0
ENDTAB
  0
TABLE
  2
UCS
 70
     0
  0
ENDTAB
  0
TABLE
  2
APPID
 70
     3
  0
APPID
  2
ACAD
 70
     0
  0
APPID
  2
ACAD_NAV_VCDISPLAY
 70
     0
  0
APPID
  2
ACAD_MLEADERVER
 70
     0
  0
ENDTAB
  0
TABLE
  2
DIMSTYLE
 70
     1
  0
DIMSTYLE
  2
STANDARD
 70
     0
  3

  4

  5

  6

  7

 40
1.0
 41
0.18
 42
0.0625
 43
0.38
 44
0.18
 45
0.0
 46
0.0
 47
0.0
 48
0.0
140
0.18
141
0.09
142
0.0
143
25.399999999999999
144
1.0
145
0.0
146
1.0
147
0.09
 71
     0
 72
     0
 73
     1
 74
     1
 75
     0
 76
     0
 77
     0
 78
     0
170
     0
171
     2
172
     0
173
     0
174
     0
175
     0
176
     0
177
     0
178
     0
  0
ENDTAB
  0
ENDSEC
  0
SECTION
  2
BLOCKS
  0
BLOCK
  8
0
  2
$MODEL_SPACE
 70
     0
 10
0.0
 20
0.0
 30
0.0
  3
$MODEL_SPACE
  1

  0
ENDBLK
  5
1A
  8
0
  0
BLOCK
 67
     1
  8
0
  2
$PAPER_SPACE
 70
     0
 10
0.0
 20
0.0
 30
0.0
  3
$PAPER_SPACE
  1

  0
ENDBLK
  5
17
 67
     1
  8
0
  0
ENDSEC
  0
SECTION
  2
ENTITIES
  0
TEXT
  5
23
  8
0
 62
     7
 10
109.929
 20
75.765699999999995
 30
0.0
 40
3.0923400000000001
  1
（%%c6\U+00D730樹脂プラグ付）
 41
0.5
  0
TEXT
  5
24
  8
0
 62
     7
 10
109.929
 20
81.269599999999997
 30
0.0
 40
3.0923400000000001
  1
%%c4.5\U+00D749SUS 十字穴付皿頭タッピングネジ
 41
0.5
  0
TEXT
  5
25
  8
0
 62
     7
 10
90.284099999999995
 20
104.629
 30
0.0
 40
3.0923400000000001
  1
%%c8
 50
4.5194000000000001
 41
0.5
  0
TEXT
  5
26
  8
0
 62
     7
 10
69.236834999999999
 20
127.05500000000001
 30
0.0
 40
3.0923400000000001
  1
%%c16
 41
0.5
 72
     1
 11
71.040700000000001
 21
127.05500000000001
 31
0.0
  0
TEXT
  5
27
  8
0
 62
     7
 10
173.43199999999999
 20
114.905525
 30
0.0
 40
3.0923400000000001
  1
32
 50
90.0
 41
0.5
 72
     1
 11
173.43199999999999
 21
116.194
 31
0.0
  0
TEXT
  5
28
  8
0
 62
     7
 10
117.9379825
 20
139.03399999999999
 30
0.0
 40
3.0923400000000001
  1
102
 41
0.5
 72
     1
 11
119.613
 21
139.03399999999999
 31
0.0
  0
TEXT
  5
29
  8
0
 62
     7
 10
51.229439999999997
 20
139.03399999999999
 30
0.0
 40
3.0923400000000001
  1
%%c57
 41
0.5
 72
     1
 11
53.290999999999997
 21
139.03399999999999
 31
0.0
  0
TEXT
  5
2A
  8
0
 62
     7
 10
153.59
 20
102.406525
 30
0.0
 40
3.0923400000000001
  1
43
 50
90.0
 41
0.5
 72
     1
 11
153.59
 21
103.69499999999999
 31
0.0
  0
TEXT
  5
2B
  8
0
 62
     7
 10
52.002525000000013
 20
85.597000000000008
 30
0.0
 40
3.0923400000000001
  1
87
 41
0.5
 72
     1
 11
53.290999999999997
 21
85.597000000000008
 31
0.0
  0
LINE
  5
2C
  8
0
 62
     7
 10
109.383
 20
194.91999999999999
 30
0.0
 11
101.874
 21
203.83199999999999
 31
0.0
  0
LINE
  5
2D
  8
0
 62
     7
 10
104.748
 20
194.21199999999999
 30
0.0
 11
98.814700000000002
 21
201.255
 31
0.0
  0
ARC
  5
2E
  8
0
 62
     7
 10
98.112806000000006
 20
205.19256200000001
 30
0.0
 40
3.9999539999999998
 50
90.0
 51
179.99996999999999
  0
ARC
  5
2F
  8
0
 62
     7
 10
98.112805000000023
 20
205.19256200000001
 30
0.0
 40
3.9999530000000001
 50
179.99996999999999
 51
270.00002000000001
  0
ARC
  5
30
  8
0
 62
     7
 10
98.112719000000013
 20
205.192477
 30
0.0
 40
3.9998680000000002
 50
270.00125400000002
 51
0.001224
  0
ARC
  5
31
  8
0
 62
     7
 10
98.112719000000013
 20
205.19264799999999
 30
0.0
 40
3.9998680000000002
 50
359.99877600000002
 51
89.998745999999997
  0
LINE
  5
32
  8
0
 62
     7
 10
109.383
 20
179.965
 30
0.0
 11
101.874
 21
171.05199999999999
 31
0.0
  0
LINE
  5
33
  8
0
 62
     7
 10
104.748
 20
180.672
 30
0.0
 11
98.814700000000002
 21
173.62899999999999
 31
0.0
  0
ARC
  5
34
  8
0
 62
     7
 10
53.602150999999999
 20
116.394994
 30
0.0
 40
12.994916
 50
180.89011300000001
 51
245.79245399999999
  0
ARC
  5
35
  8
0
 62
     7
 10
53.294178000000002
 20
116.513327
 30
0.0
 40
13.001678
 50
265.35408200000001
 51
269.98358999999999
  0
ARC
  5
36
  8
0
 62
     7
 10
53.482709
 20
116.36241699999999
 30
0.0
 40
14.481767
 50
194.807873
 51
248.42096000000001
  0
ARC
  5
37
  8
0
 62
     7
 10
53.283070999999993
 20
116.215524
 30
0.0
 40
14.272784
 50
265.13910099999998
 51
270.03102100000012
  0
ARC
  5
38
  8
0
 62
     7
 10
24.917786
 20
105.463311
 30
0.0
 40
27.388399
 50
354.85250100000002
 51
0.026659
  0
ARC
  5
39
  8
0
 62
     7
 10
33.346451999999999
 20
104.79616
 30
0.0
 40
18.934090999999999
 50
348.30332800000002
 51
354.57483100000002
  0
ARC
  5
3A
  8
0
 62
     7
 10
38.972512000000002
 20
103.71037699999999
 30
0.0
 40
13.204964
 50
340.44230700000003
 51
347.96776299999999
  0
ARC
  5
3B
  8
0
 62
     7
 10
42.480614000000003
 20
102.531358
 30
0.0
 40
9.5047899999999998
 50
331.26568400000002
 51
340.06034899999997
  0
ARC
  5
3C
  8
0
 62
     7
 10
44.672375000000002
 20
101.382738
 30
0.0
 40
7.0308820000000001
 50
316.20959399999998
 51
330.88667099999998
  0
ARC
  5
3D
  8
0
 62
     7
 10
45.672612999999998
 20
100.527818
 30
0.0
 40
5.7177030000000002
 50
288.02836400000001
 51
315.45760200000001
  0
ARC
  5
3E
  8
0
 62
     7
 10
45.099409000000001
 20
102.155659
 30
0.0
 40
7.4431359999999991
 50
281.14387900000003
 51
288.34601700000002
  0
ARC
  5
3F
  8
0
 62
     7
 10
43.306835
 20
110.801069
 30
0.0
 40
16.272231000000001
 50
279.755786
 51
281.45320099999998
  0
ARC
  5
40
  8
0
 62
     7
 10
45.618840999999989
 20
97.295062999999999
 30
0.0
 40
2.5697879999999991
 50
276.82618000000002
 51
279.97886399999999
  0
ARC
  5
41
  8
0
 62
     7
 10
45.204578999999988
 20
100.599779
 30
0.0
 40
5.9003449999999988
 50
274.444819
 51
277.00617399999999
  0
ARC
  5
42
  8
0
 62
     7
 10
45.029159
 20
102.521111
 30
0.0
 40
7.8295369999999993
 50
271.02922000000001
 51
274.63502199999999
  0
ARC
  5
43
  8
0
 62
     7
 10
45.147435999999999
 20
126.536491
 30
0.0
 40
31.843661000000001
 50
269.19253300000003
 51
270.04023799999999
  0
ARC
  5
44
  8
0
 62
     7
 10
44.874479000000001
 20
104.775212
 30
0.0
 40
10.080753
 50
265.109106
 51
269.00073900000001
  0
ARC
  5
45
  8
0
 62
     7
 10
44.582777
 20
101.141818
 30
0.0
 40
6.4357470000000001
 50
250.199093
 51
264.938716
  0
ARC
  5
46
  8
0
 62
     7
 10
44.403128000000002
 20
100.430876
 30
0.0
 40
5.7064339999999989
 50
231.430519
 51
249.47810200000001
  0
ARC
  5
47
  8
0
 62
     7
 10
45.261374999999987
 20
101.57463300000001
 30
0.0
 40
7.1358929999999994
 50
219.985221
 51
231.768291
  0
ARC
  5
48
  8
0
 62
     7
 10
47.232855000000001
 20
103.32556200000001
 30
0.0
 40
9.7718759999999971
 50
210.681307
 51
220.42337699999999
  0
ARC
  5
49
  8
0
 62
     7
 10
50.718420999999999
 20
105.530917
 30
0.0
 40
13.895339999999999
 50
204.63921999999999
 51
211.168263
  0
ARC
  5
4A
  8
0
 62
     7
 10
55.381515
 20
107.77345699999999
 30
0.0
 40
19.069019000000001
 50
199.84858899999989
 51
204.92256800000001
  0
ARC
  5
4B
  8
0
 62
     7
 10
6.8983569999999999
 20
106.500298
 30
0.0
 40
41.420709000000002
 50
355.80116900000002
 51
358.583057
  0
ARC
  5
4C
  8
0
 62
     7
 10
24.630752999999999
 20
105.293215
 30
0.0
 40
23.647715999999999
 50
352.74270799999999
 51
355.57224100000008
  0
ARC
  5
4D
  8
0
 62
     7
 10
33.973053999999998
 20
104.119423
 30
0.0
 40
14.231987
 50
347.26784199999997
 51
352.67918200000003
  0
ARC
  5
4E
  8
0
 62
     7
 10
40.356760999999992
 20
102.737599
 30
0.0
 40
7.7009299999999996
 50
339.90580399999999
 51
346.82825600000001
  0
ARC
  5
4F
  8
0
 62
     7
 10
43.590072999999997
 20
101.593687
 30
0.0
 40
4.2715819999999987
 50
327.71504500000009
 51
339.41526900000002
  0
ARC
  5
50
  8
0
 62
     7
 10
45.090560000000004
 20
100.69890700000001
 30
0.0
 40
2.5255389999999989
 50
308.51877000000002
 51
326.69393600000001
  0
ARC
  5
51
  8
0
 62
     7
 10
45.268002000000003
 20
100.541201
 30
0.0
 40
2.2920029999999989
 50
288.94330200000002
 51
307.50336700000003
  0
ARC
  5
52
  8
0
 62
     7
 10
44.876939
 20
101.532579
 30
0.0
 40
3.3569839999999989
 50
286.32261599999998
 51
289.76342999999991
  0
ARC
  5
53
  8
0
 62
     7
 10
42.833589999999987
 20
108.44407200000001
 30
0.0
 40
10.564196000000001
 50
284.93335200000001
 51
286.42320899999999
  0
ARC
  5
54
  8
0
 62
     7
 10
45.19749199999999
 20
99.715843000000007
 30
0.0
 40
1.5219839999999989
 50
268.95725399999998
 51
283.62162000000001
  0
ARC
  5
55
  8
0
 62
     7
 10
45.146445
 20
103.377729
 30
0.0
 40
5.1836709999999986
 50
265.11228999999997
 51
270.25809099999998
  0
ARC
  5
56
  8
0
 62
     7
 10
44.990943000000001
 20
101.424477
 30
0.0
 40
3.224292999999999
 50
254.046449
 51
264.9081569999999
  0
ARC
  5
57
  8
0
 62
     7
 10
44.773247999999988
 20
100.564898
 30
0.0
 40
2.3381419999999991
 50
226.39936499999999
 51
253.385988
  0
ARC
  5
58
  8
0
 62
     7
 10
45.415579999999999
 20
101.26421499999999
 30
0.0
 40
3.2875769999999989
 50
215.66671500000001
 51
226.69763699999999
  0
ARC
  5
59
  8
0
 62
     7
 10
47.034213999999992
 20
102.485084
 30
0.0
 40
5.3146599999999991
 50
209.83358200000001
 51
216.185113
  0
ARC
  5
5A
  8
0
 62
     7
 10
49.898831000000001
 20
104.17236699999999
 30
0.0
 40
8.6391200000000001
 50
205.55550099999999
 51
210.08944399999999
  0
ARC
  5
5B
  8
0
 62
     7
 10
55.422913999999992
 20
106.86958199999999
 30
0.0
 40
14.786394
 50
202.395793
 51
205.75054600000001
  0
ARC
  5
5C
  8
0
 62
     7
 10
69.292562000000004
 20
112.661682
 30
0.0
 40
29.816799
 50
199.58228500000001
 51
202.53195600000001
  0
LINE
  5
5D
  8
0
 62
     7
 10
48.306399999999989
 20
110.694
 30
0.0
 11
48.306399999999989
 21
105.476
 31
0.0
  0
LINE
  5
5E
  8
0
 62
     7
 10
52.306199999999997
 20
105.476
 30
0.0
 11
52.306199999999997
 21
108.864
 31
0.0
  0
ARC
  5
5F
  8
0
 62
     7
 10
85.656510999999995
 20
119.341622
 30
0.0
 40
47.480020000000003
 50
198.83658
 51
200.558628
  0
ARC
  5
60
  8
0
 62
     7
 10
114.772672
 20
129.39923999999999
 30
0.0
 40
78.284207999999992
 50
197.40017700000001
 51
198.92311900000001
  0
ARC
  5
61
  8
0
 62
     7
 10
156.424622
 20
142.59018800000001
 30
0.0
 40
121.97488199999999
 50
196.216858
 51
197.461986
  0
ARC
  5
62
  8
0
 62
     7
 10
199.44497100000001
 20
155.24544499999999
 30
0.0
 40
166.81785400000001
 50
195.44276099999999
 51
196.26401200000001
  0
ARC
  5
63
  8
0
 62
     7
 10
184.03859700000001
 20
150.08382599999999
 30
0.0
 40
154.55749
 50
195.26604399999999
 51
196.691045
  0
ARC
  5
64
  8
0
 62
     7
 10
126.14919399999999
 20
132.83480900000001
 30
0.0
 40
94.153071999999995
 50
196.754437
 51
198.78886600000001
  0
ARC
  5
65
  8
0
 62
     7
 10
88.568494999999999
 20
120.217236
 30
0.0
 40
54.511319
 50
198.95581899999999
 51
200.307264
  0
ARC
  5
66
  8
0
 62
     7
 10
35.621884000000001
 20
113.43266800000001
 30
0.0
 40
4.1023469999999991
 50
195.74051600000001
 51
260.43982099999999
  0
ARC
  5
67
  8
0
 62
     7
 10
35.540984999999999
 20
113.34274499999999
 30
0.0
 40
4.0006079999999997
 50
104.828132
 51
194.815224
  0
ARC
  5
68
  8
0
 62
     7
 10
35.540004000000003
 20
113.342268
 30
0.0
 40
4.000818999999999
 50
14.833544
 51
104.812809
  0
ARC
  5
69
  8
0
 62
     7
 10
35.468553999999997
 20
113.358272
 30
0.0
 40
4.0659309999999991
 50
321.48471799999999
 51
14.357758
  0
ARC
  5
6A
  8
0
 62
     7
 10
33.942309999999999
 20
117.253777
 30
0.0
 40
7.929543999999999
 50
277.23084899999998
 51
293.28316699999999
  0
ARC
  5
6B
  8
0
 62
     7
 10
33.437241999999998
 20
118.648888
 30
0.0
 40
9.4110880000000012
 50
292.75034399999998
 51
303.27576800000003
  0
ARC
  5
6C
  8
0
 62
     7
 10
35.447971000000003
 20
109.87029800000001
 30
0.0
 40
0.67614
 50
228.50375399999999
 51
229.124425
  0
ARC
  5
6D
  8
0
 62
     7
 10
35.028022
 20
109.40016199999999
 30
0.0
 40
0.046884
 50
241.27948699999999
 51
268.93217499999997
  0
ARC
  5
6E
  8
0
 62
     7
 10
35.044260999999999
 20
109.660771
 30
0.0
 40
0.30796
 50
266.81438900000001
 51
277.88141999999999
  0
ARC
  5
6F
  8
0
 62
     7
 10
34.848976
 20
111.21039500000001
 30
0.0
 40
1.8698220000000001
 50
277.29772300000002
 51
282.97727300000003
  0
ARC
  5
70
  8
0
 62
     7
 10
34.094917000000002
 20
114.99211699999999
 30
0.0
 40
5.7254350000000001
 50
281.83196400000008
 51
286.32584900000001
  0
ARC
  5
71
  8
0
 62
     7
 10
32.363364000000011
 20
120.854634
 30
0.0
 40
11.838312999999999
 50
286.39255800000001
 51
289.23265300000003
  0
ARC
  5
72
  8
0
 62
     7
 10
30.939
 20
125.074715
 30
0.0
 40
16.292121999999999
 50
289.073533
 51
291.38952399999999
  0
ARC
  5
73
  8
0
 62
     7
 10
30.556844000000002
 20
126.13281499999999
 30
0.0
 40
17.416743
 50
291.29063100000002
 51
293.45824699999997
  0
ARC
  5
74
  8
0
 62
     7
 10
36.806610999999997
 20
111.73307699999999
 30
0.0
 40
1.719225999999999
 50
293.42589099999998
 51
297.15312299999999
  0
ARC
  5
75
  8
0
 62
     7
 10
35.845927000000003
 20
113.60726
 30
0.0
 40
3.825283999999999
 50
297.14542299999999
 51
300.28591299999999
  0
ARC
  5
76
  8
0
 62
     7
 10
-222.98373000000001
 20
574.03945099999987
 30
0.0
 40
532.02036999999996
 50
299.34909099999999
 51
299.38290799999999
  0
ARC
  5
77
  8
0
 62
     7
 10
35.310250000000003
 20
115.964079
 30
0.0
 40
6.1494540000000004
 50
296.44393800000012
 51
300.59299700000003
  0
ARC
  5
78
  8
0
 62
     7
 10
36.92051
 20
113.239572
 30
0.0
 40
2.9846680000000001
 50
300.60223999999999
 51
303.45734299999998
  0
ARC
  5
79
  8
0
 62
     7
 10
38.315848000000003
 20
111.139284
 30
0.0
 40
0.463174
 50
302.68998099999999
 51
313.67099899999999
  0
ARC
  5
7A
  8
0
 62
     7
 10
38.607302000000011
 20
110.83819
 30
0.0
 40
0.044229
 50
309.90601099999998
 51
344.43436500000001
  0
ARC
  5
7B
  8
0
 62
     7
 10
38.640896000000012
 20
110.829058
 30
0.0
 40
0.009419
 50
343.11040800000001
 51
12.798776
  0
ARC
  5
7C
  8
0
 62
     7
 10
53.291142999999998
 20
116.193123
 30
0.0
 40
12.681651
 50
90.0
 51
179.99996999999999
  0
ARC
  5
7D
  8
0
 62
     7
 10
53.291139000000001
 20
116.193123
 30
0.0
 40
12.681651
 50
0.00001
 51
89.999980000000008
  0
ARC
  5
7E
  8
0
 62
     7
 10
52.979434999999988
 20
116.394998
 30
0.0
 40
12.994923
 50
294.207584
 51
359.10988900000001
  0
ARC
  5
7F
  8
0
 62
     7
 10
53.287415000000003
 20
116.513327
 30
0.0
 40
13.001678
 50
270.0164299999999
 51
274.645937
  0
ARC
  5
80
  8
0
 62
     7
 10
53.098883999999998
 20
116.36241699999999
 30
0.0
 40
14.481767
 50
291.57906000000003
 51
345.19214699999998
  0
ARC
  5
81
  8
0
 62
     7
 10
53.298521999999998
 20
116.215524
 30
0.0
 40
14.272784
 50
269.968999
 51
274.86091900000002
  0
ARC
  5
82
  8
0
 62
     7
 10
98.112891000000005
 20
169.69192000000001
 30
0.0
 40
4.0000390000000001
 50
179.99873700000001
 51
269.998786
  0
ARC
  5
83
  8
0
 62
     7
 10
98.112892000000002
 20
169.692092
 30
0.0
 40
4.0000400000000003
 50
90.001234000000011
 51
180.00124400000001
  0
ARC
  5
84
  8
0
 62
     7
 10
98.112633000000002
 20
169.69217900000001
 30
0.0
 40
3.9999539999999998
 50
359.99754300000001
 51
89.997512999999984
  0
ARC
  5
85
  8
0
 62
     7
 10
98.112633000000002
 20
169.691835
 30
0.0
 40
3.9999539999999998
 50
270.00248699999997
 51
0.002457
  0
ARC
  5
86
  8
0
 62
     7
 10
81.663596999999996
 20
105.463302
 30
0.0
 40
27.388189000000001
 50
179.97330199999999
 51
185.14753899999999
  0
ARC
  5
87
  8
0
 62
     7
 10
73.235140999999999
 20
104.79616
 30
0.0
 40
18.934090999999999
 50
185.42518899999999
 51
191.69669200000001
  0
ARC
  5
88
  8
0
 62
     7
 10
67.609081000000003
 20
103.71037699999999
 30
0.0
 40
13.204964
 50
192.03225699999999
 51
199.55771300000001
  0
ARC
  5
89
  8
0
 62
     7
 10
64.100979000000009
 20
102.531358
 30
0.0
 40
9.5047899999999998
 50
199.939671
 51
208.73433600000001
  0
ARC
  5
8A
  8
0
 62
     7
 10
61.909218000000003
 20
101.382738
 30
0.0
 40
7.0308820000000001
 50
209.113348
 51
223.790426
  0
ARC
  5
8B
  8
0
 62
     7
 10
60.908980000000007
 20
100.527818
 30
0.0
 40
5.7177030000000002
 50
224.542418
 51
251.971655
  0
ARC
  5
8C
  8
0
 62
     7
 10
61.482183999999997
 20
102.155659
 30
0.0
 40
7.4431359999999991
 50
251.65400299999999
 51
258.85614099999998
  0
ARC
  5
8D
  8
0
 62
     7
 10
63.274757999999999
 20
110.801069
 30
0.0
 40
16.272231000000001
 50
258.54681900000003
 51
260.24423400000001
  0
ARC
  5
8E
  8
0
 62
     7
 10
60.962752000000002
 20
97.295062999999999
 30
0.0
 40
2.5697879999999991
 50
260.02115600000002
 51
263.17383999999998
  0
ARC
  5
8F
  8
0
 62
     7
 10
61.377014000000003
 20
100.599779
 30
0.0
 40
5.9003449999999988
 50
262.99384600000002
 51
265.55520100000001
  0
ARC
  5
90
  8
0
 62
     7
 10
61.552433999999991
 20
102.521111
 30
0.0
 40
7.8295369999999993
 50
265.36499800000001
 51
268.9708
  0
ARC
  5
91
  8
0
 62
     7
 10
61.434158999999987
 20
126.536089
 30
0.0
 40
31.84325900000001
 50
269.95977699999997
 51
270.80749200000002
  0
ARC
  5
92
  8
0
 62
     7
 10
61.707113999999997
 20
104.775212
 30
0.0
 40
10.080753
 50
270.99928
 51
274.89091400000001
  0
ARC
  5
93
  8
0
 62
     7
 10
61.998816000000012
 20
101.141818
 30
0.0
 40
6.4357470000000001
 50
275.06130400000001
 51
289.800926
  0
ARC
  5
94
  8
0
 62
     7
 10
62.178465000000003
 20
100.430876
 30
0.0
 40
5.7064339999999989
 50
290.52191800000003
 51
308.569501
  0
ARC
  5
95
  8
0
 62
     7
 10
61.260415999999999
 20
101.64830600000001
 30
0.0
 40
7.2307729999999992
 50
308.242684
 51
321.486357
  0
ARC
  5
96
  8
0
 62
     7
 10
58.900424999999991
 20
103.652799
 30
0.0
 40
10.326044
 50
320.937771
 51
330.39604500000002
  0
ARC
  5
97
  8
0
 62
     7
 10
54.711058000000001
 20
106.15807599999999
 30
0.0
 40
15.206535000000001
 50
329.986535
 51
337.8012930000001
  0
ARC
  5
98
  8
0
 62
     7
 10
49.304732999999999
 20
108.52748099999999
 30
0.0
 40
21.107887999999999
 50
337.39096400000011
 51
339.97311300000013
  0
ARC
  5
99
  8
0
 62
     7
 10
99.683235999999994
 20
106.500298
 30
0.0
 40
41.420709000000002
 50
181.41696300000001
 51
184.19885099999999
  0
ARC
  5
9A
  8
0
 62
     7
 10
81.950839999999985
 20
105.293215
 30
0.0
 40
23.647715999999999
 50
184.42777799999999
 51
187.25731200000001
  0
ARC
  5
9B
  8
0
 62
     7
 10
72.608538999999993
 20
104.119423
 30
0.0
 40
14.231987
 50
187.32083800000001
 51
192.732178
  0
ARC
  5
9C
  8
0
 62
     7
 10
66.224831000000009
 20
102.737599
 30
0.0
 40
7.7009299999999996
 50
193.171764
 51
200.09421599999999
  0
ARC
  5
9D
  8
0
 62
     7
 10
62.991519999999987
 20
101.593687
 30
0.0
 40
4.2715819999999987
 50
200.58475100000001
 51
212.284975
  0
ARC
  5
9E
  8
0
 62
     7
 10
61.491033000000002
 20
100.69890700000001
 30
0.0
 40
2.5255389999999989
 50
213.306084
 51
231.48124999999999
  0
ARC
  5
9F
  8
0
 62
     7
 10
61.313591000000002
 20
100.541201
 30
0.0
 40
2.2920029999999989
 50
232.49665300000001
 51
251.05671799999999
  0
ARC
  5
A0
  8
0
 62
     7
 10
61.704654000000012
 20
101.532579
 30
0.0
 40
3.3569839999999989
 50
250.23659000000001
 51
253.677404
  0
ARC
  5
A1
  8
0
 62
     7
 10
63.748002999999997
 20
108.44407200000001
 30
0.0
 40
10.564196000000001
 50
253.57681099999999
 51
255.06666799999999
  0
ARC
  5
A2
  8
0
 62
     7
 10
61.384101000000001
 20
99.715843000000007
 30
0.0
 40
1.5219839999999989
 50
256.3784
 51
271.04276599999997
  0
ARC
  5
A3
  8
0
 62
     7
 10
61.435147999999998
 20
103.377729
 30
0.0
 40
5.1836709999999986
 50
269.74192799999997
 51
274.88772999999998
  0
ARC
  5
A4
  8
0
 62
     7
 10
61.590649999999997
 20
101.424477
 30
0.0
 40
3.224292999999999
 50
275.09186200000011
 51
285.95357100000001
  0
ARC
  5
A5
  8
0
 62
     7
 10
61.808344999999989
 20
100.564898
 30
0.0
 40
2.3381419999999991
 50
286.61403100000001
 51
313.60065500000002
  0
ARC
  5
A6
  8
0
 62
     7
 10
61.166013
 20
101.26421499999999
 30
0.0
 40
3.2875769999999989
 50
313.30238300000002
 51
324.333305
  0
ARC
  5
A7
  8
0
 62
     7
 10
59.54656700000001
 20
102.48566099999999
 30
0.0
 40
5.3156549999999996
 50
323.81504699999999
 51
330.16541899999999
  0
ARC
  5
A8
  8
0
 62
     7
 10
56.677157999999991
 20
104.175258
 30
0.0
 40
8.6454229999999992
 50
329.91263700000002
 51
334.44325600000002
  0
ARC
  5
A9
  8
0
 62
     7
 10
51.155329999999999
 20
106.871172
 30
0.0
 40
14.790101999999999
 50
334.24956500000002
 51
337.60348599999998
  0
ARC
  5
AA
  8
0
 62
     7
 10
37.270782000000011
 20
112.668605
 30
0.0
 40
29.836313000000001
 50
337.46921800000001
 51
340.41695499999997
  0
LINE
  5
AB
  8
0
 62
     7
 10
58.275199999999991
 20
110.694
 30
0.0
 11
58.275199999999991
 21
105.476
 31
0.0
  0
LINE
  5
AC
  8
0
 62
     7
 10
54.275399999999998
 20
105.476
 30
0.0
 11
54.275399999999998
 21
108.864
 31
0.0
  0
ARC
  5
AE
  8
0
 62
     7
 10
20.925080999999999
 20
119.341622
 30
0.0
 40
47.480020000000003
 50
339.44139200000001
 51
341.1634390000001
  0
ARC
  5
AF
  8
0
 62
     7
 10
-8.1910790000000002
 20
129.39923999999999
 30
0.0
 40
78.284207999999992
 50
341.07690100000002
 51
342.59984300000002
  0
ARC
  5
B0
  8
0
 62
     7
 10
-49.728758999999997
 20
142.55560199999999
 30
0.0
 40
121.85549899999999
 50
342.53742399999999
 51
343.783771
  0
ARC
  5
B1
  8
0
 62
     7
 10
-92.863377999999997
 20
155.24544499999999
 30
0.0
 40
166.81785400000001
 50
343.73600800000003
 51
344.5572590000001
  0
ARC
  5
B2
  8
0
 62
     7
 10
-77.457003999999998
 20
150.08382599999999
 30
0.0
 40
154.55749
 50
343.30897499999998
 51
344.73397599999998
  0
ARC
  5
B3
  8
0
 62
     7
 10
-19.567601
 20
132.83480900000001
 30
0.0
 40
94.153071999999995
 50
341.21115400000002
 51
343.2455819999999
  0
ARC
  5
B4
  8
0
 62
     7
 10
18.087893000000001
 20
120.190557
 30
0.0
 40
54.431913999999992
 50
339.69177000000002
 51
341.045187
  0
ARC
  5
B5
  8
0
 62
     7
 10
112.597099
 20
187.45054200000001
 30
0.0
 40
11.484287999999999
 50
180.04121699999999
 51
204.09302299999999
  0
ARC
  5
B6
  8
0
 62
     7
 10
112.597099
 20
187.43402699999999
 30
0.0
 40
11.484287999999999
 50
155.90697700000001
 51
179.95878300000001
  0
LINE
  5
B7
  8
0
 62
     7
 10
105.113
 20
194.06299999999999
 30
0.0
 11
105.113
 21
180.82400000000001
 31
0.0
  0
LINE
  5
B8
  8
0
 62
     7
 10
104.175
 20
180.673
 30
0.0
 11
104.96299999999999
 21
180.673
 31
0.0
  0
LINE
  5
B9
  8
0
 62
     7
 10
104.96299999999999
 20
194.21299999999999
 30
0.0
 11
104.175
 21
194.21299999999999
 31
0.0
  0
LINE
  5
BA
  8
0
 62
     7
 10
104.175
 20
194.21299999999999
 30
0.0
 11
104.96299999999999
 21
194.21299999999999
 31
0.0
  0
LINE
  5
BB
  8
0
 62
     7
 10
104.175
 20
180.691
 30
0.0
 11
104.96299999999999
 21
180.691
 31
0.0
  0
LINE
  5
BC
  8
0
 62
     7
 10
104.96299999999999
 20
180.67500000000001
 30
0.0
 11
104.175
 21
180.67500000000001
 31
0.0
  0
LINE
  5
BD
  8
0
 62
     7
 10
104.175
 20
194.20599999999999
 30
0.0
 11
104.96299999999999
 21
194.20599999999999
 31
0.0
  0
LINE
  5
BE
  8
0
 62
     7
 10
104.96299999999999
 20
194.19200000000001
 30
0.0
 11
104.175
 21
194.19200000000001
 31
0.0
  0
LINE
  5
BF
  8
0
 62
     7
 10
105.113
 20
180.82400000000001
 30
0.0
 11
104.998
 21
180.7109999999999
 31
0.0
  0
LINE
  5
C0
  8
0
 62
     7
 10
104.998
 20
180.72399999999999
 30
0.0
 11
105.113
 21
180.846
 31
0.0
  0
LINE
  5
C1
  8
0
 62
     7
 10
104.175
 20
194.19200000000001
 30
0.0
 11
104.96299999999999
 21
194.19200000000001
 31
0.0
  0
LINE
  5
C2
  8
0
 62
     7
 10
104.175
 20
180.74600000000001
 30
0.0
 11
104.96299999999999
 21
180.74600000000001
 31
0.0
  0
LINE
  5
C3
  8
0
 62
     7
 10
104.96299999999999
 20
180.70699999999999
 30
0.0
 11
104.175
 21
180.70699999999999
 31
0.0
  0
LINE
  5
C4
  8
0
 62
     7
 10
104.175
 20
194.16800000000001
 30
0.0
 11
104.96299999999999
 21
194.16800000000001
 31
0.0
  0
LINE
  5
C5
  8
0
 62
     7
 10
104.96299999999999
 20
194.13499999999999
 30
0.0
 11
104.175
 21
194.13499999999999
 31
0.0
  0
LINE
  5
C6
  8
0
 62
     7
 10
105.113
 20
180.84899999999999
 30
0.0
 11
104.998
 21
180.74600000000001
 31
0.0
  0
LINE
  5
C7
  8
0
 62
     7
 10
104.998
 20
180.77600000000001
 30
0.0
 11
105.113
 21
180.90700000000001
 31
0.0
  0
LINE
  5
C8
  8
0
 62
     7
 10
104.164
 20
180.77600000000001
 30
0.0
 11
104.998
 21
180.77600000000001
 31
0.0
  0
LINE
  5
C9
  8
0
 62
     7
 10
104.175
 20
194.13399999999999
 30
0.0
 11
104.96299999999999
 21
194.13399999999999
 31
0.0
  0
LINE
  5
CA
  8
0
 62
     7
 10
104.175
 20
180.83699999999999
 30
0.0
 11
104.96299999999999
 21
180.83699999999999
 31
0.0
  0
LINE
  5
CB
  8
0
 62
     7
 10
104.96299999999999
 20
180.77699999999999
 30
0.0
 11
104.175
 21
180.77699999999999
 31
0.0
  0
LINE
  5
CC
  8
0
 62
     7
 10
104.175
 20
194.09200000000001
 30
0.0
 11
104.96299999999999
 21
194.09200000000001
 31
0.0
  0
LINE
  5
CD
  8
0
 62
     7
 10
104.96299999999999
 20
194.03999999999999
 30
0.0
 11
104.175
 21
194.03999999999999
 31
0.0
  0
LINE
  5
CE
  8
0
 62
     7
 10
105.113
 20
180.91200000000001
 30
0.0
 11
104.998
 21
180.81700000000001
 31
0.0
  0
LINE
  5
CF
  8
0
 62
     7
 10
104.96299999999999
 20
180.83699999999999
 30
0.0
 11
104.96299999999999
 21
180.77699999999999
 31
0.0
  0
LINE
  5
D0
  8
0
 62
     7
 10
104.998
 20
180.86600000000001
 30
0.0
 11
105.113
 21
181.00299999999999
 31
0.0
  0
LINE
  5
D1
  8
0
 62
     7
 10
104.164
 20
180.86600000000001
 30
0.0
 11
104.998
 21
180.86600000000001
 31
0.0
  0
LINE
  5
D2
  8
0
 62
     7
 10
104.175
 20
194.03999999999999
 30
0.0
 11
104.96299999999999
 21
194.03999999999999
 31
0.0
  0
LINE
  5
D3
  8
0
 62
     7
 10
104.175
 20
180.965
 30
0.0
 11
104.96299999999999
 21
180.965
 31
0.0
  0
LINE
  5
D4
  8
0
 62
     7
 10
104.96299999999999
 20
180.88300000000001
 30
0.0
 11
104.175
 21
180.88300000000001
 31
0.0
  0
LINE
  5
D5
  8
0
 62
     7
 10
104.175
 20
193.98099999999999
 30
0.0
 11
104.96299999999999
 21
193.98099999999999
 31
0.0
  0
LINE
  5
D6
  8
0
 62
     7
 10
104.96299999999999
 20
193.91099999999989
 30
0.0
 11
104.175
 21
193.91099999999989
 31
0.0
  0
LINE
  5
D7
  8
0
 62
     7
 10
105.113
 20
181.00899999999999
 30
0.0
 11
104.998
 21
180.923
 31
0.0
  0
LINE
  5
D8
  8
0
 62
     7
 10
104.96299999999999
 20
180.965
 30
0.0
 11
104.96299999999999
 21
180.88300000000001
 31
0.0
  0
LINE
  5
D9
  8
0
 62
     7
 10
104.998
 20
180.99100000000001
 30
0.0
 11
105.113
 21
181.13499999999999
 31
0.0
  0
LINE
  5
DA
  8
0
 62
     7
 10
104.164
 20
180.99100000000001
 30
0.0
 11
104.998
 21
180.99100000000001
 31
0.0
  0
LINE
  5
DB
  8
0
 62
     7
 10
104.173
 20
193.91
 30
0.0
 11
104.965
 21
193.91
 31
0.0
  0
LINE
  5
DC
  8
0
 62
     7
 10
104.175
 20
181.12899999999999
 30
0.0
 11
104.96299999999999
 21
181.12899999999999
 31
0.0
  0
LINE
  5
DD
  8
0
 62
     7
 10
104.96299999999999
 20
181.02500000000001
 30
0.0
 11
104.175
 21
181.02500000000001
 31
0.0
  0
LINE
  5
DE
  8
0
 62
     7
 10
104.175
 20
193.83199999999999
 30
0.0
 11
104.96299999999999
 21
193.83199999999999
 31
0.0
  0
LINE
  5
DF
  8
0
 62
     7
 10
104.96299999999999
 20
193.74600000000001
 30
0.0
 11
104.175
 21
193.74600000000001
 31
0.0
  0
LINE
  5
E0
  8
0
 62
     7
 10
105.113
 20
181.13999999999999
 30
0.0
 11
104.998
 21
181.06700000000001
 31
0.0
  0
LINE
  5
E1
  8
0
 62
     7
 10
104.96299999999999
 20
181.12899999999999
 30
0.0
 11
104.96299999999999
 21
181.02500000000001
 31
0.0
  0
LINE
  5
E2
  8
0
 62
     7
 10
104.998
 20
181.15100000000001
 30
0.0
 11
105.113
 21
181.30099999999999
 31
0.0
  0
LINE
  5
E3
  8
0
 62
     7
 10
104.164
 20
181.15100000000001
 30
0.0
 11
104.998
 21
181.15100000000001
 31
0.0
  0
LINE
  5
E4
  8
0
 62
     7
 10
104.173
 20
193.745
 30
0.0
 11
104.965
 21
193.745
 31
0.0
  0
LINE
  5
E5
  8
0
 62
     7
 10
104.175
 20
181.327
 30
0.0
 11
104.96299999999999
 21
181.327
 31
0.0
  0
LINE
  5
E6
  8
0
 62
     7
 10
104.96299999999999
 20
181.202
 30
0.0
 11
104.175
 21
181.202
 31
0.0
  0
LINE
  5
E7
  8
0
 62
     7
 10
104.175
 20
193.65199999999999
 30
0.0
 11
104.96299999999999
 21
193.65199999999999
 31
0.0
  0
LINE
  5
E8
  8
0
 62
     7
 10
104.96299999999999
 20
193.54599999999999
 30
0.0
 11
104.175
 21
193.54599999999999
 31
0.0
  0
LINE
  5
E9
  8
0
 62
     7
 10
104.164
 20
181.346
 30
0.0
 11
104.998
 21
181.346
 31
0.0
  0
LINE
  5
EA
  8
0
 62
     7
 10
104.998
 20
181.346
 30
0.0
 11
105.113
 21
181.5
 31
0.0
  0
LINE
  5
EB
  8
0
 62
     7
 10
105.113
 20
181.309
 30
0.0
 11
104.998
 21
181.245
 31
0.0
  0
LINE
  5
EC
  8
0
 62
     7
 10
104.96299999999999
 20
181.327
 30
0.0
 11
104.96299999999999
 21
181.202
 31
0.0
  0
LINE
  5
ED
  8
0
 62
     7
 10
104.173
 20
193.54499999999999
 30
0.0
 11
104.965
 21
193.54499999999999
 31
0.0
  0
LINE
  5
EE
  8
0
 62
     7
 10
104.175
 20
181.55799999999999
 30
0.0
 11
104.96299999999999
 21
181.55799999999999
 31
0.0
  0
LINE
  5
EF
  8
0
 62
     7
 10
104.96299999999999
 20
181.41399999999999
 30
0.0
 11
104.175
 21
181.41399999999999
 31
0.0
  0
LINE
  5
F0
  8
0
 62
     7
 10
104.164
 20
181.57400000000001
 30
0.0
 11
104.996
 21
181.57400000000001
 31
0.0
  0
LINE
  5
F1
  8
0
 62
     7
 10
104.996
 20
181.57400000000001
 30
0.0
 11
105.113
 21
181.733
 31
0.0
  0
LINE
  5
F2
  8
0
 62
     7
 10
105.113
 20
181.50999999999999
 30
0.0
 11
104.998
 21
181.45699999999999
 31
0.0
  0
LINE
  5
F3
  8
0
 62
     7
 10
104.96299999999999
 20
181.55799999999999
 30
0.0
 11
104.96299999999999
 21
181.41399999999999
 31
0.0
  0
LINE
  5
F4
  8
0
 62
     7
 10
104.175
 20
193.435
 30
0.0
 11
104.96299999999999
 21
193.435
 31
0.0
  0
LINE
  5
F5
  8
0
 62
     7
 10
104.96299999999999
 20
193.31299999999999
 30
0.0
 11
104.175
 21
193.31299999999999
 31
0.0
  0
LINE
  5
F6
  8
0
 62
     7
 10
104.173
 20
193.31299999999999
 30
0.0
 11
104.967
 21
193.31299999999999
 31
0.0
  0
LINE
  5
F7
  8
0
 62
     7
 10
104.164
 20
181.834
 30
0.0
 11
104.996
 21
181.834
 31
0.0
  0
LINE
  5
F8
  8
0
 62
     7
 10
104.996
 20
181.834
 30
0.0
 11
105.113
 21
181.99700000000001
 31
0.0
  0
LINE
  5
F9
  8
0
 62
     7
 10
105.113
 20
181.74299999999999
 30
0.0
 11
104.996
 21
181.70099999999999
 31
0.0
  0
LINE
  5
FA
  8
0
 62
     7
 10
104.175
 20
181.822
 30
0.0
 11
104.96299999999999
 21
181.822
 31
0.0
  0
LINE
  5
FB
  8
0
 62
     7
 10
104.96299999999999
 20
181.822
 30
0.0
 11
104.96299999999999
 21
181.66
 31
0.0
  0
LINE
  5
FC
  8
0
 62
     7
 10
104.96299999999999
 20
181.66
 30
0.0
 11
104.175
 21
181.66
 31
0.0
  0
LINE
  5
FD
  8
0
 62
     7
 10
104.175
 20
193.18700000000001
 30
0.0
 11
104.96299999999999
 21
193.18700000000001
 31
0.0
  0
LINE
  5
FE
  8
0
 62
     7
 10
104.96299999999999
 20
193.04900000000001
 30
0.0
 11
104.175
 21
193.04900000000001
 31
0.0
  0
LINE
  5
FF
  8
0
 62
     7
 10
104.173
 20
193.048
 30
0.0
 11
104.967
 21
193.048
 31
0.0
  0
LINE
  5
100
  8
0
 62
     7
 10
104.175
 20
182.11699999999999
 30
0.0
 11
104.96299999999999
 21
182.11699999999999
 31
0.0
  0
LINE
  5
101
  8
0
 62
     7
 10
104.96299999999999
 20
181.93599999999989
 30
0.0
 11
104.175
 21
181.93599999999989
 31
0.0
  0
LINE
  5
102
  8
0
 62
     7
 10
105.113
 20
182.00700000000001
 30
0.0
 11
104.996
 21
181.977
 31
0.0
  0
LINE
  5
103
  8
0
 62
     7
 10
104.96299999999999
 20
182.11699999999999
 30
0.0
 11
104.96299999999999
 21
181.93599999999989
 31
0.0
  0
LINE
  5
104
  8
0
 62
     7
 10
104.996
 20
182.126
 30
0.0
 11
105.113
 21
182.291
 31
0.0
  0
LINE
  5
105
  8
0
 62
     7
 10
104.164
 20
182.126
 30
0.0
 11
104.996
 21
182.126
 31
0.0
  0
LINE
  5
106
  8
0
 62
     7
 10
104.175
 20
192.90799999999999
 30
0.0
 11
104.96299999999999
 21
192.90799999999999
 31
0.0
  0
LINE
  5
107
  8
0
 62
     7
 10
104.96299999999999
 20
192.75299999999999
 30
0.0
 11
104.175
 21
192.75299999999999
 31
0.0
  0
LINE
  5
108
  8
0
 62
     7
 10
104.173
 20
192.75200000000001
 30
0.0
 11
104.967
 21
192.75200000000001
 31
0.0
  0
LINE
  5
109
  8
0
 62
     7
 10
104.164
 20
182.446
 30
0.0
 11
104.994
 21
182.446
 31
0.0
  0
LINE
  5
10A
  8
0
 62
     7
 10
104.994
 20
182.446
 30
0.0
 11
105.113
 21
182.614
 31
0.0
  0
LINE
  5
10B
  8
0
 62
     7
 10
105.113
 20
182.30099999999999
 30
0.0
 11
104.994
 21
182.28299999999999
 31
0.0
  0
LINE
  5
10C
  8
0
 62
     7
 10
104.175
 20
182.44
 30
0.0
 11
104.96299999999999
 21
182.44
 31
0.0
  0
LINE
  5
10D
  8
0
 62
     7
 10
104.96299999999999
 20
182.44
 30
0.0
 11
104.96299999999999
 21
182.24299999999999
 31
0.0
  0
LINE
  5
10E
  8
0
 62
     7
 10
104.96299999999999
 20
182.24299999999999
 30
0.0
 11
104.175
 21
182.24299999999999
 31
0.0
  0
LINE
  5
10F
  8
0
 62
     7
 10
104.175
 20
192.59999999999999
 30
0.0
 11
104.96299999999999
 21
192.59999999999999
 31
0.0
  0
LINE
  5
110
  8
0
 62
     7
 10
104.96299999999999
 20
192.429
 30
0.0
 11
104.175
 21
192.429
 31
0.0
  0
LINE
  5
111
  8
0
 62
     7
 10
104.173
 20
192.428
 30
0.0
 11
104.968
 21
192.428
 31
0.0
  0
LINE
  5
112
  8
0
 62
     7
 10
104.164
 20
182.79499999999999
 30
0.0
 11
104.994
 21
182.79499999999999
 31
0.0
  0
LINE
  5
113
  8
0
 62
     7
 10
104.994
 20
182.79499999999999
 30
0.0
 11
105.113
 21
182.96199999999999
 31
0.0
  0
LINE
  5
114
  8
0
 62
     7
 10
105.113
 20
182.62299999999999
 30
0.0
 11
104.994
 21
182.61799999999999
 31
0.0
  0
LINE
  5
115
  8
0
 62
     7
 10
104.175
 20
182.78999999999991
 30
0.0
 11
104.96299999999999
 21
182.78999999999991
 31
0.0
  0
LINE
  5
116
  8
0
 62
     7
 10
104.96299999999999
 20
182.78999999999991
 30
0.0
 11
104.96299999999999
 21
182.578
 31
0.0
  0
LINE
  5
117
  8
0
 62
     7
 10
104.96299999999999
 20
182.578
 30
0.0
 11
104.175
 21
182.578
 31
0.0
  0
LINE
  5
118
  8
0
 62
     7
 10
104.175
 20
192.262
 30
0.0
 11
104.96299999999999
 21
192.262
 31
0.0
  0
LINE
  5
119
  8
0
 62
     7
 10
104.96299999999999
 20
192.077
 30
0.0
 11
104.175
 21
192.077
 31
0.0
  0
LINE
  5
11A
  8
0
 62
     7
 10
104.173
 20
192.07599999999999
 30
0.0
 11
104.968
 21
192.07599999999999
 31
0.0
  0
LINE
  5
11B
  8
0
 62
     7
 10
104.98699999999999
 20
182.971
 30
0.0
 11
105.113
 21
182.971
 31
0.0
  0
LINE
  5
11C
  8
0
 62
     7
 10
104.104
 20
182.971
 30
0.0
 11
104.166
 21
182.971
 31
0.0
  0
LINE
  5
11D
  8
0
 62
     7
 10
104.12
 20
191.90000000000001
 30
0.0
 11
105.096
 21
191.90000000000001
 31
0.0
  0
LINE
  5
11E
  8
0
 62
     7
 10
104.166
 20
183.167
 30
0.0
 11
104.99299999999999
 21
183.167
 31
0.0
  0
LINE
  5
11F
  8
0
 62
     7
 10
104.99299999999999
 20
183.167
 30
0.0
 11
105.113
 21
183.33600000000001
 31
0.0
  0
LINE
  5
120
  8
0
 62
     7
 10
105.113
 20
182.971
 30
0.0
 11
104.99299999999999
 21
182.97799999999989
 31
0.0
  0
LINE
  5
121
  8
0
 62
     7
 10
104.175
 20
183.167
 30
0.0
 11
104.96299999999999
 21
183.167
 31
0.0
  0
LINE
  5
122
  8
0
 62
     7
 10
104.96299999999999
 20
183.167
 30
0.0
 11
104.96299999999999
 21
182.941
 31
0.0
  0
LINE
  5
123
  8
0
 62
     7
 10
104.96299999999999
 20
182.941
 30
0.0
 11
104.175
 21
182.941
 31
0.0
  0
LINE
  5
124
  8
0
 62
     7
 10
104.175
 20
191.90000000000001
 30
0.0
 11
104.96299999999999
 21
191.90000000000001
 31
0.0
  0
LINE
  5
125
  8
0
 62
     7
 10
104.96299999999999
 20
191.6999999999999
 30
0.0
 11
104.175
 21
191.6999999999999
 31
0.0
  0
LINE
  5
126
  8
0
 62
     7
 10
104.17100000000001
 20
191.6999999999999
 30
0.0
 11
104.97
 21
191.6999999999999
 31
0.0
  0
LINE
  5
127
  8
0
 62
     7
 10
104.97499999999999
 20
183.34299999999999
 30
0.0
 11
105.113
 21
183.34299999999999
 31
0.0
  0
LINE
  5
128
  8
0
 62
     7
 10
104.104
 20
183.34299999999999
 30
0.0
 11
104.17
 21
183.34299999999999
 31
0.0
  0
LINE
  5
129
  8
0
 62
     7
 10
104.11799999999999
 20
191.524
 30
0.0
 11
105.09699999999999
 21
191.524
 31
0.0
  0
LINE
  5
12A
  8
0
 62
     7
 10
104.991
 20
183.56399999999999
 30
0.0
 11
105.113
 21
183.732
 31
0.0
  0
LINE
  5
12B
  8
0
 62
     7
 10
105.113
 20
183.34299999999999
 30
0.0
 11
104.99299999999999
 21
183.364
 31
0.0
  0
LINE
  5
12C
  8
0
 62
     7
 10
104.175
 20
183.56700000000001
 30
0.0
 11
104.96299999999999
 21
183.56700000000001
 31
0.0
  0
LINE
  5
12D
  8
0
 62
     7
 10
104.96299999999999
 20
183.56700000000001
 30
0.0
 11
104.96299999999999
 21
183.327
 31
0.0
  0
LINE
  5
12E
  8
0
 62
     7
 10
104.96299999999999
 20
183.327
 30
0.0
 11
104.175
 21
183.327
 31
0.0
  0
LINE
  5
12F
  8
0
 62
     7
 10
104.96299999999999
 20
191.30000000000001
 30
0.0
 11
104.175
 21
191.30000000000001
 31
0.0
  0
LINE
  5
130
  8
0
 62
     7
 10
104.175
 20
191.512
 30
0.0
 11
104.96299999999999
 21
191.512
 31
0.0
  0
LINE
  5
131
  8
0
 62
     7
 10
104.96299999999999
 20
183.738
 30
0.0
 11
105.113
 21
183.738
 31
0.0
  0
LINE
  5
132
  8
0
 62
     7
 10
104.10599999999999
 20
183.738
 30
0.0
 11
104.175
 21
183.738
 31
0.0
  0
LINE
  5
133
  8
0
 62
     7
 10
104.11799999999999
 20
191.126
 30
0.0
 11
105.09699999999999
 21
191.126
 31
0.0
  0
LINE
  5
134
  8
0
 62
     7
 10
104.991
 20
183.982
 30
0.0
 11
105.113
 21
184.149
 31
0.0
  0
LINE
  5
135
  8
0
 62
     7
 10
105.113
 20
183.739
 30
0.0
 11
104.991
 21
183.77099999999999
 31
0.0
  0
LINE
  5
136
  8
0
 62
     7
 10
104.175
 20
183.98599999999999
 30
0.0
 11
104.96299999999999
 21
183.98599999999999
 31
0.0
  0
LINE
  5
137
  8
0
 62
     7
 10
104.96299999999999
 20
183.98599999999999
 30
0.0
 11
104.96299999999999
 21
183.738
 31
0.0
  0
LINE
  5
138
  8
0
 62
     7
 10
104.96299999999999
 20
183.738
 30
0.0
 11
104.175
 21
183.738
 31
0.0
  0
LINE
  5
139
  8
0
 62
     7
 10
104.96299999999999
 20
190.87799999999999
 30
0.0
 11
104.175
 21
190.87799999999999
 31
0.0
  0
LINE
  5
13A
  8
0
 62
     7
 10
104.175
 20
191.102
 30
0.0
 11
104.96299999999999
 21
191.102
 31
0.0
  0
LINE
  5
13B
  8
0
 62
     7
 10
104.10599999999999
 20
184.154
 30
0.0
 11
105.113
 21
184.154
 31
0.0
  0
LINE
  5
13C
  8
0
 62
     7
 10
104.116
 20
190.709
 30
0.0
 11
105.09999999999999
 21
190.709
 31
0.0
  0
LINE
  5
13D
  8
0
 62
     7
 10
104.175
 20
190.673
 30
0.0
 11
104.96299999999999
 21
190.673
 31
0.0
  0
LINE
  5
13E
  8
0
 62
     7
 10
104.96299999999999
 20
190.43700000000001
 30
0.0
 11
104.175
 21
190.43700000000001
 31
0.0
  0
LINE
  5
13F
  8
0
 62
     7
 10
104.175
 20
184.42599999999999
 30
0.0
 11
104.96299999999999
 21
184.42599999999999
 31
0.0
  0
LINE
  5
140
  8
0
 62
     7
 10
104.96299999999999
 20
184.167
 30
0.0
 11
104.175
 21
184.167
 31
0.0
  0
LINE
  5
141
  8
0
 62
     7
 10
104.989
 20
184.41900000000001
 30
0.0
 11
105.113
 21
184.583
 31
0.0
  0
LINE
  5
142
  8
0
 62
     7
 10
105.113
 20
184.154
 30
0.0
 11
104.991
 21
184.19900000000001
 31
0.0
  0
LINE
  5
143
  8
0
 62
     7
 10
104.96299999999999
 20
184.42599999999999
 30
0.0
 11
104.96299999999999
 21
184.167
 31
0.0
  0
LINE
  5
144
  8
0
 62
     7
 10
104.10599999999999
 20
184.58600000000001
 30
0.0
 11
105.113
 21
184.58600000000001
 31
0.0
  0
LINE
  5
145
  8
0
 62
     7
 10
104.116
 20
190.274
 30
0.0
 11
105.101
 21
190.274
 31
0.0
  0
LINE
  5
146
  8
0
 62
     7
 10
104.175
 20
190.22499999999999
 30
0.0
 11
104.96299999999999
 21
190.22499999999999
 31
0.0
  0
LINE
  5
147
  8
0
 62
     7
 10
104.96299999999999
 20
189.97900000000001
 30
0.0
 11
104.175
 21
189.97900000000001
 31
0.0
  0
LINE
  5
148
  8
0
 62
     7
 10
104.175
 20
184.881
 30
0.0
 11
104.96299999999999
 21
184.881
 31
0.0
  0
LINE
  5
149
  8
0
 62
     7
 10
104.96299999999999
 20
184.61500000000001
 30
0.0
 11
104.175
 21
184.61500000000001
 31
0.0
  0
LINE
  5
14A
  8
0
 62
     7
 10
104.989
 20
184.87299999999999
 30
0.0
 11
105.113
 21
185.03399999999999
 31
0.0
  0
LINE
  5
14B
  8
0
 62
     7
 10
105.113
 20
184.58699999999999
 30
0.0
 11
104.989
 21
184.64500000000001
 31
0.0
  0
LINE
  5
14C
  8
0
 62
     7
 10
104.96299999999999
 20
184.881
 30
0.0
 11
104.96299999999999
 21
184.61500000000001
 31
0.0
  0
LINE
  5
14D
  8
0
 62
     7
 10
104.108
 20
185.03399999999999
 30
0.0
 11
105.113
 21
185.03399999999999
 31
0.0
  0
LINE
  5
14E
  8
0
 62
     7
 10
104.116
 20
189.822
 30
0.0
 11
105.101
 21
189.822
 31
0.0
  0
LINE
  5
14F
  8
0
 62
     7
 10
104.175
 20
189.76400000000001
 30
0.0
 11
104.96299999999999
 21
189.76400000000001
 31
0.0
  0
LINE
  5
150
  8
0
 62
     7
 10
104.96299999999999
 20
189.50899999999999
 30
0.0
 11
104.175
 21
189.50899999999999
 31
0.0
  0
LINE
  5
151
  8
0
 62
     7
 10
104.175
 20
185.34999999999999
 30
0.0
 11
104.96299999999999
 21
185.34999999999999
 31
0.0
  0
LINE
  5
152
  8
0
 62
     7
 10
104.96299999999999
 20
185.07900000000001
 30
0.0
 11
104.175
 21
185.07900000000001
 31
0.0
  0
LINE
  5
153
  8
0
 62
     7
 10
104.108
 20
185.49700000000001
 30
0.0
 11
105.113
 21
185.49700000000001
 31
0.0
  0
LINE
  5
154
  8
0
 62
     7
 10
104.114
 20
189.35900000000001
 30
0.0
 11
105.102
 21
189.35900000000001
 31
0.0
  0
LINE
  5
155
  8
0
 62
     7
 10
104.96299999999999
 20
189.0259999999999
 30
0.0
 11
104.175
 21
189.0259999999999
 31
0.0
  0
LINE
  5
156
  8
0
 62
     7
 10
104.175
 20
189.28899999999999
 30
0.0
 11
104.96299999999999
 21
189.28899999999999
 31
0.0
  0
LINE
  5
157
  8
0
 62
     7
 10
104.175
 20
185.83099999999999
 30
0.0
 11
104.96299999999999
 21
185.83099999999999
 31
0.0
  0
LINE
  5
158
  8
0
 62
     7
 10
104.96299999999999
 20
185.55500000000001
 30
0.0
 11
104.175
 21
185.55500000000001
 31
0.0
  0
LINE
  5
159
  8
0
 62
     7
 10
104.10899999999999
 20
185.97
 30
0.0
 11
105.111
 21
185.97
 31
0.0
  0
LINE
  5
15A
  8
0
 62
     7
 10
104.114
 20
188.88499999999999
 30
0.0
 11
105.104
 21
188.88499999999999
 31
0.0
  0
LINE
  5
15B
  8
0
 62
     7
 10
104.175
 20
188.803
 30
0.0
 11
104.96299999999999
 21
188.803
 31
0.0
  0
LINE
  5
15C
  8
0
 62
     7
 10
104.96299999999999
 20
188.536
 30
0.0
 11
104.175
 21
188.536
 31
0.0
  0
LINE
  5
15D
  8
0
 62
     7
 10
104.175
 20
186.31999999999999
 30
0.0
 11
104.96299999999999
 21
186.31999999999999
 31
0.0
  0
LINE
  5
15E
  8
0
 62
     7
 10
104.96299999999999
 20
186.042
 30
0.0
 11
104.175
 21
186.042
 31
0.0
  0
LINE
  5
15F
  8
0
 62
     7
 10
104.10899999999999
 20
186.4499999999999
 30
0.0
 11
105.111
 21
186.4499999999999
 31
0.0
  0
LINE
  5
160
  8
0
 62
     7
 10
104.113
 20
188.40299999999999
 30
0.0
 11
105.10599999999999
 21
188.40299999999999
 31
0.0
  0
LINE
  5
161
  8
0
 62
     7
 10
102.113
 20
181.92599999999999
 30
0.0
 11
102.113
 21
192.959
 31
0.0
  0
LINE
  5
162
  8
0
 62
     7
 10
104.113
 20
187.916
 30
0.0
 11
105.10599999999999
 21
187.916
 31
0.0
  0
LINE
  5
163
  8
0
 62
     7
 10
104.175
 20
188.31299999999999
 30
0.0
 11
104.96299999999999
 21
188.31299999999999
 31
0.0
  0
LINE
  5
164
  8
0
 62
     7
 10
104.96299999999999
 20
188.03800000000001
 30
0.0
 11
104.175
 21
188.03800000000001
 31
0.0
  0
LINE
  5
165
  8
0
 62
     7
 10
104.111
 20
186.93700000000001
 30
0.0
 11
105.11
 21
186.93700000000001
 31
0.0
  0
LINE
  5
166
  8
0
 62
     7
 10
104.175
 20
186.81599999999989
 30
0.0
 11
104.96299999999999
 21
186.81599999999989
 31
0.0
  0
LINE
  5
167
  8
0
 62
     7
 10
104.96299999999999
 20
186.53599999999989
 30
0.0
 11
104.175
 21
186.53599999999989
 31
0.0
  0
LINE
  5
168
  8
0
 62
     7
 10
104.111
 20
187.4259999999999
 30
0.0
 11
105.108
 21
187.4259999999999
 31
0.0
  0
LINE
  5
169
  8
0
 62
     7
 10
104.175
 20
187.81399999999999
 30
0.0
 11
104.96299999999999
 21
187.81399999999999
 31
0.0
  0
LINE
  5
16A
  8
0
 62
     7
 10
104.96299999999999
 20
187.53599999999989
 30
0.0
 11
104.175
 21
187.53599999999989
 31
0.0
  0
LINE
  5
16B
  8
0
 62
     7
 10
104.175
 20
187.31399999999999
 30
0.0
 11
104.96299999999999
 21
187.31399999999999
 31
0.0
  0
LINE
  5
16C
  8
0
 62
     7
 10
104.96299999999999
 20
187.035
 30
0.0
 11
104.175
 21
187.035
 31
0.0
  0
LINE
  5
16D
  8
0
 62
     7
 10
104.96299999999999
 20
194.20599999999999
 30
0.0
 11
105.089
 21
194.084
 31
0.0
  0
LINE
  5
16E
  8
0
 62
     7
 10
105.089
 20
194.084
 30
0.0
 11
104.96299999999999
 21
194.21299999999999
 31
0.0
  0
LINE
  5
16F
  8
0
 62
     7
 10
105.113
 20
185.036
 30
0.0
 11
104.98699999999999
 21
185.10599999999999
 31
0.0
  0
LINE
  5
170
  8
0
 62
     7
 10
104.96299999999999
 20
185.34999999999999
 30
0.0
 11
104.96299999999999
 21
185.07900000000001
 31
0.0
  0
LINE
  5
171
  8
0
 62
     7
 10
104.98699999999999
 20
185.34
 30
0.0
 11
105.113
 21
185.49700000000001
 31
0.0
  0
LINE
  5
172
  8
0
 62
     7
 10
105.113
 20
185.49700000000001
 30
0.0
 11
104.986
 21
185.58000000000001
 31
0.0
  0
LINE
  5
173
  8
0
 62
     7
 10
104.96299999999999
 20
185.83099999999999
 30
0.0
 11
104.96299999999999
 21
185.55500000000001
 31
0.0
  0
LINE
  5
174
  8
0
 62
     7
 10
104.986
 20
185.81999999999999
 30
0.0
 11
105.111
 21
185.97
 31
0.0
  0
LINE
  5
175
  8
0
 62
     7
 10
105.111
 20
185.97
 30
0.0
 11
104.986
 21
186.06399999999999
 31
0.0
  0
LINE
  5
176
  8
0
 62
     7
 10
104.96299999999999
 20
186.31999999999999
 30
0.0
 11
104.96299999999999
 21
186.042
 31
0.0
  0
LINE
  5
177
  8
0
 62
     7
 10
104.98399999999999
 20
186.30699999999999
 30
0.0
 11
105.111
 21
186.4499999999999
 31
0.0
  0
LINE
  5
178
  8
0
 62
     7
 10
105.111
 20
186.4499999999999
 30
0.0
 11
104.98399999999999
 21
186.55500000000001
 31
0.0
  0
LINE
  5
179
  8
0
 62
     7
 10
104.96299999999999
 20
186.81599999999989
 30
0.0
 11
104.96299999999999
 21
186.53599999999989
 31
0.0
  0
LINE
  5
17A
  8
0
 62
     7
 10
104.98399999999999
 20
186.80199999999999
 30
0.0
 11
105.11
 21
186.93700000000001
 31
0.0
  0
LINE
  5
17B
  8
0
 62
     7
 10
105.11
 20
186.93700000000001
 30
0.0
 11
104.982
 21
187.05199999999999
 31
0.0
  0
LINE
  5
17C
  8
0
 62
     7
 10
104.96299999999999
 20
187.31399999999999
 30
0.0
 11
104.96299999999999
 21
187.035
 31
0.0
  0
LINE
  5
17D
  8
0
 62
     7
 10
104.982
 20
187.30000000000001
 30
0.0
 11
105.108
 21
187.4259999999999
 31
0.0
  0
LINE
  5
17E
  8
0
 62
     7
 10
105.108
 20
187.4259999999999
 30
0.0
 11
104.98
 21
187.55099999999999
 31
0.0
  0
LINE
  5
17F
  8
0
 62
     7
 10
104.96299999999999
 20
187.81399999999999
 30
0.0
 11
104.96299999999999
 21
187.53599999999989
 31
0.0
  0
LINE
  5
180
  8
0
 62
     7
 10
104.98
 20
187.79900000000001
 30
0.0
 11
105.10599999999999
 21
187.916
 31
0.0
  0
LINE
  5
181
  8
0
 62
     7
 10
105.10599999999999
 20
187.916
 30
0.0
 11
104.98
 21
188.04900000000001
 31
0.0
  0
LINE
  5
182
  8
0
 62
     7
 10
104.96299999999999
 20
188.31299999999999
 30
0.0
 11
104.96299999999999
 21
188.03800000000001
 31
0.0
  0
LINE
  5
183
  8
0
 62
     7
 10
104.97799999999999
 20
188.297
 30
0.0
 11
105.10599999999999
 21
188.40299999999999
 31
0.0
  0
LINE
  5
184
  8
0
 62
     7
 10
105.10599999999999
 20
188.40299999999999
 30
0.0
 11
104.97799999999999
 21
188.54499999999999
 31
0.0
  0
LINE
  5
185
  8
0
 62
     7
 10
104.96299999999999
 20
188.803
 30
0.0
 11
104.96299999999999
 21
188.536
 31
0.0
  0
LINE
  5
186
  8
0
 62
     7
 10
104.97799999999999
 20
188.78999999999999
 30
0.0
 11
105.104
 21
188.88499999999999
 31
0.0
  0
LINE
  5
187
  8
0
 62
     7
 10
105.104
 20
188.88499999999999
 30
0.0
 11
104.977
 21
189.03399999999999
 31
0.0
  0
LINE
  5
188
  8
0
 62
     7
 10
104.96299999999999
 20
189.28899999999999
 30
0.0
 11
104.96299999999999
 21
189.0259999999999
 31
0.0
  0
LINE
  5
189
  8
0
 62
     7
 10
104.977
 20
189.274
 30
0.0
 11
105.102
 21
189.35900000000001
 31
0.0
  0
LINE
  5
18A
  8
0
 62
     7
 10
105.102
 20
189.35900000000001
 30
0.0
 11
104.977
 21
189.51499999999999
 31
0.0
  0
LINE
  5
18B
  8
0
 62
     7
 10
104.96299999999999
 20
189.76400000000001
 30
0.0
 11
104.96299999999999
 21
189.50899999999999
 31
0.0
  0
LINE
  5
18C
  8
0
 62
     7
 10
104.97499999999999
 20
189.75
 30
0.0
 11
105.101
 21
189.822
 31
0.0
  0
LINE
  5
18D
  8
0
 62
     7
 10
105.101
 20
189.822
 30
0.0
 11
104.97499999999999
 21
189.98500000000001
 31
0.0
  0
LINE
  5
18E
  8
0
 62
     7
 10
104.96299999999999
 20
190.22499999999999
 30
0.0
 11
104.96299999999999
 21
189.97900000000001
 31
0.0
  0
LINE
  5
18F
  8
0
 62
     7
 10
104.973
 20
190.21299999999999
 30
0.0
 11
105.101
 21
190.274
 31
0.0
  0
LINE
  5
190
  8
0
 62
     7
 10
105.101
 20
190.274
 30
0.0
 11
104.973
 21
190.44
 31
0.0
  0
LINE
  5
191
  8
0
 62
     7
 10
104.96299999999999
 20
190.673
 30
0.0
 11
104.96299999999999
 21
190.43700000000001
 31
0.0
  0
LINE
  5
192
  8
0
 62
     7
 10
104.973
 20
190.66099999999989
 30
0.0
 11
105.09999999999999
 21
190.709
 31
0.0
  0
LINE
  5
193
  8
0
 62
     7
 10
105.09999999999999
 20
190.709
 30
0.0
 11
104.97199999999999
 21
190.87899999999999
 31
0.0
  0
LINE
  5
194
  8
0
 62
     7
 10
104.96299999999999
 20
191.102
 30
0.0
 11
104.96299999999999
 21
190.87799999999999
 31
0.0
  0
LINE
  5
195
  8
0
 62
     7
 10
104.97199999999999
 20
191.09100000000001
 30
0.0
 11
105.09699999999999
 21
191.126
 31
0.0
  0
LINE
  5
196
  8
0
 62
     7
 10
105.09699999999999
 20
191.126
 30
0.0
 11
104.97199999999999
 21
191.30000000000001
 31
0.0
  0
LINE
  5
197
  8
0
 62
     7
 10
104.96299999999999
 20
191.512
 30
0.0
 11
104.96299999999999
 21
191.30000000000001
 31
0.0
  0
LINE
  5
198
  8
0
 62
     7
 10
104.97
 20
191.50200000000001
 30
0.0
 11
105.09699999999999
 21
191.524
 31
0.0
  0
LINE
  5
199
  8
0
 62
     7
 10
105.09699999999999
 20
191.524
 30
0.0
 11
104.97
 21
191.6999999999999
 31
0.0
  0
LINE
  5
19A
  8
0
 62
     7
 10
104.96299999999999
 20
191.90000000000001
 30
0.0
 11
104.96299999999999
 21
191.6999999999999
 31
0.0
  0
LINE
  5
19B
  8
0
 62
     7
 10
104.97
 20
191.89099999999999
 30
0.0
 11
105.096
 21
191.90000000000001
 31
0.0
  0
LINE
  5
19C
  8
0
 62
     7
 10
105.096
 20
191.90000000000001
 30
0.0
 11
104.968
 21
192.07599999999999
 31
0.0
  0
LINE
  5
19D
  8
0
 62
     7
 10
104.96299999999999
 20
192.262
 30
0.0
 11
104.96299999999999
 21
192.077
 31
0.0
  0
LINE
  5
19E
  8
0
 62
     7
 10
104.968
 20
192.25399999999999
 30
0.0
 11
105.09399999999999
 21
192.25099999999989
 31
0.0
  0
LINE
  5
19F
  8
0
 62
     7
 10
105.09399999999999
 20
192.25099999999989
 30
0.0
 11
104.968
 21
192.428
 31
0.0
  0
LINE
  5
1A0
  8
0
 62
     7
 10
104.96299999999999
 20
192.59999999999999
 30
0.0
 11
104.96299999999999
 21
192.429
 31
0.0
  0
LINE
  5
1A1
  8
0
 62
     7
 10
104.968
 20
192.59200000000001
 30
0.0
 11
105.09399999999999
 21
192.57599999999999
 31
0.0
  0
LINE
  5
1A2
  8
0
 62
     7
 10
105.09399999999999
 20
192.57599999999999
 30
0.0
 11
104.967
 21
192.75200000000001
 31
0.0
  0
LINE
  5
1A3
  8
0
 62
     7
 10
104.96299999999999
 20
192.90799999999999
 30
0.0
 11
104.96299999999999
 21
192.75299999999999
 31
0.0
  0
LINE
  5
1A4
  8
0
 62
     7
 10
104.967
 20
192.90299999999999
 30
0.0
 11
105.09399999999999
 21
192.87200000000001
 31
0.0
  0
LINE
  5
1A5
  8
0
 62
     7
 10
105.09399999999999
 20
192.87200000000001
 30
0.0
 11
104.967
 21
193.048
 31
0.0
  0
LINE
  5
1A6
  8
0
 62
     7
 10
104.96299999999999
 20
193.18700000000001
 30
0.0
 11
104.96299999999999
 21
193.04900000000001
 31
0.0
  0
LINE
  5
1A7
  8
0
 62
     7
 10
104.967
 20
193.18299999999999
 30
0.0
 11
105.092
 21
193.13999999999999
 31
0.0
  0
LINE
  5
1A8
  8
0
 62
     7
 10
105.092
 20
193.13999999999999
 30
0.0
 11
104.967
 21
193.31299999999999
 31
0.0
  0
LINE
  5
1A9
  8
0
 62
     7
 10
104.96299999999999
 20
193.435
 30
0.0
 11
104.96299999999999
 21
193.31299999999999
 31
0.0
  0
LINE
  5
1AA
  8
0
 62
     7
 10
104.965
 20
193.43299999999999
 30
0.0
 11
105.092
 21
193.37599999999989
 31
0.0
  0
LINE
  5
1AB
  8
0
 62
     7
 10
105.092
 20
193.37599999999989
 30
0.0
 11
104.965
 21
193.54499999999999
 31
0.0
  0
LINE
  5
1AC
  8
0
 62
     7
 10
104.96299999999999
 20
193.65199999999999
 30
0.0
 11
104.96299999999999
 21
193.54599999999999
 31
0.0
  0
LINE
  5
1AD
  8
0
 62
     7
 10
104.965
 20
193.648
 30
0.0
 11
105.09099999999999
 21
193.58000000000001
 31
0.0
  0
LINE
  5
1AE
  8
0
 62
     7
 10
105.09099999999999
 20
193.58000000000001
 30
0.0
 11
104.965
 21
193.745
 31
0.0
  0
LINE
  5
1AF
  8
0
 62
     7
 10
104.96299999999999
 20
193.83199999999999
 30
0.0
 11
104.96299999999999
 21
193.74600000000001
 31
0.0
  0
LINE
  5
1B0
  8
0
 62
     7
 10
104.965
 20
193.83000000000001
 30
0.0
 11
105.09099999999999
 21
193.75200000000001
 31
0.0
  0
LINE
  5
1B1
  8
0
 62
     7
 10
105.09099999999999
 20
193.75200000000001
 30
0.0
 11
104.965
 21
193.91
 31
0.0
  0
LINE
  5
1B2
  8
0
 62
     7
 10
104.96299999999999
 20
193.98099999999999
 30
0.0
 11
104.96299999999999
 21
193.91099999999989
 31
0.0
  0
LINE
  5
1B3
  8
0
 62
     7
 10
104.96299999999999
 20
193.97900000000001
 30
0.0
 11
105.09099999999999
 21
193.887
 31
0.0
  0
LINE
  5
1B4
  8
0
 62
     7
 10
105.09099999999999
 20
193.887
 30
0.0
 11
104.96299999999999
 21
194.03999999999999
 31
0.0
  0
LINE
  5
1B5
  8
0
 62
     7
 10
104.96299999999999
 20
194.09100000000001
 30
0.0
 11
105.09099999999999
 21
193.989
 31
0.0
  0
LINE
  5
1B6
  8
0
 62
     7
 10
105.09099999999999
 20
193.989
 30
0.0
 11
104.96299999999999
 21
194.13399999999999
 31
0.0
  0
LINE
  5
1B7
  8
0
 62
     7
 10
104.96299999999999
 20
194.16800000000001
 30
0.0
 11
105.089
 21
194.05500000000001
 31
0.0
  0
LINE
  5
1B8
  8
0
 62
     7
 10
105.089
 20
194.05500000000001
 30
0.0
 11
104.96299999999999
 21
194.19200000000001
 31
0.0
  0
LINE
  5
1B9
  8
0
 62
     7
 10
104.175
 20
194.13399999999999
 30
0.0
 11
104.123
 21
193.989
 31
0.0
  0
LINE
  5
1BA
  8
0
 62
     7
 10
104.123
 20
193.989
 30
0.0
 11
104.175
 21
194.09100000000001
 31
0.0
  0
LINE
  5
1BB
  8
0
 62
     7
 10
104.175
 20
194.03999999999999
 30
0.0
 11
104.121
 21
193.887
 31
0.0
  0
LINE
  5
1BC
  8
0
 62
     7
 10
104.121
 20
193.887
 30
0.0
 11
104.173
 21
193.97900000000001
 31
0.0
  0
LINE
  5
1BD
  8
0
 62
     7
 10
104.175
 20
193.91099999999989
 30
0.0
 11
104.175
 21
193.98099999999999
 31
0.0
  0
LINE
  5
1BE
  8
0
 62
     7
 10
104.173
 20
193.91
 30
0.0
 11
104.121
 21
193.75200000000001
 31
0.0
  0
LINE
  5
1BF
  8
0
 62
     7
 10
104.121
 20
193.75200000000001
 30
0.0
 11
104.173
 21
193.83000000000001
 31
0.0
  0
LINE
  5
1C0
  8
0
 62
     7
 10
104.175
 20
193.74600000000001
 30
0.0
 11
104.175
 21
193.83199999999999
 31
0.0
  0
LINE
  5
1C1
  8
0
 62
     7
 10
104.173
 20
193.745
 30
0.0
 11
104.121
 21
193.58000000000001
 31
0.0
  0
LINE
  5
1C2
  8
0
 62
     7
 10
104.121
 20
193.58000000000001
 30
0.0
 11
104.173
 21
193.648
 31
0.0
  0
LINE
  5
1C3
  8
0
 62
     7
 10
104.175
 20
193.54599999999999
 30
0.0
 11
104.175
 21
193.65199999999999
 31
0.0
  0
LINE
  5
1C4
  8
0
 62
     7
 10
104.173
 20
193.54499999999999
 30
0.0
 11
104.121
 21
193.37599999999989
 31
0.0
  0
LINE
  5
1C5
  8
0
 62
     7
 10
104.121
 20
193.37599999999989
 30
0.0
 11
104.173
 21
193.43299999999999
 31
0.0
  0
LINE
  5
1C6
  8
0
 62
     7
 10
104.175
 20
193.31299999999999
 30
0.0
 11
104.175
 21
193.435
 31
0.0
  0
LINE
  5
1C7
  8
0
 62
     7
 10
104.173
 20
193.31299999999999
 30
0.0
 11
104.121
 21
193.13999999999999
 31
0.0
  0
LINE
  5
1C8
  8
0
 62
     7
 10
104.121
 20
193.13999999999999
 30
0.0
 11
104.173
 21
193.18299999999999
 31
0.0
  0
LINE
  5
1C9
  8
0
 62
     7
 10
104.175
 20
193.04900000000001
 30
0.0
 11
104.175
 21
193.18700000000001
 31
0.0
  0
LINE
  5
1CA
  8
0
 62
     7
 10
104.173
 20
193.048
 30
0.0
 11
104.12
 21
192.87200000000001
 31
0.0
  0
LINE
  5
1CB
  8
0
 62
     7
 10
104.12
 20
192.87200000000001
 30
0.0
 11
104.173
 21
192.90299999999999
 31
0.0
  0
LINE
  5
1CC
  8
0
 62
     7
 10
104.175
 20
192.75299999999999
 30
0.0
 11
104.175
 21
192.90799999999999
 31
0.0
  0
LINE
  5
1CD
  8
0
 62
     7
 10
104.173
 20
192.75200000000001
 30
0.0
 11
104.12
 21
192.57599999999999
 31
0.0
  0
LINE
  5
1CE
  8
0
 62
     7
 10
104.12
 20
192.57599999999999
 30
0.0
 11
104.173
 21
192.59200000000001
 31
0.0
  0
LINE
  5
1CF
  8
0
 62
     7
 10
104.175
 20
192.429
 30
0.0
 11
104.175
 21
192.59999999999999
 31
0.0
  0
LINE
  5
1D0
  8
0
 62
     7
 10
104.173
 20
192.428
 30
0.0
 11
104.12
 21
192.25099999999989
 31
0.0
  0
LINE
  5
1D1
  8
0
 62
     7
 10
104.12
 20
192.25099999999989
 30
0.0
 11
104.173
 21
192.25399999999999
 31
0.0
  0
LINE
  5
1D2
  8
0
 62
     7
 10
104.175
 20
192.077
 30
0.0
 11
104.175
 21
192.262
 31
0.0
  0
LINE
  5
1D3
  8
0
 62
     7
 10
104.173
 20
192.07599999999999
 30
0.0
 11
104.12
 21
191.90000000000001
 31
0.0
  0
LINE
  5
1D4
  8
0
 62
     7
 10
104.12
 20
191.90000000000001
 30
0.0
 11
104.173
 21
191.89099999999999
 31
0.0
  0
LINE
  5
1D5
  8
0
 62
     7
 10
104.175
 20
191.6999999999999
 30
0.0
 11
104.175
 21
191.90000000000001
 31
0.0
  0
LINE
  5
1D6
  8
0
 62
     7
 10
104.17100000000001
 20
191.6999999999999
 30
0.0
 11
104.11799999999999
 21
191.524
 31
0.0
  0
LINE
  5
1D7
  8
0
 62
     7
 10
104.11799999999999
 20
191.524
 30
0.0
 11
104.17100000000001
 21
191.50200000000001
 31
0.0
  0
LINE
  5
1D8
  8
0
 62
     7
 10
104.175
 20
191.30000000000001
 30
0.0
 11
104.175
 21
191.512
 31
0.0
  0
LINE
  5
1D9
  8
0
 62
     7
 10
104.17100000000001
 20
191.30000000000001
 30
0.0
 11
104.11799999999999
 21
191.126
 31
0.0
  0
LINE
  5
1DA
  8
0
 62
     7
 10
104.11799999999999
 20
191.126
 30
0.0
 11
104.17100000000001
 21
191.09100000000001
 31
0.0
  0
LINE
  5
1DB
  8
0
 62
     7
 10
104.175
 20
190.87799999999999
 30
0.0
 11
104.175
 21
191.102
 31
0.0
  0
LINE
  5
1DC
  8
0
 62
     7
 10
104.17100000000001
 20
190.87899999999999
 30
0.0
 11
104.116
 21
190.709
 31
0.0
  0
LINE
  5
1DD
  8
0
 62
     7
 10
104.116
 20
190.709
 30
0.0
 11
104.17100000000001
 21
190.66099999999989
 31
0.0
  0
LINE
  5
1DE
  8
0
 62
     7
 10
104.175
 20
190.43700000000001
 30
0.0
 11
104.175
 21
190.673
 31
0.0
  0
LINE
  5
1DF
  8
0
 62
     7
 10
104.17100000000001
 20
190.44
 30
0.0
 11
104.116
 21
190.274
 31
0.0
  0
LINE
  5
1E0
  8
0
 62
     7
 10
104.116
 20
190.274
 30
0.0
 11
104.17100000000001
 21
190.21299999999999
 31
0.0
  0
LINE
  5
1E1
  8
0
 62
     7
 10
104.175
 20
189.97900000000001
 30
0.0
 11
104.175
 21
190.22499999999999
 31
0.0
  0
LINE
  5
1E2
  8
0
 62
     7
 10
104.17100000000001
 20
189.98500000000001
 30
0.0
 11
104.116
 21
189.822
 31
0.0
  0
LINE
  5
1E3
  8
0
 62
     7
 10
104.116
 20
189.822
 30
0.0
 11
104.17100000000001
 21
189.75
 31
0.0
  0
LINE
  5
1E4
  8
0
 62
     7
 10
104.175
 20
189.50899999999999
 30
0.0
 11
104.175
 21
189.76400000000001
 31
0.0
  0
LINE
  5
1E5
  8
0
 62
     7
 10
104.17100000000001
 20
189.51499999999999
 30
0.0
 11
104.114
 21
189.35900000000001
 31
0.0
  0
LINE
  5
1E6
  8
0
 62
     7
 10
104.114
 20
189.35900000000001
 30
0.0
 11
104.17
 21
189.274
 31
0.0
  0
LINE
  5
1E7
  8
0
 62
     7
 10
104.175
 20
189.0259999999999
 30
0.0
 11
104.175
 21
189.28899999999999
 31
0.0
  0
LINE
  5
1E8
  8
0
 62
     7
 10
104.17
 20
189.03399999999999
 30
0.0
 11
104.114
 21
188.88499999999999
 31
0.0
  0
LINE
  5
1E9
  8
0
 62
     7
 10
104.114
 20
188.88499999999999
 30
0.0
 11
104.17
 21
188.78999999999999
 31
0.0
  0
LINE
  5
1EA
  8
0
 62
     7
 10
104.175
 20
188.536
 30
0.0
 11
104.175
 21
188.803
 31
0.0
  0
LINE
  5
1EB
  8
0
 62
     7
 10
104.17
 20
188.54499999999999
 30
0.0
 11
104.113
 21
188.40299999999999
 31
0.0
  0
LINE
  5
1EC
  8
0
 62
     7
 10
104.113
 20
188.40299999999999
 30
0.0
 11
104.17
 21
188.297
 31
0.0
  0
LINE
  5
1ED
  8
0
 62
     7
 10
104.175
 20
188.03800000000001
 30
0.0
 11
104.175
 21
188.31299999999999
 31
0.0
  0
LINE
  5
1EE
  8
0
 62
     7
 10
104.17
 20
188.04900000000001
 30
0.0
 11
104.113
 21
187.916
 31
0.0
  0
LINE
  5
1EF
  8
0
 62
     7
 10
104.113
 20
187.916
 30
0.0
 11
104.17
 21
187.79900000000001
 31
0.0
  0
LINE
  5
1F0
  8
0
 62
     7
 10
104.175
 20
187.53599999999989
 30
0.0
 11
104.175
 21
187.81399999999999
 31
0.0
  0
LINE
  5
1F1
  8
0
 62
     7
 10
104.17
 20
187.55099999999999
 30
0.0
 11
104.111
 21
187.4259999999999
 31
0.0
  0
LINE
  5
1F2
  8
0
 62
     7
 10
104.111
 20
187.4259999999999
 30
0.0
 11
104.17
 21
187.30000000000001
 31
0.0
  0
LINE
  5
1F3
  8
0
 62
     7
 10
104.175
 20
187.035
 30
0.0
 11
104.175
 21
187.31399999999999
 31
0.0
  0
LINE
  5
1F4
  8
0
 62
     7
 10
104.16800000000001
 20
187.05199999999999
 30
0.0
 11
104.111
 21
186.93700000000001
 31
0.0
  0
LINE
  5
1F5
  8
0
 62
     7
 10
104.111
 20
186.93700000000001
 30
0.0
 11
104.16800000000001
 21
186.80199999999999
 31
0.0
  0
LINE
  5
1F6
  8
0
 62
     7
 10
104.175
 20
186.53599999999989
 30
0.0
 11
104.175
 21
186.81599999999989
 31
0.0
  0
LINE
  5
1F7
  8
0
 62
     7
 10
104.16800000000001
 20
186.55500000000001
 30
0.0
 11
104.10899999999999
 21
186.4499999999999
 31
0.0
  0
LINE
  5
1F8
  8
0
 62
     7
 10
104.10899999999999
 20
186.4499999999999
 30
0.0
 11
104.16800000000001
 21
186.30699999999999
 31
0.0
  0
LINE
  5
1F9
  8
0
 62
     7
 10
104.175
 20
186.042
 30
0.0
 11
104.175
 21
186.31999999999999
 31
0.0
  0
LINE
  5
1FA
  8
0
 62
     7
 10
104.16800000000001
 20
186.06399999999999
 30
0.0
 11
104.10899999999999
 21
185.97
 31
0.0
  0
LINE
  5
1FB
  8
0
 62
     7
 10
104.10899999999999
 20
185.97
 30
0.0
 11
104.16800000000001
 21
185.81999999999999
 31
0.0
  0
LINE
  5
1FC
  8
0
 62
     7
 10
104.175
 20
185.55500000000001
 30
0.0
 11
104.175
 21
185.83099999999999
 31
0.0
  0
LINE
  5
1FD
  8
0
 62
     7
 10
104.16800000000001
 20
185.58000000000001
 30
0.0
 11
104.108
 21
185.49700000000001
 31
0.0
  0
LINE
  5
1FE
  8
0
 62
     7
 10
104.108
 20
185.49700000000001
 30
0.0
 11
104.16800000000001
 21
185.34
 31
0.0
  0
LINE
  5
1FF
  8
0
 62
     7
 10
104.175
 20
185.07900000000001
 30
0.0
 11
104.175
 21
185.34999999999999
 31
0.0
  0
LINE
  5
200
  8
0
 62
     7
 10
104.166
 20
185.10599999999999
 30
0.0
 11
104.108
 21
185.03399999999999
 31
0.0
  0
LINE
  5
201
  8
0
 62
     7
 10
104.108
 20
185.03399999999999
 30
0.0
 11
104.166
 21
184.87299999999999
 31
0.0
  0
LINE
  5
202
  8
0
 62
     7
 10
104.175
 20
184.61500000000001
 30
0.0
 11
104.175
 21
184.881
 31
0.0
  0
LINE
  5
203
  8
0
 62
     7
 10
104.166
 20
184.64500000000001
 30
0.0
 11
104.10599999999999
 21
184.58600000000001
 31
0.0
  0
LINE
  5
204
  8
0
 62
     7
 10
104.10599999999999
 20
184.58600000000001
 30
0.0
 11
104.166
 21
184.41900000000001
 31
0.0
  0
LINE
  5
205
  8
0
 62
     7
 10
104.175
 20
184.167
 30
0.0
 11
104.175
 21
184.42599999999999
 31
0.0
  0
LINE
  5
206
  8
0
 62
     7
 10
104.166
 20
184.19900000000001
 30
0.0
 11
104.10599999999999
 21
184.154
 31
0.0
  0
LINE
  5
207
  8
0
 62
     7
 10
104.10599999999999
 20
184.154
 30
0.0
 11
104.166
 21
183.982
 31
0.0
  0
LINE
  5
208
  8
0
 62
     7
 10
104.175
 20
183.738
 30
0.0
 11
104.175
 21
183.98599999999999
 31
0.0
  0
LINE
  5
209
  8
0
 62
     7
 10
104.166
 20
183.77099999999999
 30
0.0
 11
104.10599999999999
 21
183.738
 31
0.0
  0
LINE
  5
20A
  8
0
 62
     7
 10
104.10599999999999
 20
183.738
 30
0.0
 11
104.166
 21
183.56399999999999
 31
0.0
  0
LINE
  5
20B
  8
0
 62
     7
 10
104.175
 20
183.327
 30
0.0
 11
104.175
 21
183.56700000000001
 31
0.0
  0
LINE
  5
20C
  8
0
 62
     7
 10
104.166
 20
183.364
 30
0.0
 11
104.104
 21
183.34299999999999
 31
0.0
  0
LINE
  5
20D
  8
0
 62
     7
 10
104.104
 20
183.34299999999999
 30
0.0
 11
104.166
 21
183.167
 31
0.0
  0
LINE
  5
20E
  8
0
 62
     7
 10
104.175
 20
182.941
 30
0.0
 11
104.175
 21
183.167
 31
0.0
  0
LINE
  5
20F
  8
0
 62
     7
 10
104.164
 20
182.97799999999989
 30
0.0
 11
104.104
 21
182.971
 31
0.0
  0
LINE
  5
210
  8
0
 62
     7
 10
104.104
 20
182.971
 30
0.0
 11
104.164
 21
182.79499999999999
 31
0.0
  0
LINE
  5
211
  8
0
 62
     7
 10
104.175
 20
182.578
 30
0.0
 11
104.175
 21
182.78999999999991
 31
0.0
  0
LINE
  5
212
  8
0
 62
     7
 10
104.164
 20
182.61799999999999
 30
0.0
 11
104.102
 21
182.624
 31
0.0
  0
LINE
  5
213
  8
0
 62
     7
 10
104.102
 20
182.624
 30
0.0
 11
104.164
 21
182.446
 31
0.0
  0
LINE
  5
214
  8
0
 62
     7
 10
104.175
 20
182.24299999999999
 30
0.0
 11
104.175
 21
182.44
 31
0.0
  0
LINE
  5
215
  8
0
 62
     7
 10
104.164
 20
182.28299999999999
 30
0.0
 11
104.102
 21
182.30199999999999
 31
0.0
  0
LINE
  5
216
  8
0
 62
     7
 10
104.102
 20
182.30199999999999
 30
0.0
 11
104.164
 21
182.126
 31
0.0
  0
LINE
  5
217
  8
0
 62
     7
 10
104.175
 20
181.93599999999989
 30
0.0
 11
104.175
 21
182.11699999999999
 31
0.0
  0
LINE
  5
218
  8
0
 62
     7
 10
104.164
 20
181.977
 30
0.0
 11
104.102
 21
182.00999999999999
 31
0.0
  0
LINE
  5
219
  8
0
 62
     7
 10
104.102
 20
182.00999999999999
 30
0.0
 11
104.164
 21
181.834
 31
0.0
  0
LINE
  5
21A
  8
0
 62
     7
 10
104.175
 20
181.66
 30
0.0
 11
104.175
 21
181.822
 31
0.0
  0
LINE
  5
21B
  8
0
 62
     7
 10
104.164
 20
181.70099999999999
 30
0.0
 11
104.102
 21
181.745
 31
0.0
  0
LINE
  5
21C
  8
0
 62
     7
 10
104.102
 20
181.745
 30
0.0
 11
104.164
 21
181.57400000000001
 31
0.0
  0
LINE
  5
21D
  8
0
 62
     7
 10
104.175
 20
181.41399999999999
 30
0.0
 11
104.175
 21
181.55799999999999
 31
0.0
  0
LINE
  5
21E
  8
0
 62
     7
 10
104.164
 20
181.45699999999999
 30
0.0
 11
104.09999999999999
 21
181.51400000000001
 31
0.0
  0
LINE
  5
21F
  8
0
 62
     7
 10
104.09999999999999
 20
181.51400000000001
 30
0.0
 11
104.164
 21
181.346
 31
0.0
  0
LINE
  5
220
  8
0
 62
     7
 10
104.175
 20
181.202
 30
0.0
 11
104.175
 21
181.327
 31
0.0
  0
LINE
  5
221
  8
0
 62
     7
 10
104.164
 20
181.245
 30
0.0
 11
104.09999999999999
 21
181.31299999999999
 31
0.0
  0
LINE
  5
222
  8
0
 62
     7
 10
104.09999999999999
 20
181.31299999999999
 30
0.0
 11
104.164
 21
181.15100000000001
 31
0.0
  0
LINE
  5
223
  8
0
 62
     7
 10
104.175
 20
181.02500000000001
 30
0.0
 11
104.175
 21
181.12899999999999
 31
0.0
  0
LINE
  5
224
  8
0
 62
     7
 10
104.164
 20
181.06700000000001
 30
0.0
 11
104.09999999999999
 21
181.148
 31
0.0
  0
LINE
  5
225
  8
0
 62
     7
 10
104.09999999999999
 20
181.148
 30
0.0
 11
104.164
 21
180.99100000000001
 31
0.0
  0
LINE
  5
226
  8
0
 62
     7
 10
104.175
 20
180.88300000000001
 30
0.0
 11
104.175
 21
180.965
 31
0.0
  0
LINE
  5
227
  8
0
 62
     7
 10
104.164
 20
180.923
 30
0.0
 11
104.09999999999999
 21
181.01599999999999
 31
0.0
  0
LINE
  5
228
  8
0
 62
     7
 10
104.09999999999999
 20
181.01599999999999
 30
0.0
 11
104.164
 21
180.86600000000001
 31
0.0
  0
LINE
  5
229
  8
0
 62
     7
 10
104.175
 20
180.77699999999999
 30
0.0
 11
104.175
 21
180.83699999999999
 31
0.0
  0
LINE
  5
22A
  8
0
 62
     7
 10
104.164
 20
180.81700000000001
 30
0.0
 11
104.09999999999999
 21
180.92099999999999
 31
0.0
  0
LINE
  5
22B
  8
0
 62
     7
 10
104.09999999999999
 20
180.92099999999999
 30
0.0
 11
104.164
 21
180.77600000000001
 31
0.0
  0
LINE
  5
22C
  8
0
 62
     7
 10
105.113
 20
180.82300000000001
 30
0.0
 11
105.035
 21
180.745
 31
0.0
  0
ARC
  5
22D
  8
0
 62
     7
 10
103.43556100000001
 20
192.35122200000001
 30
0.0
 40
1.4554009999999991
 50
117.230378
 51
155.30389400000001
  0
ARC
  5
22E
  8
0
 62
     7
 10
103.54362500000001
 20
192.20323400000001
 30
0.0
 40
1.6366810000000001
 50
86.256388999999999
 51
118.223708
  0
ARC
  5
22F
  8
0
 62
     7
 10
103.55636699999999
 20
182.66819899999999
 30
0.0
 40
1.6227830000000001
 50
207.21847
 51
273.32498800000002
  0
LINE
  5
230
  8
0
 62
     7
 10
104.96299999999999
 20
194.214
 30
0.0
 11
105.113
 21
194.06299999999999
 31
0.0
  0
ARC
  5
231
  8
0
 62
     7
 10
103.680285
 20
194.351653
 30
0.0
 40
0.516092
 50
266.69000499999999
 51
330.94420000000002
  0
ARC
  5
232
  8
0
 62
     7
 10
103.680877
 20
180.534706
 30
0.0
 40
0.5143390000000001
 50
24.383078000000001
 51
93.387290000000021
  0
LINE
  5
233
  8
0
 62
     7
 10
164.113
 20
186.31599999999989
 30
0.0
 11
163.08699999999999
 21
188.56700000000001
 31
0.0
  0
LINE
  5
234
  8
0
 62
     7
 10
162.74700000000001
 20
186.31599999999989
 30
0.0
 11
161.721
 21
188.56700000000001
 31
0.0
  0
LINE
  5
235
  8
0
 62
     7
 10
161.38200000000001
 20
186.31599999999989
 30
0.0
 11
160.35599999999999
 21
188.56700000000001
 31
0.0
  0
LINE
  5
236
  8
0
 62
     7
 10
160.017
 20
186.31599999999989
 30
0.0
 11
158.99100000000001
 21
188.56700000000001
 31
0.0
  0
LINE
  5
237
  8
0
 62
     7
 10
158.65199999999999
 20
186.31599999999989
 30
0.0
 11
157.626
 21
188.56700000000001
 31
0.0
  0
LINE
  5
238
  8
0
 62
     7
 10
157.286
 20
186.31599999999989
 30
0.0
 11
156.25999999999999
 21
188.56700000000001
 31
0.0
  0
LINE
  5
239
  8
0
 62
     7
 10
155.92099999999999
 20
186.31599999999989
 30
0.0
 11
154.89500000000001
 21
188.56700000000001
 31
0.0
  0
LINE
  5
23A
  8
0
 62
     7
 10
154.55600000000001
 20
186.31599999999989
 30
0.0
 11
153.53
 21
188.56700000000001
 31
0.0
  0
LINE
  5
23B
  8
0
 62
     7
 10
153.19
 20
186.31599999999989
 30
0.0
 11
152.16399999999999
 21
188.56700000000001
 31
0.0
  0
LINE
  5
23C
  8
0
 62
     7
 10
151.82499999999999
 20
186.31599999999989
 30
0.0
 11
150.79900000000001
 21
188.56700000000001
 31
0.0
  0
LINE
  5
23D
  8
0
 62
     7
 10
150.459
 20
186.31599999999989
 30
0.0
 11
149.43299999999999
 21
188.56700000000001
 31
0.0
  0
LINE
  5
23E
  8
0
 62
     7
 10
149.09399999999999
 20
186.31599999999989
 30
0.0
 11
148.0679999999999
 21
188.56700000000001
 31
0.0
  0
LINE
  5
23F
  8
0
 62
     7
 10
147.7289999999999
 20
186.31599999999989
 30
0.0
 11
146.703
 21
188.56700000000001
 31
0.0
  0
LINE
  5
240
  8
0
 62
     7
 10
146.363
 20
186.31599999999989
 30
0.0
 11
145.33699999999999
 21
188.56700000000001
 31
0.0
  0
LINE
  5
241
  8
0
 62
     7
 10
164.113
 20
186.7409999999999
 30
0.0
 11
167.613
 21
187.44200000000001
 31
0.0
  0
LINE
  5
242
  8
0
 62
     7
 10
164.113
 20
188.142
 30
0.0
 11
167.613
 21
187.44200000000001
 31
0.0
  0
LINE
  5
243
  8
0
 62
     7
 10
164.113
 20
186.7409999999999
 30
0.0
 11
145.113
 21
186.7409999999999
 31
0.0
  0
LINE
  5
244
  8
0
 62
     7
 10
164.113
 20
188.142
 30
0.0
 11
145.113
 21
188.142
 31
0.0
  0
ARC
  5
245
  8
0
 62
     7
 10
110.806224
 20
189.283918
 30
0.0
 40
9.3718570000000003
 50
282.66286300000002
 51
288.02891899999997
  0
ARC
  5
246
  8
0
 62
     7
 10
112.123496
 20
184.420965
 30
0.0
 40
4.3439569999999987
 50
277.46879100000001
 51
279.77036199999998
  0
ARC
  5
247
  8
0
 62
     7
 10
110.738017
 20
194.34702300000001
 30
0.0
 40
14.366135999999999
 50
274.21926200000001
 51
277.801716
  0
ARC
  5
248
  8
0
 62
     7
 10
110.039023
 20
202.65310199999999
 30
0.0
 40
22.701294000000001
 50
269.82807300000002
 51
274.43630300000001
  0
ARC
  5
249
  8
0
 62
     7
 10
109.97330599999999
 20
194.97367600000001
 30
0.0
 40
15.021765
 50
257.09111799999999
 51
269.99083200000001
  0
ARC
  5
24A
  8
0
 62
     7
 10
108.319335
 20
188.02470500000001
 30
0.0
 40
7.8791460000000004
 50
248.55246399999999
 51
257.52567900000003
  0
ARC
  5
24B
  8
0
 62
     7
 10
109.974924
 20
192.50535500000001
 30
0.0
 40
12.655263
 50
247.40505999999999
 51
248.99345199999999
  0
LINE
  5
24C
  8
0
  6
AIGENLINE001
 62
     7
 10
99.48520000000002
 20
187.44200000000001
 30
0.0
 11
169.65299999999999
 21
187.44200000000001
 31
0.0
  0
LINE
  5
24D
  8
0
 62
     7
 10
138.08000000000001
 20
194.11699999999999
 30
0.0
 11
138.08000000000001
 21
194.05799999999999
 31
0.0
  0
LINE
  5
24E
  8
0
 62
     7
 10
138.08000000000001
 20
194.05799999999999
 30
0.0
 11
138.08000000000001
 21
193.886
 31
0.0
  0
LINE
  5
24F
  8
0
 62
     7
 10
138.08000000000001
 20
193.886
 30
0.0
 11
138.08000000000001
 21
193.61000000000001
 31
0.0
  0
LINE
  5
250
  8
0
 62
     7
 10
138.08000000000001
 20
193.61000000000001
 30
0.0
 11
138.08000000000001
 21
193.22399999999999
 31
0.0
  0
LINE
  5
251
  8
0
 62
     7
 10
138.08000000000001
 20
193.22399999999999
 30
0.0
 11
138.08000000000001
 21
192.85499999999999
 31
0.0
  0
LINE
  5
252
  8
0
 62
     7
 10
138.08000000000001
 20
192.85499999999999
 30
0.0
 11
138.08000000000001
 21
192.43000000000001
 31
0.0
  0
LINE
  5
253
  8
0
 62
     7
 10
138.08000000000001
 20
192.43000000000001
 30
0.0
 11
138.08000000000001
 21
191.41
 31
0.0
  0
LINE
  5
254
  8
0
 62
     7
 10
138.08000000000001
 20
191.41
 30
0.0
 11
138.08000000000001
 21
190.83500000000001
 31
0.0
  0
LINE
  5
255
  8
0
 62
     7
 10
138.08000000000001
 20
190.83500000000001
 30
0.0
 11
138.08000000000001
 21
190.22200000000001
 31
0.0
  0
LINE
  5
256
  8
0
 62
     7
 10
138.08000000000001
 20
190.22200000000001
 30
0.0
 11
138.08000000000001
 21
189.59399999999999
 31
0.0
  0
LINE
  5
257
  8
0
 62
     7
 10
138.08000000000001
 20
189.59399999999999
 30
0.0
 11
138.08000000000001
 21
188.94399999999999
 31
0.0
  0
LINE
  5
258
  8
0
 62
     7
 10
138.08000000000001
 20
188.94399999999999
 30
0.0
 11
138.08000000000001
 21
187.65799999999999
 31
0.0
  0
LINE
  5
259
  8
0
 62
     7
 10
138.08000000000001
 20
187.65799999999999
 30
0.0
 11
138.08000000000001
 21
186.43799999999999
 31
0.0
  0
LINE
  5
25A
  8
0
 62
     7
 10
138.08000000000001
 20
186.43799999999999
 30
0.0
 11
138.08000000000001
 21
185.63999999999999
 31
0.0
  0
LINE
  5
25B
  8
0
 62
     7
 10
138.08000000000001
 20
185.63999999999999
 30
0.0
 11
138.08000000000001
 21
184.846
 31
0.0
  0
LINE
  5
25C
  8
0
 62
     7
 10
138.08000000000001
 20
184.846
 30
0.0
 11
138.08000000000001
 21
184.072
 31
0.0
  0
LINE
  5
25D
  8
0
 62
     7
 10
138.08000000000001
 20
184.072
 30
0.0
 11
138.08000000000001
 21
183.506
 31
0.0
  0
LINE
  5
25E
  8
0
 62
     7
 10
138.08000000000001
 20
183.506
 30
0.0
 11
138.08000000000001
 21
182.97999999999999
 31
0.0
  0
LINE
  5
25F
  8
0
 62
     7
 10
138.08000000000001
 20
182.97999999999999
 30
0.0
 11
138.08000000000001
 21
182.05199999999999
 31
0.0
  0
LINE
  5
260
  8
0
 62
     7
 10
138.08000000000001
 20
182.05199999999999
 30
0.0
 11
138.08000000000001
 21
181.672
 31
0.0
  0
LINE
  5
261
  8
0
 62
     7
 10
138.08000000000001
 20
181.672
 30
0.0
 11
138.08000000000001
 21
181.35300000000001
 31
0.0
  0
LINE
  5
262
  8
0
 62
     7
 10
138.08000000000001
 20
181.35300000000001
 30
0.0
 11
138.08000000000001
 21
181.10400000000001
 31
0.0
  0
LINE
  5
263
  8
0
 62
     7
 10
138.08000000000001
 20
181.10400000000001
 30
0.0
 11
138.08000000000001
 21
180.91900000000001
 31
0.0
  0
LINE
  5
264
  8
0
 62
     7
 10
138.08000000000001
 20
180.91900000000001
 30
0.0
 11
138.08000000000001
 21
180.75200000000001
 31
0.0
  0
LINE
  5
265
  8
0
 62
     7
 10
138.08000000000001
 20
180.75200000000001
 30
0.0
 11
138.08000000000001
 21
180.76400000000001
 31
0.0
  0
LINE
  5
266
  8
0
 62
     7
 10
141.089
 20
198.803
 30
0.0
 11
141.089
 21
176.07900000000001
 31
0.0
  0
LINE
  5
267
  8
0
 62
     7
 10
145.113
 20
173.191
 30
0.0
 11
145.113
 21
201.691
 31
0.0
  0
LINE
  5
268
  8
0
 62
     7
 10
142.60499999999999
 20
174.56399999999999
 30
0.0
 11
142.60499999999999
 21
200.31800000000001
 31
0.0
  0
LINE
  5
269
  8
0
 62
     7
 10
121.131
 20
184.42699999999999
 30
0.0
 11
121.131
 21
184.42500000000001
 31
0.0
  0
LINE
  5
26A
  8
0
 62
     7
 10
121.131
 20
184.42500000000001
 30
0.0
 11
121.131
 21
184.535
 31
0.0
  0
LINE
  5
26B
  8
0
 62
     7
 10
121.131
 20
184.535
 30
0.0
 11
121.131
 21
184.75599999999989
 31
0.0
  0
LINE
  5
26C
  8
0
 62
     7
 10
121.131
 20
184.75599999999989
 30
0.0
 11
121.131
 21
185.08199999999999
 31
0.0
  0
LINE
  5
26D
  8
0
 62
     7
 10
121.131
 20
185.08199999999999
 30
0.0
 11
121.131
 21
185.49799999999999
 31
0.0
  0
LINE
  5
26E
  8
0
 62
     7
 10
121.131
 20
185.49799999999999
 30
0.0
 11
121.131
 21
185.988
 31
0.0
  0
LINE
  5
26F
  8
0
 62
     7
 10
121.131
 20
185.988
 30
0.0
 11
121.131
 21
186.535
 31
0.0
  0
LINE
  5
270
  8
0
 62
     7
 10
121.131
 20
186.535
 30
0.0
 11
121.131
 21
187.11600000000001
 31
0.0
  0
LINE
  5
271
  8
0
 62
     7
 10
121.131
 20
187.11600000000001
 30
0.0
 11
121.131
 21
187.71000000000001
 31
0.0
  0
LINE
  5
272
  8
0
 62
     7
 10
121.131
 20
187.71000000000001
 30
0.0
 11
121.131
 21
188.29400000000001
 31
0.0
  0
LINE
  5
273
  8
0
 62
     7
 10
121.131
 20
188.29400000000001
 30
0.0
 11
121.131
 21
188.84399999999999
 31
0.0
  0
LINE
  5
274
  8
0
 62
     7
 10
121.131
 20
188.84399999999999
 30
0.0
 11
121.131
 21
189.34200000000001
 31
0.0
  0
LINE
  5
275
  8
0
 62
     7
 10
121.131
 20
189.34200000000001
 30
0.0
 11
121.131
 21
189.76599999999999
 31
0.0
  0
LINE
  5
276
  8
0
 62
     7
 10
121.131
 20
189.76599999999999
 30
0.0
 11
121.131
 21
190.09999999999999
 31
0.0
  0
LINE
  5
277
  8
0
 62
     7
 10
121.131
 20
190.09999999999999
 30
0.0
 11
121.131
 21
190.333
 31
0.0
  0
LINE
  5
278
  8
0
 62
     7
 10
121.131
 20
190.333
 30
0.0
 11
121.131
 21
190.45500000000001
 31
0.0
  0
LINE
  5
279
  8
0
 62
     7
 10
121.131
 20
190.45500000000001
 30
0.0
 11
121.131
 21
190.458
 31
0.0
  0
LINE
  5
27A
  8
0
 62
     7
 10
121.131
 20
184.108
 30
0.0
 11
121.131
 21
185.84200000000001
 31
0.0
  0
LINE
  5
27B
  8
0
 62
     7
 10
121.131
 20
185.84200000000001
 30
0.0
 11
121.131
 21
190.77699999999999
 31
0.0
  0
LINE
  5
27C
  8
0
 62
     7
 10
121.331
 20
183.90700000000001
 30
0.0
 11
121.331
 21
185.745
 31
0.0
  0
LINE
  5
27D
  8
0
 62
     7
 10
121.331
 20
185.745
 30
0.0
 11
121.331
 21
190.97799999999989
 31
0.0
  0
LINE
  5
27E
  8
0
 62
     7
 10
129.20400000000001
 20
180.87700000000001
 30
0.0
 11
129.20400000000001
 21
184.292
 31
0.0
  0
LINE
  5
27F
  8
0
 62
     7
 10
129.20400000000001
 20
184.292
 30
0.0
 11
129.20400000000001
 21
194.00700000000001
 31
0.0
  0
LINE
  5
280
  8
0
 62
     7
 10
134.81800000000001
 20
194.00700000000001
 30
0.0
 11
134.81800000000001
 21
180.87700000000001
 31
0.0
  0
LINE
  5
281
  8
0
 62
     7
 10
135.57300000000001
 20
194.20699999999999
 30
0.0
 11
135.57300000000001
 21
180.67400000000001
 31
0.0
  0
LINE
  5
282
  8
0
 62
     7
 10
138.08000000000001
 20
194.46000000000001
 30
0.0
 11
138.08000000000001
 21
180.42099999999999
 31
0.0
  0
LINE
  5
283
  8
0
 62
     7
 10
133.90600000000001
 20
194.36000000000001
 30
0.0
 11
133.90600000000001
 21
180.524
 31
0.0
  0
LINE
  5
284
  8
0
 62
     7
 10
133.54400000000001
 20
180.22499999999999
 30
0.0
 11
133.55500000000001
 21
180.22800000000001
 31
0.0
  0
ARC
  5
285
  8
0
 62
     7
 10
133.55409900000001
 20
180.231077
 30
0.0
 40
0.002951
 50
283.62191500000012
 51
67.124943999999999
  0
ARC
  5
286
  8
0
 62
     7
 10
133.51662400000001
 20
180.148404
 30
0.0
 40
0.09372
 50
65.663477000000015
 51
83.884600000000006
  0
ARC
  5
287
  8
0
 62
     7
 10
133.446361
 20
179.838753
 30
0.0
 40
0.410753
 50
78.733828000000017
 51
83.027007999999995
  0
ARC
  5
288
  8
0
 62
     7
 10
133.211918
 20
178.16147599999999
 30
0.0
 40
2.1042869999999989
 50
82.235045999999997
 51
87.680033999999992
  0
ARC
  5
289
  8
0
 62
     7
 10
132.865995
 20
173.865578
 30
0.0
 40
6.4129670000000001
 50
86.145442000000003
 51
88.308853999999997
  0
ARC
  5
28A
  8
0
 62
     7
 10
132.30619899999999
 20
157.304562
 30
0.0
 40
22.983398999999999
 50
88.132331000000008
 51
89.036116000000007
  0
ARC
  5
28B
  8
0
 62
     7
 10
132.11810800000001
 20
151.60242400000001
 30
0.0
 40
28.688043
 50
88.852086999999983
 51
89.459023999999985
  0
ARC
  5
28C
  8
0
 62
     7
 10
132.11810199999999
 20
147.67154600000001
 30
0.0
 40
32.618766000000001
 50
89.524203999999983
 51
90.135406000000003
  0
ARC
  5
28D
  8
0
 62
     7
 10
132.039806
 20
136.378827
 30
0.0
 40
43.911394000000001
 50
89.998419999999996
 51
90.393101999999999
  0
ARC
  5
28E
  8
0
 62
     7
 10
132.367357
 20
114.144595
 30
0.0
 40
66.147582
 50
90.544678000000005
 51
90.777453000000008
  0
ARC
  5
28F
  8
0
 62
     7
 10
131.84075000000001
 20
158.381956
 30
0.0
 40
21.907271000000001
 50
90.970186999999967
 51
91.876909999999995
  0
ARC
  5
290
  8
0
 62
     7
 10
131.588427
 20
166.92789500000001
 30
0.0
 40
13.357682
 50
91.995785999999981
 51
93.504854000000009
  0
ARC
  5
291
  8
0
 62
     7
 10
130.97522599999999
 20
177.663445
 30
0.0
 40
2.605100999999999
 50
94.47800500000001
 51
97.862324000000015
  0
ARC
  5
292
  8
0
 62
     7
 10
130.66636199999999
 20
179.933751
 30
0.0
 40
0.31392
 50
98.702393000000015
 51
107.54660199999999
  0
ARC
  5
293
  8
0
 62
     7
 10
130.57401999999999
 20
180.23052200000001
 30
0.0
 40
0.003428
 50
132.12285199999999
 51
282.58829200000002
  0
LINE
  5
294
  8
0
 62
     7
 10
130.57499999999999
 20
180.227
 30
0.0
 11
130.584
 21
180.22499999999999
 31
0.0
  0
ARC
  5
295
  8
0
 62
     7
 10
119.12743500000001
 20
183.38117099999999
 30
0.0
 40
14.439765
 50
2.3751859999999998
 51
3.647759999999999
  0
ARC
  5
296
  8
0
 62
     7
 10
129.52260200000001
 20
184.02533099999999
 30
0.0
 40
4.024716999999999
 50
3.9112779999999998
 51
9.2618939999999998
  0
ARC
  5
297
  8
0
 62
     7
 10
130.61868100000001
 20
184.190293
 30
0.0
 40
2.9164089999999989
 50
9.5290750000000006
 51
23.307320000000001
  0
ARC
  5
298
  8
0
 62
     7
 10
130.988876
 20
184.32650799999999
 30
0.0
 40
2.5226189999999988
 50
23.792773
 51
35.001292999999997
  0
ARC
  5
299
  8
0
 62
     7
 10
131.74186700000001
 20
184.82126199999999
 30
0.0
 40
1.6222449999999999
 50
35.942219999999999
 51
54.112259999999999
  0
ARC
  5
29A
  8
0
 62
     7
 10
131.999562
 20
185.14697100000001
 30
0.0
 40
1.207438
 50
54.959104000000011
 51
71.185525999999996
  0
ARC
  5
29B
  8
0
 62
     7
 10
132.05939599999999
 20
185.29598200000001
 30
0.0
 40
1.0471269999999999
 50
71.655034999999984
 51
91.00611600000002
  0
ARC
  5
29C
  8
0
 62
     7
 10
132.06786
 20
185.30106699999999
 30
0.0
 40
1.042227
 50
91.476268000000005
 51
108.42052099999999
  0
ARC
  5
29D
  8
0
 62
     7
 10
132.09289899999999
 20
185.22371299999989
 30
0.0
 40
1.1235289999999989
 50
108.385468
 51
123.681966
  0
ARC
  5
29E
  8
0
 62
     7
 10
132.237754
 20
184.98028299999999
 30
0.0
 40
1.4065030000000001
 50
123.092753
 51
142.41109700000001
  0
ARC
  5
29F
  8
0
 62
     7
 10
132.727666
 20
184.54993999999999
 30
0.0
 40
2.0576500000000002
 50
141.236898
 51
161.90072699999999
  0
ARC
  5
2A0
  8
0
 62
     7
 10
133.718695
 20
184.12671399999999
 30
0.0
 40
3.132547999999999
 50
160.17370600000001
 51
171.88854900000001
  0
ARC
  5
2A1
  8
0
 62
     7
 10
134.28860399999999
 20
184.00284600000001
 30
0.0
 40
3.7144720000000002
 50
171.23737299999999
 51
181.060159
  0
ARC
  5
2A2
  8
0
 62
     7
 10
134.64352199999999
 20
183.98107899999999
 30
0.0
 40
4.069024999999999
 50
180.66123300000001
 51
190.257957
  0
ARC
  5
2A3
  8
0
 62
     7
 10
133.798663
 20
183.858609
 30
0.0
 40
3.216000999999999
 50
190.79137900000001
 51
203.01572899999999
  0
ARC
  5
2A4
  8
0
 62
     7
 10
132.93758500000001
 20
183.51280600000001
 30
0.0
 40
2.288336999999999
 50
203.47619700000001
 51
215.75345899999999
  0
ARC
  5
2A5
  8
0
 62
     7
 10
132.40704600000001
 20
183.15754200000001
 30
0.0
 40
1.650347
 50
216.506258
 51
234.31344000000001
  0
ARC
  5
2A6
  8
0
 62
     7
 10
132.125552
 20
182.807515
 30
0.0
 40
1.2020869999999999
 50
235.47872899999999
 51
251.70343199999999
  0
ARC
  5
2A7
  8
0
 62
     7
 10
132.06708699999999
 20
182.64445799999999
 30
0.0
 40
1.0289280000000001
 50
251.943983
 51
271.54076099999997
  0
ARC
  5
2A8
  8
0
 62
     7
 10
132.058144
 20
182.672089
 30
0.0
 40
1.056821
 50
271.98520400000001
 51
288.63604400000003
  0
ARC
  5
2A9
  8
0
 62
     7
 10
132.0219919999999
 20
182.764151
 30
0.0
 40
1.155618
 50
288.87585899999999
 51
303.78317400000009
  0
ARC
  5
2AA
  8
0
 62
     7
 10
131.88981899999999
 20
182.98019300000001
 30
0.0
 40
1.4087139999999989
 50
303.365274
 51
322.74976900000001
  0
ARC
  5
2AB
  8
0
 62
     7
 10
131.47454400000001
 20
183.3453979999999
 30
0.0
 40
1.9607250000000001
 50
321.600146
 51
334.82970399999999
  0
ARC
  5
2AC
  8
0
 62
     7
 10
130.81100699999999
 20
183.68599
 30
0.0
 40
2.7062400000000002
 50
334.27834000000001
 51
340.53399200000001
  0
ARC
  5
2AD
  8
0
 62
     7
 10
130.499315
 20
183.80900700000001
 30
0.0
 40
3.0411349999999988
 50
340.30573700000002
 51
351.794783
  0
ARC
  5
2AE
  8
0
 62
     7
 10
129.895993
 20
183.907725
 30
0.0
 40
3.6523879999999989
 50
351.61278199999998
 51
357.78124200000002
  0
ARC
  5
2AF
  8
0
 62
     7
 10
116.433905
 20
184.60738000000001
 30
0.0
 40
17.132394999999999
 50
357.186125
 51
357.900038
  0
ARC
  5
2B0
  8
0
 62
     7
 10
119.896856
 20
190.61301700000001
 30
0.0
 40
13.670261
 50
2.4329740000000002
 51
3.743749999999999
  0
ARC
  5
2B1
  8
0
 62
     7
 10
129.73567600000001
 20
191.238787
 30
0.0
 40
3.8116199999999991
 50
4.0140880000000001
 51
9.5157059999999998
  0
ARC
  5
2B2
  8
0
 62
     7
 10
130.747895
 20
191.39442099999999
 30
0.0
 40
2.787633
 50
9.8002630000000011
 51
23.869581
  0
ARC
  5
2B3
  8
0
 62
     7
 10
131.0353199999999
 20
191.493616
 30
0.0
 40
2.484785
 50
24.459855000000001
 51
35.617752000000003
  0
ARC
  5
2B4
  8
0
 62
     7
 10
131.77493999999999
 20
191.98665399999999
 30
0.0
 40
1.596679999999999
 50
36.692031
 51
54.909376000000002
  0
ARC
  5
2B5
  8
0
 62
     7
 10
132.003738
 20
192.2815939999999
 30
0.0
 40
1.2239450000000001
 50
55.736081999999989
 51
71.654668999999998
  0
ARC
  5
2B6
  8
0
 62
     7
 10
132.06007299999999
 20
192.42607699999999
 30
0.0
 40
1.0691040000000001
 50
72.083236999999997
 51
91.021690000000007
  0
ARC
  5
2B7
  8
0
 62
     7
 10
132.06867399999999
 20
192.42197899999999
 30
0.0
 40
1.073388
 50
91.476859999999974
 51
107.91306400000001
  0
ARC
  5
2B8
  8
0
 62
     7
 10
132.12090499999999
 20
192.293027
 30
0.0
 40
1.2121959999999989
 50
108.38746399999999
 51
122.487866
  0
ARC
  5
2B9
  8
0
 62
     7
 10
132.23493300000001
 20
192.11648600000001
 30
0.0
 40
1.422356999999999
 50
122.542631
 51
141.406587
  0
ARC
  5
2BA
  8
0
 62
     7
 10
132.67552699999999
 20
191.72747699999999
 30
0.0
 40
2.009593999999999
 50
140.57378
 51
161.316979
  0
ARC
  5
2BB
  8
0
 62
     7
 10
133.57032699999999
 20
191.334091
 30
0.0
 40
2.9844970000000002
 50
159.66528400000001
 51
171.647437
  0
ARC
  5
2BC
  8
0
 62
     7
 10
134.127364
 20
191.21448899999999
 30
0.0
 40
3.5531959999999989
 50
171.04409899999999
 51
181.05238399999999
  0
ARC
  5
2BD
  8
0
 62
     7
 10
134.436296
 20
191.194908
 30
0.0
 40
3.8617989999999991
 50
180.67773399999999
 51
190.53027599999999
  0
ARC
  5
2BE
  8
0
 62
     7
 10
133.64042800000001
 20
191.07561899999999
 30
0.0
 40
3.0576629999999998
 50
191.05810600000001
 51
203.607697
  0
ARC
  5
2BF
  8
0
 62
     7
 10
132.890807
 20
190.77083300000001
 30
0.0
 40
2.2488189999999988
 50
204.14081899999999
 51
216.38985400000001
  0
ARC
  5
2C0
  8
0
 62
     7
 10
132.36424600000001
 20
190.413389
 30
0.0
 40
1.613062999999999
 50
217.26558299999999
 51
235.22878900000001
  0
ARC
  5
2C1
  8
0
 62
     7
 10
132.13571899999999
 20
190.123593
 30
0.0
 40
1.2448870000000001
 50
236.26208199999999
 51
251.86187100000001
  0
ARC
  5
2C2
  8
0
 62
     7
 10
132.07127700000001
 20
189.98515499999999
 30
0.0
 40
1.0934170000000001
 50
252.81262799999999
 51
271.230298
  0
ARC
  5
2C3
  8
0
 62
     7
 10
132.05701400000001
 20
189.98040599999999
 30
0.0
 40
1.0890699999999991
 50
271.98585200000002
 51
288.12734499999999
  0
ARC
  5
2C4
  8
0
 62
     7
 10
132.02240900000001
 20
190.06887499999999
 30
0.0
 40
1.1839269999999991
 50
288.38683500000002
 51
302.847421
  0
ARC
  5
2C5
  8
0
 62
     7
 10
131.8992209999999
 20
190.26098999999999
 30
0.0
 40
1.4121440000000001
 50
302.818555
 51
321.94391200000001
  0
ARC
  5
2C6
  8
0
 62
     7
 10
131.53493399999999
 20
190.593817
 30
0.0
 40
1.904522
 50
320.81532600000003
 51
334.164287
  0
ARC
  5
2C7
  8
0
 62
     7
 10
130.93717000000001
 20
190.90696199999999
 30
0.0
 40
2.5790919999999988
 50
333.69010200000008
 51
340.11937399999999
  0
ARC
  5
2C8
  8
0
 62
     7
 10
130.657937
 20
191.0264719999999
 30
0.0
 40
2.8823769999999991
 50
339.77289500000001
 51
351.58989600000001
  0
ARC
  5
2C9
  8
0
 62
     7
 10
130.081613
 20
191.12457499999999
 30
0.0
 40
3.466874999999999
 50
351.37906500000003
 51
357.78180600000002
  0
ARC
  5
2CA
  8
0
 62
     7
 10
116.07576
 20
191.85851600000001
 30
0.0
 40
17.491686999999999
 50
357.1551970000001
 51
357.82058699999999
  0
ARC
  5
2CB
  8
0
 62
     7
 10
130.65983299999999
 20
194.49902
 30
0.0
 40
0.177615
 50
97.009478999999999
 51
114.881289
  0
ARC
  5
2CC
  8
0
 62
     7
 10
130.917945
 20
192.551321
 30
0.0
 40
2.1423359999999998
 50
92.120817999999986
 51
97.504204999999985
  0
ARC
  5
2CD
  8
0
 62
     7
 10
131.30376799999999
 20
187.59173000000001
 30
0.0
 40
7.1156759999999988
 50
91.797960999999987
 51
93.747703999999999
  0
ARC
  5
2CE
  8
0
 62
     7
 10
131.63123300000001
 20
179.72860800000001
 30
0.0
 40
14.985417999999999
 50
90.714677000000023
 51
92.106116
  0
ARC
  5
2CF
  8
0
 62
     7
 10
132.02716799999999
 20
165.478645
 30
0.0
 40
29.240024999999999
 50
90.546684999999997
 51
91.142164000000008
  0
ARC
  5
2D0
  8
0
 62
     7
 10
132.01731899999999
 20
162.57426100000001
 30
0.0
 40
32.144204999999999
 50
89.861967000000007
 51
90.479736000000003
  0
ARC
  5
2D1
  8
0
 62
     7
 10
132.095957
 20
151.20778300000001
 30
0.0
 40
43.510589000000003
 50
89.605072000000007
 51
90.001575000000003
  0
ARC
  5
2D2
  8
0
 62
     7
 10
132.119799
 20
165.61313699999999
 30
0.0
 40
29.105511
 50
88.927505000000011
 51
89.456547999999984
  0
ARC
  5
2D3
  8
0
 62
     7
 10
131.876878
 20
156.03912299999999
 30
0.0
 40
38.682447000000003
 50
88.319677999999996
 51
88.833184999999986
  0
ARC
  5
2D4
  8
0
 62
     7
 10
132.54595800000001
 20
181.355358
 30
0.0
 40
13.357682
 50
86.495126999999997
 51
88.004193999999998
  0
ARC
  5
2D5
  8
0
 62
     7
 10
133.202742
 20
192.53385700000001
 30
0.0
 40
2.1601180000000002
 50
81.859166000000002
 51
85.757147000000003
  0
ARC
  5
2D6
  8
0
 62
     7
 10
133.49624399999999
 20
194.57888
 30
0.0
 40
0.094146
 50
59.68148399999999
 51
82.440492000000006
  0
LINE
  5
2D7
  8
0
 62
     7
 10
119.877
 20
190.21899999999999
 30
0.0
 11
119.877
 21
187.44200000000001
 31
0.0
  0
LINE
  5
2D8
  8
0
 62
     7
 10
119.877
 20
187.44200000000001
 30
0.0
 11
119.877
 21
184.66499999999999
 31
0.0
  0
LINE
  5
2D9
  8
0
 62
     7
 10
119.375
 20
190.72399999999999
 30
0.0
 11
119.375
 21
187.44200000000001
 31
0.0
  0
LINE
  5
2DA
  8
0
 62
     7
 10
119.375
 20
187.44200000000001
 30
0.0
 11
119.375
 21
184.16
 31
0.0
  0
LINE
  5
2DB
  8
0
 62
     7
 10
117.37
 20
190.72399999999999
 30
0.0
 11
117.37
 21
184.16
 31
0.0
  0
LINE
  5
2DC
  8
0
 62
     7
 10
114.759
 20
193.25
 30
0.0
 11
114.759
 21
181.63499999999999
 31
0.0
  0
LINE
  5
2DD
  8
0
 62
     7
 10
113.711
 20
194.512
 30
0.0
 11
113.711
 21
187.44200000000001
 31
0.0
  0
LINE
  5
2DE
  8
0
 62
     7
 10
113.70699999999999
 20
187.44200000000001
 30
0.0
 11
113.70699999999999
 21
180.37299999999999
 31
0.0
  0
ARC
  5
2DF
  8
0
 62
     7
 10
139.11560399999999
 20
180.76405800000001
 30
0.0
 40
1.0354270000000001
 50
180.8843479999999
 51
245.02192700000001
  0
ARC
  5
2E0
  8
0
 62
     7
 10
139.11505199999999
 20
194.11776900000001
 30
0.0
 40
1.03487
 50
114.95873899999999
 51
179.134987
  0
ARC
  5
2E1
  8
0
 62
     7
 10
136.92268200000001
 20
176.046718
 30
0.0
 40
4.1667069999999988
 50
0.4426700000000001
 51
65.079419000000001
  0
ARC
  5
2E2
  8
0
 62
     7
 10
136.87580700000001
 20
198.864915
 30
0.0
 40
4.213919999999999
 50
295.325783
 51
359.152128
  0
ARC
  5
2E3
  8
0
 62
     7
 10
142.604772
 20
176.07925399999999
 30
0.0
 40
1.515506999999999
 50
180.013035
 51
270.01304499999998
  0
ARC
  5
2E4
  8
0
 62
     7
 10
142.60477299999999
 20
198.80221399999999
 30
0.0
 40
1.515506999999999
 50
89.986975000000001
 51
179.98694599999999
  0
ARC
  5
2E5
  8
0
 62
     7
 10
145.11426
 20
176.641987
 30
0.0
 40
3.4514640000000001
 50
250.16047399999999
 51
269.98178899999999
  0
ARC
  5
2E6
  8
0
 62
     7
 10
144.868889
 20
175.80568500000001
 30
0.0
 40
2.582066999999999
 50
208.74981600000001
 51
248.983824
  0
ARC
  5
2E7
  8
0
 62
     7
 10
144.839079
 20
199.112156
 30
0.0
 40
2.5384980000000001
 50
107.013921
 51
151.6463169999999
  0
ARC
  5
2E8
  8
0
 62
     7
 10
145.074962
 20
198.44945999999999
 30
0.0
 40
3.2413660000000002
 50
89.324731999999997
 51
107.573415
  0
LINE
  5
2E9
  8
0
 62
     7
 10
121.131
 20
190.458
 30
0.0
 11
121.131
 21
190.77699999999999
 31
0.0
  0
LINE
  5
2EA
  8
0
 62
     7
 10
121.131
 20
184.108
 30
0.0
 11
121.131
 21
184.42699999999999
 31
0.0
  0
LINE
  5
2EB
  8
0
 62
     7
 10
121.131
 20
190.77699999999999
 30
0.0
 11
121.331
 21
190.97799999999989
 31
0.0
  0
LINE
  5
2EC
  8
0
 62
     7
 10
121.331
 20
183.90700000000001
 30
0.0
 11
121.131
 21
184.108
 31
0.0
  0
LINE
  5
2ED
  8
0
 62
     7
 10
125.518
 20
183.90799999999999
 30
0.0
 11
121.331
 21
183.90700000000001
 31
0.0
  0
LINE
  5
2EE
  8
0
 62
     7
 10
121.331
 20
190.97799999999989
 30
0.0
 11
125.518
 21
190.977
 31
0.0
  0
ARC
  5
2EF
  8
0
 62
     7
 10
124.443859
 20
205.543778
 30
0.0
 40
14.606009999999999
 50
274.21750200000002
 51
275.34715599999998
  0
ARC
  5
2F0
  8
0
 62
     7
 10
125.512659
 20
193.87385
 30
0.0
 40
2.887359
 50
275.81092999999998
 51
282.67926699999998
  0
ARC
  5
2F1
  8
0
 62
     7
 10
125.643985
 20
193.21466599999999
 30
0.0
 40
2.2154869999999991
 50
283.10760699999997
 51
303.55326000000002
  0
ARC
  5
2F2
  8
0
 62
     7
 10
125.40125500000001
 20
193.654685
 30
0.0
 40
2.7166549999999989
 50
302.690201
 51
312.29888899999997
  0
ARC
  5
2F3
  8
0
 62
     7
 10
125.472415
 20
193.534648
 30
0.0
 40
2.580133
 50
312.92407100000003
 51
323.91500500000001
  0
ARC
  5
2F4
  8
0
 62
     7
 10
125.594048
 20
193.46135200000001
 30
0.0
 40
2.4386959999999989
 50
323.623515
 51
336.05200100000002
  0
ARC
  5
2F5
  8
0
 62
     7
 10
125.70372399999999
 20
193.389331
 30
0.0
 40
2.3093270000000001
 50
336.5805299999999
 51
344.49258600000002
  0
ARC
  5
2F6
  8
0
 62
     7
 10
118.119682
 20
195.620508
 30
0.0
 40
10.214544
 50
343.80678699999999
 51
345.118448
  0
ARC
  5
2F7
  8
0
 62
     7
 10
116.18756500000001
 20
178.69556399999999
 30
0.0
 40
12.228064
 50
15.132479999999999
 51
16.489787
  0
ARC
  5
2F8
  8
0
 62
     7
 10
125.453323
 20
181.41136299999999
 30
0.0
 40
2.57267
 50
17.067383
 51
22.924087000000011
  0
ARC
  5
2F9
  8
0
 62
     7
 10
125.79076499999999
 20
181.53788
 30
0.0
 40
2.2126489999999999
 50
23.310242000000009
 51
37.014240999999998
  0
ARC
  5
2FA
  8
0
 62
     7
 10
125.467895
 20
181.34449000000001
 30
0.0
 40
2.5871879999999998
 50
36.129415999999999
 51
47.084552000000002
  0
ARC
  5
2FB
  8
0
 62
     7
 10
125.51889
 20
181.38586799999999
 30
0.0
 40
2.5221779999999989
 50
47.292896999999989
 51
57.64921300000001
  0
ARC
  5
2FC
  8
0
 62
     7
 10
125.52466
 20
181.39088899999999
 30
0.0
 40
2.51485
 50
57.699072999999991
 51
75.686165000000003
  0
ARC
  5
2FD
  8
0
 62
     7
 10
125.602113
 20
181.542821
 30
0.0
 40
2.3487840000000002
 50
76.600615000000005
 51
84.320801999999986
  0
ARC
  5
2FE
  8
0
 62
     7
 10
125.01039900000001
 20
176.32947100000001
 30
0.0
 40
7.5954499999999987
 50
83.770842000000002
 51
86.167897999999994
  0
ARC
  5
2FF
  8
0
 62
     7
 10
129.26213100000001
 20
182.179553
 30
0.0
 40
1.303598
 50
192.93619699999999
 51
267.42706299999998
  0
ARC
  5
300
  8
0
 62
     7
 10
129.26053899999999
 20
192.706827
 30
0.0
 40
1.301717999999999
 50
92.506513999999996
 51
167.111007
  0
LINE
  5
301
  8
0
 62
     7
 10
129.88900000000001
 20
180.87700000000001
 30
0.0
 11
129.20400000000001
 21
180.87700000000001
 31
0.0
  0
LINE
  5
302
  8
0
 62
     7
 10
129.20400000000001
 20
194.00700000000001
 30
0.0
 11
129.88900000000001
 21
194.00700000000001
 31
0.0
  0
LINE
  5
303
  8
0
 62
     7
 10
129.88900000000001
 20
194.00700000000001
 30
0.0
 11
129.911
 21
194.00899999999999
 31
0.0
  0
ARC
  5
304
  8
0
 62
     7
 10
129.88498999999999
 20
194.13714300000001
 30
0.0
 40
0.130782
 50
281.577991
 51
293.96466600000002
  0
ARC
  5
305
  8
0
 62
     7
 10
129.886135
 20
194.138825
 30
0.0
 40
0.131865
 50
293.21332699999999
 51
307.473184
  0
ARC
  5
306
  8
0
 62
     7
 10
129.860232
 20
194.159131
 30
0.0
 40
0.163945
 50
310.34124000000003
 51
323.40226000000001
  0
ARC
  5
307
  8
0
 62
     7
 10
129.38620299999999
 20
180.28852499999999
 30
0.0
 40
0.8078789999999999
 50
41.437373000000001
 51
44.100268999999997
  0
ARC
  5
308
  8
0
 62
     7
 10
129.879445
 20
180.731842
 30
0.0
 40
0.14728
 50
53.833336000000003
 51
66.526506000000012
  0
ARC
  5
309
  8
0
 62
     7
 10
129.90133800000001
 20
180.79843299999999
 30
0.0
 40
0.077746
 50
61.772820999999993
 51
82.684522000000001
  0
ARC
  5
30A
  8
0
 62
     7
 10
129.892202
 20
180.77520799999999
 30
0.0
 40
0.102129
 50
79.257905000000008
 51
92.077448000000018
  0
ARC
  5
30B
  8
0
 62
     7
 10
134.738212
 20
199.07504800000001
 30
0.0
 40
5.0683400000000001
 50
270.87609900000001
 51
272.99035499999991
  0
ARC
  5
30C
  8
0
 62
     7
 10
134.92926399999999
 20
195.160641
 30
0.0
 40
1.149375
 50
273.65903800000012
 51
282.04810800000001
  0
ARC
  5
30D
  8
0
 62
     7
 10
134.94431399999999
 20
195.01192499999999
 30
0.0
 40
1.0009269999999999
 50
282.98254800000001
 51
294.691711
  0
ARC
  5
30E
  8
0
 62
     7
 10
134.17760000000001
 20
196.74271100000001
 30
0.0
 40
2.893867999999999
 50
294.16902900000002
 51
298.82738799999998
  0
ARC
  5
30F
  8
0
 62
     7
 10
131.97920099999999
 20
173.868559
 30
0.0
 40
7.6960459999999999
 50
62.162870999999988
 51
63.869326999999991
  0
ARC
  5
310
  8
0
 62
     7
 10
134.90974399999999
 20
179.79410899999999
 30
0.0
 40
1.085674
 50
64.992918000000003
 51
76.174874000000003
  0
ARC
  5
311
  8
0
 62
     7
 10
134.98709299999999
 20
180.054551
 30
0.0
 40
0.814395
 50
77.080590000000001
 51
82.665676000000005
  0
ARC
  5
312
  8
0
 62
     7
 10
134.897941
 20
179.39443
 30
0.0
 40
1.4805019999999991
 50
82.504949999999994
 51
87.677922999999993
  0
ARC
  5
313
  8
0
 62
     7
 10
134.761245
 20
175.84882999999999
 30
0.0
 40
5.028734
 50
87.758500999999995
 51
89.379455000000007
  0
ARC
  5
314
  8
0
 62
     7
 10
137.96385699999999
 20
199.30078499999999
 30
0.0
 40
6.4009819999999991
 50
230.51697200000001
 51
232.33773099999999
  0
ARC
  5
315
  8
0
 62
     7
 10
134.80153999999999
 20
195.246297
 30
0.0
 40
1.2594190000000001
 50
233.523178
 51
238.00609399999999
  0
ARC
  5
316
  8
0
 62
     7
 10
134.65474499999999
 20
195.045771
 30
0.0
 40
1.011741
 50
239.039818
 51
254.82422399999999
  0
ARC
  5
317
  8
0
 62
     7
 10
134.72623400000001
 20
195.184878
 30
0.0
 40
1.1651670000000001
 50
253.2219200000001
 51
264.12106799999998
  0
ARC
  5
318
  8
0
 62
     7
 10
135.052145
 20
197.85575
 30
0.0
 40
3.8557059999999992
 50
263.368719
 51
266.48433
  0
ARC
  5
319
  8
0
 62
     7
 10
135.191427
 20
175.473311
 30
0.0
 40
5.4170030000000002
 50
93.977179000000007
 51
96.230221
  0
ARC
  5
31A
  8
0
 62
     7
 10
134.766929
 20
179.496151
 30
0.0
 40
1.371931999999999
 50
96.839315000000013
 51
105.951477
  0
ARC
  5
31B
  8
0
 62
     7
 10
134.76141200000001
 20
179.58478400000001
 30
0.0
 40
1.285337999999999
 50
106.80083999999999
 51
119.204328
  0
ARC
  5
31C
  8
0
 62
     7
 10
134.84872300000001
 20
179.571268
 30
0.0
 40
1.3415440000000001
 50
122.178962
 51
126.289311
  0
ARC
  5
31D
  8
0
 62
     7
 10
135.76934399999999
 20
178.339697
 30
0.0
 40
2.8791500000000001
 50
126.55069
 51
130.649126
  0
ARC
  5
31E
  8
0
 62
     7
 10
136.332584
 20
181.69028899999989
 30
0.0
 40
1.2688120000000001
 50
233.22300899999999
 51
269.89147700000001
  0
ARC
  5
31F
  8
0
 62
     7
 10
136.33022700000001
 20
193.19652400000001
 30
0.0
 40
1.26312
 50
90.002096000000009
 51
126.836494
  0
LINE
  5
320
  8
0
 62
     7
 10
138.08000000000001
 20
180.42099999999999
 30
0.0
 11
136.33000000000001
 21
180.42099999999999
 31
0.0
  0
LINE
  5
321
  8
0
 62
     7
 10
136.33000000000001
 20
194.46000000000001
 30
0.0
 11
138.08000000000001
 21
194.46000000000001
 31
0.0
  0
ARC
  5
322
  8
0
 62
     7
 10
132.100041
 20
182.227058
 30
0.0
 40
2.473349999999999
 50
305.77117099999998
 51
316.48814099999998
  0
ARC
  5
323
  8
0
 62
     7
 10
132.064333
 20
182.26368600000001
 30
0.0
 40
2.5239310000000001
 50
214.80177399999999
 51
234.004637
  0
ARC
  5
324
  8
0
 62
     7
 10
132.06686300000001
 20
192.620745
 30
0.0
 40
2.5260869999999991
 50
126.03076299999999
 51
145.22840500000001
  0
ARC
  5
325
  8
0
 62
     7
 10
131.99245999999999
 20
192.54136500000001
 30
0.0
 40
2.6313580000000001
 50
43.733142999999991
 51
53.782193000000007
  0
LINE
  5
326
  8
0
 62
     7
 10
121.131
 20
184.66499999999999
 30
0.0
 11
119.877
 21
184.66499999999999
 31
0.0
  0
LINE
  5
327
  8
0
 62
     7
 10
119.877
 20
190.21899999999999
 30
0.0
 11
121.131
 21
190.21899999999999
 31
0.0
  0
LINE
  5
328
  8
0
 62
     7
 10
119.375
 20
184.16
 30
0.0
 11
117.37
 21
184.16
 31
0.0
  0
LINE
  5
329
  8
0
 62
     7
 10
117.37
 20
190.72399999999999
 30
0.0
 11
119.375
 21
190.72399999999999
 31
0.0
  0
LINE
  5
32A
  8
0
 62
     7
 10
119.877
 20
184.66499999999999
 30
0.0
 11
119.375
 21
184.16
 31
0.0
  0
LINE
  5
32B
  8
0
 62
     7
 10
119.375
 20
190.72399999999999
 30
0.0
 11
119.877
 21
190.21899999999999
 31
0.0
  0
ARC
  5
32C
  8
0
 62
     7
 10
128.90138300000001
 20
197.83585099999991
 30
0.0
 40
15.000565999999999
 50
200.41492700000001
 51
201.65109799999999
  0
ARC
  5
32D
  8
0
 62
     7
 10
117.938897
 20
193.49708000000001
 30
0.0
 40
3.2107239999999999
 50
201.864957
 51
211.38118900000001
  0
ARC
  5
32E
  8
0
 62
     7
 10
117.18443499999999
 20
193.10951299999999
 30
0.0
 40
2.3656179999999991
 50
212.88289900000001
 51
234.612796
  0
ARC
  5
32F
  8
0
 62
     7
 10
117.318135
 20
193.32849300000001
 30
0.0
 40
2.6216289999999991
 50
235.00207499999999
 51
249.953395
  0
ARC
  5
330
  8
0
 62
     7
 10
117.093594
 20
192.79349099999999
 30
0.0
 40
2.0422579999999999
 50
250.72621599999999
 51
256.033413
  0
ARC
  5
331
  8
0
 62
     7
 10
117.137074
 20
192.96098499999999
 30
0.0
 40
2.2152949999999998
 50
255.987683
 51
263.76053999999999
  0
ARC
  5
332
  8
0
 62
     7
 10
117.413111
 20
195.15383499999999
 30
0.0
 40
4.4253029999999987
 50
263.29346800000002
 51
266.35688099999999
  0
ARC
  5
333
  8
0
 62
     7
 10
118.117144
 20
206.54038
 30
0.0
 40
15.833587
 50
266.43255099999999
 51
267.29404399999999
  0
ARC
  5
334
  8
0
 62
     7
 10
117.964961
 20
170.02334400000001
 30
0.0
 40
14.149307
 50
92.411406999999997
 51
93.669056999999995
  0
ARC
  5
335
  8
0
 62
     7
 10
117.254651
 20
181.33934199999999
 30
0.0
 40
2.8110900000000001
 50
93.980834000000016
 51
103.452465
  0
ARC
  5
336
  8
0
 62
     7
 10
117.134147
 20
182.02701099999999
 30
0.0
 40
2.1146869999999991
 50
104.61165099999999
 51
117.243083
  0
ARC
  5
337
  8
0
 62
     7
 10
117.625839
 20
180.97920500000001
 30
0.0
 40
3.2716189999999989
 50
116.49874800000001
 51
123.61778
  0
ARC
  5
338
  8
0
 62
     7
 10
116.991581
 20
181.90525400000001
 30
0.0
 40
2.1493500000000001
 50
123.205366
 51
135.30887300000001
  0
ARC
  5
339
  8
0
 62
     7
 10
116.82998600000001
 20
182.12345300000001
 30
0.0
 40
1.881472
 50
136.571887
 51
150.168003
  0
ARC
  5
33A
  8
0
 62
     7
 10
117.366514
 20
181.77489
 30
0.0
 40
2.5205489999999999
 50
149.36161299999989
 51
152.49524099999999
  0
ARC
  5
33B
  8
0
 62
     7
 10
118.770246
 20
181.03861699999999
 30
0.0
 40
4.1056509999999991
 50
152.42853500000001
 51
155.558348
  0
ARC
  5
33C
  8
0
 62
     7
 10
122.108805
 20
179.527974
 30
0.0
 40
7.7700740000000001
 50
155.60346799999999
 51
159.244799
  0
ARC
  5
33D
  8
0
 62
     7
 10
114.82961299999999
 20
182.285596
 30
0.0
 40
0.013985
 50
295.48887300000001
 51
342.96389399999998
  0
ARC
  5
33E
  8
0
 62
     7
 10
116.88113
 20
181.77348000000001
 30
0.0
 40
2.1056020000000002
 50
165.99016499999999
 51
166.27742900000001
  0
ARC
  5
33F
  8
0
 62
     7
 10
113.220214
 20
181.84810100000001
 30
0.0
 40
1.5533689999999989
 50
288.254347
 51
352.12221600000009
  0
ARC
  5
340
  8
0
 62
     7
 10
113.23426600000001
 20
193.04886999999999
 30
0.0
 40
1.5378750000000001
 50
7.5172869999999978
 51
72.10615
  0
ARC
  5
341
  8
0
 62
     7
 10
110.883375
 20
185.88178099999999
 30
0.0
 40
9.0806630000000013
 50
71.884977000000006
 51
77.423241000000004
  0
ARC
  5
342
  8
0
 62
     7
 10
112.121207
 20
190.45028099999999
 30
0.0
 40
4.3574749999999991
 50
80.229703000000001
 51
82.524154000000024
  0
ARC
  5
343
  8
0
 62
     7
 10
110.73172700000001
 20
180.47617199999999
 30
0.0
 40
14.427806
 50
82.206628000000009
 51
85.773759999999996
  0
ARC
  5
344
  8
0
 62
     7
 10
110.04004
 20
172.25879599999999
 30
0.0
 40
22.673967999999999
 50
85.560918999999998
 51
90.174706000000015
  0
ARC
  5
345
  8
0
 62
     7
 10
109.97330599999999
 20
179.91089400000001
 30
0.0
 40
15.021765
 50
90.009168000000003
 51
102.90888199999991
  0
ARC
  5
346
  8
0
 62
     7
 10
108.32128400000001
 20
186.85112599999999
 30
0.0
 40
7.8880990000000004
 50
102.474435
 51
111.527457
  0
ARC
  5
347
  8
0
 62
     7
 10
110.002836
 20
182.31056100000001
 30
0.0
 40
12.729371
 50
111.06880200000001
 51
112.59220500000001
  0
ARC
  5
348
  8
0
 62
     7
 10
112.081991
 20
116.00623299999999
 30
0.0
 40
10.934766
 50
201.37939600000001
 51
204.23881399999999
  0
ARC
  5
349
  8
0
 62
     7
 10
112.069918
 20
116.192554
 30
0.0
 40
10.957105
 50
179.98798500000001
 51
181.285202
  0
ARC
  5
34A
  8
0
 62
     7
 10
112.60070899999999
 20
116.18659100000001
 30
0.0
 40
11.487899000000001
 50
155.915031
 51
179.958797
  0
LINE
  5
34B
  8
0
 62
     7
 10
105.113
 20
122.816
 30
0.0
 11
105.113
 21
109.425
 31
0.0
  0
LINE
  5
34C
  8
0
 62
     7
 10
104.175
 20
109.425
 30
0.0
 11
104.96299999999999
 21
109.425
 31
0.0
  0
LINE
  5
34D
  8
0
 62
     7
 10
104.96299999999999
 20
122.965
 30
0.0
 11
104.175
 21
122.965
 31
0.0
  0
LINE
  5
34E
  8
0
 62
     7
 10
104.175
 20
122.965
 30
0.0
 11
104.96299999999999
 21
122.965
 31
0.0
  0
LINE
  5
34F
  8
0
 62
     7
 10
104.175
 20
109.443
 30
0.0
 11
104.96299999999999
 21
109.443
 31
0.0
  0
LINE
  5
350
  8
0
 62
     7
 10
104.96299999999999
 20
109.42700000000001
 30
0.0
 11
104.175
 21
109.42700000000001
 31
0.0
  0
LINE
  5
351
  8
0
 62
     7
 10
104.175
 20
122.959
 30
0.0
 11
104.96299999999999
 21
122.959
 31
0.0
  0
LINE
  5
352
  8
0
 62
     7
 10
104.96299999999999
 20
122.94499999999999
 30
0.0
 11
104.175
 21
122.94499999999999
 31
0.0
  0
LINE
  5
353
  8
0
 62
     7
 10
105.113
 20
109.57599999999999
 30
0.0
 11
104.998
 21
109.464
 31
0.0
  0
LINE
  5
354
  8
0
 62
     7
 10
104.998
 20
109.476
 30
0.0
 11
105.113
 21
109.599
 31
0.0
  0
LINE
  5
355
  8
0
 62
     7
 10
104.175
 20
122.94499999999999
 30
0.0
 11
104.96299999999999
 21
122.94499999999999
 31
0.0
  0
LINE
  5
356
  8
0
 62
     7
 10
104.175
 20
109.498
 30
0.0
 11
104.96299999999999
 21
109.498
 31
0.0
  0
LINE
  5
357
  8
0
 62
     7
 10
104.96299999999999
 20
109.45999999999999
 30
0.0
 11
104.175
 21
109.45999999999999
 31
0.0
  0
LINE
  5
358
  8
0
 62
     7
 10
104.175
 20
122.92
 30
0.0
 11
104.96299999999999
 21
122.92
 31
0.0
  0
LINE
  5
359
  8
0
 62
     7
 10
104.96299999999999
 20
122.88800000000001
 30
0.0
 11
104.175
 21
122.88800000000001
 31
0.0
  0
LINE
  5
35A
  8
0
 62
     7
 10
105.113
 20
109.602
 30
0.0
 11
104.998
 21
109.498
 31
0.0
  0
LINE
  5
35B
  8
0
 62
     7
 10
104.998
 20
109.529
 30
0.0
 11
105.113
 21
109.65900000000001
 31
0.0
  0
LINE
  5
35C
  8
0
 62
     7
 10
104.164
 20
109.529
 30
0.0
 11
104.998
 21
109.529
 31
0.0
  0
LINE
  5
35D
  8
0
 62
     7
 10
104.175
 20
122.887
 30
0.0
 11
104.96299999999999
 21
122.887
 31
0.0
  0
LINE
  5
35E
  8
0
 62
     7
 10
104.175
 20
109.59
 30
0.0
 11
104.96299999999999
 21
109.59
 31
0.0
  0
LINE
  5
35F
  8
0
 62
     7
 10
104.96299999999999
 20
109.529
 30
0.0
 11
104.175
 21
109.529
 31
0.0
  0
LINE
  5
360
  8
0
 62
     7
 10
104.175
 20
122.845
 30
0.0
 11
104.96299999999999
 21
122.845
 31
0.0
  0
LINE
  5
361
  8
0
 62
     7
 10
104.96299999999999
 20
122.79300000000001
 30
0.0
 11
104.175
 21
122.79300000000001
 31
0.0
  0
LINE
  5
362
  8
0
 62
     7
 10
105.113
 20
109.664
 30
0.0
 11
104.998
 21
109.569
 31
0.0
  0
LINE
  5
363
  8
0
 62
     7
 10
104.96299999999999
 20
109.59
 30
0.0
 11
104.96299999999999
 21
109.529
 31
0.0
  0
LINE
  5
364
  8
0
 62
     7
 10
104.998
 20
109.61799999999999
 30
0.0
 11
105.113
 21
109.755
 31
0.0
  0
LINE
  5
365
  8
0
 62
     7
 10
104.164
 20
109.61799999999999
 30
0.0
 11
104.998
 21
109.61799999999999
 31
0.0
  0
LINE
  5
366
  8
0
 62
     7
 10
104.175
 20
122.79300000000001
 30
0.0
 11
104.96299999999999
 21
122.79300000000001
 31
0.0
  0
LINE
  5
367
  8
0
 62
     7
 10
104.175
 20
109.718
 30
0.0
 11
104.96299999999999
 21
109.718
 31
0.0
  0
LINE
  5
368
  8
0
 62
     7
 10
104.96299999999999
 20
109.63500000000001
 30
0.0
 11
104.175
 21
109.63500000000001
 31
0.0
  0
LINE
  5
369
  8
0
 62
     7
 10
104.175
 20
122.73399999999999
 30
0.0
 11
104.96299999999999
 21
122.73399999999999
 31
0.0
  0
LINE
  5
36A
  8
0
 62
     7
 10
104.96299999999999
 20
122.663
 30
0.0
 11
104.175
 21
122.663
 31
0.0
  0
LINE
  5
36B
  8
0
 62
     7
 10
105.113
 20
109.761
 30
0.0
 11
104.998
 21
109.676
 31
0.0
  0
LINE
  5
36C
  8
0
 62
     7
 10
104.96299999999999
 20
109.718
 30
0.0
 11
104.96299999999999
 21
109.63500000000001
 31
0.0
  0
LINE
  5
36D
  8
0
 62
     7
 10
104.998
 20
109.744
 30
0.0
 11
105.113
 21
109.88800000000001
 31
0.0
  0
LINE
  5
36E
  8
0
 62
     7
 10
104.164
 20
109.744
 30
0.0
 11
104.998
 21
109.744
 31
0.0
  0
LINE
  5
36F
  8
0
 62
     7
 10
104.173
 20
122.663
 30
0.0
 11
104.965
 21
122.663
 31
0.0
  0
LINE
  5
370
  8
0
 62
     7
 10
104.175
 20
109.881
 30
0.0
 11
104.96299999999999
 21
109.881
 31
0.0
  0
LINE
  5
371
  8
0
 62
     7
 10
104.96299999999999
 20
109.77800000000001
 30
0.0
 11
104.175
 21
109.77800000000001
 31
0.0
  0
LINE
  5
372
  8
0
 62
     7
 10
104.175
 20
122.58499999999999
 30
0.0
 11
104.96299999999999
 21
122.58499999999999
 31
0.0
  0
LINE
  5
373
  8
0
 62
     7
 10
104.96299999999999
 20
122.499
 30
0.0
 11
104.175
 21
122.499
 31
0.0
  0
LINE
  5
374
  8
0
 62
     7
 10
105.113
 20
109.893
 30
0.0
 11
104.998
 21
109.819
 31
0.0
  0
LINE
  5
375
  8
0
 62
     7
 10
104.96299999999999
 20
109.881
 30
0.0
 11
104.96299999999999
 21
109.77800000000001
 31
0.0
  0
LINE
  5
376
  8
0
 62
     7
 10
104.998
 20
109.90300000000001
 30
0.0
 11
105.113
 21
110.054
 31
0.0
  0
LINE
  5
377
  8
0
 62
     7
 10
104.164
 20
109.90300000000001
 30
0.0
 11
104.998
 21
109.90300000000001
 31
0.0
  0
LINE
  5
378
  8
0
 62
     7
 10
104.173
 20
122.497
 30
0.0
 11
104.965
 21
122.497
 31
0.0
  0
LINE
  5
379
  8
0
 62
     7
 10
104.175
 20
110.08
 30
0.0
 11
104.96299999999999
 21
110.08
 31
0.0
  0
LINE
  5
37A
  8
0
 62
     7
 10
104.96299999999999
 20
109.955
 30
0.0
 11
104.175
 21
109.955
 31
0.0
  0
LINE
  5
37B
  8
0
 62
     7
 10
104.175
 20
122.404
 30
0.0
 11
104.96299999999999
 21
122.404
 31
0.0
  0
LINE
  5
37C
  8
0
 62
     7
 10
104.96299999999999
 20
122.29900000000001
 30
0.0
 11
104.175
 21
122.29900000000001
 31
0.0
  0
LINE
  5
37D
  8
0
 62
     7
 10
104.164
 20
110.098
 30
0.0
 11
104.998
 21
110.098
 31
0.0
  0
LINE
  5
37E
  8
0
 62
     7
 10
104.998
 20
110.098
 30
0.0
 11
105.113
 21
110.253
 31
0.0
  0
LINE
  5
37F
  8
0
 62
     7
 10
105.113
 20
110.06100000000001
 30
0.0
 11
104.998
 21
109.998
 31
0.0
  0
LINE
  5
380
  8
0
 62
     7
 10
104.96299999999999
 20
110.08
 30
0.0
 11
104.96299999999999
 21
109.955
 31
0.0
  0
LINE
  5
381
  8
0
 62
     7
 10
104.173
 20
122.298
 30
0.0
 11
104.965
 21
122.298
 31
0.0
  0
LINE
  5
382
  8
0
 62
     7
 10
104.175
 20
110.31100000000001
 30
0.0
 11
104.96299999999999
 21
110.31100000000001
 31
0.0
  0
LINE
  5
383
  8
0
 62
     7
 10
104.96299999999999
 20
110.167
 30
0.0
 11
104.175
 21
110.167
 31
0.0
  0
LINE
  5
384
  8
0
 62
     7
 10
104.164
 20
110.32599999999999
 30
0.0
 11
104.996
 21
110.32599999999999
 31
0.0
  0
LINE
  5
385
  8
0
 62
     7
 10
104.996
 20
110.32599999999999
 30
0.0
 11
105.113
 21
110.486
 31
0.0
  0
LINE
  5
386
  8
0
 62
     7
 10
105.113
 20
110.262
 30
0.0
 11
104.998
 21
110.20999999999999
 31
0.0
  0
LINE
  5
387
  8
0
 62
     7
 10
104.96299999999999
 20
110.31100000000001
 30
0.0
 11
104.96299999999999
 21
110.167
 31
0.0
  0
LINE
  5
388
  8
0
 62
     7
 10
104.175
 20
122.187
 30
0.0
 11
104.96299999999999
 21
122.187
 31
0.0
  0
LINE
  5
389
  8
0
 62
     7
 10
104.96299999999999
 20
122.066
 30
0.0
 11
104.175
 21
122.066
 31
0.0
  0
LINE
  5
38A
  8
0
 62
     7
 10
104.173
 20
122.065
 30
0.0
 11
104.967
 21
122.065
 31
0.0
  0
LINE
  5
38B
  8
0
 62
     7
 10
104.164
 20
110.587
 30
0.0
 11
104.996
 21
110.587
 31
0.0
  0
LINE
  5
38C
  8
0
 62
     7
 10
104.996
 20
110.587
 30
0.0
 11
105.113
 21
110.749
 31
0.0
  0
LINE
  5
38D
  8
0
 62
     7
 10
105.113
 20
110.495
 30
0.0
 11
104.996
 21
110.45399999999999
 31
0.0
  0
LINE
  5
38E
  8
0
 62
     7
 10
104.175
 20
110.574
 30
0.0
 11
104.96299999999999
 21
110.574
 31
0.0
  0
LINE
  5
38F
  8
0
 62
     7
 10
104.96299999999999
 20
110.574
 30
0.0
 11
104.96299999999999
 21
110.413
 31
0.0
  0
LINE
  5
390
  8
0
 62
     7
 10
104.96299999999999
 20
110.413
 30
0.0
 11
104.175
 21
110.413
 31
0.0
  0
LINE
  5
391
  8
0
 62
     7
 10
104.175
 20
121.94
 30
0.0
 11
104.96299999999999
 21
121.94
 31
0.0
  0
LINE
  5
392
  8
0
 62
     7
 10
104.96299999999999
 20
121.801
 30
0.0
 11
104.175
 21
121.801
 31
0.0
  0
LINE
  5
393
  8
0
 62
     7
 10
104.173
 20
121.801
 30
0.0
 11
104.967
 21
121.801
 31
0.0
  0
LINE
  5
394
  8
0
 62
     7
 10
104.175
 20
110.869
 30
0.0
 11
104.96299999999999
 21
110.869
 31
0.0
  0
LINE
  5
395
  8
0
 62
     7
 10
104.96299999999999
 20
110.688
 30
0.0
 11
104.175
 21
110.688
 31
0.0
  0
LINE
  5
396
  8
0
 62
     7
 10
105.113
 20
110.76000000000001
 30
0.0
 11
104.996
 21
110.73
 31
0.0
  0
LINE
  5
397
  8
0
 62
     7
 10
104.96299999999999
 20
110.869
 30
0.0
 11
104.96299999999999
 21
110.688
 31
0.0
  0
LINE
  5
398
  8
0
 62
     7
 10
104.996
 20
110.878
 30
0.0
 11
105.113
 21
111.044
 31
0.0
  0
LINE
  5
399
  8
0
 62
     7
 10
104.164
 20
110.878
 30
0.0
 11
104.996
 21
110.878
 31
0.0
  0
LINE
  5
39A
  8
0
 62
     7
 10
104.175
 20
121.661
 30
0.0
 11
104.96299999999999
 21
121.661
 31
0.0
  0
LINE
  5
39B
  8
0
 62
     7
 10
104.96299999999999
 20
121.506
 30
0.0
 11
104.175
 21
121.506
 31
0.0
  0
LINE
  5
39C
  8
0
 62
     7
 10
104.173
 20
121.504
 30
0.0
 11
104.967
 21
121.504
 31
0.0
  0
LINE
  5
39D
  8
0
 62
     7
 10
104.164
 20
111.199
 30
0.0
 11
104.994
 21
111.199
 31
0.0
  0
LINE
  5
39E
  8
0
 62
     7
 10
104.994
 20
111.199
 30
0.0
 11
105.113
 21
111.366
 31
0.0
  0
LINE
  5
39F
  8
0
 62
     7
 10
105.113
 20
111.054
 30
0.0
 11
104.994
 21
111.035
 31
0.0
  0
LINE
  5
3A0
  8
0
 62
     7
 10
104.175
 20
111.193
 30
0.0
 11
104.96299999999999
 21
111.193
 31
0.0
  0
LINE
  5
3A1
  8
0
 62
     7
 10
104.96299999999999
 20
111.193
 30
0.0
 11
104.96299999999999
 21
110.995
 31
0.0
  0
LINE
  5
3A2
  8
0
 62
     7
 10
104.96299999999999
 20
110.995
 30
0.0
 11
104.175
 21
110.995
 31
0.0
  0
LINE
  5
3A3
  8
0
 62
     7
 10
104.175
 20
121.352
 30
0.0
 11
104.96299999999999
 21
121.352
 31
0.0
  0
LINE
  5
3A4
  8
0
 62
     7
 10
104.96299999999999
 20
121.181
 30
0.0
 11
104.175
 21
121.181
 31
0.0
  0
LINE
  5
3A5
  8
0
 62
     7
 10
104.173
 20
121.181
 30
0.0
 11
104.968
 21
121.181
 31
0.0
  0
LINE
  5
3A6
  8
0
 62
     7
 10
104.164
 20
111.547
 30
0.0
 11
104.994
 21
111.547
 31
0.0
  0
LINE
  5
3A7
  8
0
 62
     7
 10
104.994
 20
111.547
 30
0.0
 11
105.113
 21
111.714
 31
0.0
  0
LINE
  5
3A8
  8
0
 62
     7
 10
105.113
 20
111.376
 30
0.0
 11
104.994
 21
111.37
 31
0.0
  0
LINE
  5
3A9
  8
0
 62
     7
 10
104.175
 20
111.54300000000001
 30
0.0
 11
104.96299999999999
 21
111.54300000000001
 31
0.0
  0
LINE
  5
3AA
  8
0
 62
     7
 10
104.96299999999999
 20
111.54300000000001
 30
0.0
 11
104.96299999999999
 21
111.331
 31
0.0
  0
LINE
  5
3AB
  8
0
 62
     7
 10
104.96299999999999
 20
111.331
 30
0.0
 11
104.175
 21
111.331
 31
0.0
  0
LINE
  5
3AC
  8
0
 62
     7
 10
104.175
 20
121.015
 30
0.0
 11
104.96299999999999
 21
121.015
 31
0.0
  0
LINE
  5
3AD
  8
0
 62
     7
 10
104.96299999999999
 20
120.83
 30
0.0
 11
104.175
 21
120.83
 31
0.0
  0
LINE
  5
3AE
  8
0
 62
     7
 10
104.173
 20
120.82899999999999
 30
0.0
 11
104.968
 21
120.82899999999999
 31
0.0
  0
LINE
  5
3AF
  8
0
 62
     7
 10
104.98699999999999
 20
111.724
 30
0.0
 11
105.113
 21
111.724
 31
0.0
  0
LINE
  5
3B0
  8
0
 62
     7
 10
104.104
 20
111.724
 30
0.0
 11
104.166
 21
111.724
 31
0.0
  0
LINE
  5
3B1
  8
0
 62
     7
 10
104.119
 20
120.652
 30
0.0
 11
105.096
 21
120.652
 31
0.0
  0
LINE
  5
3B2
  8
0
 62
     7
 10
104.166
 20
111.919
 30
0.0
 11
104.992
 21
111.919
 31
0.0
  0
LINE
  5
3B3
  8
0
 62
     7
 10
104.992
 20
111.919
 30
0.0
 11
105.113
 21
112.089
 31
0.0
  0
LINE
  5
3B4
  8
0
 62
     7
 10
105.113
 20
111.724
 30
0.0
 11
104.992
 21
111.73099999999999
 31
0.0
  0
LINE
  5
3B5
  8
0
 62
     7
 10
104.175
 20
111.919
 30
0.0
 11
104.96299999999999
 21
111.919
 31
0.0
  0
LINE
  5
3B6
  8
0
 62
     7
 10
104.96299999999999
 20
111.919
 30
0.0
 11
104.96299999999999
 21
111.693
 31
0.0
  0
LINE
  5
3B7
  8
0
 62
     7
 10
104.96299999999999
 20
111.693
 30
0.0
 11
104.175
 21
111.693
 31
0.0
  0
LINE
  5
3B8
  8
0
 62
     7
 10
104.175
 20
120.652
 30
0.0
 11
104.96299999999999
 21
120.652
 31
0.0
  0
LINE
  5
3B9
  8
0
 62
     7
 10
104.96299999999999
 20
120.453
 30
0.0
 11
104.175
 21
120.453
 31
0.0
  0
LINE
  5
3BA
  8
0
 62
     7
 10
104.17100000000001
 20
120.453
 30
0.0
 11
104.97
 21
120.453
 31
0.0
  0
LINE
  5
3BB
  8
0
 62
     7
 10
104.97499999999999
 20
112.096
 30
0.0
 11
105.113
 21
112.096
 31
0.0
  0
LINE
  5
3BC
  8
0
 62
     7
 10
104.104
 20
112.096
 30
0.0
 11
104.17
 21
112.096
 31
0.0
  0
LINE
  5
3BD
  8
0
 62
     7
 10
104.117
 20
120.277
 30
0.0
 11
105.09699999999999
 21
120.277
 31
0.0
  0
LINE
  5
3BE
  8
0
 62
     7
 10
104.991
 20
112.31699999999999
 30
0.0
 11
105.113
 21
112.48399999999999
 31
0.0
  0
LINE
  5
3BF
  8
0
 62
     7
 10
105.113
 20
112.096
 30
0.0
 11
104.992
 21
112.117
 31
0.0
  0
LINE
  5
3C0
  8
0
 62
     7
 10
104.175
 20
112.319
 30
0.0
 11
104.96299999999999
 21
112.319
 31
0.0
  0
LINE
  5
3C1
  8
0
 62
     7
 10
104.96299999999999
 20
112.319
 30
0.0
 11
104.96299999999999
 21
112.08
 31
0.0
  0
LINE
  5
3C2
  8
0
 62
     7
 10
104.96299999999999
 20
112.08
 30
0.0
 11
104.175
 21
112.08
 31
0.0
  0
LINE
  5
3C3
  8
0
 62
     7
 10
104.96299999999999
 20
120.053
 30
0.0
 11
104.175
 21
120.053
 31
0.0
  0
LINE
  5
3C4
  8
0
 62
     7
 10
104.175
 20
120.265
 30
0.0
 11
104.96299999999999
 21
120.265
 31
0.0
  0
LINE
  5
3C5
  8
0
 62
     7
 10
104.96299999999999
 20
112.491
 30
0.0
 11
105.113
 21
112.491
 31
0.0
  0
LINE
  5
3C6
  8
0
 62
     7
 10
104.10599999999999
 20
112.491
 30
0.0
 11
104.175
 21
112.491
 31
0.0
  0
LINE
  5
3C7
  8
0
 62
     7
 10
104.117
 20
119.879
 30
0.0
 11
105.09699999999999
 21
119.879
 31
0.0
  0
LINE
  5
3C8
  8
0
 62
     7
 10
104.991
 20
112.735
 30
0.0
 11
105.113
 21
112.902
 31
0.0
  0
LINE
  5
3C9
  8
0
 62
     7
 10
105.113
 20
112.492
 30
0.0
 11
104.991
 21
112.524
 31
0.0
  0
LINE
  5
3CA
  8
0
 62
     7
 10
104.175
 20
112.739
 30
0.0
 11
104.96299999999999
 21
112.739
 31
0.0
  0
LINE
  5
3CB
  8
0
 62
     7
 10
104.96299999999999
 20
112.739
 30
0.0
 11
104.96299999999999
 21
112.491
 31
0.0
  0
LINE
  5
3CC
  8
0
 62
     7
 10
104.96299999999999
 20
112.491
 30
0.0
 11
104.175
 21
112.491
 31
0.0
  0
LINE
  5
3CD
  8
0
 62
     7
 10
104.96299999999999
 20
119.63
 30
0.0
 11
104.175
 21
119.63
 31
0.0
  0
LINE
  5
3CE
  8
0
 62
     7
 10
104.175
 20
119.855
 30
0.0
 11
104.96299999999999
 21
119.855
 31
0.0
  0
LINE
  5
3CF
  8
0
 62
     7
 10
104.10599999999999
 20
112.90600000000001
 30
0.0
 11
105.113
 21
112.90600000000001
 31
0.0
  0
LINE
  5
3D0
  8
0
 62
     7
 10
104.116
 20
119.462
 30
0.0
 11
105.099
 21
119.462
 31
0.0
  0
LINE
  5
3D1
  8
0
 62
     7
 10
104.175
 20
119.426
 30
0.0
 11
104.96299999999999
 21
119.426
 31
0.0
  0
LINE
  5
3D2
  8
0
 62
     7
 10
104.96299999999999
 20
119.19
 30
0.0
 11
104.175
 21
119.19
 31
0.0
  0
LINE
  5
3D3
  8
0
 62
     7
 10
104.175
 20
113.179
 30
0.0
 11
104.96299999999999
 21
113.179
 31
0.0
  0
LINE
  5
3D4
  8
0
 62
     7
 10
104.96299999999999
 20
112.92
 30
0.0
 11
104.175
 21
112.92
 31
0.0
  0
LINE
  5
3D5
  8
0
 62
     7
 10
104.989
 20
113.17100000000001
 30
0.0
 11
105.113
 21
113.33499999999999
 31
0.0
  0
LINE
  5
3D6
  8
0
 62
     7
 10
105.113
 20
112.907
 30
0.0
 11
104.991
 21
112.952
 31
0.0
  0
LINE
  5
3D7
  8
0
 62
     7
 10
104.96299999999999
 20
113.179
 30
0.0
 11
104.96299999999999
 21
112.92
 31
0.0
  0
LINE
  5
3D8
  8
0
 62
     7
 10
104.10599999999999
 20
113.339
 30
0.0
 11
105.113
 21
113.339
 31
0.0
  0
LINE
  5
3D9
  8
0
 62
     7
 10
104.116
 20
119.027
 30
0.0
 11
105.101
 21
119.027
 31
0.0
  0
LINE
  5
3DA
  8
0
 62
     7
 10
104.175
 20
118.97799999999999
 30
0.0
 11
104.96299999999999
 21
118.97799999999999
 31
0.0
  0
LINE
  5
3DB
  8
0
 62
     7
 10
104.96299999999999
 20
118.732
 30
0.0
 11
104.175
 21
118.732
 31
0.0
  0
LINE
  5
3DC
  8
0
 62
     7
 10
104.175
 20
113.634
 30
0.0
 11
104.96299999999999
 21
113.634
 31
0.0
  0
LINE
  5
3DD
  8
0
 62
     7
 10
104.96299999999999
 20
113.367
 30
0.0
 11
104.175
 21
113.367
 31
0.0
  0
LINE
  5
3DE
  8
0
 62
     7
 10
104.989
 20
113.625
 30
0.0
 11
105.113
 21
113.78700000000001
 31
0.0
  0
LINE
  5
3DF
  8
0
 62
     7
 10
105.113
 20
113.34
 30
0.0
 11
104.989
 21
113.39700000000001
 31
0.0
  0
LINE
  5
3E0
  8
0
 62
     7
 10
104.96299999999999
 20
113.634
 30
0.0
 11
104.96299999999999
 21
113.367
 31
0.0
  0
LINE
  5
3E1
  8
0
 62
     7
 10
104.108
 20
113.78700000000001
 30
0.0
 11
105.113
 21
113.78700000000001
 31
0.0
  0
LINE
  5
3E2
  8
0
 62
     7
 10
104.116
 20
118.575
 30
0.0
 11
105.101
 21
118.575
 31
0.0
  0
LINE
  5
3E3
  8
0
 62
     7
 10
104.175
 20
118.51600000000001
 30
0.0
 11
104.96299999999999
 21
118.51600000000001
 31
0.0
  0
LINE
  5
3E4
  8
0
 62
     7
 10
104.96299999999999
 20
118.262
 30
0.0
 11
104.175
 21
118.262
 31
0.0
  0
LINE
  5
3E5
  8
0
 62
     7
 10
104.175
 20
114.10299999999999
 30
0.0
 11
104.96299999999999
 21
114.10299999999999
 31
0.0
  0
LINE
  5
3E6
  8
0
 62
     7
 10
104.96299999999999
 20
113.831
 30
0.0
 11
104.175
 21
113.831
 31
0.0
  0
LINE
  5
3E7
  8
0
 62
     7
 10
104.108
 20
114.25
 30
0.0
 11
105.113
 21
114.25
 31
0.0
  0
LINE
  5
3E8
  8
0
 62
     7
 10
104.114
 20
118.11199999999999
 30
0.0
 11
105.102
 21
118.11199999999999
 31
0.0
  0
LINE
  5
3E9
  8
0
 62
     7
 10
104.96299999999999
 20
117.779
 30
0.0
 11
104.175
 21
117.779
 31
0.0
  0
LINE
  5
3EA
  8
0
 62
     7
 10
104.175
 20
118.041
 30
0.0
 11
104.96299999999999
 21
118.041
 31
0.0
  0
LINE
  5
3EB
  8
0
 62
     7
 10
104.175
 20
114.584
 30
0.0
 11
104.96299999999999
 21
114.584
 31
0.0
  0
LINE
  5
3EC
  8
0
 62
     7
 10
104.96299999999999
 20
114.30800000000001
 30
0.0
 11
104.175
 21
114.30800000000001
 31
0.0
  0
LINE
  5
3ED
  8
0
 62
     7
 10
104.10899999999999
 20
114.72199999999999
 30
0.0
 11
105.111
 21
114.72199999999999
 31
0.0
  0
LINE
  5
3EE
  8
0
 62
     7
 10
104.114
 20
117.63800000000001
 30
0.0
 11
105.104
 21
117.63800000000001
 31
0.0
  0
LINE
  5
3EF
  8
0
 62
     7
 10
104.175
 20
117.556
 30
0.0
 11
104.96299999999999
 21
117.556
 31
0.0
  0
LINE
  5
3F0
  8
0
 62
     7
 10
104.96299999999999
 20
117.288
 30
0.0
 11
104.175
 21
117.288
 31
0.0
  0
LINE
  5
3F1
  8
0
 62
     7
 10
104.175
 20
115.072
 30
0.0
 11
104.96299999999999
 21
115.072
 31
0.0
  0
LINE
  5
3F2
  8
0
 62
     7
 10
104.96299999999999
 20
114.795
 30
0.0
 11
104.175
 21
114.795
 31
0.0
  0
LINE
  5
3F3
  8
0
 62
     7
 10
104.10899999999999
 20
115.203
 30
0.0
 11
105.111
 21
115.203
 31
0.0
  0
LINE
  5
3F4
  8
0
 62
     7
 10
104.113
 20
117.15600000000001
 30
0.0
 11
105.10599999999999
 21
117.15600000000001
 31
0.0
  0
LINE
  5
3F5
  8
0
 62
     7
 10
102.113
 20
110.679
 30
0.0
 11
102.113
 21
121.712
 31
0.0
  0
LINE
  5
3F6
  8
0
 62
     7
 10
104.113
 20
116.66800000000001
 30
0.0
 11
105.10599999999999
 21
116.66800000000001
 31
0.0
  0
LINE
  5
3F7
  8
0
 62
     7
 10
104.175
 20
117.065
 30
0.0
 11
104.96299999999999
 21
117.065
 31
0.0
  0
LINE
  5
3F8
  8
0
 62
     7
 10
104.96299999999999
 20
116.79000000000001
 30
0.0
 11
104.175
 21
116.79000000000001
 31
0.0
  0
LINE
  5
3F9
  8
0
 62
     7
 10
104.111
 20
115.69
 30
0.0
 11
105.10899999999999
 21
115.69
 31
0.0
  0
LINE
  5
3FA
  8
0
 62
     7
 10
104.175
 20
115.569
 30
0.0
 11
104.96299999999999
 21
115.569
 31
0.0
  0
LINE
  5
3FB
  8
0
 62
     7
 10
104.96299999999999
 20
115.289
 30
0.0
 11
104.175
 21
115.289
 31
0.0
  0
LINE
  5
3FC
  8
0
 62
     7
 10
104.111
 20
116.178
 30
0.0
 11
105.107
 21
116.178
 31
0.0
  0
LINE
  5
3FD
  8
0
 62
     7
 10
104.175
 20
116.566
 30
0.0
 11
104.96299999999999
 21
116.566
 31
0.0
  0
LINE
  5
3FE
  8
0
 62
     7
 10
104.96299999999999
 20
116.289
 30
0.0
 11
104.175
 21
116.289
 31
0.0
  0
LINE
  5
3FF
  8
0
 62
     7
 10
104.175
 20
116.06699999999999
 30
0.0
 11
104.96299999999999
 21
116.06699999999999
 31
0.0
  0
LINE
  5
400
  8
0
 62
     7
 10
104.96299999999999
 20
115.788
 30
0.0
 11
104.175
 21
115.788
 31
0.0
  0
LINE
  5
401
  8
0
 62
     7
 10
104.96299999999999
 20
122.959
 30
0.0
 11
105.089
 21
122.837
 31
0.0
  0
LINE
  5
402
  8
0
 62
     7
 10
105.089
 20
122.837
 30
0.0
 11
104.96299999999999
 21
122.965
 31
0.0
  0
LINE
  5
403
  8
0
 62
     7
 10
105.113
 20
113.788
 30
0.0
 11
104.98699999999999
 21
113.85899999999999
 31
0.0
  0
LINE
  5
404
  8
0
 62
     7
 10
104.96299999999999
 20
114.10299999999999
 30
0.0
 11
104.96299999999999
 21
113.831
 31
0.0
  0
LINE
  5
405
  8
0
 62
     7
 10
104.98699999999999
 20
114.093
 30
0.0
 11
105.113
 21
114.25
 31
0.0
  0
LINE
  5
406
  8
0
 62
     7
 10
105.113
 20
114.25
 30
0.0
 11
104.985
 21
114.33199999999999
 31
0.0
  0
LINE
  5
407
  8
0
 62
     7
 10
104.96299999999999
 20
114.584
 30
0.0
 11
104.96299999999999
 21
114.30800000000001
 31
0.0
  0
LINE
  5
408
  8
0
 62
     7
 10
104.985
 20
114.572
 30
0.0
 11
105.111
 21
114.72199999999999
 31
0.0
  0
LINE
  5
409
  8
0
 62
     7
 10
105.111
 20
114.72199999999999
 30
0.0
 11
104.985
 21
114.816
 31
0.0
  0
LINE
  5
40A
  8
0
 62
     7
 10
104.96299999999999
 20
115.072
 30
0.0
 11
104.96299999999999
 21
114.795
 31
0.0
  0
LINE
  5
40B
  8
0
 62
     7
 10
104.983
 20
115.06
 30
0.0
 11
105.111
 21
115.203
 31
0.0
  0
LINE
  5
40C
  8
0
 62
     7
 10
105.111
 20
115.203
 30
0.0
 11
104.983
 21
115.307
 31
0.0
  0
LINE
  5
40D
  8
0
 62
     7
 10
104.96299999999999
 20
115.569
 30
0.0
 11
104.96299999999999
 21
115.289
 31
0.0
  0
LINE
  5
40E
  8
0
 62
     7
 10
104.983
 20
115.55500000000001
 30
0.0
 11
105.10899999999999
 21
115.69
 31
0.0
  0
LINE
  5
40F
  8
0
 62
     7
 10
105.10899999999999
 20
115.69
 30
0.0
 11
104.982
 21
115.804
 31
0.0
  0
LINE
  5
410
  8
0
 62
     7
 10
104.96299999999999
 20
116.06699999999999
 30
0.0
 11
104.96299999999999
 21
115.788
 31
0.0
  0
LINE
  5
411
  8
0
 62
     7
 10
104.982
 20
116.05200000000001
 30
0.0
 11
105.107
 21
116.178
 31
0.0
  0
LINE
  5
412
  8
0
 62
     7
 10
105.107
 20
116.178
 30
0.0
 11
104.98
 21
116.304
 31
0.0
  0
LINE
  5
413
  8
0
 62
     7
 10
104.96299999999999
 20
116.566
 30
0.0
 11
104.96299999999999
 21
116.289
 31
0.0
  0
LINE
  5
414
  8
0
 62
     7
 10
104.98
 20
116.55200000000001
 30
0.0
 11
105.10599999999999
 21
116.66800000000001
 31
0.0
  0
LINE
  5
415
  8
0
 62
     7
 10
105.10599999999999
 20
116.66800000000001
 30
0.0
 11
104.98
 21
116.80200000000001
 31
0.0
  0
LINE
  5
416
  8
0
 62
     7
 10
104.96299999999999
 20
117.065
 30
0.0
 11
104.96299999999999
 21
116.79000000000001
 31
0.0
  0
LINE
  5
417
  8
0
 62
     7
 10
104.97799999999999
 20
117.04900000000001
 30
0.0
 11
105.10599999999999
 21
117.15600000000001
 31
0.0
  0
LINE
  5
418
  8
0
 62
     7
 10
105.10599999999999
 20
117.15600000000001
 30
0.0
 11
104.97799999999999
 21
117.297
 31
0.0
  0
LINE
  5
419
  8
0
 62
     7
 10
104.96299999999999
 20
117.556
 30
0.0
 11
104.96299999999999
 21
117.288
 31
0.0
  0
LINE
  5
41A
  8
0
 62
     7
 10
104.97799999999999
 20
117.54300000000001
 30
0.0
 11
105.104
 21
117.63800000000001
 31
0.0
  0
LINE
  5
41B
  8
0
 62
     7
 10
105.104
 20
117.63800000000001
 30
0.0
 11
104.977
 21
117.786
 31
0.0
  0
LINE
  5
41C
  8
0
 62
     7
 10
104.96299999999999
 20
118.041
 30
0.0
 11
104.96299999999999
 21
117.779
 31
0.0
  0
LINE
  5
41D
  8
0
 62
     7
 10
104.977
 20
118.027
 30
0.0
 11
105.102
 21
118.11199999999999
 31
0.0
  0
LINE
  5
41E
  8
0
 62
     7
 10
105.102
 20
118.11199999999999
 30
0.0
 11
104.977
 21
118.267
 31
0.0
  0
LINE
  5
41F
  8
0
 62
     7
 10
104.96299999999999
 20
118.51600000000001
 30
0.0
 11
104.96299999999999
 21
118.262
 31
0.0
  0
LINE
  5
420
  8
0
 62
     7
 10
104.97499999999999
 20
118.502
 30
0.0
 11
105.101
 21
118.575
 31
0.0
  0
LINE
  5
421
  8
0
 62
     7
 10
105.101
 20
118.575
 30
0.0
 11
104.97499999999999
 21
118.73699999999999
 31
0.0
  0
LINE
  5
422
  8
0
 62
     7
 10
104.96299999999999
 20
118.97799999999999
 30
0.0
 11
104.96299999999999
 21
118.732
 31
0.0
  0
LINE
  5
423
  8
0
 62
     7
 10
104.973
 20
118.965
 30
0.0
 11
105.101
 21
119.027
 31
0.0
  0
LINE
  5
424
  8
0
 62
     7
 10
105.101
 20
119.027
 30
0.0
 11
104.973
 21
119.193
 31
0.0
  0
LINE
  5
425
  8
0
 62
     7
 10
104.96299999999999
 20
119.426
 30
0.0
 11
104.96299999999999
 21
119.19
 31
0.0
  0
LINE
  5
426
  8
0
 62
     7
 10
104.973
 20
119.413
 30
0.0
 11
105.099
 21
119.462
 31
0.0
  0
LINE
  5
427
  8
0
 62
     7
 10
105.099
 20
119.462
 30
0.0
 11
104.97199999999999
 21
119.63200000000001
 31
0.0
  0
LINE
  5
428
  8
0
 62
     7
 10
104.96299999999999
 20
119.855
 30
0.0
 11
104.96299999999999
 21
119.63
 31
0.0
  0
LINE
  5
429
  8
0
 62
     7
 10
104.97199999999999
 20
119.84399999999999
 30
0.0
 11
105.09699999999999
 21
119.879
 31
0.0
  0
LINE
  5
42A
  8
0
 62
     7
 10
105.09699999999999
 20
119.879
 30
0.0
 11
104.97199999999999
 21
120.053
 31
0.0
  0
LINE
  5
42B
  8
0
 62
     7
 10
104.96299999999999
 20
120.265
 30
0.0
 11
104.96299999999999
 21
120.053
 31
0.0
  0
LINE
  5
42C
  8
0
 62
     7
 10
104.97
 20
120.255
 30
0.0
 11
105.09699999999999
 21
120.277
 31
0.0
  0
LINE
  5
42D
  8
0
 62
     7
 10
105.09699999999999
 20
120.277
 30
0.0
 11
104.97
 21
120.453
 31
0.0
  0
LINE
  5
42E
  8
0
 62
     7
 10
104.96299999999999
 20
120.652
 30
0.0
 11
104.96299999999999
 21
120.453
 31
0.0
  0
LINE
  5
42F
  8
0
 62
     7
 10
104.97
 20
120.643
 30
0.0
 11
105.096
 21
120.652
 31
0.0
  0
LINE
  5
430
  8
0
 62
     7
 10
105.096
 20
120.652
 30
0.0
 11
104.968
 21
120.82899999999999
 31
0.0
  0
LINE
  5
431
  8
0
 62
     7
 10
104.96299999999999
 20
121.015
 30
0.0
 11
104.96299999999999
 21
120.83
 31
0.0
  0
LINE
  5
432
  8
0
 62
     7
 10
104.968
 20
121.00700000000001
 30
0.0
 11
105.09399999999999
 21
121.004
 31
0.0
  0
LINE
  5
433
  8
0
 62
     7
 10
105.09399999999999
 20
121.004
 30
0.0
 11
104.968
 21
121.181
 31
0.0
  0
LINE
  5
434
  8
0
 62
     7
 10
104.96299999999999
 20
121.352
 30
0.0
 11
104.96299999999999
 21
121.181
 31
0.0
  0
LINE
  5
435
  8
0
 62
     7
 10
104.968
 20
121.345
 30
0.0
 11
105.09399999999999
 21
121.328
 31
0.0
  0
LINE
  5
436
  8
0
 62
     7
 10
105.09399999999999
 20
121.328
 30
0.0
 11
104.967
 21
121.504
 31
0.0
  0
LINE
  5
437
  8
0
 62
     7
 10
104.96299999999999
 20
121.661
 30
0.0
 11
104.96299999999999
 21
121.506
 31
0.0
  0
LINE
  5
438
  8
0
 62
     7
 10
104.967
 20
121.655
 30
0.0
 11
105.09399999999999
 21
121.625
 31
0.0
  0
LINE
  5
439
  8
0
 62
     7
 10
105.09399999999999
 20
121.625
 30
0.0
 11
104.967
 21
121.801
 31
0.0
  0
LINE
  5
43A
  8
0
 62
     7
 10
104.96299999999999
 20
121.94
 30
0.0
 11
104.96299999999999
 21
121.801
 31
0.0
  0
LINE
  5
43B
  8
0
 62
     7
 10
104.967
 20
121.93600000000001
 30
0.0
 11
105.092
 21
121.892
 31
0.0
  0
LINE
  5
43C
  8
0
 62
     7
 10
105.092
 20
121.892
 30
0.0
 11
104.967
 21
122.065
 31
0.0
  0
LINE
  5
43D
  8
0
 62
     7
 10
104.96299999999999
 20
122.187
 30
0.0
 11
104.96299999999999
 21
122.066
 31
0.0
  0
LINE
  5
43E
  8
0
 62
     7
 10
104.965
 20
122.185
 30
0.0
 11
105.092
 21
122.129
 31
0.0
  0
LINE
  5
43F
  8
0
 62
     7
 10
105.092
 20
122.129
 30
0.0
 11
104.965
 21
122.298
 31
0.0
  0
LINE
  5
440
  8
0
 62
     7
 10
104.96299999999999
 20
122.404
 30
0.0
 11
104.96299999999999
 21
122.29900000000001
 31
0.0
  0
LINE
  5
441
  8
0
 62
     7
 10
104.965
 20
122.401
 30
0.0
 11
105.09099999999999
 21
122.333
 31
0.0
  0
LINE
  5
442
  8
0
 62
     7
 10
105.09099999999999
 20
122.333
 30
0.0
 11
104.965
 21
122.497
 31
0.0
  0
LINE
  5
443
  8
0
 62
     7
 10
104.96299999999999
 20
122.58499999999999
 30
0.0
 11
104.96299999999999
 21
122.499
 31
0.0
  0
LINE
  5
444
  8
0
 62
     7
 10
104.965
 20
122.583
 30
0.0
 11
105.09099999999999
 21
122.504
 31
0.0
  0
LINE
  5
445
  8
0
 62
     7
 10
105.09099999999999
 20
122.504
 30
0.0
 11
104.965
 21
122.663
 31
0.0
  0
LINE
  5
446
  8
0
 62
     7
 10
104.96299999999999
 20
122.73399999999999
 30
0.0
 11
104.96299999999999
 21
122.663
 31
0.0
  0
LINE
  5
447
  8
0
 62
     7
 10
104.96299999999999
 20
122.732
 30
0.0
 11
105.09099999999999
 21
122.64
 31
0.0
  0
LINE
  5
448
  8
0
 62
     7
 10
105.09099999999999
 20
122.64
 30
0.0
 11
104.96299999999999
 21
122.79300000000001
 31
0.0
  0
LINE
  5
449
  8
0
 62
     7
 10
104.96299999999999
 20
122.843
 30
0.0
 11
105.09099999999999
 21
122.742
 31
0.0
  0
LINE
  5
44A
  8
0
 62
     7
 10
105.09099999999999
 20
122.742
 30
0.0
 11
104.96299999999999
 21
122.887
 31
0.0
  0
LINE
  5
44B
  8
0
 62
     7
 10
104.96299999999999
 20
122.92
 30
0.0
 11
105.089
 21
122.807
 31
0.0
  0
LINE
  5
44C
  8
0
 62
     7
 10
105.089
 20
122.807
 30
0.0
 11
104.96299999999999
 21
122.94499999999999
 31
0.0
  0
LINE
  5
44D
  8
0
 62
     7
 10
104.175
 20
122.887
 30
0.0
 11
104.123
 21
122.742
 31
0.0
  0
LINE
  5
44E
  8
0
 62
     7
 10
104.123
 20
122.742
 30
0.0
 11
104.175
 21
122.843
 31
0.0
  0
LINE
  5
44F
  8
0
 62
     7
 10
104.175
 20
122.79300000000001
 30
0.0
 11
104.121
 21
122.64
 31
0.0
  0
LINE
  5
450
  8
0
 62
     7
 10
104.121
 20
122.64
 30
0.0
 11
104.173
 21
122.732
 31
0.0
  0
LINE
  5
451
  8
0
 62
     7
 10
104.175
 20
122.663
 30
0.0
 11
104.175
 21
122.73399999999999
 31
0.0
  0
LINE
  5
452
  8
0
 62
     7
 10
104.173
 20
122.663
 30
0.0
 11
104.121
 21
122.504
 31
0.0
  0
LINE
  5
453
  8
0
 62
     7
 10
104.121
 20
122.504
 30
0.0
 11
104.173
 21
122.583
 31
0.0
  0
LINE
  5
454
  8
0
 62
     7
 10
104.175
 20
122.499
 30
0.0
 11
104.175
 21
122.58499999999999
 31
0.0
  0
LINE
  5
455
  8
0
 62
     7
 10
104.173
 20
122.497
 30
0.0
 11
104.121
 21
122.333
 31
0.0
  0
LINE
  5
456
  8
0
 62
     7
 10
104.121
 20
122.333
 30
0.0
 11
104.173
 21
122.401
 31
0.0
  0
LINE
  5
457
  8
0
 62
     7
 10
104.175
 20
122.29900000000001
 30
0.0
 11
104.175
 21
122.404
 31
0.0
  0
LINE
  5
458
  8
0
 62
     7
 10
104.173
 20
122.298
 30
0.0
 11
104.121
 21
122.129
 31
0.0
  0
LINE
  5
459
  8
0
 62
     7
 10
104.121
 20
122.129
 30
0.0
 11
104.173
 21
122.185
 31
0.0
  0
LINE
  5
45A
  8
0
 62
     7
 10
104.175
 20
122.066
 30
0.0
 11
104.175
 21
122.187
 31
0.0
  0
LINE
  5
45B
  8
0
 62
     7
 10
104.173
 20
122.065
 30
0.0
 11
104.121
 21
121.892
 31
0.0
  0
LINE
  5
45C
  8
0
 62
     7
 10
104.121
 20
121.892
 30
0.0
 11
104.173
 21
121.93600000000001
 31
0.0
  0
LINE
  5
45D
  8
0
 62
     7
 10
104.175
 20
121.801
 30
0.0
 11
104.175
 21
121.94
 31
0.0
  0
LINE
  5
45E
  8
0
 62
     7
 10
104.173
 20
121.801
 30
0.0
 11
104.119
 21
121.625
 31
0.0
  0
LINE
  5
45F
  8
0
 62
     7
 10
104.119
 20
121.625
 30
0.0
 11
104.173
 21
121.655
 31
0.0
  0
LINE
  5
460
  8
0
 62
     7
 10
104.175
 20
121.506
 30
0.0
 11
104.175
 21
121.661
 31
0.0
  0
LINE
  5
461
  8
0
 62
     7
 10
104.173
 20
121.504
 30
0.0
 11
104.119
 21
121.328
 31
0.0
  0
LINE
  5
462
  8
0
 62
     7
 10
104.119
 20
121.328
 30
0.0
 11
104.173
 21
121.345
 31
0.0
  0
LINE
  5
463
  8
0
 62
     7
 10
104.175
 20
121.181
 30
0.0
 11
104.175
 21
121.352
 31
0.0
  0
LINE
  5
464
  8
0
 62
     7
 10
104.173
 20
121.181
 30
0.0
 11
104.119
 21
121.004
 31
0.0
  0
LINE
  5
465
  8
0
 62
     7
 10
104.119
 20
121.004
 30
0.0
 11
104.173
 21
121.00700000000001
 31
0.0
  0
LINE
  5
466
  8
0
 62
     7
 10
104.175
 20
120.83
 30
0.0
 11
104.175
 21
121.015
 31
0.0
  0
LINE
  5
467
  8
0
 62
     7
 10
104.173
 20
120.82899999999999
 30
0.0
 11
104.119
 21
120.652
 31
0.0
  0
LINE
  5
468
  8
0
 62
     7
 10
104.119
 20
120.652
 30
0.0
 11
104.173
 21
120.643
 31
0.0
  0
LINE
  5
469
  8
0
 62
     7
 10
104.175
 20
120.453
 30
0.0
 11
104.175
 21
120.652
 31
0.0
  0
LINE
  5
46A
  8
0
 62
     7
 10
104.17100000000001
 20
120.453
 30
0.0
 11
104.117
 21
120.277
 31
0.0
  0
LINE
  5
46B
  8
0
 62
     7
 10
104.117
 20
120.277
 30
0.0
 11
104.17100000000001
 21
120.255
 31
0.0
  0
LINE
  5
46C
  8
0
 62
     7
 10
104.175
 20
120.053
 30
0.0
 11
104.175
 21
120.265
 31
0.0
  0
LINE
  5
46D
  8
0
 62
     7
 10
104.17100000000001
 20
120.053
 30
0.0
 11
104.117
 21
119.879
 31
0.0
  0
LINE
  5
46E
  8
0
 62
     7
 10
104.117
 20
119.879
 30
0.0
 11
104.17100000000001
 21
119.84399999999999
 31
0.0
  0
LINE
  5
46F
  8
0
 62
     7
 10
104.175
 20
119.63
 30
0.0
 11
104.175
 21
119.855
 31
0.0
  0
LINE
  5
470
  8
0
 62
     7
 10
104.17100000000001
 20
119.63200000000001
 30
0.0
 11
104.116
 21
119.462
 31
0.0
  0
LINE
  5
471
  8
0
 62
     7
 10
104.116
 20
119.462
 30
0.0
 11
104.17100000000001
 21
119.413
 31
0.0
  0
LINE
  5
472
  8
0
 62
     7
 10
104.175
 20
119.19
 30
0.0
 11
104.175
 21
119.426
 31
0.0
  0
LINE
  5
473
  8
0
 62
     7
 10
104.17100000000001
 20
119.193
 30
0.0
 11
104.116
 21
119.027
 31
0.0
  0
LINE
  5
474
  8
0
 62
     7
 10
104.116
 20
119.027
 30
0.0
 11
104.17100000000001
 21
118.965
 31
0.0
  0
LINE
  5
475
  8
0
 62
     7
 10
104.175
 20
118.732
 30
0.0
 11
104.175
 21
118.97799999999999
 31
0.0
  0
LINE
  5
476
  8
0
 62
     7
 10
104.17100000000001
 20
118.73699999999999
 30
0.0
 11
104.116
 21
118.575
 31
0.0
  0
LINE
  5
477
  8
0
 62
     7
 10
104.116
 20
118.575
 30
0.0
 11
104.17100000000001
 21
118.502
 31
0.0
  0
LINE
  5
478
  8
0
 62
     7
 10
104.175
 20
118.262
 30
0.0
 11
104.175
 21
118.51600000000001
 31
0.0
  0
LINE
  5
479
  8
0
 62
     7
 10
104.17100000000001
 20
118.267
 30
0.0
 11
104.114
 21
118.11199999999999
 31
0.0
  0
LINE
  5
47A
  8
0
 62
     7
 10
104.114
 20
118.11199999999999
 30
0.0
 11
104.17
 21
118.027
 31
0.0
  0
LINE
  5
47B
  8
0
 62
     7
 10
104.175
 20
117.779
 30
0.0
 11
104.175
 21
118.041
 31
0.0
  0
LINE
  5
47C
  8
0
 62
     7
 10
104.17
 20
117.786
 30
0.0
 11
104.114
 21
117.63800000000001
 31
0.0
  0
LINE
  5
47D
  8
0
 62
     7
 10
104.114
 20
117.63800000000001
 30
0.0
 11
104.17
 21
117.54300000000001
 31
0.0
  0
LINE
  5
47E
  8
0
 62
     7
 10
104.175
 20
117.288
 30
0.0
 11
104.175
 21
117.556
 31
0.0
  0
LINE
  5
47F
  8
0
 62
     7
 10
104.17
 20
117.297
 30
0.0
 11
104.113
 21
117.15600000000001
 31
0.0
  0
LINE
  5
480
  8
0
 62
     7
 10
104.113
 20
117.15600000000001
 30
0.0
 11
104.17
 21
117.04900000000001
 31
0.0
  0
LINE
  5
481
  8
0
 62
     7
 10
104.175
 20
116.79000000000001
 30
0.0
 11
104.175
 21
117.065
 31
0.0
  0
LINE
  5
482
  8
0
 62
     7
 10
104.17
 20
116.80200000000001
 30
0.0
 11
104.113
 21
116.66800000000001
 31
0.0
  0
LINE
  5
483
  8
0
 62
     7
 10
104.113
 20
116.66800000000001
 30
0.0
 11
104.17
 21
116.55200000000001
 31
0.0
  0
LINE
  5
484
  8
0
 62
     7
 10
104.175
 20
116.289
 30
0.0
 11
104.175
 21
116.566
 31
0.0
  0
LINE
  5
485
  8
0
 62
     7
 10
104.17
 20
116.304
 30
0.0
 11
104.111
 21
116.178
 31
0.0
  0
LINE
  5
486
  8
0
 62
     7
 10
104.111
 20
116.178
 30
0.0
 11
104.17
 21
116.05200000000001
 31
0.0
  0
LINE
  5
487
  8
0
 62
     7
 10
104.175
 20
115.788
 30
0.0
 11
104.175
 21
116.06699999999999
 31
0.0
  0
LINE
  5
488
  8
0
 62
     7
 10
104.16800000000001
 20
115.804
 30
0.0
 11
104.111
 21
115.69
 31
0.0
  0
LINE
  5
489
  8
0
 62
     7
 10
104.111
 20
115.69
 30
0.0
 11
104.16800000000001
 21
115.55500000000001
 31
0.0
  0
LINE
  5
48A
  8
0
 62
     7
 10
104.175
 20
115.289
 30
0.0
 11
104.175
 21
115.569
 31
0.0
  0
LINE
  5
48B
  8
0
 62
     7
 10
104.16800000000001
 20
115.307
 30
0.0
 11
104.10899999999999
 21
115.203
 31
0.0
  0
LINE
  5
48C
  8
0
 62
     7
 10
104.10899999999999
 20
115.203
 30
0.0
 11
104.16800000000001
 21
115.06
 31
0.0
  0
LINE
  5
48D
  8
0
 62
     7
 10
104.175
 20
114.795
 30
0.0
 11
104.175
 21
115.072
 31
0.0
  0
LINE
  5
48E
  8
0
 62
     7
 10
104.16800000000001
 20
114.816
 30
0.0
 11
104.10899999999999
 21
114.72199999999999
 31
0.0
  0
LINE
  5
48F
  8
0
 62
     7
 10
104.10899999999999
 20
114.72199999999999
 30
0.0
 11
104.16800000000001
 21
114.572
 31
0.0
  0
LINE
  5
490
  8
0
 62
     7
 10
104.175
 20
114.30800000000001
 30
0.0
 11
104.175
 21
114.584
 31
0.0
  0
LINE
  5
491
  8
0
 62
     7
 10
104.16800000000001
 20
114.33199999999999
 30
0.0
 11
104.108
 21
114.25
 31
0.0
  0
LINE
  5
492
  8
0
 62
     7
 10
104.108
 20
114.25
 30
0.0
 11
104.16800000000001
 21
114.093
 31
0.0
  0
LINE
  5
493
  8
0
 62
     7
 10
104.175
 20
113.831
 30
0.0
 11
104.175
 21
114.10299999999999
 31
0.0
  0
LINE
  5
494
  8
0
 62
     7
 10
104.166
 20
113.85899999999999
 30
0.0
 11
104.108
 21
113.78700000000001
 31
0.0
  0
LINE
  5
495
  8
0
 62
     7
 10
104.108
 20
113.78700000000001
 30
0.0
 11
104.166
 21
113.625
 31
0.0
  0
LINE
  5
496
  8
0
 62
     7
 10
104.175
 20
113.367
 30
0.0
 11
104.175
 21
113.634
 31
0.0
  0
LINE
  5
497
  8
0
 62
     7
 10
104.166
 20
113.39700000000001
 30
0.0
 11
104.10599999999999
 21
113.339
 31
0.0
  0
LINE
  5
498
  8
0
 62
     7
 10
104.10599999999999
 20
113.339
 30
0.0
 11
104.166
 21
113.17100000000001
 31
0.0
  0
LINE
  5
499
  8
0
 62
     7
 10
104.175
 20
112.92
 30
0.0
 11
104.175
 21
113.179
 31
0.0
  0
LINE
  5
49A
  8
0
 62
     7
 10
104.166
 20
112.952
 30
0.0
 11
104.10599999999999
 21
112.90600000000001
 31
0.0
  0
LINE
  5
49B
  8
0
 62
     7
 10
104.10599999999999
 20
112.90600000000001
 30
0.0
 11
104.166
 21
112.735
 31
0.0
  0
LINE
  5
49C
  8
0
 62
     7
 10
104.175
 20
112.491
 30
0.0
 11
104.175
 21
112.739
 31
0.0
  0
LINE
  5
49D
  8
0
 62
     7
 10
104.166
 20
112.524
 30
0.0
 11
104.10599999999999
 21
112.491
 31
0.0
  0
LINE
  5
49E
  8
0
 62
     7
 10
104.10599999999999
 20
112.491
 30
0.0
 11
104.166
 21
112.31699999999999
 31
0.0
  0
LINE
  5
49F
  8
0
 62
     7
 10
104.175
 20
112.08
 30
0.0
 11
104.175
 21
112.319
 31
0.0
  0
LINE
  5
4A0
  8
0
 62
     7
 10
104.166
 20
112.117
 30
0.0
 11
104.104
 21
112.096
 31
0.0
  0
LINE
  5
4A1
  8
0
 62
     7
 10
104.104
 20
112.096
 30
0.0
 11
104.166
 21
111.919
 31
0.0
  0
LINE
  5
4A2
  8
0
 62
     7
 10
104.175
 20
111.693
 30
0.0
 11
104.175
 21
111.919
 31
0.0
  0
LINE
  5
4A3
  8
0
 62
     7
 10
104.164
 20
111.73099999999999
 30
0.0
 11
104.104
 21
111.724
 31
0.0
  0
LINE
  5
4A4
  8
0
 62
     7
 10
104.104
 20
111.724
 30
0.0
 11
104.164
 21
111.547
 31
0.0
  0
LINE
  5
4A5
  8
0
 62
     7
 10
104.175
 20
111.331
 30
0.0
 11
104.175
 21
111.54300000000001
 31
0.0
  0
LINE
  5
4A6
  8
0
 62
     7
 10
104.164
 20
111.37
 30
0.0
 11
104.102
 21
111.377
 31
0.0
  0
LINE
  5
4A7
  8
0
 62
     7
 10
104.102
 20
111.377
 30
0.0
 11
104.164
 21
111.199
 31
0.0
  0
LINE
  5
4A8
  8
0
 62
     7
 10
104.175
 20
110.995
 30
0.0
 11
104.175
 21
111.193
 31
0.0
  0
LINE
  5
4A9
  8
0
 62
     7
 10
104.164
 20
111.035
 30
0.0
 11
104.102
 21
111.05500000000001
 31
0.0
  0
LINE
  5
4AA
  8
0
 62
     7
 10
104.102
 20
111.05500000000001
 30
0.0
 11
104.164
 21
110.878
 31
0.0
  0
LINE
  5
4AB
  8
0
 62
     7
 10
104.175
 20
110.688
 30
0.0
 11
104.175
 21
110.869
 31
0.0
  0
LINE
  5
4AC
  8
0
 62
     7
 10
104.164
 20
110.73
 30
0.0
 11
104.102
 21
110.76300000000001
 31
0.0
  0
LINE
  5
4AD
  8
0
 62
     7
 10
104.102
 20
110.76300000000001
 30
0.0
 11
104.164
 21
110.587
 31
0.0
  0
LINE
  5
4AE
  8
0
 62
     7
 10
104.175
 20
110.413
 30
0.0
 11
104.175
 21
110.574
 31
0.0
  0
LINE
  5
4AF
  8
0
 62
     7
 10
104.164
 20
110.45399999999999
 30
0.0
 11
104.102
 21
110.498
 31
0.0
  0
LINE
  5
4B0
  8
0
 62
     7
 10
104.102
 20
110.498
 30
0.0
 11
104.164
 21
110.32599999999999
 31
0.0
  0
LINE
  5
4B1
  8
0
 62
     7
 10
104.175
 20
110.167
 30
0.0
 11
104.175
 21
110.31100000000001
 31
0.0
  0
LINE
  5
4B2
  8
0
 62
     7
 10
104.164
 20
110.20999999999999
 30
0.0
 11
104.09999999999999
 21
110.26600000000001
 31
0.0
  0
LINE
  5
4B3
  8
0
 62
     7
 10
104.09999999999999
 20
110.26600000000001
 30
0.0
 11
104.164
 21
110.098
 31
0.0
  0
LINE
  5
4B4
  8
0
 62
     7
 10
104.175
 20
109.955
 30
0.0
 11
104.175
 21
110.08
 31
0.0
  0
LINE
  5
4B5
  8
0
 62
     7
 10
104.164
 20
109.998
 30
0.0
 11
104.09999999999999
 21
110.066
 31
0.0
  0
LINE
  5
4B6
  8
0
 62
     7
 10
104.09999999999999
 20
110.066
 30
0.0
 11
104.164
 21
109.90300000000001
 31
0.0
  0
LINE
  5
4B7
  8
0
 62
     7
 10
104.175
 20
109.77800000000001
 30
0.0
 11
104.175
 21
109.881
 31
0.0
  0
LINE
  5
4B8
  8
0
 62
     7
 10
104.164
 20
109.819
 30
0.0
 11
104.09999999999999
 21
109.901
 31
0.0
  0
LINE
  5
4B9
  8
0
 62
     7
 10
104.09999999999999
 20
109.901
 30
0.0
 11
104.164
 21
109.744
 31
0.0
  0
LINE
  5
4BA
  8
0
 62
     7
 10
104.175
 20
109.63500000000001
 30
0.0
 11
104.175
 21
109.718
 31
0.0
  0
LINE
  5
4BB
  8
0
 62
     7
 10
104.164
 20
109.676
 30
0.0
 11
104.09999999999999
 21
109.76900000000001
 31
0.0
  0
LINE
  5
4BC
  8
0
 62
     7
 10
104.09999999999999
 20
109.76900000000001
 30
0.0
 11
104.164
 21
109.61799999999999
 31
0.0
  0
LINE
  5
4BD
  8
0
 62
     7
 10
104.175
 20
109.529
 30
0.0
 11
104.175
 21
109.59
 31
0.0
  0
LINE
  5
4BE
  8
0
 62
     7
 10
104.164
 20
109.569
 30
0.0
 11
104.09999999999999
 21
109.673
 31
0.0
  0
LINE
  5
4BF
  8
0
 62
     7
 10
104.09999999999999
 20
109.673
 30
0.0
 11
104.164
 21
109.529
 31
0.0
  0
LINE
  5
4C0
  8
0
 62
     7
 10
105.113
 20
109.575
 30
0.0
 11
105.035
 21
109.498
 31
0.0
  0
ARC
  5
4C1
  8
0
 62
     7
 10
103.435973
 20
121.10294500000001
 30
0.0
 40
1.456439
 50
117.236643
 51
155.28632200000001
  0
ARC
  5
4C2
  8
0
 62
     7
 10
103.543711
 20
120.954303
 30
0.0
 40
1.638144
 50
86.274799000000016
 51
118.207733
  0
ARC
  5
4C3
  8
0
 62
     7
 10
103.55701500000001
 20
111.4225
 30
0.0
 40
1.6244609999999999
 50
207.256978
 51
273.28647999999998
  0
LINE
  5
4C4
  8
0
 62
     7
 10
104.96299999999999
 20
122.967
 30
0.0
 11
105.113
 21
122.816
 31
0.0
  0
ARC
  5
4C5
  8
0
 62
     7
 10
103.678877
 20
123.106739
 30
0.0
 40
0.51855
 50
266.82341500000001
 51
330.77614199999999
  0
ARC
  5
4C6
  8
0
 62
     7
 10
103.680532
 20
109.28727000000001
 30
0.0
 40
0.5143390000000001
 50
24.383078000000001
 51
93.387290000000021
  0
LINE
  5
4C7
  8
0
 62
     7
 10
163.96600000000001
 20
104.78400000000001
 30
0.0
 11
164.113
 21
107.068
 31
0.0
  0
LINE
  5
4C8
  8
0
 62
     7
 10
164.113
 20
107.068
 30
0.0
 11
162.84399999999999
 21
105.164
 31
0.0
  0
LINE
  5
4C9
  8
0
 62
     7
 10
162.84399999999999
 20
105.164
 30
0.0
 11
163.96600000000001
 21
104.78400000000001
 31
0.0
  0
LINE
  5
4CA
  8
0
 62
     7
 10
164.113
 20
107.068
 30
0.0
 11
154.94200000000001
 21
79.935000000000002
 31
0.0
  0
LINE
  5
4CB
  8
0
 62
     7
 10
154.94200000000001
 20
79.935000000000002
 30
0.0
 11
109.929
 21
79.935000000000002
 31
0.0
  0
LINE
  5
4CC
  8
0
 62
     7
 10
90.225699999999989
 20
103.922
 30
0.0
 11
104.149
 21
105.02200000000001
 31
0.0
  0
LINE
  5
4CD
  8
0
 62
     7
 10
103.203
 20
104.354
 30
0.0
 11
100.949
 21
104.755
 31
0.0
  0
LINE
  5
4CE
  8
0
 62
     7
 10
100.949
 20
104.755
 30
0.0
 11
103.102
 21
105.53400000000001
 31
0.0
  0
LINE
  5
4CF
  8
0
 62
     7
 10
103.102
 20
105.53400000000001
 30
0.0
 11
103.203
 21
104.354
 31
0.0
  0
LINE
  5
4D0
  8
0
 62
     7
 10
94.752300000000005
 20
104.81
 30
0.0
 11
97.006799999999998
 21
104.40900000000001
 31
0.0
  0
LINE
  5
4D1
  8
0
 62
     7
 10
97.006799999999998
 20
104.40900000000001
 30
0.0
 11
94.8536
 21
103.629
 31
0.0
  0
LINE
  5
4D2
  8
0
 62
     7
 10
94.8536
 20
103.629
 30
0.0
 11
94.752300000000005
 21
104.81
 31
0.0
  0
LINE
  5
4D3
  8
0
 62
     7
 10
69.251300000000001
 20
125.77
 30
0.0
 11
67.040899999999993
 21
126.36199999999999
 31
0.0
  0
LINE
  5
4D4
  8
0
 62
     7
 10
67.040899999999993
 20
126.36199999999999
 30
0.0
 11
69.251300000000001
 21
126.95399999999999
 31
0.0
  0
LINE
  5
4D5
  8
0
 62
     7
 10
69.251300000000001
 20
126.95399999999999
 30
0.0
 11
69.251300000000001
 21
125.77
 31
0.0
  0
LINE
  5
4D6
  8
0
 62
     7
 10
72.829800000000006
 20
126.93899999999999
 30
0.0
 11
75.040700000000001
 21
126.34699999999999
 31
0.0
  0
LINE
  5
4D7
  8
0
 62
     7
 10
75.040700000000001
 20
126.34699999999999
 30
0.0
 11
72.829800000000006
 21
125.755
 31
0.0
  0
LINE
  5
4D8
  8
0
 62
     7
 10
72.829800000000006
 20
125.755
 30
0.0
 11
72.829800000000006
 21
126.93899999999999
 31
0.0
  0
LINE
  5
4D9
  8
0
 62
     7
 10
67.040899999999993
 20
126.354
 30
0.0
 11
75.040700000000001
 21
126.354
 31
0.0
  0
LINE
  5
4DA
  8
0
 62
     7
 10
75.040700000000001
 20
115.85599999999999
 30
0.0
 11
75.040700000000001
 21
127.047
 31
0.0
  0
LINE
  5
4DB
  8
0
 62
     7
 10
173.547
 20
121.983
 30
0.0
 11
174.13999999999999
 21
124.194
 31
0.0
  0
LINE
  5
4DC
  8
0
 62
     7
 10
174.13999999999999
 20
124.194
 30
0.0
 11
174.732
 21
121.983
 31
0.0
  0
LINE
  5
4DD
  8
0
 62
     7
 10
174.732
 20
121.983
 30
0.0
 11
173.547
 21
121.983
 31
0.0
  0
LINE
  5
4DE
  8
0
 62
     7
 10
174.71700000000001
 20
110.405
 30
0.0
 11
174.125
 21
108.194
 31
0.0
  0
LINE
  5
4DF
  8
0
 62
     7
 10
174.125
 20
108.194
 30
0.0
 11
173.53299999999999
 21
110.405
 31
0.0
  0
LINE
  5
4E0
  8
0
 62
     7
 10
173.53299999999999
 20
110.405
 30
0.0
 11
174.71700000000001
 21
110.405
 31
0.0
  0
LINE
  5
4E1
  8
0
 62
     7
 10
174.13200000000001
 20
124.194
 30
0.0
 11
174.13200000000001
 21
108.194
 31
0.0
  0
LINE
  5
4E2
  8
0
 62
     7
 10
169.09899999999999
 20
124.194
 30
0.0
 11
174.82499999999999
 21
124.194
 31
0.0
  0
LINE
  5
4E3
  8
0
 62
     7
 10
169.09899999999999
 20
108.194
 30
0.0
 11
174.82499999999999
 21
108.194
 31
0.0
  0
LINE
  5
4E4
  8
0
 62
     7
 10
96.323199999999986
 20
137.749
 30
0.0
 11
94.112899999999996
 21
138.34100000000001
 31
0.0
  0
LINE
  5
4E5
  8
0
 62
     7
 10
94.112899999999996
 20
138.34100000000001
 30
0.0
 11
96.323199999999986
 21
138.934
 31
0.0
  0
LINE
  5
4E6
  8
0
 62
     7
 10
96.323199999999986
 20
138.934
 30
0.0
 11
96.323199999999986
 21
137.749
 31
0.0
  0
LINE
  5
4E7
  8
0
 62
     7
 10
142.90199999999999
 20
138.91900000000001
 30
0.0
 11
145.113
 21
138.327
 31
0.0
  0
LINE
  5
4E8
  8
0
 62
     7
 10
145.113
 20
138.327
 30
0.0
 11
142.90199999999999
 21
137.73400000000001
 31
0.0
  0
LINE
  5
4E9
  8
0
 62
     7
 10
142.90199999999999
 20
137.73400000000001
 30
0.0
 11
142.90199999999999
 21
138.91900000000001
 31
0.0
  0
LINE
  5
4EA
  8
0
 62
     7
 10
94.112899999999996
 20
138.334
 30
0.0
 11
145.113
 21
138.334
 31
0.0
  0
LINE
  5
4EB
  8
0
 62
     7
 10
94.112899999999996
 20
115.19
 30
0.0
 11
94.112899999999996
 21
139.041
 31
0.0
  0
LINE
  5
4EC
  8
0
 62
     7
 10
145.113
 20
131.49299999999999
 30
0.0
 11
145.113
 21
139.02699999999999
 31
0.0
  0
LINE
  5
4ED
  8
0
 62
     7
 10
65.330799999999996
 20
137.749
 30
0.0
 11
67.541200000000003
 21
138.34100000000001
 31
0.0
  0
LINE
  5
4EE
  8
0
 62
     7
 10
67.541200000000003
 20
138.34100000000001
 30
0.0
 11
65.330799999999996
 21
138.934
 31
0.0
  0
LINE
  5
4EF
  8
0
 62
     7
 10
65.330799999999996
 20
138.934
 30
0.0
 11
65.330799999999996
 21
137.749
 31
0.0
  0
LINE
  5
4F0
  8
0
 62
     7
 10
41.251999999999988
 20
138.91900000000001
 30
0.0
 11
39.040900000000001
 21
138.327
 31
0.0
  0
LINE
  5
4F1
  8
0
 62
     7
 10
39.040900000000001
 20
138.327
 30
0.0
 11
41.251999999999988
 21
137.73400000000001
 31
0.0
  0
LINE
  5
4F2
  8
0
 62
     7
 10
41.251999999999988
 20
137.73400000000001
 30
0.0
 11
41.251999999999988
 21
138.91900000000001
 31
0.0
  0
LINE
  5
4F3
  8
0
 62
     7
 10
67.541200000000003
 20
138.334
 30
0.0
 11
39.040900000000001
 21
138.334
 31
0.0
  0
LINE
  5
4F4
  8
0
 62
     7
 10
154.875
 20
113.98399999999999
 30
0.0
 11
154.28299999999999
 21
116.19499999999999
 31
0.0
  0
LINE
  5
4F5
  8
0
 62
     7
 10
154.28299999999999
 20
116.19499999999999
 30
0.0
 11
153.69
 21
113.98399999999999
 31
0.0
  0
LINE
  5
4F6
  8
0
 62
     7
 10
153.69
 20
113.98399999999999
 30
0.0
 11
154.875
 21
113.98399999999999
 31
0.0
  0
LINE
  5
4F7
  8
0
 62
     7
 10
153.70500000000001
 20
96.905600000000007
 30
0.0
 11
154.297
 21
94.694199999999995
 31
0.0
  0
LINE
  5
4F8
  8
0
 62
     7
 10
154.297
 20
94.694199999999995
 30
0.0
 11
154.88999999999999
 21
96.905600000000007
 31
0.0
  0
LINE
  5
4F9
  8
0
 62
     7
 10
154.88999999999999
 20
96.905600000000007
 30
0.0
 11
153.70500000000001
 21
96.905600000000007
 31
0.0
  0
LINE
  5
4FA
  8
0
 62
     7
 10
154.28999999999999
 20
116.19499999999999
 30
0.0
 11
154.28999999999999
 21
94.694199999999995
 31
0.0
  0
LINE
  5
4FB
  8
0
 62
     7
 10
154.99700000000001
 20
116.19499999999999
 30
0.0
 11
148.45599999999999
 21
116.19499999999999
 31
0.0
  0
LINE
  5
4FC
  8
0
 62
     7
 10
154.99700000000001
 20
94.694199999999995
 30
0.0
 11
107.68600000000001
 21
94.694199999999995
 31
0.0
  0
LINE
  5
4FD
  8
0
 62
     7
 10
72.830600000000004
 20
84.312000000000026
 30
0.0
 11
75.040999999999997
 21
84.904200000000003
 31
0.0
  0
LINE
  5
4FE
  8
0
 62
     7
 10
75.040999999999997
 20
84.904200000000003
 30
0.0
 11
72.830600000000004
 21
85.496799999999993
 31
0.0
  0
LINE
  5
4FF
  8
0
 62
     7
 10
72.830600000000004
 20
85.496799999999993
 30
0.0
 11
72.830600000000004
 21
84.312000000000026
 31
0.0
  0
LINE
  5
500
  8
0
 62
     7
 10
33.751800000000003
 20
85.482000000000014
 30
0.0
 11
31.540700000000001
 21
84.889799999999994
 31
0.0
  0
LINE
  5
501
  8
0
 62
     7
 10
31.540700000000001
 20
84.889799999999994
 30
0.0
 11
33.751800000000003
 21
84.297200000000004
 31
0.0
  0
LINE
  5
502
  8
0
 62
     7
 10
33.751800000000003
 20
84.297200000000004
 30
0.0
 11
33.751800000000003
 21
85.482000000000014
 31
0.0
  0
LINE
  5
503
  8
0
 62
     7
 10
75.040999999999997
 20
84.897000000000006
 30
0.0
 11
31.540700000000001
 21
84.897000000000006
 31
0.0
  0
LINE
  5
504
  8
0
 62
     7
 10
75.040999999999997
 20
84.189699999999988
 30
0.0
 11
75.040999999999997
 21
110.893
 31
0.0
  0
LINE
  5
505
  8
0
 62
     7
 10
67.541200000000003
 20
120.04300000000001
 30
0.0
 11
67.541200000000003
 21
139.02699999999999
 31
0.0
  0
LINE
  5
506
  8
0
 62
     7
 10
39.040900000000001
 20
120.04300000000001
 30
0.0
 11
39.040900000000001
 21
139.02699999999999
 31
0.0
  0
LINE
  5
507
  8
0
 62
     7
 10
67.040899999999993
 20
115.646
 30
0.0
 11
67.040899999999993
 21
127.062
 31
0.0
  0
LINE
  5
508
  8
0
 62
     7
 10
31.540700000000001
 20
84.189699999999988
 30
0.0
 11
31.540700000000001
 21
110.893
 31
0.0
  0
ARC
  5
509
  8
0
  6
AIGENLINE002
 62
     7
 10
53.29070999999999
 20
108.193822
 30
0.0
 40
1.125089
 50
270.00440600000002
 51
0.004376
  0
ARC
  5
50A
  8
0
  6
AIGENLINE002
 62
     7
 10
53.290882000000003
 20
108.193821
 30
0.0
 40
1.125089
 50
179.99558400000001
 51
269.995634
  0
ARC
  5
50B
  8
0
  6
AIGENLINE002
 62
     7
 10
53.29070999999999
 20
108.193821
 30
0.0
 40
1.1249169999999991
 50
89.995613000000006
 51
179.99558300000001
  0
ARC
  5
50C
  8
0
  6
AIGENLINE002
 62
     7
 10
53.290882000000003
 20
108.193821
 30
0.0
 40
1.1249169999999991
 50
0.004397
 51
90.004366999999988
  0
LINE
  5
50D
  8
0
  6
AIGENLINE001
 62
     7
 10
50.790799999999997
 20
108.194
 30
0.0
 11
55.790900000000001
 21
108.194
 31
0.0
  0
ARC
  5
50E
  8
0
  6
AIGENLINE002
 62
     7
 10
53.247543999999991
 20
124.237139
 30
0.0
 40
1.169049
 50
272.12030299999998
 51
357.88847900000002
  0
ARC
  5
50F
  8
0
  6
AIGENLINE002
 62
     7
 10
53.334274000000001
 20
124.237364
 30
0.0
 40
1.169281999999999
 50
182.122152
 51
267.86910499999999
  0
ARC
  5
510
  8
0
  6
AIGENLINE002
 62
     7
 10
53.29070999999999
 20
124.193979
 30
0.0
 40
1.1249169999999991
 50
89.995613000000006
 51
179.99558300000001
  0
ARC
  5
511
  8
0
  6
AIGENLINE002
 62
     7
 10
53.290882000000003
 20
124.193979
 30
0.0
 40
1.1249169999999991
 50
0.004397
 51
90.004366999999988
  0
LINE
  5
512
  8
0
  6
AIGENLINE001
 62
     7
 10
53.290799999999997
 20
99.43640000000002
 30
0.0
 11
53.290799999999997
 21
132.60400000000001
 31
0.0
  0
LINE
  5
513
  8
0
  6
AIGENLINE001
 62
     7
 10
50.790799999999997
 20
124.194
 30
0.0
 11
55.790900000000001
 21
124.194
 31
0.0
  0
LINE
  5
514
  8
0
 62
     7
 10
164.113
 20
107.068
 30
0.0
 11
163.08699999999999
 21
109.318
 31
0.0
  0
LINE
  5
515
  8
0
 62
     7
 10
162.74700000000001
 20
107.068
 30
0.0
 11
161.721
 21
109.318
 31
0.0
  0
LINE
  5
516
  8
0
 62
     7
 10
161.38200000000001
 20
107.068
 30
0.0
 11
160.35599999999999
 21
109.318
 31
0.0
  0
LINE
  5
517
  8
0
 62
     7
 10
160.017
 20
107.068
 30
0.0
 11
158.99100000000001
 21
109.318
 31
0.0
  0
LINE
  5
518
  8
0
 62
     7
 10
158.65199999999999
 20
107.068
 30
0.0
 11
157.626
 21
109.318
 31
0.0
  0
LINE
  5
519
  8
0
 62
     7
 10
157.286
 20
107.068
 30
0.0
 11
156.25999999999999
 21
109.318
 31
0.0
  0
LINE
  5
51A
  8
0
 62
     7
 10
155.92099999999999
 20
107.068
 30
0.0
 11
154.89500000000001
 21
109.318
 31
0.0
  0
LINE
  5
51B
  8
0
 62
     7
 10
154.55600000000001
 20
107.068
 30
0.0
 11
153.53
 21
109.318
 31
0.0
  0
LINE
  5
51C
  8
0
 62
     7
 10
153.19
 20
107.068
 30
0.0
 11
152.16399999999999
 21
109.318
 31
0.0
  0
LINE
  5
51D
  8
0
 62
     7
 10
151.82499999999999
 20
107.068
 30
0.0
 11
150.79900000000001
 21
109.318
 31
0.0
  0
LINE
  5
51E
  8
0
 62
     7
 10
150.459
 20
107.068
 30
0.0
 11
149.43299999999999
 21
109.318
 31
0.0
  0
LINE
  5
51F
  8
0
 62
     7
 10
149.09399999999999
 20
107.068
 30
0.0
 11
148.0679999999999
 21
109.318
 31
0.0
  0
LINE
  5
520
  8
0
 62
     7
 10
147.7289999999999
 20
107.068
 30
0.0
 11
146.703
 21
109.318
 31
0.0
  0
LINE
  5
521
  8
0
 62
     7
 10
146.363
 20
107.068
 30
0.0
 11
145.33699999999999
 21
109.318
 31
0.0
  0
LINE
  5
522
  8
0
 62
     7
 10
164.113
 20
107.492
 30
0.0
 11
167.613
 21
108.194
 31
0.0
  0
LINE
  5
523
  8
0
 62
     7
 10
164.113
 20
108.89400000000001
 30
0.0
 11
167.613
 21
108.194
 31
0.0
  0
LINE
  5
524
  8
0
 62
     7
 10
164.113
 20
107.492
 30
0.0
 11
145.113
 21
107.492
 31
0.0
  0
LINE
  5
525
  8
0
 62
     7
 10
164.113
 20
108.89400000000001
 30
0.0
 11
145.113
 21
108.89400000000001
 31
0.0
  0
LINE
  5
526
  8
0
  6
AIGENLINE001
 62
     7
 10
35.534100000000002
 20
116.19499999999999
 30
0.0
 11
70.356200000000001
 21
116.19499999999999
 31
0.0
  0
LINE
  5
527
  8
0
  6
AIGENLINE001
 62
     7
 10
99.485299999999995
 20
116.19499999999999
 30
0.0
 11
147.756
 21
116.19499999999999
 31
0.0
  0
LINE
  5
528
  8
0
  6
AIGENLINE001
 62
     7
 10
168.399
 20
108.194
 30
0.0
 11
143.91999999999999
 21
108.194
 31
0.0
  0
LINE
  5
529
  8
0
 62
     7
 10
164.113
 20
123.068
 30
0.0
 11
163.08699999999999
 21
125.318
 31
0.0
  0
LINE
  5
52A
  8
0
 62
     7
 10
162.74700000000001
 20
123.068
 30
0.0
 11
161.721
 21
125.318
 31
0.0
  0
LINE
  5
52B
  8
0
 62
     7
 10
161.38200000000001
 20
123.068
 30
0.0
 11
160.35599999999999
 21
125.318
 31
0.0
  0
LINE
  5
52C
  8
0
 62
     7
 10
160.017
 20
123.068
 30
0.0
 11
158.99100000000001
 21
125.318
 31
0.0
  0
LINE
  5
52D
  8
0
 62
     7
 10
158.65199999999999
 20
123.068
 30
0.0
 11
157.626
 21
125.318
 31
0.0
  0
LINE
  5
52E
  8
0
 62
     7
 10
157.286
 20
123.068
 30
0.0
 11
156.25999999999999
 21
125.318
 31
0.0
  0
LINE
  5
52F
  8
0
 62
     7
 10
155.92099999999999
 20
123.068
 30
0.0
 11
154.89500000000001
 21
125.318
 31
0.0
  0
LINE
  5
530
  8
0
 62
     7
 10
154.55600000000001
 20
123.068
 30
0.0
 11
153.53
 21
125.318
 31
0.0
  0
LINE
  5
531
  8
0
 62
     7
 10
153.19
 20
123.068
 30
0.0
 11
152.16399999999999
 21
125.318
 31
0.0
  0
LINE
  5
532
  8
0
 62
     7
 10
151.82499999999999
 20
123.068
 30
0.0
 11
150.79900000000001
 21
125.318
 31
0.0
  0
LINE
  5
533
  8
0
 62
     7
 10
150.459
 20
123.068
 30
0.0
 11
149.43299999999999
 21
125.318
 31
0.0
  0
LINE
  5
534
  8
0
 62
     7
 10
149.09399999999999
 20
123.068
 30
0.0
 11
148.0679999999999
 21
125.318
 31
0.0
  0
LINE
  5
535
  8
0
 62
     7
 10
147.7289999999999
 20
123.068
 30
0.0
 11
146.703
 21
125.318
 31
0.0
  0
LINE
  5
536
  8
0
 62
     7
 10
146.363
 20
123.068
 30
0.0
 11
145.33699999999999
 21
125.318
 31
0.0
  0
LINE
  5
537
  8
0
 62
     7
 10
164.113
 20
123.492
 30
0.0
 11
167.613
 21
124.193
 31
0.0
  0
LINE
  5
538
  8
0
 62
     7
 10
164.113
 20
124.89400000000001
 30
0.0
 11
167.613
 21
124.193
 31
0.0
  0
LINE
  5
539
  8
0
 62
     7
 10
164.113
 20
123.492
 30
0.0
 11
145.113
 21
123.492
 31
0.0
  0
LINE
  5
53A
  8
0
 62
     7
 10
164.113
 20
124.89400000000001
 30
0.0
 11
145.113
 21
124.89400000000001
 31
0.0
  0
LINE
  5
53B
  8
0
  6
AIGENLINE001
 62
     7
 10
168.399
 20
124.193
 30
0.0
 11
143.91999999999999
 21
124.193
 31
0.0
  0
LINE
  5
53C
  8
0
 62
     7
 10
138.08000000000001
 20
122.869
 30
0.0
 11
138.08000000000001
 21
122.81100000000001
 31
0.0
  0
LINE
  5
53D
  8
0
 62
     7
 10
138.08000000000001
 20
122.81100000000001
 30
0.0
 11
138.08000000000001
 21
122.639
 31
0.0
  0
LINE
  5
53E
  8
0
 62
     7
 10
138.08000000000001
 20
122.639
 30
0.0
 11
138.08000000000001
 21
122.363
 31
0.0
  0
LINE
  5
53F
  8
0
 62
     7
 10
138.08000000000001
 20
122.363
 30
0.0
 11
138.08000000000001
 21
121.976
 31
0.0
  0
LINE
  5
540
  8
0
 62
     7
 10
138.08000000000001
 20
121.976
 30
0.0
 11
138.08000000000001
 21
121.607
 31
0.0
  0
LINE
  5
541
  8
0
 62
     7
 10
138.08000000000001
 20
121.607
 30
0.0
 11
138.08000000000001
 21
121.18300000000001
 31
0.0
  0
LINE
  5
542
  8
0
 62
     7
 10
138.08000000000001
 20
121.18300000000001
 30
0.0
 11
138.08000000000001
 21
120.163
 31
0.0
  0
LINE
  5
543
  8
0
 62
     7
 10
138.08000000000001
 20
120.163
 30
0.0
 11
138.08000000000001
 21
119.587
 31
0.0
  0
LINE
  5
544
  8
0
 62
     7
 10
138.08000000000001
 20
119.587
 30
0.0
 11
138.08000000000001
 21
118.97499999999999
 31
0.0
  0
LINE
  5
545
  8
0
 62
     7
 10
138.08000000000001
 20
118.97499999999999
 30
0.0
 11
138.08000000000001
 21
118.34699999999999
 31
0.0
  0
LINE
  5
546
  8
0
 62
     7
 10
138.08000000000001
 20
118.34699999999999
 30
0.0
 11
138.08000000000001
 21
117.696
 31
0.0
  0
LINE
  5
547
  8
0
 62
     7
 10
138.08000000000001
 20
117.696
 30
0.0
 11
138.08000000000001
 21
116.411
 31
0.0
  0
LINE
  5
548
  8
0
 62
     7
 10
138.08000000000001
 20
116.411
 30
0.0
 11
138.08000000000001
 21
115.19
 31
0.0
  0
LINE
  5
549
  8
0
 62
     7
 10
138.08000000000001
 20
115.19
 30
0.0
 11
138.08000000000001
 21
114.393
 31
0.0
  0
LINE
  5
54A
  8
0
 62
     7
 10
138.08000000000001
 20
114.393
 30
0.0
 11
138.08000000000001
 21
113.599
 31
0.0
  0
LINE
  5
54B
  8
0
 62
     7
 10
138.08000000000001
 20
113.599
 30
0.0
 11
138.08000000000001
 21
112.825
 31
0.0
  0
LINE
  5
54C
  8
0
 62
     7
 10
138.08000000000001
 20
112.825
 30
0.0
 11
138.08000000000001
 21
112.259
 31
0.0
  0
LINE
  5
54D
  8
0
 62
     7
 10
138.08000000000001
 20
112.259
 30
0.0
 11
138.08000000000001
 21
111.732
 31
0.0
  0
LINE
  5
54E
  8
0
 62
     7
 10
138.08000000000001
 20
111.732
 30
0.0
 11
138.08000000000001
 21
110.80500000000001
 31
0.0
  0
LINE
  5
54F
  8
0
 62
     7
 10
138.08000000000001
 20
110.80500000000001
 30
0.0
 11
138.08000000000001
 21
110.425
 31
0.0
  0
LINE
  5
550
  8
0
 62
     7
 10
138.08000000000001
 20
110.425
 30
0.0
 11
138.08000000000001
 21
110.10599999999999
 31
0.0
  0
LINE
  5
551
  8
0
 62
     7
 10
138.08000000000001
 20
110.10599999999999
 30
0.0
 11
138.08000000000001
 21
109.857
 31
0.0
  0
LINE
  5
552
  8
0
 62
     7
 10
138.08000000000001
 20
109.857
 30
0.0
 11
138.08000000000001
 21
109.672
 31
0.0
  0
LINE
  5
553
  8
0
 62
     7
 10
138.08000000000001
 20
109.672
 30
0.0
 11
138.08000000000001
 21
109.504
 31
0.0
  0
LINE
  5
554
  8
0
 62
     7
 10
138.08000000000001
 20
109.504
 30
0.0
 11
138.08000000000001
 21
109.517
 31
0.0
  0
LINE
  5
555
  8
0
 62
     7
 10
141.089
 20
127.55500000000001
 30
0.0
 11
141.089
 21
104.831
 31
0.0
  0
LINE
  5
556
  8
0
 62
     7
 10
145.113
 20
101.943
 30
0.0
 11
145.113
 21
130.4429999999999
 31
0.0
  0
LINE
  5
557
  8
0
 62
     7
 10
142.60499999999999
 20
103.316
 30
0.0
 11
142.60499999999999
 21
129.06999999999999
 31
0.0
  0
LINE
  5
558
  8
0
 62
     7
 10
121.131
 20
113.18000000000001
 30
0.0
 11
121.131
 21
113.17700000000001
 31
0.0
  0
LINE
  5
559
  8
0
 62
     7
 10
121.131
 20
113.17700000000001
 30
0.0
 11
121.131
 21
113.28700000000001
 31
0.0
  0
LINE
  5
55A
  8
0
 62
     7
 10
121.131
 20
113.28700000000001
 30
0.0
 11
121.131
 21
113.509
 31
0.0
  0
LINE
  5
55B
  8
0
 62
     7
 10
121.131
 20
113.509
 30
0.0
 11
121.131
 21
113.834
 31
0.0
  0
LINE
  5
55C
  8
0
 62
     7
 10
121.131
 20
113.834
 30
0.0
 11
121.131
 21
114.25
 31
0.0
  0
LINE
  5
55D
  8
0
 62
     7
 10
121.131
 20
114.25
 30
0.0
 11
121.131
 21
114.741
 31
0.0
  0
LINE
  5
55E
  8
0
 62
     7
 10
121.131
 20
114.741
 30
0.0
 11
121.131
 21
115.28700000000001
 31
0.0
  0
LINE
  5
55F
  8
0
 62
     7
 10
121.131
 20
115.28700000000001
 30
0.0
 11
121.131
 21
115.869
 31
0.0
  0
LINE
  5
560
  8
0
 62
     7
 10
121.131
 20
115.869
 30
0.0
 11
121.131
 21
116.46299999999999
 31
0.0
  0
LINE
  5
561
  8
0
 62
     7
 10
121.131
 20
116.46299999999999
 30
0.0
 11
121.131
 21
117.04600000000001
 31
0.0
  0
LINE
  5
562
  8
0
 62
     7
 10
121.131
 20
117.04600000000001
 30
0.0
 11
121.131
 21
117.59699999999999
 31
0.0
  0
LINE
  5
563
  8
0
 62
     7
 10
121.131
 20
117.59699999999999
 30
0.0
 11
121.131
 21
118.09399999999999
 31
0.0
  0
LINE
  5
564
  8
0
 62
     7
 10
121.131
 20
118.09399999999999
 30
0.0
 11
121.131
 21
118.51900000000001
 31
0.0
  0
LINE
  5
565
  8
0
 62
     7
 10
121.131
 20
118.51900000000001
 30
0.0
 11
121.131
 21
118.85299999999999
 31
0.0
  0
LINE
  5
566
  8
0
 62
     7
 10
121.131
 20
118.85299999999999
 30
0.0
 11
121.131
 21
119.086
 31
0.0
  0
LINE
  5
567
  8
0
 62
     7
 10
121.131
 20
119.086
 30
0.0
 11
121.131
 21
119.20699999999999
 31
0.0
  0
LINE
  5
568
  8
0
 62
     7
 10
121.131
 20
119.20699999999999
 30
0.0
 11
121.131
 21
119.20999999999999
 31
0.0
  0
LINE
  5
569
  8
0
 62
     7
 10
121.131
 20
112.86
 30
0.0
 11
121.131
 21
114.595
 31
0.0
  0
LINE
  5
56A
  8
0
 62
     7
 10
121.131
 20
114.595
 30
0.0
 11
121.131
 21
119.529
 31
0.0
  0
LINE
  5
56B
  8
0
 62
     7
 10
121.331
 20
112.65900000000001
 30
0.0
 11
121.331
 21
114.498
 31
0.0
  0
LINE
  5
56C
  8
0
 62
     7
 10
121.331
 20
114.498
 30
0.0
 11
121.331
 21
119.73099999999999
 31
0.0
  0
LINE
  5
56D
  8
0
 62
     7
 10
129.20400000000001
 20
109.63
 30
0.0
 11
129.20400000000001
 21
113.045
 31
0.0
  0
LINE
  5
56E
  8
0
 62
     7
 10
129.20400000000001
 20
113.045
 30
0.0
 11
129.20400000000001
 21
122.76000000000001
 31
0.0
  0
LINE
  5
56F
  8
0
 62
     7
 10
134.81800000000001
 20
122.76000000000001
 30
0.0
 11
134.81800000000001
 21
109.63
 31
0.0
  0
LINE
  5
570
  8
0
 62
     7
 10
135.57300000000001
 20
122.95999999999999
 30
0.0
 11
135.57300000000001
 21
109.42700000000001
 31
0.0
  0
LINE
  5
571
  8
0
 62
     7
 10
138.08000000000001
 20
123.212
 30
0.0
 11
138.08000000000001
 21
109.17400000000001
 31
0.0
  0
LINE
  5
572
  8
0
 62
     7
 10
133.90600000000001
 20
123.113
 30
0.0
 11
133.90600000000001
 21
109.277
 31
0.0
  0
LINE
  5
573
  8
0
 62
     7
 10
133.54400000000001
 20
108.977
 30
0.0
 11
133.55500000000001
 21
108.98099999999999
 31
0.0
  0
ARC
  5
574
  8
0
 62
     7
 10
133.55409900000001
 20
108.98364100000001
 30
0.0
 40
0.002951
 50
283.62191500000012
 51
67.124943999999999
  0
ARC
  5
575
  8
0
 62
     7
 10
133.51662400000001
 20
108.90096800000001
 30
0.0
 40
0.09372
 50
65.663477000000015
 51
83.884600000000006
  0
ARC
  5
576
  8
0
 62
     7
 10
133.446361
 20
108.591317
 30
0.0
 40
0.410753
 50
78.733828000000017
 51
83.027007999999995
  0
ARC
  5
577
  8
0
 62
     7
 10
133.211918
 20
106.914039
 30
0.0
 40
2.1042869999999989
 50
82.235045999999997
 51
87.680033999999992
  0
ARC
  5
578
  8
0
 62
     7
 10
132.865995
 20
102.61814099999999
 30
0.0
 40
6.4129670000000001
 50
86.145442000000003
 51
88.308853999999997
  0
ARC
  5
579
  8
0
 62
     7
 10
132.30619899999999
 20
86.057124999999999
 30
0.0
 40
22.983398999999999
 50
88.132331000000008
 51
89.036116000000007
  0
ARC
  5
57A
  8
0
 62
     7
 10
132.11810800000001
 20
80.354986999999994
 30
0.0
 40
28.688043
 50
88.852086999999983
 51
89.459023999999985
  0
ARC
  5
57B
  8
0
 62
     7
 10
132.11810199999999
 20
76.424109999999999
 30
0.0
 40
32.618766000000001
 50
89.524203999999983
 51
90.135406000000003
  0
ARC
  5
57C
  8
0
 62
     7
 10
132.039806
 20
65.131389999999996
 30
0.0
 40
43.911394000000001
 50
89.998419999999996
 51
90.393101999999999
  0
ARC
  5
57D
  8
0
 62
     7
 10
132.367357
 20
42.897157999999997
 30
0.0
 40
66.147582
 50
90.544678000000005
 51
90.777453000000008
  0
ARC
  5
57E
  8
0
 62
     7
 10
131.84075000000001
 20
87.134519999999995
 30
0.0
 40
21.907271000000001
 50
90.970186999999967
 51
91.876909999999995
  0
ARC
  5
57F
  8
0
 62
     7
 10
131.588427
 20
95.680458999999985
 30
0.0
 40
13.357682
 50
91.995785999999981
 51
93.504854000000009
  0
ARC
  5
580
  8
0
 62
     7
 10
130.97522599999999
 20
106.41600800000001
 30
0.0
 40
2.605100999999999
 50
94.47800500000001
 51
97.862324000000015
  0
ARC
  5
581
  8
0
 62
     7
 10
130.66636199999999
 20
108.686314
 30
0.0
 40
0.31392
 50
98.702393000000015
 51
107.54660199999999
  0
ARC
  5
582
  8
0
 62
     7
 10
130.57401999999999
 20
108.983085
 30
0.0
 40
0.003428
 50
132.12285199999999
 51
282.58829200000002
  0
LINE
  5
583
  8
0
 62
     7
 10
130.57499999999999
 20
108.98
 30
0.0
 11
130.584
 21
108.977
 31
0.0
  0
ARC
  5
584
  8
0
 62
     7
 10
119.124612
 20
112.133617
 30
0.0
 40
14.442589999999999
 50
2.3751880000000001
 51
3.6475559999999998
  0
ARC
  5
585
  8
0
 62
     7
 10
129.52317099999999
 20
112.777952
 30
0.0
 40
4.0241470000000001
 50
3.911162
 51
9.2623859999999993
  0
ARC
  5
586
  8
0
 62
     7
 10
130.61868100000001
 20
112.942857
 30
0.0
 40
2.9164089999999989
 50
9.5290750000000006
 51
23.307320000000001
  0
ARC
  5
587
  8
0
 62
     7
 10
130.962808
 20
113.064385
 30
0.0
 40
2.5523980000000002
 50
23.858364000000002
 51
34.935701999999999
  0
ARC
  5
588
  8
0
 62
     7
 10
131.74186700000001
 20
113.573826
 30
0.0
 40
1.6222449999999999
 50
35.942219999999999
 51
54.112259999999999
  0
ARC
  5
589
  8
0
 62
     7
 10
131.999562
 20
113.899534
 30
0.0
 40
1.207438
 50
54.959104000000011
 51
71.185525999999996
  0
ARC
  5
58A
  8
0
 62
     7
 10
132.06281899999999
 20
114.07098999999999
 30
0.0
 40
1.024753
 50
71.441680000000005
 51
91.219470999999984
  0
ARC
  5
58B
  8
0
 62
     7
 10
132.06786
 20
114.05363
 30
0.0
 40
1.042227
 50
91.476268000000005
 51
108.42052099999999
  0
ARC
  5
58C
  8
0
 62
     7
 10
132.09289899999999
 20
113.976277
 30
0.0
 40
1.1235289999999989
 50
108.385468
 51
123.681966
  0
ARC
  5
58D
  8
0
 62
     7
 10
132.237754
 20
113.73284700000001
 30
0.0
 40
1.4065030000000001
 50
123.092753
 51
142.41109700000001
  0
ARC
  5
58E
  8
0
 62
     7
 10
132.73920200000001
 20
113.29625799999999
 30
0.0
 40
2.0705569999999991
 50
141.30200300000001
 51
161.835621
  0
ARC
  5
58F
  8
0
 62
     7
 10
133.718695
 20
112.879277
 30
0.0
 40
3.132547999999999
 50
160.17370600000001
 51
171.88854900000001
  0
ARC
  5
590
  8
0
 62
     7
 10
134.302888
 20
112.754448
 30
0.0
 40
3.7287370000000002
 50
171.25620799999999
 51
181.041325
  0
ARC
  5
591
  8
0
 62
     7
 10
134.64478700000001
 20
112.7337629999999
 30
0.0
 40
4.0702910000000001
 50
180.66273000000001
 51
190.256461
  0
ARC
  5
592
  8
0
 62
     7
 10
133.798663
 20
112.61117299999999
 30
0.0
 40
3.216000999999999
 50
190.79137900000001
 51
203.01572899999999
  0
ARC
  5
593
  8
0
 62
     7
 10
132.95902000000001
 20
112.277553
 30
0.0
 40
2.312853
 50
203.54151200000001
 51
215.68814399999999
  0
ARC
  5
594
  8
0
 62
     7
 10
132.40704600000001
 20
111.910106
 30
0.0
 40
1.650347
 50
216.506258
 51
234.31344000000001
  0
ARC
  5
595
  8
0
 62
     7
 10
132.125552
 20
111.560079
 30
0.0
 40
1.2020869999999999
 50
235.47872899999999
 51
251.70343199999999
  0
ARC
  5
596
  8
0
 62
     7
 10
132.06708699999999
 20
111.39702200000001
 30
0.0
 40
1.0289280000000001
 50
251.943983
 51
271.54076099999997
  0
ARC
  5
597
  8
0
 62
     7
 10
132.063785
 20
111.39364
 30
0.0
 40
1.0256419999999991
 50
271.730233
 51
288.89101499999998
  0
ARC
  5
598
  8
0
 62
     7
 10
132.0383709999999
 20
111.48361800000001
 30
0.0
 40
1.1190129999999989
 50
288.630583
 51
304.02845100000002
  0
ARC
  5
599
  8
0
 62
     7
 10
131.876114
 20
111.747424
 30
0.0
 40
1.428504999999999
 50
303.50082500000002
 51
322.61421799999999
  0
ARC
  5
59A
  8
0
 62
     7
 10
131.45819900000001
 20
112.10806700000001
 30
0.0
 40
1.979811999999999
 50
321.66478499999999
 51
334.76650300000011
  0
ARC
  5
59B
  8
0
 62
     7
 10
130.81020899999999
 20
112.438931
 30
0.0
 40
2.7071190000000001
 50
334.278659
 51
340.53206799999998
  0
ARC
  5
59C
  8
0
 62
     7
 10
130.47688500000001
 20
112.567142
 30
0.0
 40
3.0641310000000002
 50
340.34899300000001
 51
351.75152700000001
  0
ARC
  5
59D
  8
0
 62
     7
 10
129.91826699999999
 20
112.658225
 30
0.0
 40
3.6300509999999999
 50
351.59372500000001
 51
357.80000799999999
  0
ARC
  5
59E
  8
0
 62
     7
 10
116.425845
 20
113.360247
 30
0.0
 40
17.140460000000001
 50
357.18639899999999
 51
357.900012
  0
ARC
  5
59F
  8
0
 62
     7
 10
119.896856
 20
119.36557999999999
 30
0.0
 40
13.670261
 50
2.4329740000000002
 51
3.743749999999999
  0
ARC
  5
5A0
  8
0
 62
     7
 10
129.73459
 20
119.991221
 30
0.0
 40
3.8127119999999999
 50
4.0148769999999994
 51
9.5149170000000005
  0
ARC
  5
5A1
  8
0
 62
     7
 10
130.747895
 20
120.146985
 30
0.0
 40
2.787633
 50
9.8002630000000011
 51
23.869581
  0
ARC
  5
5A2
  8
0
 62
     7
 10
131.0353199999999
 20
120.246179
 30
0.0
 40
2.484785
 50
24.459855000000001
 51
35.617752000000003
  0
ARC
  5
5A3
  8
0
 62
     7
 10
131.76305199999999
 20
120.726991
 30
0.0
 40
1.6135200000000001
 50
36.787891999999999
 51
54.813514000000012
  0
ARC
  5
5A4
  8
0
 62
     7
 10
132.003738
 20
121.03415699999999
 30
0.0
 40
1.2239450000000001
 50
55.736081999999989
 51
71.654668999999998
  0
ARC
  5
5A5
  8
0
 62
     7
 10
132.06007299999999
 20
121.178641
 30
0.0
 40
1.0691040000000001
 50
72.083236999999997
 51
91.021690000000007
  0
ARC
  5
5A6
  8
0
 62
     7
 10
132.06867399999999
 20
121.174543
 30
0.0
 40
1.073388
 50
91.476859999999974
 51
107.91306400000001
  0
ARC
  5
5A7
  8
0
 62
     7
 10
132.10324600000001
 20
121.082717
 30
0.0
 40
1.171405
 50
108.14064500000001
 51
122.734685
  0
ARC
  5
5A8
  8
0
 62
     7
 10
132.23493300000001
 20
120.86905
 30
0.0
 40
1.422356999999999
 50
122.542631
 51
141.406587
  0
ARC
  5
5A9
  8
0
 62
     7
 10
132.67552699999999
 20
120.48004
 30
0.0
 40
2.009593999999999
 50
140.57378
 51
161.316979
  0
ARC
  5
5AA
  8
0
 62
     7
 10
133.54941700000001
 20
120.092001
 30
0.0
 40
2.9630329999999998
 50
159.621725
 51
171.69099600000001
  0
ARC
  5
5AB
  8
0
 62
     7
 10
134.127364
 20
119.96705300000001
 30
0.0
 40
3.5531959999999989
 50
171.04409899999999
 51
181.05238399999999
  0
ARC
  5
5AC
  8
0
 62
     7
 10
134.437524
 20
119.947592
 30
0.0
 40
3.863027999999999
 50
180.679305
 51
190.528704
  0
ARC
  5
5AD
  8
0
 62
     7
 10
133.65123
 20
119.831553
 30
0.0
 40
3.0689120000000001
 50
191.081198
 51
203.58460500000001
  0
ARC
  5
5AE
  8
0
 62
     7
 10
132.912925
 20
119.536303
 30
0.0
 40
2.2742810000000002
 50
204.20964799999999
 51
216.32102599999999
  0
ARC
  5
5AF
  8
0
 62
     7
 10
132.36424600000001
 20
119.165952
 30
0.0
 40
1.613062999999999
 50
217.26558299999999
 51
235.22878900000001
  0
ARC
  5
5B0
  8
0
 62
     7
 10
132.122221
 20
118.848405
 30
0.0
 40
1.2143200000000001
 50
236.06447700000001
 51
252.05947599999999
  0
ARC
  5
5B1
  8
0
 62
     7
 10
132.06774999999999
 20
118.712557
 30
0.0
 40
1.0683450000000001
 50
252.59456700000001
 51
271.44835899999998
  0
ARC
  5
5B2
  8
0
 62
     7
 10
132.062861
 20
118.700003
 30
0.0
 40
1.055931999999999
 50
271.730795
 51
288.38240100000002
  0
ARC
  5
5B3
  8
0
 62
     7
 10
132.03935100000001
 20
118.786106
 30
0.0
 40
1.1450649999999989
 50
288.14006999999998
 51
303.09418499999998
  0
ARC
  5
5B4
  8
0
 62
     7
 10
131.88529399999999
 20
119.02881600000001
 30
0.0
 40
1.4325229999999991
 50
302.95584200000002
 51
321.806624
  0
ARC
  5
5B5
  8
0
 62
     7
 10
131.53493399999999
 20
119.34638099999999
 30
0.0
 40
1.904522
 50
320.81532600000003
 51
334.164287
  0
ARC
  5
5B6
  8
0
 62
     7
 10
130.94016500000001
 20
119.658249
 30
0.0
 40
2.575841
 50
333.68604099999999
 51
340.12343600000003
  0
ARC
  5
5B7
  8
0
 62
     7
 10
130.63621499999999
 20
119.78457899999999
 30
0.0
 40
2.9046780000000001
 50
339.81841700000001
 51
351.544375
  0
ARC
  5
5B8
  8
0
 62
     7
 10
130.05980099999999
 20
119.879212
 30
0.0
 40
3.488751999999999
 50
351.39909799999998
 51
357.76147200000008
  0
ARC
  5
5B9
  8
0
 62
     7
 10
116.066586
 20
120.611435
 30
0.0
 40
17.500867
 50
357.15548699999999
 51
357.82056299999999
  0
ARC
  5
5BA
  8
0
 62
     7
 10
130.65983299999999
 20
123.25158399999999
 30
0.0
 40
0.177615
 50
97.009478999999999
 51
114.881289
  0
ARC
  5
5BB
  8
0
 62
     7
 10
130.91624200000001
 20
121.32410900000001
 30
0.0
 40
2.1220620000000001
 50
92.095083000000017
 51
97.529938999999985
  0
ARC
  5
5BC
  8
0
 62
     7
 10
131.30376799999999
 20
116.34429299999999
 30
0.0
 40
7.1156759999999988
 50
91.797960999999987
 51
93.747703999999999
  0
ARC
  5
5BD
  8
0
 62
     7
 10
131.63123300000001
 20
108.481172
 30
0.0
 40
14.985417999999999
 50
90.714677000000023
 51
92.106116
  0
ARC
  5
5BE
  8
0
 62
     7
 10
132.02716799999999
 20
94.231207999999995
 30
0.0
 40
29.240024999999999
 50
90.546684999999997
 51
91.142164000000008
  0
ARC
  5
5BF
  8
0
 62
     7
 10
132.354533
 20
-21.752023999999999
 30
0.0
 40
145.22319200000001
 50
90.102481999999995
 51
90.239220999999986
  0
ARC
  5
5C0
  8
0
 62
     7
 10
132.095957
 20
79.960346000000001
 30
0.0
 40
43.510589000000003
 50
89.605072000000007
 51
90.001575000000003
  0
LINE
  5
5C1
  8
0
 62
     7
 10
132.39599999999999
 20
123.47
 30
0.0
 11
132.66499999999999
 21
123.46599999999999
 31
0.0
  0
ARC
  5
5C2
  8
0
 62
     7
 10
132.29363499999999
 20
101.561982
 30
0.0
 40
21.907271000000001
 50
88.123069999999998
 51
89.029793999999995
  0
ARC
  5
5C3
  8
0
 62
     7
 10
132.66303500000001
 20
112.545034
 30
0.0
 40
10.918017000000001
 50
86.326509999999999
 51
88.172810999999996
  0
ARC
  5
5C4
  8
0
 62
     7
 10
133.20022499999999
 20
121.26321299999999
 30
0.0
 40
2.1834479999999989
 50
81.879998999999984
 51
85.736314000000007
  0
ARC
  5
5C5
  8
0
 62
     7
 10
133.49624399999999
 20
123.33144299999999
 30
0.0
 40
0.094146
 50
59.68148399999999
 51
82.440492000000006
  0
LINE
  5
5C6
  8
0
 62
     7
 10
119.877
 20
118.97199999999999
 30
0.0
 11
119.877
 21
116.19499999999999
 31
0.0
  0
LINE
  5
5C7
  8
0
 62
     7
 10
119.877
 20
116.19499999999999
 30
0.0
 11
119.877
 21
113.41800000000001
 31
0.0
  0
LINE
  5
5C8
  8
0
 62
     7
 10
119.375
 20
119.477
 30
0.0
 11
119.375
 21
116.19499999999999
 31
0.0
  0
LINE
  5
5C9
  8
0
 62
     7
 10
119.375
 20
116.19499999999999
 30
0.0
 11
119.375
 21
112.913
 31
0.0
  0
LINE
  5
5CA
  8
0
 62
     7
 10
117.37
 20
119.477
 30
0.0
 11
117.37
 21
112.913
 31
0.0
  0
LINE
  5
5CB
  8
0
 62
     7
 10
114.759
 20
122.003
 30
0.0
 11
114.759
 21
110.38800000000001
 31
0.0
  0
ARC
  5
5CC
  8
0
 62
     7
 10
112.889112
 20
121.745299
 30
0.0
 40
1.7513399999999999
 50
90.885632999999999
 51
94.632561999999979
  0
ARC
  5
5CD
  8
0
 62
     7
 10
114.2884
 20
84.932244999999995
 30
0.0
 40
38.589443000000003
 50
92.288209999999992
 51
92.774625
  0
ARC
  5
5CE
  8
0
 62
     7
 10
110.83823700000001
 20
161.77195900000001
 30
0.0
 40
38.328178999999999
 50
271.60826900000001
 51
272.36578200000002
  0
ARC
  5
5CF
  8
0
 62
     7
 10
110.48255399999999
 20
183.34007399999999
 30
0.0
 40
59.898300999999996
 50
270.76880399999999
 51
271.36933900000002
  0
ARC
  5
5D0
  8
0
 62
     7
 10
111.318269
 20
121.439651
 30
0.0
 40
2.0077689999999988
 50
90.913893000000016
 51
94.683552000000034
  0
ARC
  5
5D1
  8
0
 62
     7
 10
115.496191
 20
55.790509
 30
0.0
 40
67.789395999999996
 50
93.672257000000016
 51
94.371063000000007
  0
ARC
  5
5D2
  8
0
 62
     7
 10
107.681664
 20
147.706188
 30
0.0
 40
24.467162999999999
 50
271.64188000000001
 51
276.21291000000002
  0
ARC
  5
5D3
  8
0
 62
     7
 10
108.638339
 20
165.43274099999999
 30
0.0
 40
42.184446000000001
 50
268.76926400000002
 51
269.65279399999997
  0
ARC
  5
5D4
  8
0
 62
     7
 10
108.292794
 20
151.091373
 30
0.0
 40
27.838989000000002
 50
267.71271200000001
 51
268.846294
  0
ARC
  5
5D5
  8
0
 62
     7
 10
108.045204
 20
148.29722599999999
 30
0.0
 40
25.037555000000001
 50
267.12882400000001
 51
268.02365400000002
  0
ARC
  5
5D6
  8
0
 62
     7
 10
107.651584
 20
142.9391
 30
0.0
 40
19.666834999999999
 50
266.95361300000002
 51
267.49221599999998
  0
LINE
  5
5D7
  8
0
 62
     7
 10
106.60599999999999
 20
123.3
 30
0.0
 11
106.619
 21
123.29900000000001
 31
0.0
  0
LINE
  5
5D8
  8
0
 62
     7
 10
113.711
 20
123.265
 30
0.0
 11
113.711
 21
116.19499999999999
 31
0.0
  0
LINE
  5
5D9
  8
0
 62
     7
 10
113.70699999999999
 20
116.19499999999999
 30
0.0
 11
113.70699999999999
 21
109.125
 31
0.0
  0
ARC
  5
5DA
  8
0
 62
     7
 10
139.11560399999999
 20
109.516621
 30
0.0
 40
1.0354270000000001
 50
180.8843479999999
 51
245.02192700000001
  0
ARC
  5
5DB
  8
0
 62
     7
 10
139.11506799999989
 20
122.870321
 30
0.0
 40
1.0348859999999991
 50
114.959306
 51
179.13442000000001
  0
ARC
  5
5DC
  8
0
 62
     7
 10
136.92268200000001
 20
104.79928099999999
 30
0.0
 40
4.1667069999999988
 50
0.4426700000000001
 51
65.079419000000001
  0
ARC
  5
5DD
  8
0
 62
     7
 10
136.87580700000001
 20
127.61747800000001
 30
0.0
 40
4.213919999999999
 50
295.325783
 51
359.152128
  0
ARC
  5
5DE
  8
0
 62
     7
 10
142.604772
 20
104.831817
 30
0.0
 40
1.515506999999999
 50
180.013035
 51
270.01304499999998
  0
ARC
  5
5DF
  8
0
 62
     7
 10
142.60477299999999
 20
127.554777
 30
0.0
 40
1.515506999999999
 50
89.986975000000001
 51
179.98694599999999
  0
ARC
  5
5E0
  8
0
 62
     7
 10
145.11426
 20
105.39455100000001
 30
0.0
 40
3.4514640000000001
 50
250.16047399999999
 51
269.98178899999999
  0
ARC
  5
5E1
  8
0
 62
     7
 10
144.868889
 20
104.55824800000001
 30
0.0
 40
2.582066999999999
 50
208.74981600000001
 51
248.983824
  0
ARC
  5
5E2
  8
0
 62
     7
 10
144.83911000000001
 20
127.86470300000001
 30
0.0
 40
2.5385330000000002
 50
107.01441
 51
151.646322
  0
ARC
  5
5E3
  8
0
 62
     7
 10
145.07525799999999
 20
127.199811
 30
0.0
 40
3.243574999999999
 50
89.330418000000009
 51
107.566542
  0
LINE
  5
5E4
  8
0
 62
     7
 10
121.131
 20
119.20999999999999
 30
0.0
 11
121.131
 21
119.529
 31
0.0
  0
LINE
  5
5E5
  8
0
 62
     7
 10
121.131
 20
112.86
 30
0.0
 11
121.131
 21
113.18000000000001
 31
0.0
  0
LINE
  5
5E6
  8
0
 62
     7
 10
121.131
 20
119.529
 30
0.0
 11
121.331
 21
119.73099999999999
 31
0.0
  0
LINE
  5
5E7
  8
0
 62
     7
 10
121.331
 20
112.65900000000001
 30
0.0
 11
121.131
 21
112.86
 31
0.0
  0
LINE
  5
5E8
  8
0
 62
     7
 10
125.518
 20
112.661
 30
0.0
 11
121.331
 21
112.65900000000001
 31
0.0
  0
LINE
  5
5E9
  8
0
 62
     7
 10
121.331
 20
119.73099999999999
 30
0.0
 11
125.518
 21
119.73
 31
0.0
  0
ARC
  5
5EA
  8
0
 62
     7
 10
124.666059
 20
131.64040499999999
 30
0.0
 40
11.940955000000001
 50
274.09143499999999
 51
275.47322300000002
  0
ARC
  5
5EB
  8
0
 62
     7
 10
125.5114889999999
 20
122.633601
 30
0.0
 40
2.8946290000000001
 50
275.81956500000001
 51
282.6706319999999
  0
ARC
  5
5EC
  8
0
 62
     7
 10
125.635481
 20
121.986946
 30
0.0
 40
2.2366209999999991
 50
283.20522799999998
 51
303.45563900000002
  0
ARC
  5
5ED
  8
0
 62
     7
 10
125.349011
 20
122.47534899999999
 30
0.0
 40
2.8021940000000001
 50
302.83718599999997
 51
312.151903
  0
ARC
  5
5EE
  8
0
 62
     7
 10
125.472415
 20
122.287211
 30
0.0
 40
2.580133
 50
312.92407100000003
 51
323.91500500000001
  0
ARC
  5
5EF
  8
0
 62
     7
 10
125.594048
 20
122.213915
 30
0.0
 40
2.4386959999999989
 50
323.623515
 51
336.05200100000002
  0
ARC
  5
5F0
  8
0
 62
     7
 10
125.704005
 20
122.141773
 30
0.0
 40
2.3090209999999991
 50
336.58052400000003
 51
344.49388199999999
  0
ARC
  5
5F1
  8
0
 62
     7
 10
118.138932
 20
124.36785500000001
 30
0.0
 40
10.194601
 50
343.80482599999999
 51
345.11899499999998
  0
ARC
  5
5F2
  8
0
 62
     7
 10
116.18756500000001
 20
107.448127
 30
0.0
 40
12.228064
 50
15.132479999999999
 51
16.489787
  0
ARC
  5
5F3
  8
0
 62
     7
 10
125.45612300000001
 20
110.164946
 30
0.0
 40
2.5696939999999988
 50
17.063988999999999
 51
22.927481
  0
ARC
  5
5F4
  8
0
 62
     7
 10
125.79076499999999
 20
110.29044399999999
 30
0.0
 40
2.2126489999999999
 50
23.310242000000009
 51
37.014240999999998
  0
ARC
  5
5F5
  8
0
 62
     7
 10
125.500766
 20
110.126245
 30
0.0
 40
2.543429999999999
 50
36.034883000000001
 51
47.179085999999998
  0
ARC
  5
5F6
  8
0
 62
     7
 10
125.47972300000001
 20
110.087442
 30
0.0
 40
2.5862180000000001
 50
47.421455999999992
 51
57.520654
  0
ARC
  5
5F7
  8
0
 62
     7
 10
125.52466
 20
110.143452
 30
0.0
 40
2.51485
 50
57.699072999999991
 51
75.686165000000003
  0
ARC
  5
5F8
  8
0
 62
     7
 10
125.58565299999999
 20
110.20353900000001
 30
0.0
 40
2.441949999999999
 50
76.724327000000002
 51
84.382105000000024
  0
ARC
  5
5F9
  8
0
 62
     7
 10
124.98549
 20
104.78166
 30
0.0
 40
7.8968189999999989
 50
83.899504000000007
 51
86.133222000000004
  0
ARC
  5
5FA
  8
0
 62
     7
 10
129.26213100000001
 20
110.93211599999999
 30
0.0
 40
1.303598
 50
192.93619699999999
 51
267.42706299999998
  0
ARC
  5
5FB
  8
0
 62
     7
 10
129.260336
 20
121.45963500000001
 30
0.0
 40
1.301466
 50
92.498032999999992
 51
167.11948799999999
  0
LINE
  5
5FC
  8
0
 62
     7
 10
129.88900000000001
 20
109.63
 30
0.0
 11
129.20400000000001
 21
109.63
 31
0.0
  0
LINE
  5
5FD
  8
0
 62
     7
 10
129.20400000000001
 20
122.76000000000001
 30
0.0
 11
129.88900000000001
 21
122.76000000000001
 31
0.0
  0
LINE
  5
5FE
  8
0
 62
     7
 10
129.88900000000001
 20
122.76000000000001
 30
0.0
 11
129.911
 21
122.762
 31
0.0
  0
ARC
  5
5FF
  8
0
 62
     7
 10
129.88498999999999
 20
122.889707
 30
0.0
 40
0.130782
 50
281.577991
 51
293.96466600000002
  0
ARC
  5
600
  8
0
 62
     7
 10
129.886135
 20
122.89138800000001
 30
0.0
 40
0.131865
 50
293.21332699999999
 51
307.473184
  0
ARC
  5
601
  8
0
 62
     7
 10
129.86215799999999
 20
122.90989
 30
0.0
 40
0.161323
 50
310.234623
 51
323.50887599999999
  0
ARC
  5
602
  8
0
 62
     7
 10
129.38620299999999
 20
109.041089
 30
0.0
 40
0.8078789999999999
 50
41.437373000000001
 51
44.100268999999997
  0
ARC
  5
603
  8
0
 62
     7
 10
129.879445
 20
109.484405
 30
0.0
 40
0.14728
 50
53.833336000000003
 51
66.526506000000012
  0
ARC
  5
604
  8
0
 62
     7
 10
129.90092300000001
 20
109.5497
 30
0.0
 40
0.079086
 50
61.951886000000002
 51
82.505456000000024
  0
ARC
  5
605
  8
0
 62
     7
 10
129.891942
 20
109.524333
 30
0.0
 40
0.105556
 50
79.46686600000001
 51
91.868487000000002
  0
ARC
  5
606
  8
0
 62
     7
 10
134.73796100000001
 20
127.843689
 30
0.0
 40
5.0844199999999988
 50
270.87614800000011
 51
272.98371299999991
  0
ARC
  5
607
  8
0
 62
     7
 10
134.9282199999999
 20
123.92022900000001
 30
0.0
 40
1.156463
 50
273.68838799999997
 51
282.026027
  0
ARC
  5
608
  8
0
 62
     7
 10
134.94442100000001
 20
123.76402400000001
 30
0.0
 40
1.0004500000000001
 50
282.98250899999999
 51
294.69746800000001
  0
ARC
  5
609
  8
0
 62
     7
 10
134.18182999999999
 20
125.48706
 30
0.0
 40
2.884633
 50
294.15926899999999
 51
298.83245399999998
  0
ARC
  5
60A
  8
0
 62
     7
 10
132.16996
 20
102.98256000000001
 30
0.0
 40
7.2873570000000001
 50
62.162143999999991
 51
64.018281999999999
  0
ARC
  5
60B
  8
0
 62
     7
 10
134.91382100000001
 20
108.55909800000001
 30
0.0
 40
1.0726340000000001
 50
65.276652999999996
 51
76.227711999999997
  0
ARC
  5
60C
  8
0
 62
     7
 10
134.97388900000001
 20
108.733614
 30
0.0
 40
0.8889940000000001
 50
77.310233999999994
 51
82.604160000000007
  0
ARC
  5
60D
  8
0
 62
     7
 10
134.897413
 20
108.140553
 30
0.0
 40
1.486964999999999
 50
82.623484999999988
 51
87.775630000000007
  0
ARC
  5
60E
  8
0
 62
     7
 10
134.75303400000001
 20
104.253978
 30
0.0
 40
5.3762199999999991
 50
87.845734999999976
 51
89.332059000000001
  0
ARC
  5
60F
  8
0
 62
     7
 10
138.18491800000001
 20
128.32177899999999
 30
0.0
 40
6.748721999999999
 50
230.51751400000001
 51
232.18448599999999
  0
ARC
  5
610
  8
0
 62
     7
 10
134.81574800000001
 20
124.02011
 30
0.0
 40
1.2849699999999999
 50
233.26193299999991
 51
237.97080600000001
  0
ARC
  5
611
  8
0
 62
     7
 10
134.65474499999999
 20
123.79833499999999
 30
0.0
 40
1.011741
 50
239.039818
 51
254.82422399999999
  0
ARC
  5
612
  8
0
 62
     7
 10
134.73396299999999
 20
123.97601899999999
 30
0.0
 40
1.2043399999999991
 50
253.39968300000001
 51
263.94330500000001
  0
ARC
  5
613
  8
0
 62
     7
 10
135.052145
 20
126.608313
 30
0.0
 40
3.8557059999999992
 50
263.368719
 51
266.48433
  0
ARC
  5
614
  8
0
 62
     7
 10
135.30267699999999
 20
102.93714900000001
 30
0.0
 40
6.7103770000000003
 50
94.161590000000018
 51
95.922939999999997
  0
ARC
  5
615
  8
0
 62
     7
 10
134.76956999999999
 20
108.236521
 30
0.0
 40
1.384382
 50
96.609382000000025
 51
105.917845
  0
ARC
  5
616
  8
0
 62
     7
 10
134.76141200000001
 20
108.33734699999999
 30
0.0
 40
1.285337999999999
 50
106.80083999999999
 51
119.204328
  0
ARC
  5
617
  8
0
 62
     7
 10
134.84872300000001
 20
108.323832
 30
0.0
 40
1.3415440000000001
 50
122.178962
 51
126.289311
  0
ARC
  5
618
  8
0
 62
     7
 10
135.76934399999999
 20
107.09226
 30
0.0
 40
2.8791500000000001
 50
126.55069
 51
130.649126
  0
ARC
  5
619
  8
0
 62
     7
 10
136.332584
 20
110.442853
 30
0.0
 40
1.2688120000000001
 50
233.22300899999999
 51
269.89147700000001
  0
ARC
  5
61A
  8
0
 62
     7
 10
136.33022700000001
 20
121.94908700000001
 30
0.0
 40
1.26312
 50
90.002096000000009
 51
126.836494
  0
LINE
  5
61B
  8
0
 62
     7
 10
138.08000000000001
 20
109.17400000000001
 30
0.0
 11
136.33000000000001
 21
109.17400000000001
 31
0.0
  0
LINE
  5
61C
  8
0
 62
     7
 10
136.33000000000001
 20
123.212
 30
0.0
 11
138.08000000000001
 21
123.212
 31
0.0
  0
ARC
  5
61D
  8
0
 62
     7
 10
132.100041
 20
110.97962099999999
 30
0.0
 40
2.473349999999999
 50
305.77117099999998
 51
316.48814099999998
  0
ARC
  5
61E
  8
0
 62
     7
 10
132.064333
 20
111.016249
 30
0.0
 40
2.5239310000000001
 50
214.80177399999999
 51
234.004637
  0
ARC
  5
61F
  8
0
 62
     7
 10
132.07699199999999
 20
121.3634
 30
0.0
 40
2.5400599999999991
 50
126.084059
 51
145.17510799999999
  0
ARC
  5
620
  8
0
 62
     7
 10
132.03921399999999
 20
121.347255
 30
0.0
 40
2.560718
 50
43.594164999999997
 51
53.921171000000001
  0
LINE
  5
621
  8
0
 62
     7
 10
121.131
 20
113.41800000000001
 30
0.0
 11
119.877
 21
113.41800000000001
 31
0.0
  0
LINE
  5
622
  8
0
 62
     7
 10
119.877
 20
118.97199999999999
 30
0.0
 11
121.131
 21
118.97199999999999
 31
0.0
  0
LINE
  5
623
  8
0
 62
     7
 10
119.375
 20
112.913
 30
0.0
 11
117.37
 21
112.913
 31
0.0
  0
LINE
  5
624
  8
0
 62
     7
 10
117.37
 20
119.477
 30
0.0
 11
119.375
 21
119.477
 31
0.0
  0
LINE
  5
625
  8
0
 62
     7
 10
119.877
 20
113.41800000000001
 30
0.0
 11
119.375
 21
112.913
 31
0.0
  0
LINE
  5
626
  8
0
 62
     7
 10
119.375
 20
119.477
 30
0.0
 11
119.877
 21
118.97199999999999
 31
0.0
  0
ARC
  5
627
  8
0
 62
     7
 10
128.91773499999999
 20
126.594505
 30
0.0
 40
15.018015
 50
200.414942
 51
201.64971499999999
  0
ARC
  5
628
  8
0
 62
     7
 10
117.94017599999999
 20
122.25031199999999
 30
0.0
 40
3.2121650000000002
 50
201.86770100000001
 51
211.37948299999999
  0
ARC
  5
629
  8
0
 62
     7
 10
117.18443499999999
 20
121.862076
 30
0.0
 40
2.3656179999999991
 50
212.88289900000001
 51
234.612796
  0
ARC
  5
62A
  8
0
 62
     7
 10
117.30479800000001
 20
122.056197
 30
0.0
 40
2.5936180000000002
 50
234.92844400000001
 51
250.19142299999999
  0
ARC
  5
62B
  8
0
 62
     7
 10
117.09402300000001
 20
121.54725500000001
 30
0.0
 40
2.0435259999999991
 50
250.91576699999999
 51
256.02988299999998
  0
ARC
  5
62C
  8
0
 62
     7
 10
117.148979
 20
121.778059
 30
0.0
 40
2.2807719999999998
 50
256.08989200000002
 51
263.79105299999998
  0
ARC
  5
62D
  8
0
 62
     7
 10
117.41532100000001
 20
123.929815
 30
0.0
 40
4.4488279999999989
 50
263.37820199999999
 51
266.42601999999999
  0
ARC
  5
62E
  8
0
 62
     7
 10
118.16359300000001
 20
136.17116799999999
 30
0.0
 40
16.713025999999999
 50
266.48182300000002
 51
267.27712300000002
  0
ARC
  5
62F
  8
0
 62
     7
 10
117.963044
 20
98.821213999999998
 30
0.0
 40
14.103960000000001
 50
92.411366999999998
 51
93.673062999999999
  0
ARC
  5
630
  8
0
 62
     7
 10
117.25405000000001
 20
110.09539599999999
 30
0.0
 40
2.8075549999999989
 50
93.973561000000004
 51
103.45711
  0
ARC
  5
631
  8
0
 62
     7
 10
117.135334
 20
110.775086
 30
0.0
 40
2.119329
 50
104.612094
 51
117.401929
  0
ARC
  5
632
  8
0
 62
     7
 10
117.631619
 20
109.72211
 30
0.0
 40
3.2828620000000002
 50
116.633799
 51
123.60844400000001
  0
ARC
  5
633
  8
0
 62
     7
 10
117.112414
 20
110.47915500000001
 30
0.0
 40
2.3650150000000001
 50
123.28433200000001
 51
130.565518
  0
ARC
  5
634
  8
0
 62
     7
 10
116.755815
 20
110.931769
 30
0.0
 40
1.7894330000000001
 50
131.31630799999999
 51
150.53520900000001
  0
ARC
  5
635
  8
0
 62
     7
 10
117.366514
 20
110.52745299999999
 30
0.0
 40
2.5205489999999999
 50
149.36161299999989
 51
152.49524099999999
  0
ARC
  5
636
  8
0
 62
     7
 10
118.765754
 20
109.79346200000001
 30
0.0
 40
4.100611999999999
 50
152.42775
 51
155.561545
  0
ARC
  5
637
  8
0
 62
     7
 10
122.11118500000001
 20
108.279472
 30
0.0
 40
7.7726779999999991
 50
155.603635
 51
159.243673
  0
ARC
  5
638
  8
0
 62
     7
 10
114.829634
 20
111.03812499999999
 30
0.0
 40
0.013954
 50
295.45067299999999
 51
343.0736
  0
ARC
  5
639
  8
0
 62
     7
 10
116.40575200000001
 20
110.64379099999999
 30
0.0
 40
1.6158600000000001
 50
165.96043599999999
 51
166.335137
  0
ARC
  5
63A
  8
0
 62
     7
 10
113.220214
 20
110.60066399999999
 30
0.0
 40
1.5533689999999989
 50
288.254347
 51
352.12221600000009
  0
ARC
  5
63B
  8
0
 62
     7
 10
113.23426600000001
 20
121.801434
 30
0.0
 40
1.5378750000000001
 50
7.5172869999999978
 51
72.10615
  0
ARC
  5
63C
  8
0
 62
     7
 10
110.789011
 20
118.08037400000001
 30
0.0
 40
9.4182670000000002
 50
280.79716500000001
 51
288.0471490000001
  0
ARC
  5
63D
  8
0
 62
     7
 10
108.302842
 20
107.996458
 30
0.0
 40
1.003066
 50
75.524303000000003
 51
80.574719999999999
  0
ARC
  5
63E
  8
0
 62
     7
 10
107.627824
 20
104.175703
 30
0.0
 40
4.8829489999999991
 50
80.102846
 51
82.813686999999987
  0
ARC
  5
63F
  8
0
 62
     7
 10
105.353317
 20
86.572778999999997
 30
0.0
 40
22.632193000000001
 50
82.675504000000004
 51
84.004226000000003
  0
ARC
  5
640
  8
0
 62
     7
 10
133.907251
 20
360.40269899999998
 30
0.0
 40
252.682456
 50
263.69731000000002
 51
264.05076500000001
  0
ARC
  5
641
  8
0
 62
     7
 10
108.43898799999999
 20
128.86745500000001
 30
0.0
 40
19.751000000000001
 50
261.87661400000002
 51
263.39596499999999
  0
ARC
  5
642
  8
0
 62
     7
 10
106.558468
 20
115.75568800000001
 30
0.0
 40
6.5050739999999987
 50
259.18169799999998
 51
261.954881
  0
ARC
  5
643
  8
0
 62
     7
 10
105.600194
 20
110.82657399999999
 30
0.0
 40
1.483786
 50
250.815102
 51
259.80231400000002
  0
ARC
  5
644
  8
0
 62
     7
 10
109.752546
 20
111.642931
 30
0.0
 40
12.097906
 50
109.320207
 51
112.55270899999999
  0
ARC
  5
645
  8
0
 62
     7
 10
108.355295
 20
115.526251
 30
0.0
 40
7.9710729999999987
 50
102.592895
 51
109.0774149999999
  0
ARC
  5
646
  8
0
 62
     7
 10
110.80489300000001
 20
114.348365
 30
0.0
 40
9.3768799999999999
 50
71.972518999999991
 51
77.335699000000005
  0
ARC
  5
647
  8
0
 62
     7
 10
53.498175000000003
 20
116.192469
 30
0.0
 40
14.457245
 50
179.99737999999999
 51
183.85605199999989
  0
ARC
  5
648
  8
0
 62
     7
 10
53.291056999999988
 20
116.193037
 30
0.0
 40
14.250127000000001
 50
89.999654000000007
 51
179.99962400000001
  0
ARC
  5
649
  8
0
 62
     7
 10
53.291137999999997
 20
116.193123
 30
0.0
 40
14.250041
 50
0.00001
 51
89.999980000000008
  0
ARC
  5
64A
  8
0
 62
     7
 10
53.207343000000002
 20
116.189347
 30
0.0
 40
14.333837000000001
 50
356.12736899999999
 51
0.015104
  0
ARC
  5
64B
  8
0
 62
     7
 10
98.039259000000015
 20
113.342744
 30
0.0
 40
4.0734890000000004
 50
306.8039720000001
 51
359.48965800000002
  0
ARC
  5
64C
  8
0
 62
     7
 10
98.112719000000013
 20
113.306375
 30
0.0
 40
3.9998680000000002
 50
0.001244
 51
90.001214000000004
  0
ARC
  5
64D
  8
0
 62
     7
 10
98.112634000000014
 20
113.306461
 30
0.0
 40
3.9997820000000002
 50
90.0
 51
179.99996999999999
  0
ARC
  5
64E
  8
0
 62
     7
 10
98.211551
 20
113.37012
 30
0.0
 40
4.0991929999999988
 50
180.88983099999999
 51
245.72803099999999
  0
ARC
  5
64F
  8
0
 62
     7
 10
70.959709000000004
 20
113.43266800000001
 30
0.0
 40
4.1023469999999991
 50
279.56019900000001
 51
344.25950399999999
  0
ARC
  5
650
  8
0
 62
     7
 10
71.040606000000011
 20
113.342744
 30
0.0
 40
4.0006099999999991
 50
345.18481500000001
 51
75.171829000000002
  0
ARC
  5
651
  8
0
 62
     7
 10
71.041588000000004
 20
113.342268
 30
0.0
 40
4.000818999999999
 50
75.187170999999992
 51
165.166436
  0
ARC
  5
652
  8
0
 62
     7
 10
71.114469
 20
113.35857799999999
 30
0.0
 40
4.0672410000000001
 50
165.65139500000001
 51
218.5061290000001
  0
ARC
  5
653
  8
0
 62
     7
 10
72.639626000000007
 20
117.25503500000001
 30
0.0
 40
7.9308350000000001
 50
246.71816799999999
 51
262.767855
  0
ARC
  5
654
  8
0
 62
     7
 10
73.144350000000003
 20
118.648888
 30
0.0
 40
9.4110880000000012
 50
236.72425200000001
 51
247.24967599999999
  0
ARC
  5
655
  8
0
 62
     7
 10
71.941307999999992
 20
108.947228
 30
0.0
 40
0.5504280000000001
 50
130.804697
 51
131.56712400000001
  0
ARC
  5
656
  8
0
 62
     7
 10
71.557473999999999
 20
109.389341
 30
0.0
 40
0.035563
 50
272.94446499999998
 51
301.58581199999998
  0
ARC
  5
657
  8
0
 62
     7
 10
71.536304000000001
 20
109.577505
 30
0.0
 40
0.22486
 50
263.07165300000003
 51
275.86998499999999
  0
ARC
  5
658
  8
0
 62
     7
 10
71.678035999999992
 20
110.912668
 30
0.0
 40
1.5675019999999991
 50
256.52299799999997
 51
263.81591100000003
  0
ARC
  5
659
  8
0
 62
     7
 10
72.486676000000003
 20
114.99211699999999
 30
0.0
 40
5.7254350000000001
 50
253.674171
 51
258.16805599999998
  0
ARC
  5
65A
  8
0
 62
     7
 10
74.218229000000008
 20
120.854634
 30
0.0
 40
11.838312999999999
 50
250.76736600000001
 51
253.607462
  0
ARC
  5
65B
  8
0
 62
     7
 10
75.642593000000005
 20
125.074715
 30
0.0
 40
16.292121999999999
 50
248.61049600000001
 51
250.92648600000001
  0
ARC
  5
65C
  8
0
 62
     7
 10
76.159277000000003
 20
126.45961800000001
 30
0.0
 40
17.770091000000001
 50
246.56332599999999
 51
248.68783500000001
  0
ARC
  5
65D
  8
0
 62
     7
 10
69.774981999999994
 20
111.73307699999999
 30
0.0
 40
1.719225999999999
 50
242.84689700000001
 51
246.574128
  0
ARC
  5
65E
  8
0
 62
     7
 10
70.737681000000009
 20
113.61083600000001
 30
0.0
 40
3.8293849999999989
 50
239.7151180000001
 51
242.85217299999991
  0
ARC
  5
65F
  8
0
 62
     7
 10
334.97791999999998
 20
583.667913
 30
0.0
 40
543.06588699999998
 50
240.61793700000001
 51
240.65106700000001
  0
ARC
  5
660
  8
0
 62
     7
 10
71.320898999999997
 20
116.05528
 30
0.0
 40
6.2531819999999989
 50
239.44145
 51
243.52165400000001
  0
ARC
  5
661
  8
0
 62
     7
 10
69.722366000000008
 20
113.33753299999999
 30
0.0
 40
3.1001840000000001
 50
236.595879
 51
239.34457699999999
  0
ARC
  5
662
  8
0
 62
     7
 10
68.265931000000009
 20
111.139488
 30
0.0
 40
0.4634460000000001
 50
226.33037100000001
 51
237.30438699999999
  0
ARC
  5
663
  8
0
 62
     7
 10
67.974265000000003
 20
110.83818100000001
 30
0.0
 40
0.044203
 50
195.56286399999999
 51
230.11654200000001
  0
ARC
  5
664
  8
0
 62
     7
 10
67.940696000000003
 20
110.829058
 30
0.0
 40
0.009419
 50
167.20118500000001
 51
196.88963200000001
  0
ARC
  5
665
  8
0
 62
     7
 10
110.87848
 20
109.336376
 30
0.0
 40
1.6868299999999989
 50
6.8243049999999998
 51
10.550872999999999
  0
ARC
  5
666
  8
0
 62
     7
 10
112.02819
 20
109.53715800000001
 30
0.0
 40
0.5199600000000001
 50
11.998447000000001
 51
19.306833999999998
  0
ARC
  5
667
  8
0
 62
     7
 10
112.22599599999999
 20
109.600184
 30
0.0
 40
0.312496
 50
20.391898999999999
 51
29.213944999999999
  0
ARC
  5
668
  8
0
 62
     7
 10
111.749053
 20
109.327806
 30
0.0
 40
0.8617269999999999
 50
29.543061999999988
 51
40.265865999999988
  0
ARC
  5
669
  8
0
 62
     7
 10
111.69040800000001
 20
109.351175
 30
0.0
 40
0.8931139999999999
 50
36.687922999999998
 51
41.848787000000002
  0
ARC
  5
66A
  8
0
 62
     7
 10
111.26531900000001
 20
108.970533
 30
0.0
 40
1.463716999999999
 50
41.846369000000003
 51
48.148198999999991
  0
ARC
  5
66B
  8
0
 62
     7
 10
111.02660899999999
 20
108.66224
 30
0.0
 40
1.8528349999999989
 50
49.010573000000001
 51
57.75282399999999
  0
ARC
  5
66C
  8
0
 62
     7
 10
110.752656
 20
108.233176
 30
0.0
 40
2.361893999999999
 50
57.685856000000008
 51
65.410089999999997
  0
ARC
  5
66D
  8
0
 62
     7
 10
110.581591
 20
107.944142
 30
0.0
 40
2.6961300000000001
 50
64.660371999999995
 51
72.192177000000015
  0
ARC
  5
66E
  8
0
 62
     7
 10
110.493313
 20
107.752228
 30
0.0
 40
2.905956999999999
 50
71.692224999999993
 51
78.444924
  0
ARC
  5
66F
  8
0
 62
     7
 10
110.396013
 20
107.447731
 30
0.0
 40
3.2239550000000001
 50
77.834729999999993
 51
84.185520999999994
  0
ARC
  5
670
  8
0
 62
     7
 10
110.392482
 20
107.404786
 30
0.0
 40
3.2670369999999989
 50
84.200220000000016
 51
95.031559999999999
  0
ARC
  5
671
  8
0
 62
     7
 10
110.359848
 20
107.794647
 30
0.0
 40
2.8758169999999992
 50
95.065111000000002
 51
105.729534
  0
ARC
  5
672
  8
0
 62
     7
 10
110.229078
 20
108.257093
 30
0.0
 40
2.395236999999999
 50
105.71744200000001
 51
117.435624
  0
ARC
  5
673
  8
0
 62
     7
 10
110.106633
 20
108.548563
 30
0.0
 40
2.0802900000000002
 50
118.14134199999999
 51
125.906994
  0
ARC
  5
674
  8
0
 62
     7
 10
109.603886
 20
109.258799
 30
0.0
 40
1.21021
 50
126.34836900000001
 51
134.46599599999999
  0
ARC
  5
675
  8
0
 62
     7
 10
109.45505199999999
 20
109.42432700000001
 30
0.0
 40
0.98787
 50
135.03047900000001
 51
145.90669299999999
  0
ARC
  5
676
  8
0
 62
     7
 10
109.031413
 20
109.71729999999999
 30
0.0
 40
0.472848
 50
146.530914
 51
169.83985000000001
  0
ARC
  5
677
  8
0
 62
     7
 10
108.98353
 20
109.73998899999999
 30
0.0
 40
0.421942
 50
171.72584900000001
 51
185.04707300000001
  0
ARC
  5
678
  8
0
 62
     7
 10
97.501031999999995
 20
114.255922
 30
0.0
 40
4.7242509999999998
 50
258.09542599999997
 51
282.38131099999998
  0
ARC
  5
679
  8
0
 62
     7
 10
98.546506000000008
 20
114.082375
 30
0.0
 40
4.4409479999999997
 50
269.58048400000001
 51
295.95682499999998
  0
ARC
  5
67A
  8
0
 62
     7
 10
100.322722
 20
110.098842
 30
0.0
 40
0.13438
 50
327.88320400000009
 51
334.26395000000002
  0
ARC
  5
67B
  8
0
 62
     7
 10
100.389619
 20
110.07016
 30
0.0
 40
0.063481
 50
296.80496299999999
 51
317.65445499999998
  0
ARC
  5
67C
  8
0
 62
     7
 10
100.233328
 20
110.34411299999999
 30
0.0
 40
0.378813
 50
289.52373799999998
 51
299.219066
  0
ARC
  5
67D
  8
0
 62
     7
 10
99.706751000000011
 20
111.77558000000001
 30
0.0
 40
1.90404
 50
284.26482299999998
 51
290.06263100000001
  0
ARC
  5
67E
  8
0
 62
     7
 10
98.655945000000003
 20
115.36138800000001
 30
0.0
 40
5.6398229999999998
 50
280.94409000000002
 51
285.634908
  0
ARC
  5
67F
  8
0
 62
     7
 10
97.733878000000004
 20
119.646742
 30
0.0
 40
10.022713
 50
278.08056399999998
 51
281.46841999999998
  0
ARC
  5
680
  8
0
 62
     7
 10
96.642775999999998
 20
126.398726
 30
0.0
 40
16.861540999999999
 50
277.13425599999999
 51
278.52630199999999
  0
ARC
  5
681
  8
0
 62
     7
 10
100.67015600000001
 20
92.28043000000001
 30
0.0
 40
17.494447999999998
 50
96.344559000000004
 51
97.552914999999999
  0
ARC
  5
682
  8
0
 62
     7
 10
97.414923999999999
 20
116.89353800000001
 30
0.0
 40
7.3329929999999992
 50
275.06509399999999
 51
277.48881
  0
ARC
  5
683
  8
0
 62
     7
 10
96.916732999999994
 20
122.664828
 30
0.0
 40
13.125737000000001
 50
272.32602799999989
 51
275.0070990000001
  0
ARC
  5
684
  8
0
 62
     7
 10
97.105545000000006
 20
118.22136399999999
 30
0.0
 40
8.6782749999999993
 50
269.00651800000003
 51
272.27112499999998
  0
ARC
  5
685
  8
0
 62
     7
 10
97.056832000000014
 20
113.55206800000001
 30
0.0
 40
4.008966
 50
266.04684099999997
 51
268.54553600000003
  0
ARC
  5
686
  8
0
 62
     7
 10
96.819350000000014
 20
110.285168
 30
0.0
 40
0.733559
 50
255.47465299999999
 51
266.96020800000002
  0
ARC
  5
687
  8
0
 62
     7
 10
96.675848000000002
 20
109.69441399999999
 30
0.0
 40
0.126037
 50
230.540843
 51
251.26540499999999
  0
LINE
  5
688
  8
0
 62
     7
 10
112.553
 20
109.53700000000001
 30
0.0
 11
112.248
 21
104.736
 31
0.0
  0
LINE
  5
689
  8
0
 62
     7
 10
108.249
 20
104.736
 30
0.0
 11
108.554
 21
109.703
 31
0.0
  0
ARC
  5
68A
  8
0
 62
     7
 10
141.63604900000001
 20
109.353517
 30
0.0
 40
40.997256999999991
 50
188.05798100000001
 51
188.81297900000001
  0
ARC
  5
68B
  8
0
 62
     7
 10
108.770928
 20
104.32377200000001
 30
0.0
 40
7.7498179999999994
 50
189.29266799999999
 51
191.366243
  0
ARC
  5
68C
  8
0
 62
     7
 10
108.007825
 20
104.16061000000001
 30
0.0
 40
6.9695320000000001
 50
191.28756599999991
 51
197.109578
  0
ARC
  5
68D
  8
0
 62
     7
 10
108.486079
 20
104.232561
 30
0.0
 40
7.4481349999999997
 50
196.556195
 51
201.150158
  0
ARC
  5
68E
  8
0
 62
     7
 10
108.276996
 20
104.14309799999999
 30
0.0
 40
7.2208619999999986
 50
201.08670900000001
 51
206.66725500000001
  0
ARC
  5
68F
  8
0
 62
     7
 10
107.28057800000001
 20
103.678854
 30
0.0
 40
6.1221639999999988
 50
206.96990500000001
 51
211.56148899999999
  0
ARC
  5
690
  8
0
 62
     7
 10
107.81152299999999
 20
104.012045
 30
0.0
 40
6.748969999999999
 50
211.61244199999999
 51
214.331987
  0
ARC
  5
691
  8
0
 62
     7
 10
106.288631
 20
102.99932
 30
0.0
 40
4.920278999999999
 50
214.59514999999999
 51
218.61903100000001
  0
ARC
  5
692
  8
0
 62
     7
 10
105.84442799999999
 20
102.61749500000001
 30
0.0
 40
4.3349570000000002
 50
218.34040899999999
 51
223.63249099999999
  0
ARC
  5
693
  8
0
 62
     7
 10
105.548203
 20
102.311305
 30
0.0
 40
3.9093119999999999
 50
223.3802520000001
 51
229.80559600000001
  0
ARC
  5
694
  8
0
 62
     7
 10
105.213365
 20
101.932058
 30
0.0
 40
3.403538999999999
 50
229.99092999999999
 51
238.51652000000001
  0
ARC
  5
695
  8
0
 62
     7
 10
104.765264
 20
101.174206
 30
0.0
 40
2.5232649999999999
 50
238.20647600000001
 51
247.025237
  0
ARC
  5
696
  8
0
 62
     7
 10
104.75748400000001
 20
101.170655
 30
0.0
 40
2.516966
 50
247.15673100000001
 51
253.19510600000001
  0
ARC
  5
697
  8
0
 62
     7
 10
104.641156
 20
100.79180599999999
 30
0.0
 40
2.1206640000000001
 50
253.24452700000001
 51
259.43551400000001
  0
ARC
  5
698
  8
0
 62
     7
 10
104.626668
 20
100.73666
 30
0.0
 40
2.0638009999999989
 50
259.55023599999998
 51
268.081794
  0
ARC
  5
699
  8
0
 62
     7
 10
104.62193600000001
 20
100.625996
 30
0.0
 40
1.9530409999999989
 50
268.111873
 51
276.90162600000002
  0
ARC
  5
69A
  8
0
 62
     7
 10
104.635901
 20
100.65410300000001
 30
0.0
 40
1.9793409999999989
 50
276.40253000000001
 51
284.76961899999998
  0
ARC
  5
69B
  8
0
 62
     7
 10
104.613788
 20
100.796198
 30
0.0
 40
2.1224310000000002
 50
284.36894799999999
 51
293.259839
  0
ARC
  5
69C
  8
0
 62
     7
 10
104.49416100000001
 20
101.15931500000001
 30
0.0
 40
2.5034999999999989
 50
292.49331100000001
 51
301.77047399999998
  0
ARC
  5
69D
  8
0
 62
     7
 10
104.242368
 20
101.636943
 30
0.0
 40
3.042365999999999
 50
301.06586399999998
 51
310.99440700000002
  0
ARC
  5
69E
  8
0
 62
     7
 10
103.554869
 20
102.464089
 30
0.0
 40
4.117731
 50
310.6647759999999
 51
318.81024500000001
  0
ARC
  5
69F
  8
0
 62
     7
 10
103.23790099999999
 20
102.78381
 30
0.0
 40
4.5669240000000002
 50
318.41052999999999
 51
324.757586
  0
ARC
  5
6A0
  8
0
 62
     7
 10
101.279715
 20
104.12051
 30
0.0
 40
6.9376410000000002
 50
325.07339899999999
 51
328.57857000000001
  0
ARC
  5
6A1
  8
0
 62
     7
 10
101.43554899999999
 20
103.949623
 30
0.0
 40
6.7158809999999987
 50
329.12958900000001
 51
333.46338300000002
  0
ARC
  5
6A2
  8
0
 62
     7
 10
101.711214
 20
103.825293
 30
0.0
 40
6.4137230000000001
 50
333.356832
 51
338.99762399999997
  0
ARC
  5
6A3
  8
0
 62
     7
 10
100.190444
 20
104.42122500000001
 30
0.0
 40
8.0470550000000003
 50
338.91725500000001
 51
343.11022800000001
  0
ARC
  5
6A4
  8
0
 62
     7
 10
100.33336
 20
104.391425
 30
0.0
 40
7.901656
 50
343.015917
 51
348.27806500000003
  0
ARC
  5
6A5
  8
0
 62
     7
 10
100.361442
 20
104.443108
 30
0.0
 40
7.884860999999999
 50
347.86887899999999
 51
354.152626
  0
ARC
  5
6A6
  8
0
 62
     7
 10
103.716195
 20
104.098236
 30
0.0
 40
4.512429
 50
354.16911700000003
 51
356.44049100000001
  0
ARC
  5
6A7
  8
0
 62
     7
 10
98.641165999999998
 20
104.418995
 30
0.0
 40
9.5975830000000002
 50
356.41030899999998
 51
358.45030800000001
  0
ARC
  5
6A8
  8
0
 62
     7
 10
-58.115461000000003
 20
108.325137
 30
0.0
 40
166.402849
 50
358.565518
 51
358.76422700000001
  0
ARC
  5
6A9
  8
0
 62
     7
 10
78.123906000000005
 20
105.7664139999999
 30
0.0
 40
34.140101999999999
 50
356.42450100000002
 51
358.27109200000001
  0
ARC
  5
6AA
  8
0
 62
     7
 10
99.486875999999995
 20
104.505477
 30
0.0
 40
12.740292999999999
 50
354.698734
 51
356.09263900000002
  0
ARC
  5
6AB
  8
0
 62
     7
 10
101.35347299999999
 20
104.298709
 30
0.0
 40
10.862627
 50
347.93867299999999
 51
354.87503099999998
  0
ARC
  5
6AC
  8
0
 62
     7
 10
99.432001
 20
104.628792
 30
0.0
 40
12.810897000000001
 50
342.42447399999998
 51
348.29070999999999
  0
ARC
  5
6AD
  8
0
 62
     7
 10
100.695548
 20
104.24610199999999
 30
0.0
 40
11.490786
 50
337.45182399999999
 51
342.34111300000001
  0
ARC
  5
6AE
  8
0
 62
     7
 10
100.725447
 20
104.274619
 30
0.0
 40
11.474171
 50
332.39944000000003
 51
337.26305600000001
  0
ARC
  5
6AF
  8
0
 62
     7
 10
101.52015900000001
 20
103.917103
 30
0.0
 40
10.604383
 50
327.16982200000001
 51
332.12192099999999
  0
ARC
  5
6B0
  8
0
 62
     7
 10
102.622085
 20
103.255568
 30
0.0
 40
9.3198959999999982
 50
322.146298
 51
326.91448300000002
  0
ARC
  5
6B1
  8
0
 62
     7
 10
103.511431
 20
102.530055
 30
0.0
 40
8.1725220000000007
 50
317.854806
 51
322.33632599999999
  0
ARC
  5
6B2
  8
0
 62
     7
 10
102.924272
 20
103.07120399999999
 30
0.0
 40
8.9709889999999994
 50
314.36895600000003
 51
317.80855000000003
  0
ARC
  5
6B3
  8
0
 62
     7
 10
104.27633400000001
 20
101.657928
 30
0.0
 40
7.0152759999999992
 50
309.72627199999999
 51
314.54656499999999
  0
ARC
  5
6B4
  8
0
 62
     7
 10
103.739456
 20
102.30584899999999
 30
0.0
 40
7.8567259999999992
 50
304.90840600000001
 51
309.717648
  0
ARC
  5
6B5
  8
0
 62
     7
 10
104.236445
 20
101.63307500000001
 30
0.0
 40
7.020630999999999
 50
298.94367599999998
 51
304.72429899999997
  0
ARC
  5
6B6
  8
0
 62
     7
 10
104.407618
 20
101.312349
 30
0.0
 40
6.6571289999999994
 50
293.57805100000002
 51
298.99034599999999
  0
ARC
  5
6B7
  8
0
 62
     7
 10
104.49047400000001
 20
101.1481
 30
0.0
 40
6.473457999999999
 50
288.74640299999999
 51
293.48742099999998
  0
ARC
  5
6B8
  8
0
 62
     7
 10
104.656948
 20
100.62280199999999
 30
0.0
 40
5.922536
 50
283.39173299999999
 51
288.85453100000001
  0
ARC
  5
6B9
  8
0
 62
     7
 10
104.58838
 20
100.89183800000001
 30
0.0
 40
6.2001390000000001
 50
277.23533200000003
 51
283.43232699999999
  0
ARC
  5
6BA
  8
0
 62
     7
 10
104.61954900000001
 20
100.705406
 30
0.0
 40
6.0112709999999989
 50
270.29601600000001
 51
277.16441900000001
  0
ARC
  5
6BB
  8
0
 62
     7
 10
104.610257
 20
100.39470300000001
 30
0.0
 40
5.7006309999999987
 50
264.14185900000001
 51
270.40553899999998
  0
ARC
  5
6BC
  8
0
 62
     7
 10
104.65412600000001
 20
100.918345
 30
0.0
 40
6.2260229999999996
 50
259.43275399999999
 51
264.232103
  0
ARC
  5
6BD
  8
0
 62
     7
 10
104.643443
 20
100.782878
 30
0.0
 40
6.09091
 50
254.33690300000001
 51
259.2978470000001
  0
ARC
  5
6BE
  8
0
 62
     7
 10
104.696831
 20
101.007616
 30
0.0
 40
6.3217239999999988
 50
248.10026300000001
 51
254.42091099999999
  0
ARC
  5
6BF
  8
0
 62
     7
 10
104.852878
 20
101.358847
 30
0.0
 40
6.7058270000000002
 50
240.715417
 51
247.982497
  0
ARC
  5
6C0
  8
0
 62
     7
 10
105.089693
 20
101.73999999999999
 30
0.0
 40
7.154135000000001
 50
233.29920999999999
 51
240.554362
  0
ARC
  5
6C1
  8
0
 62
     7
 10
105.153702
 20
101.86132600000001
 30
0.0
 40
7.289693999999999
 50
227.48101500000001
 51
233.46574799999999
  0
ARC
  5
6C2
  8
0
 62
     7
 10
105.668824
 20
102.43459199999999
 30
0.0
 40
8.0603630000000006
 50
222.444357
 51
227.536181
  0
ARC
  5
6C3
  8
0
 62
     7
 10
106.462267
 20
103.148899
 30
0.0
 40
9.1279419999999991
 50
218.487166
 51
222.39186699999999
  0
ARC
  5
6C4
  8
0
 62
     7
 10
105.40839200000001
 20
102.33130300000001
 30
0.0
 40
7.7942179999999981
 50
214.74471
 51
218.60401999999999
  0
ARC
  5
6C5
  8
0
 62
     7
 10
105.603027
 20
102.56886299999999
 30
0.0
 40
8.0899789999999996
 50
212.212053
 51
215.341588
  0
ARC
  5
6C6
  8
0
 62
     7
 10
106.722234
 20
103.33911999999999
 30
0.0
 40
9.4476680000000002
 50
209.66651300000001
 51
212.54622800000001
  0
ARC
  5
6C7
  8
0
 62
     7
 10
108.33372
 20
104.227512
 30
0.0
 40
11.287661
 50
206.356638
 51
209.53624300000001
  0
ARC
  5
6C8
  8
0
 62
     7
 10
108.44708900000001
 20
104.212157
 30
0.0
 40
11.382609
 50
202.090564
 51
206.034031
  0
ARC
  5
6C9
  8
0
 62
     7
 10
108.54975
 20
104.255996
 30
0.0
 40
11.494221
 50
197.38103000000001
 51
202.10059999999999
  0
ARC
  5
6CA
  8
0
 62
     7
 10
108.91917100000001
 20
104.38873
 30
0.0
 40
11.886436
 50
192.09246399999989
 51
197.459688
  0
ARC
  5
6CB
  8
0
 62
     7
 10
109.299273
 20
104.39206299999999
 30
0.0
 40
12.259040000000001
 50
188.33798300000001
 51
191.735534
  0
ARC
  5
6CC
  8
0
 62
     7
 10
144.74382399999999
 20
109.816379
 30
0.0
 40
48.116064999999992
 50
187.95235500000001
 51
188.60841300000001
  0
LINE
  5
6CD
  8
0
 62
     7
 10
97.090500000000006
 20
103.16
 30
0.0
 11
96.526500000000013
 21
109.633
 31
0.0
  0
LINE
  5
6CE
  8
0
 62
     7
 10
100.48999999999999
 20
110.089
 30
0.0
 11
101.044
 21
103.607
 31
0.0
  0
ARC
  5
6CF
  8
0
 62
     7
 10
-53.606077999999997
 20
175.73906199999999
 30
0.0
 40
115.234538
 50
329.74109499999997
 51
329.92773
  0
ARC
  5
6D0
  8
0
 62
     7
 10
26.455836999999999
 20
128.94681199999999
 30
0.0
 40
22.501601999999998
 50
329.49287700000002
 51
329.92768999999998
  0
ARC
  5
6D1
  8
0
 62
     7
 10
44.821486999999991
 20
118.102298
 30
0.0
 40
1.1733830000000001
 50
328.00383900000003
 51
330.47072800000001
  0
ARC
  5
6D2
  8
0
 62
     7
 10
48.469965000000002
 20
122.065303
 30
0.0
 40
0.014442
 50
328.46020900000002
 51
346.30006600000002
  0
ARC
  5
6D3
  8
0
 62
     7
 10
48.336348000000001
 20
122.124914
 30
0.0
 40
0.16054
 50
323.67762099999999
 51
336.882362
  0
ARC
  5
6D4
  8
0
 62
     7
 10
45.345633999999997
 20
123.87282399999999
 30
0.0
 40
3.6237330000000001
 50
329.06900400000001
 51
329.42989299999999
  0
ARC
  5
6D5
  8
0
 62
     7
 10
40.537353000000003
 20
126.505878
 30
0.0
 40
9.1041059999999998
 50
329.48456400000009
 51
330.408886
  0
ARC
  5
6D6
  8
0
 62
     7
 10
-48.610300000000002
 20
178.19033899999999
 30
0.0
 40
112.15042099999999
 50
329.67948200000001
 51
329.86302000000001
  0
ARC
  5
6D7
  8
0
 62
     7
 10
48.343974000000003
 20
121.480619
 30
0.0
 40
0.171224
 50
147.47694100000001
 51
153.571248
  0
LINE
  5
6D8
  8
0
 62
     7
 10
51.324300000000001
 20
123.307
 30
0.0
 11
51.291400000000003
 21
123.307
 31
0.0
  0
ARC
  5
6D9
  8
0
 62
     7
 10
52.354284999999997
 20
491.67989199999988
 30
0.0
 40
368.37447800000001
 50
269.77221600000001
 51
269.83469600000001
  0
ARC
  5
6DA
  8
0
 62
     7
 10
50.743872000000003
 20
108.31434299999999
 30
0.0
 40
14.994693
 50
89.442678999999984
 51
90.094308000000026
  0
ARC
  5
6DB
  8
0
 62
     7
 10
50.654114
 20
120.383931
 30
0.0
 40
2.9258079999999991
 50
88.725537000000003
 51
89.720754999999997
  0
LINE
  5
6DC
  8
0
 62
     7
 10
55.965200000000003
 20
123.29000000000001
 30
0.0
 11
55.969499999999989
 21
123.29000000000001
 31
0.0
  0
LINE
  5
6DD
  8
0
 62
     7
 10
55.969499999999989
 20
123.29000000000001
 30
0.0
 11
55.910299999999992
 21
123.29000000000001
 31
0.0
  0
LINE
  5
6DE
  8
0
 62
     7
 10
55.910299999999992
 20
123.29000000000001
 30
0.0
 11
55.762300000000003
 21
123.291
 31
0.0
  0
ARC
  5
6DF
  8
0
 62
     7
 10
55.318216999999997
 20
31.367422999999999
 30
0.0
 40
91.924749999999989
 50
89.723181999999994
 51
89.947040000000001
  0
LINE
  5
6E0
  8
0
 62
     7
 10
55.403199999999998
 20
123.292
 30
0.0
 11
55.306899999999992
 21
123.292
 31
0.0
  0
ARC
  5
6E1
  8
0
 62
     7
 10
-22.810027000000002
 20
75.188958999999997
 30
0.0
 40
93.522527999999994
 50
29.673981000000001
 51
29.915247000000001
  0
ARC
  5
6E2
  8
0
 62
     7
 10
313.77606200000002
 20
267.51781399999999
 30
0.0
 40
294.138419
 50
209.65649300000001
 51
209.689705
  0
ARC
  5
6E3
  8
0
 62
     7
 10
54.96709899999999
 20
120.182484
 30
0.0
 40
3.6699429999999991
 50
29.300370999999998
 51
30.092928000000011
  0
ARC
  5
6E4
  8
0
 62
     7
 10
60.756385999999999
 20
117.41618
 30
0.0
 40
0.020626
 50
16.387201999999998
 51
28.852523000000001
  0
ARC
  5
6E5
  8
0
 62
     7
 10
60.776291999999998
 20
117.421927
 30
0.0
 40
0.000137
 50
148.46957
 51
16.667596
  0
ARC
  5
6E6
  8
0
 62
     7
 10
59.586298999999997
 20
116.776572
 30
0.0
 40
1.353856999999999
 50
28.470604000000002
 51
30.990885000000009
  0
ARC
  5
6E7
  8
0
 62
     7
 10
77.518359000000004
 20
127.16793199999999
 30
0.0
 40
19.371646999999999
 50
209.59429900000001
 51
210.02882
  0
ARC
  5
6E8
  8
0
 62
     7
 10
215.78502900000001
 20
206.663498
 30
0.0
 40
178.86189899999999
 50
209.74853999999999
 51
209.86376899999999
  0
ARC
  5
6E9
  8
0
 62
     7
 10
58.039622999999999
 20
116.52796499999999
 30
0.0
 40
2.8192579999999992
 50
29.430869000000001
 51
30.578965999999991
  0
ARC
  5
6EA
  8
0
 62
     7
 10
795.98180899999988
 20
-312.271818
 30
0.0
 40
850.30927400000007
 50
149.85728499999999
 51
149.88299799999999
  0
ARC
  5
6EB
  8
0
 62
     7
 10
43.063628000000001
 20
125.04756999999999
 30
0.0
 40
20.399902000000001
 50
329.57063699999998
 51
330.04975999999999
  0
ARC
  5
6EC
  8
0
 62
     7
 10
57.600653000000001
 20
116.735496
 30
0.0
 40
3.6547989999999988
 50
329.179621
 51
329.968818
  0
ARC
  5
6ED
  8
0
 62
     7
 10
78.465238999999997
 20
99.037307999999996
 30
0.0
 40
23.281168000000001
 50
149.611684
 51
150.189887
  0
ARC
  5
6EE
  8
0
 62
     7
 10
55.742659000000003
 20
112.37079799999999
 30
0.0
 40
3.0645720000000001
 50
329.47511900000001
 51
330.01201300000002
  0
LINE
  5
6EF
  8
0
 62
     7
 10
48.130200000000002
 20
110.904
 30
0.0
 11
48.317599999999999
 21
110.577
 31
0.0
  0
ARC
  5
6F0
  8
0
 62
     7
 10
46.220946999999988
 20
115.204663
 30
0.0
 40
0.479869
 50
209.97072399999999
 51
210.54218299999999
  0
ARC
  5
6F1
  8
0
 62
     7
 10
11.016226
 20
94.752779000000004
 30
0.0
 40
40.234404999999988
 50
30.071193999999998
 51
30.156265999999999
  0
ARC
  5
6F2
  8
0
 62
     7
 10
91.884400999999997
 20
141.07145600000001
 30
0.0
 40
52.960156999999988
 50
209.598714
 51
209.75829899999999
  0
ARC
  5
6F3
  8
0
 62
     7
 10
-153.80716699999999
 20
0.5022630000000001
 30
0.0
 40
230.101755
 50
29.689909000000011
 51
29.779413999999999
  0
ARC
  5
6F4
  8
0
 62
     7
 10
44.488188000000001
 20
113.513869
 30
0.0
 40
1.8640330000000001
 50
29.08275900000001
 51
30.966366000000001
  0
LINE
  5
6F5
  8
0
 62
     7
 10
53.009500000000003
 20
122.901
 30
0.0
 11
53.258400000000002
 21
122.907
 31
0.0
  0
LINE
  5
6F6
  8
0
 62
     7
 10
52.538899999999998
 20
122.86499999999999
 30
0.0
 11
52.633000000000003
 21
122.875
 31
0.0
  0
LINE
  5
6F7
  8
0
 62
     7
 10
52.633000000000003
 20
122.875
 30
0.0
 11
52.75269999999999
 21
122.886
 31
0.0
  0
LINE
  5
6F8
  8
0
 62
     7
 10
52.02709999999999
 20
122.78700000000001
 30
0.0
 11
52.242100000000001
 21
122.825
 31
0.0
  0
LINE
  5
6F9
  8
0
 62
     7
 10
51.545299999999997
 20
122.676
 30
0.0
 11
51.785299999999999
 21
122.736
 31
0.0
  0
LINE
  5
6FA
  8
0
 62
     7
 10
51.086100000000002
 20
122.535
 30
0.0
 11
51.306899999999999
 21
122.608
 31
0.0
  0
LINE
  5
6FB
  8
0
 62
     7
 10
50.6126
 20
122.34999999999999
 30
0.0
 11
50.721600000000002
 21
122.396
 31
0.0
  0
LINE
  5
6FC
  8
0
 62
     7
 10
50.721600000000002
 20
122.396
 30
0.0
 11
50.827500000000001
 21
122.43899999999999
 31
0.0
  0
LINE
  5
6FD
  8
0
 62
     7
 10
50.172600000000003
 20
122.139
 30
0.0
 11
50.377899999999997
 21
122.242
 31
0.0
  0
LINE
  5
6FE
  8
0
 62
     7
 10
49.748899999999999
 20
121.89700000000001
 30
0.0
 11
49.925400000000003
 21
122.003
 31
0.0
  0
LINE
  5
6FF
  8
0
 62
     7
 10
49.329300000000003
 20
121.614
 30
0.0
 11
49.513599999999997
 21
121.744
 31
0.0
  0
LINE
  5
700
  8
0
 62
     7
 10
48.947400000000002
 20
121.313
 30
0.0
 11
49.03179999999999
 21
121.383
 31
0.0
  0
LINE
  5
701
  8
0
 62
     7
 10
49.03179999999999
 20
121.383
 30
0.0
 11
49.121000000000002
 21
121.455
 31
0.0
  0
LINE
  5
702
  8
0
 62
     7
 10
48.5822
 20
120.979
 30
0.0
 11
48.733600000000003
 21
121.123
 31
0.0
  0
LINE
  5
703
  8
0
 62
     7
 10
48.2361
 20
120.61199999999999
 30
0.0
 11
48.396000000000001
 21
120.788
 31
0.0
  0
LINE
  5
704
  8
0
 62
     7
 10
47.930900000000001
 20
120.236
 30
0.0
 11
48.0627
 21
120.405
 31
0.0
  0
LINE
  5
705
  8
0
 62
     7
 10
47.644199999999998
 20
119.825
 30
0.0
 11
47.708799999999997
 21
119.923
 31
0.0
  0
LINE
  5
706
  8
0
 62
     7
 10
47.708799999999997
 20
119.923
 30
0.0
 11
47.765700000000002
 21
120.008
 31
0.0
  0
LINE
  5
707
  8
0
 62
     7
 10
47.391500000000001
 20
119.399
 30
0.0
 11
47.49819999999999
 21
119.587
 31
0.0
  0
LINE
  5
708
  8
0
 62
     7
 10
47.1736
 20
118.95999999999999
 30
0.0
 11
47.264099999999999
 21
119.152
 31
0.0
  0
LINE
  5
709
  8
0
 62
     7
 10
46.98279999999999
 20
118.492
 30
0.0
 11
47.066499999999991
 21
118.70999999999999
 31
0.0
  0
LINE
  5
70A
  8
0
 62
     7
 10
46.8324
 20
118.029
 30
0.0
 11
46.866000000000007
 21
118.142
 31
0.0
  0
LINE
  5
70B
  8
0
 62
     7
 10
46.866000000000007
 20
118.142
 30
0.0
 11
46.898899999999998
 21
118.247
 31
0.0
  0
LINE
  5
70C
  8
0
 62
     7
 10
46.71459999999999
 20
117.54600000000001
 30
0.0
 11
46.762500000000003
 21
117.759
 31
0.0
  0
LINE
  5
70D
  8
0
 62
     7
 10
46.632599999999996
 20
117.05500000000001
 30
0.0
 11
46.661900000000003
 21
117.258
 31
0.0
  0
LINE
  5
70E
  8
0
 62
     7
 10
46.5871
 20
116.56100000000001
 30
0.0
 11
46.603099999999991
 21
116.786
 31
0.0
  0
LINE
  5
70F
  8
0
 62
     7
 10
46.578699999999991
 20
116.06699999999999
 30
0.0
 11
46.576999999999998
 21
116.193
 31
0.0
  0
LINE
  5
710
  8
0
 62
     7
 10
46.576999999999998
 20
116.193
 30
0.0
 11
46.577500000000001
 21
116.29300000000001
 31
0.0
  0
LINE
  5
711
  8
0
 62
     7
 10
46.606200000000001
 20
115.56999999999999
 30
0.0
 11
46.590600000000002
 21
115.76900000000001
 31
0.0
  0
LINE
  5
712
  8
0
 62
     7
 10
46.669600000000003
 20
115.08199999999999
 30
0.0
 11
46.63669999999999
 21
115.301
 31
0.0
  0
LINE
  5
713
  8
0
 62
     7
 10
46.770200000000003
 20
114.596
 30
0.0
 11
46.725299999999997
 21
114.79000000000001
 31
0.0
  0
LINE
  5
714
  8
0
 62
     7
 10
46.906100000000002
 20
114.11799999999999
 30
0.0
 11
46.866000000000007
 21
114.244
 31
0.0
  0
LINE
  5
715
  8
0
 62
     7
 10
46.866000000000007
 20
114.244
 30
0.0
 11
46.84859999999999
 21
114.303
 31
0.0
  0
LINE
  5
716
  8
0
 62
     7
 10
47.068899999999999
 20
113.67
 30
0.0
 11
46.994700000000002
 21
113.863
 31
0.0
  0
LINE
  5
717
  8
0
 62
     7
 10
47.28609999999999
 20
113.18899999999999
 30
0.0
 11
47.193999999999988
 21
113.383
 31
0.0
  0
LINE
  5
718
  8
0
 62
     7
 10
47.517800000000001
 20
112.76600000000001
 30
0.0
 11
47.405799999999999
 21
112.962
 31
0.0
  0
LINE
  5
719
  8
0
 62
     7
 10
47.791400000000003
 20
112.343
 30
0.0
 11
47.708799999999997
 21
112.46299999999999
 31
0.0
  0
LINE
  5
71A
  8
0
 62
     7
 10
47.708799999999997
 20
112.46299999999999
 30
0.0
 11
47.677700000000002
 21
112.51000000000001
 31
0.0
  0
LINE
  5
71B
  8
0
 62
     7
 10
48.078699999999998
 20
111.961
 30
0.0
 11
47.966199999999994
 21
112.10299999999999
 31
0.0
  0
LINE
  5
71C
  8
0
 62
     7
 10
48.403700000000001
 20
111.59
 30
0.0
 11
48.262
 21
111.745
 31
0.0
  0
LINE
  5
71D
  8
0
 62
     7
 10
48.770800000000001
 20
111.229
 30
0.0
 11
48.624699999999997
 21
111.366
 31
0.0
  0
LINE
  5
71E
  8
0
 62
     7
 10
49.138199999999998
 20
110.91800000000001
 30
0.0
 11
49.03179999999999
 21
111.004
 31
0.0
  0
LINE
  5
71F
  8
0
 62
     7
 10
49.03179999999999
 20
111.004
 30
0.0
 11
49.000100000000003
 21
111.029
 31
0.0
  0
LINE
  5
720
  8
0
 62
     7
 10
49.559699999999999
 20
110.61199999999999
 30
0.0
 11
49.392099999999999
 21
110.727
 31
0.0
  0
LINE
  5
721
  8
0
 62
     7
 10
49.984699999999997
 20
110.34999999999999
 30
0.0
 11
49.7926
 21
110.46299999999999
 31
0.0
  0
LINE
  5
722
  8
0
 62
     7
 10
50.402599999999993
 20
110.133
 30
0.0
 11
50.244500000000002
 21
110.20999999999999
 31
0.0
  0
LINE
  5
723
  8
0
 62
     7
 10
50.8718
 20
109.93000000000001
 30
0.0
 11
50.721600000000002
 21
109.991
 31
0.0
  0
LINE
  5
724
  8
0
 62
     7
 10
50.721600000000002
 20
109.991
 30
0.0
 11
50.689900000000002
 21
110.003
 31
0.0
  0
LINE
  5
725
  8
0
 62
     7
 10
51.337600000000002
 20
109.77
 30
0.0
 11
51.1586
 21
109.827
 31
0.0
  0
LINE
  5
726
  8
0
 62
     7
 10
51.818899999999999
 20
109.643
 30
0.0
 11
51.611600000000003
 21
109.693
 31
0.0
  0
LINE
  5
727
  8
0
 62
     7
 10
52.333599999999997
 20
109.54900000000001
 30
0.0
 11
52.088799999999999
 21
109.58799999999999
 31
0.0
  0
LINE
  5
728
  8
0
 62
     7
 10
52.794499999999999
 20
109.498
 30
0.0
 11
52.633000000000003
 21
109.512
 31
0.0
  0
LINE
  5
729
  8
0
 62
     7
 10
52.633000000000003
 20
109.512
 30
0.0
 11
52.590400000000002
 21
109.51600000000001
 31
0.0
  0
LINE
  5
72A
  8
0
 62
     7
 10
53.299100000000003
 20
109.48
 30
0.0
 11
53.290799999999997
 21
109.48
 31
0.0
  0
LINE
  5
72B
  8
0
 62
     7
 10
53.290799999999997
 20
109.48
 30
0.0
 11
53.083100000000002
 21
109.482
 31
0.0
  0
LINE
  5
72C
  8
0
 62
     7
 10
53.795999999999999
 20
109.498
 30
0.0
 11
53.595999999999997
 21
109.486
 31
0.0
  0
LINE
  5
72D
  8
0
 62
     7
 10
54.290399999999998
 20
109.554
 30
0.0
 11
54.080199999999998
 21
109.526
 31
0.0
  0
LINE
  5
72E
  8
0
 62
     7
 10
54.779400000000003
 20
109.646
 30
0.0
 11
54.60049999999999
 21
109.608
 31
0.0
  0
LINE
  5
72F
  8
0
 62
     7
 10
54.60049999999999
 20
109.608
 30
0.0
 11
54.565100000000001
 21
109.602
 31
0.0
  0
LINE
  5
730
  8
0
 62
     7
 10
55.2607
 20
109.77500000000001
 30
0.0
 11
55.239899999999999
 21
109.768
 31
0.0
  0
LINE
  5
731
  8
0
 62
     7
 10
55.239899999999999
 20
109.768
 30
0.0
 11
55.055399999999992
 21
109.715
 31
0.0
  0
LINE
  5
732
  8
0
 62
     7
 10
55.730600000000003
 20
109.938
 30
0.0
 11
55.529600000000002
 21
109.864
 31
0.0
  0
LINE
  5
733
  8
0
 62
     7
 10
56.1875
 20
110.136
 30
0.0
 11
55.98449999999999
 21
110.04300000000001
 31
0.0
  0
LINE
  5
734
  8
0
 62
     7
 10
56.628599999999999
 20
110.367
 30
0.0
 11
56.456200000000003
 21
110.27200000000001
 31
0.0
  0
LINE
  5
735
  8
0
 62
     7
 10
56.456200000000003
 20
110.27200000000001
 30
0.0
 11
56.441200000000002
 21
110.264
 31
0.0
  0
LINE
  5
736
  8
0
 62
     7
 10
57.050600000000003
 20
110.63
 30
0.0
 11
57.0212
 21
110.611
 31
0.0
  0
LINE
  5
737
  8
0
 62
     7
 10
57.0212
 20
110.611
 30
0.0
 11
56.868000000000002
 21
110.511
 31
0.0
  0
LINE
  5
738
  8
0
 62
     7
 10
57.452800000000011
 20
110.925
 30
0.0
 11
57.279899999999998
 21
110.79300000000001
 31
0.0
  0
LINE
  5
739
  8
0
 62
     7
 10
57.831800000000001
 20
111.248
 30
0.0
 11
57.663499999999999
 21
111.099
 31
0.0
  0
LINE
  5
73A
  8
0
 62
     7
 10
58.185400000000001
 20
111.598
 30
0.0
 11
58.0383
 21
111.446
 31
0.0
  0
LINE
  5
73B
  8
0
 62
     7
 10
58.0383
 20
111.446
 30
0.0
 11
58.0304
 21
111.437
 31
0.0
  0
LINE
  5
73C
  8
0
 62
     7
 10
58.5124
 20
111.973
 30
0.0
 11
58.480699999999992
 21
111.935
 31
0.0
  0
LINE
  5
73D
  8
0
 62
     7
 10
58.480699999999992
 20
111.935
 30
0.0
 11
58.374200000000002
 21
111.807
 31
0.0
  0
LINE
  5
73E
  8
0
 62
     7
 10
58.810400000000001
 20
112.371
 30
0.0
 11
58.678800000000003
 21
112.187
 31
0.0
  0
LINE
  5
73F
  8
0
 62
     7
 10
59.078800000000001
 20
112.791
 30
0.0
 11
58.962699999999998
 21
112.601
 31
0.0
  0
LINE
  5
740
  8
0
 62
     7
 10
59.315100000000001
 20
113.229
 30
0.0
 11
59.2121
 21
113.029
 31
0.0
  0
LINE
  5
741
  8
0
 62
     7
 10
59.2121
 20
113.029
 30
0.0
 11
59.2121
 21
113.02800000000001
 31
0.0
  0
LINE
  5
742
  8
0
 62
     7
 10
59.518000000000001
 20
113.68300000000001
 30
0.0
 11
59.494100000000003
 21
113.624
 31
0.0
  0
LINE
  5
743
  8
0
 62
     7
 10
59.494100000000003
 20
113.624
 30
0.0
 11
59.430700000000002
 21
113.477
 31
0.0
  0
LINE
  5
744
  8
0
 62
     7
 10
59.686799999999991
 20
114.151
 30
0.0
 11
59.6252
 21
113.967
 31
0.0
  0
LINE
  5
745
  8
0
 62
     7
 10
59.820300000000003
 20
114.63
 30
0.0
 11
59.765399999999993
 21
114.414
 31
0.0
  0
LINE
  5
746
  8
0
 62
     7
 10
59.917999999999999
 20
115.11799999999999
 30
0.0
 11
59.877699999999997
 21
114.893
 31
0.0
  0
LINE
  5
747
  8
0
 62
     7
 10
59.979700000000001
 20
115.611
 30
0.0
 11
59.9724
 21
115.535
 31
0.0
  0
LINE
  5
748
  8
0
 62
     7
 10
59.9724
 20
115.535
 30
0.0
 11
59.956200000000003
 21
115.387
 31
0.0
  0
LINE
  5
749
  8
0
 62
     7
 10
60.004100000000001
 20
116.108
 30
0.0
 11
59.997599999999998
 21
115.881
 31
0.0
  0
LINE
  5
74A
  8
0
 62
     7
 10
59.992100000000001
 20
116.60599999999999
 30
0.0
 11
60.002400000000002
 21
116.38200000000001
 31
0.0
  0
LINE
  5
74B
  8
0
 62
     7
 10
59.943699999999993
 20
117.09999999999999
 30
0.0
 11
59.969999999999992
 21
116.88
 31
0.0
  0
LINE
  5
74C
  8
0
 62
     7
 10
59.8581
 20
117.589
 30
0.0
 11
59.875999999999998
 21
117.503
 31
0.0
  0
LINE
  5
74D
  8
0
 62
     7
 10
59.875999999999998
 20
117.503
 30
0.0
 11
59.901800000000001
 21
117.36499999999999
 31
0.0
  0
LINE
  5
74E
  8
0
 62
     7
 10
59.737099999999998
 20
118.071
 30
0.0
 11
59.797600000000003
 21
117.84999999999999
 31
0.0
  0
LINE
  5
74F
  8
0
 62
     7
 10
59.582099999999997
 20
118.538
 30
0.0
 11
59.654400000000003
 21
118.334
 31
0.0
  0
LINE
  5
750
  8
0
 62
     7
 10
59.389899999999997
 20
119.0
 30
0.0
 11
59.4756
 21
118.80800000000001
 31
0.0
  0
LINE
  5
751
  8
0
 62
     7
 10
59.170200000000001
 20
119.435
 30
0.0
 11
59.2121
 21
119.358
 31
0.0
  0
LINE
  5
752
  8
0
 62
     7
 10
59.2121
 20
119.358
 30
0.0
 11
59.270299999999999
 21
119.247
 31
0.0
  0
LINE
  5
753
  8
0
 62
     7
 10
58.909999999999997
 20
119.86799999999999
 30
0.0
 11
59.030200000000001
 21
119.676
 31
0.0
  0
LINE
  5
754
  8
0
 62
     7
 10
58.622599999999998
 20
120.274
 30
0.0
 11
58.764400000000002
 21
120.08199999999999
 31
0.0
  0
LINE
  5
755
  8
0
 62
     7
 10
58.307099999999991
 20
120.65600000000001
 30
0.0
 11
58.4495
 21
120.48999999999999
 31
0.0
  0
LINE
  5
756
  8
0
 62
     7
 10
57.963599999999992
 20
121.015
 30
0.0
 11
58.0383
 21
120.941
 31
0.0
  0
LINE
  5
757
  8
0
 62
     7
 10
58.0383
 20
120.941
 30
0.0
 11
58.130000000000003
 21
120.84699999999999
 31
0.0
  0
LINE
  5
758
  8
0
 62
     7
 10
57.604300000000002
 20
121.33799999999999
 30
0.0
 11
57.765799999999999
 21
121.199
 31
0.0
  0
LINE
  5
759
  8
0
 62
     7
 10
57.203200000000002
 20
121.65000000000001
 30
0.0
 11
57.381
 21
121.518
 31
0.0
  0
LINE
  5
75A
  8
0
 62
     7
 10
56.790199999999999
 20
121.92400000000001
 30
0.0
 11
56.993099999999998
 21
121.794
 31
0.0
  0
LINE
  5
75B
  8
0
 62
     7
 10
56.357999999999997
 20
122.166
 30
0.0
 11
56.456200000000003
 21
122.114
 31
0.0
  0
LINE
  5
75C
  8
0
 62
     7
 10
56.456200000000003
 20
122.114
 30
0.0
 11
56.551299999999991
 21
122.063
 31
0.0
  0
LINE
  5
75D
  8
0
 62
     7
 10
55.909100000000002
 20
122.376
 30
0.0
 11
56.1173
 21
122.28400000000001
 31
0.0
  0
LINE
  5
75E
  8
0
 62
     7
 10
55.446399999999997
 20
122.55200000000001
 30
0.0
 11
55.666000000000011
 21
122.473
 31
0.0
  0
LINE
  5
75F
  8
0
 62
     7
 10
54.971699999999998
 20
122.694
 30
0.0
 11
55.182299999999991
 21
122.63500000000001
 31
0.0
  0
LINE
  5
760
  8
0
 62
     7
 10
54.492100000000001
 20
122.79900000000001
 30
0.0
 11
54.60049999999999
 21
122.77800000000001
 31
0.0
  0
LINE
  5
761
  8
0
 62
     7
 10
54.60049999999999
 20
122.77800000000001
 30
0.0
 11
54.721400000000003
 21
122.754
 31
0.0
  0
LINE
  5
762
  8
0
 62
     7
 10
53.9983
 20
122.87
 30
0.0
 11
54.21929999999999
 21
122.843
 31
0.0
  0
LINE
  5
763
  8
0
 62
     7
 10
53.523000000000003
 20
122.90300000000001
 30
0.0
 11
53.726599999999991
 21
122.893
 31
0.0
  0
ARC
  5
764
  8
0
 62
     7
 10
48.347706999999993
 20
110.691543
 30
0.0
 40
0.011348
 50
110.707683
 51
165.55472900000001
  0
ARC
  5
765
  8
0
 62
     7
 10
48.349526000000012
 20
110.65974300000001
 30
0.0
 40
0.042814
 50
62.790562999999999
 51
97.828393000000005
  0
ARC
  5
766
  8
0
 62
     7
 10
48.144022999999997
 20
110.089572
 30
0.0
 40
0.6485560000000001
 50
63.241506999999991
 51
69.693282000000011
  0
ARC
  5
767
  8
0
 62
     7
 10
45.834702999999998
 20
105.242592
 30
0.0
 40
6.0174120000000002
 50
62.941543999999993
 51
64.386456999999993
  0
ARC
  5
768
  8
0
 62
     7
 10
38.304687999999999
 20
90.253975999999994
 30
0.0
 40
22.791094000000001
 50
62.233904000000003
 51
63.224383999999993
  0
ARC
  5
769
  8
0
 62
     7
 10
79.626839000000004
 20
170.20018099999999
 30
0.0
 40
67.203754000000004
 50
242.813502
 51
243.30294500000011
  0
ARC
  5
76A
  8
0
 62
     7
 10
62.990976000000003
 20
137.23876299999989
 30
0.0
 40
30.282207
 50
243.404552
 51
244.79693399999999
  0
ARC
  5
76B
  8
0
 62
     7
 10
61.850704
 20
134.67228399999999
 30
0.0
 40
27.474554999999999
 50
244.669399
 51
245.505134
  0
ARC
  5
76C
  8
0
 62
     7
 10
66.269626000000002
 20
144.34706
 30
0.0
 40
38.110723999999998
 50
245.4901990000001
 51
246.10292000000001
  0
ARC
  5
76D
  8
0
 62
     7
 10
114.73823899999999
 20
255.28776099999999
 30
0.0
 40
159.17662000000001
 50
246.32894300000001
 51
246.46366399999999
  0
ARC
  5
76E
  8
0
 62
     7
 10
62.653041999999999
 20
135.81517600000001
 30
0.0
 40
28.844137
 50
246.54905899999989
 51
247.2573220000001
  0
ARC
  5
76F
  8
0
 62
     7
 10
64.06814399999999
 20
138.53144800000001
 30
0.0
 40
31.897307000000001
 50
246.799297
 51
247.31203300000001
  0
ARC
  5
770
  8
0
 62
     7
 10
40.429226999999997
 20
82.306131000000008
 30
0.0
 40
29.095324999999999
 50
66.585504
 51
67.069977000000009
  0
ARC
  5
771
  8
0
 62
     7
 10
47.785099000000002
 20
99.220106000000001
 30
0.0
 40
10.651108000000001
 50
65.832981000000004
 51
66.740815999999995
  0
ARC
  5
772
  8
0
 62
     7
 10
51.010197999999988
 20
106.439092
 30
0.0
 40
2.7445059999999999
 50
63.119839000000013
 51
65.56161800000001
  0
ARC
  5
773
  8
0
 62
     7
 10
52.214117000000002
 20
108.818789
 30
0.0
 40
0.07763
 50
41.679380999999992
 51
61.58263299999998
  0
ARC
  5
774
  8
0
 62
     7
 10
52.264449999999997
 20
108.86724
 30
0.0
 40
0.008277
 50
334.204837
 51
22.516808999999999
  0
ARC
  5
775
  8
0
 62
     7
 10
58.234342000000012
 20
110.691406
 30
0.0
 40
0.011441
 50
15.036464
 51
69.087882999999991
  0
ARC
  5
776
  8
0
 62
     7
 10
58.232250000000001
 20
110.661106
 30
0.0
 40
0.04145
 50
81.430249000000003
 51
117.659615
  0
ARC
  5
777
  8
0
 62
     7
 10
58.401084999999988
 20
110.179518
 30
0.0
 40
0.55137
 50
109.94442600000001
 51
116.666948
  0
ARC
  5
778
  8
0
 62
     7
 10
60.621623
 20
105.474772
 30
0.0
 40
5.7536649999999989
 50
115.400498
 51
116.999323
  0
ARC
  5
779
  8
0
 62
     7
 10
71.21754
 20
84.549481000000014
 30
0.0
 40
29.208741
 50
116.884411
 51
117.657262
  0
ARC
  5
77A
  8
0
 62
     7
 10
31.900615999999999
 20
160.41879299999999
 30
0.0
 40
56.243310000000001
 50
296.67300599999999
 51
297.25736000000001
  0
ARC
  5
77B
  8
0
 62
     7
 10
41.965311
 20
140.587121
 30
0.0
 40
34.004165999999998
 50
295.279291
 51
296.51926200000003
  0
ARC
  5
77C
  8
0
 62
     7
 10
44.731405000000002
 20
134.67228399999999
 30
0.0
 40
27.474554999999999
 50
294.49488600000001
 51
295.33062100000001
  0
ARC
  5
77D
  8
0
 62
     7
 10
40.312483
 20
144.34706
 30
0.0
 40
38.110723999999998
 50
293.89710000000002
 51
294.50982099999999
  0
ARC
  5
77E
  8
0
 62
     7
 10
-8.1561299999999992
 20
255.28776099999999
 30
0.0
 40
159.17662000000001
 50
293.53635600000001
 51
293.67107600000003
  0
ARC
  5
77F
  8
0
 62
     7
 10
40.388413999999997
 20
144.11739900000001
 30
0.0
 40
37.869698
 50
292.82709900000009
 51
293.366559
  0
ARC
  5
780
  8
0
 62
     7
 10
44.217497999999992
 20
134.55653599999999
 30
0.0
 40
27.572732999999999
 50
292.60691400000002
 51
293.20105799999999
  0
ARC
  5
781
  8
0
 62
     7
 10
64.497219000000001
 20
86.155422000000002
 30
0.0
 40
24.905356000000001
 50
112.87329200000001
 51
113.43963599999999
  0
ARC
  5
782
  8
0
 62
     7
 10
65.601538000000005
 20
83.755351000000005
 30
0.0
 40
27.546714000000001
 50
113.561278
 51
113.9119669999999
  0
ARC
  5
783
  8
0
 62
     7
 10
55.891798999999999
 20
105.788056
 30
0.0
 40
3.4698410000000002
 50
114.807512
 51
116.731118
  0
ARC
  5
784
  8
0
 62
     7
 10
54.372328000000003
 20
108.811682
 30
0.0
 40
0.085945
 50
118.704143
 51
136.33306099999999
  0
ARC
  5
785
  8
0
 62
     7
 10
54.317408999999998
 20
108.867379
 30
0.0
 40
0.008115
 50
153.30806100000001
 51
207.443622
  0
ARC
  5
786
  8
0
 62
     7
 10
53.294195000000002
 20
116.678916
 30
0.0
 40
6.2285009999999996
 50
88.066008999999994
 51
90.329151999999993
  0
LINE
  5
787
  8
0
 62
     7
 10
53.258400000000002
 20
122.907
 30
0.0
 11
53.137
 21
122.78
 31
0.0
  0
LINE
  5
788
  8
0
 62
     7
 10
53.137
 20
122.78
 30
0.0
 11
53.009500000000003
 21
122.901
 31
0.0
  0
ARC
  5
789
  8
0
 62
     7
 10
53.362180000000002
 20
114.98844699999999
 30
0.0
 40
7.9205220000000001
 50
92.552042999999998
 51
94.335971999999984
  0
LINE
  5
78A
  8
0
 62
     7
 10
52.763300000000001
 20
122.886
 30
0.0
 11
52.65209999999999
 21
122.75
 31
0.0
  0
LINE
  5
78B
  8
0
 62
     7
 10
52.65209999999999
 20
122.75
 30
0.0
 11
52.516199999999991
 21
122.863
 31
0.0
  0
ARC
  5
78C
  8
0
 62
     7
 10
53.335886000000002
 20
115.87294199999999
 30
0.0
 40
7.0374100000000004
 50
96.683390999999986
 51
98.695858000000015
  0
LINE
  5
78D
  8
0
 62
     7
 10
52.271900000000002
 20
122.82899999999999
 30
0.0
 11
52.1708
 21
122.685
 31
0.0
  0
LINE
  5
78E
  8
0
 62
     7
 10
52.1708
 20
122.685
 30
0.0
 11
52.02709999999999
 21
122.786
 31
0.0
  0
ARC
  5
78F
  8
0
 62
     7
 10
52.851785
 20
118.24578099999999
 30
0.0
 40
4.6152269999999991
 50
100.29298199999999
 51
103.360883
  0
LINE
  5
790
  8
0
 62
     7
 10
51.786499999999997
 20
122.736
 30
0.0
 11
51.696100000000001
 21
122.58499999999999
 31
0.0
  0
LINE
  5
791
  8
0
 62
     7
 10
51.696100000000001
 20
122.58499999999999
 30
0.0
 11
51.544600000000003
 21
122.675
 31
0.0
  0
ARC
  5
792
  8
0
 62
     7
 10
54.412807999999998
 20
112.30812299999999
 30
0.0
 40
10.757579
 50
105.45932500000001
 51
106.78107300000001
  0
LINE
  5
793
  8
0
 62
     7
 10
51.308100000000003
 20
122.607
 30
0.0
 11
51.229199999999999
 21
122.45
 31
0.0
  0
LINE
  5
794
  8
0
 62
     7
 10
51.229199999999999
 20
122.45
 30
0.0
 11
51.072299999999998
 21
122.529
 31
0.0
  0
ARC
  5
795
  8
0
 62
     7
 10
53.46388000000001
 20
115.71348399999999
 30
0.0
 40
7.2240489999999999
 50
109.327094
 51
111.30264099999999
  0
LINE
  5
796
  8
0
 62
     7
 10
50.841299999999997
 20
122.443
 30
0.0
 11
50.77429999999999
 21
122.28
 31
0.0
  0
LINE
  5
797
  8
0
 62
     7
 10
50.77429999999999
 20
122.28
 30
0.0
 11
50.611999999999988
 21
122.348
 31
0.0
  0
ARC
  5
798
  8
0
 62
     7
 10
53.737088999999997
 20
115.220978
 30
0.0
 40
7.783580999999999
 50
113.667306
 51
115.508037
  0
LINE
  5
799
  8
0
 62
     7
 10
50.388100000000001
 20
122.244
 30
0.0
 11
50.332500000000003
 21
122.078
 31
0.0
  0
LINE
  5
79A
  8
0
 62
     7
 10
50.332500000000003
 20
122.078
 30
0.0
 11
50.1661
 21
122.133
 31
0.0
  0
ARC
  5
79B
  8
0
 62
     7
 10
52.877749000000001
 20
116.937123
 30
0.0
 40
5.8629870000000004
 50
117.543302
 51
119.99197100000001
  0
LINE
  5
79C
  8
0
 62
     7
 10
49.950099999999999
 20
122.014
 30
0.0
 11
49.907499999999999
 21
121.843
 31
0.0
  0
LINE
  5
79D
  8
0
 62
     7
 10
49.907499999999999
 20
121.843
 30
0.0
 11
49.736800000000002
 21
121.88500000000001
 31
0.0
  0
ARC
  5
79E
  8
0
 62
     7
 10
52.877344999999998
 20
116.818235
 30
0.0
 40
5.9646980000000003
 50
121.762818
 51
124.183069
  0
LINE
  5
79F
  8
0
 62
     7
 10
49.530999999999999
 20
121.751
 30
0.0
 11
49.500999999999998
 21
121.577
 31
0.0
  0
LINE
  5
7A0
  8
0
 62
     7
 10
49.500999999999998
 20
121.577
 30
0.0
 11
49.328099999999992
 21
121.608
 31
0.0
  0
ARC
  5
7A1
  8
0
 62
     7
 10
53.018721999999997
 20
116.536294
 30
0.0
 40
6.276171999999999
 50
126.01838499999999
 51
128.329579
  0
LINE
  5
7A2
  8
0
 62
     7
 10
49.131700000000002
 20
121.458
 30
0.0
 11
49.115000000000002
 21
121.283
 31
0.0
  0
LINE
  5
7A3
  8
0
 62
     7
 10
49.115000000000002
 20
121.283
 30
0.0
 11
48.940100000000001
 21
121.3
 31
0.0
  0
ARC
  5
7A4
  8
0
 62
     7
 10
58.013026000000004
 20
110.856487
 30
0.0
 40
13.839244000000001
 50
130.964529
 51
132.019452
  0
LINE
  5
7A5
  8
0
 62
     7
 10
48.755800000000001
 20
121.137
 30
0.0
 11
48.7515
 21
120.962
 31
0.0
  0
LINE
  5
7A6
  8
0
 62
     7
 10
48.7515
 20
120.962
 30
0.0
 11
48.5762
 21
120.965
 31
0.0
  0
ARC
  5
7A7
  8
0
 62
     7
 10
53.157271000000001
 20
116.31883999999999
 30
0.0
 40
6.5300729999999998
 50
134.557163
 51
136.804982
  0
LINE
  5
7A8
  8
0
 62
     7
 10
48.404400000000003
 20
120.788
 30
0.0
 11
48.413400000000003
 21
120.613
 31
0.0
  0
LINE
  5
7A9
  8
0
 62
     7
 10
48.413400000000003
 20
120.613
 30
0.0
 11
48.237299999999998
 21
120.604
 31
0.0
  0
ARC
  5
7AA
  8
0
 62
     7
 10
52.640867
 20
116.752786
 30
0.0
 40
5.856336999999999
 50
138.77549300000001
 51
141.299868
  0
LINE
  5
7AB
  8
0
 62
     7
 10
48.0794
 20
120.414
 30
0.0
 11
48.101599999999991
 21
120.241
 31
0.0
  0
LINE
  5
7AC
  8
0
 62
     7
 10
48.101599999999991
 20
120.241
 30
0.0
 11
47.927300000000002
 21
120.218
 31
0.0
  0
ARC
  5
7AD
  8
0
 62
     7
 10
54.862909999999999
 20
115.045649
 30
0.0
 40
8.660108000000001
 50
143.24587199999999
 51
144.962276
  0
LINE
  5
7AE
  8
0
 62
     7
 10
47.7836
 20
120.018
 30
0.0
 11
47.81839999999999
 21
119.846
 31
0.0
  0
LINE
  5
7AF
  8
0
 62
     7
 10
47.81839999999999
 20
119.846
 30
0.0
 11
47.645499999999991
 21
119.812
 31
0.0
  0
ARC
  5
7B0
  8
0
 62
     7
 10
55.020968000000003
 20
115.139528
 30
0.0
 40
8.7393289999999997
 50
147.60330200000001
 51
149.31536700000001
  0
LINE
  5
7B1
  8
0
 62
     7
 10
47.517299999999999
 20
119.601
 30
0.0
 11
47.564500000000002
 21
119.432
 31
0.0
  0
LINE
  5
7B2
  8
0
 62
     7
 10
47.564500000000002
 20
119.432
 30
0.0
 11
47.395200000000003
 21
119.384
 31
0.0
  0
ARC
  5
7B3
  8
0
 62
     7
 10
52.790039999999998
 20
116.45254300000001
 30
0.0
 40
6.1498749999999989
 50
151.40408500000001
 51
153.85475600000001
  0
LINE
  5
7B4
  8
0
 62
     7
 10
47.282699999999998
 20
119.16500000000001
 30
0.0
 11
47.341900000000003
 21
119.0
 31
0.0
  0
LINE
  5
7B5
  8
0
 62
     7
 10
47.341900000000003
 20
119.0
 30
0.0
 11
47.177300000000002
 21
118.941
 31
0.0
  0
ARC
  5
7B6
  8
0
 62
     7
 10
52.465338000000003
 20
116.54661
 30
0.0
 40
5.8158190000000003
 50
155.55823599999999
 51
158.17157900000001
  0
LINE
  5
7B7
  8
0
 62
     7
 10
47.081000000000003
 20
118.71299999999999
 30
0.0
 11
47.152799999999992
 21
118.553
 31
0.0
  0
LINE
  5
7B8
  8
0
 62
     7
 10
47.152799999999992
 20
118.553
 30
0.0
 11
46.9923
 21
118.48099999999999
 31
0.0
  0
ARC
  5
7B9
  8
0
 62
     7
 10
53.340837000000001
 20
116.17101
 30
0.0
 40
6.7682729999999989
 50
159.91967299999999
 51
162.18311299999999
  0
LINE
  5
7BA
  8
0
 62
     7
 10
46.912700000000001
 20
118.248
 30
0.0
 11
46.996600000000001
 21
118.093
 31
0.0
  0
LINE
  5
7BB
  8
0
 62
     7
 10
46.996600000000001
 20
118.093
 30
0.0
 11
46.841500000000003
 21
118.01000000000001
 31
0.0
  0
ARC
  5
7BC
  8
0
 62
     7
 10
53.004120999999991
 20
116.28253599999999
 30
0.0
 40
6.4138250000000001
 50
164.24670800000001
 51
166.64747700000001
  0
LINE
  5
7BD
  8
0
 62
     7
 10
46.779899999999998
 20
117.771
 30
0.0
 11
46.874400000000001
 21
117.623
 31
0.0
  0
LINE
  5
7BE
  8
0
 62
     7
 10
46.874400000000001
 20
117.623
 30
0.0
 11
46.726499999999987
 21
117.52800000000001
 31
0.0
  0
ARC
  5
7BF
  8
0
 62
     7
 10
54.693505000000002
 20
115.93803699999999
 30
0.0
 40
8.139467999999999
 50
168.625798
 51
170.53684999999999
  0
LINE
  5
7C0
  8
0
 62
     7
 10
46.682200000000002
 20
117.286
 30
0.0
 11
46.7881
 21
117.145
 31
0.0
  0
LINE
  5
7C1
  8
0
 62
     7
 10
46.7881
 20
117.145
 30
0.0
 11
46.646900000000002
 21
117.04000000000001
 31
0.0
  0
ARC
  5
7C2
  8
0
 62
     7
 10
52.951405000000001
 20
116.21972100000001
 30
0.0
 40
6.3737500000000002
 50
172.47199499999999
 51
174.927393
  0
LINE
  5
7C3
  8
0
 62
     7
 10
46.620499999999993
 20
116.795
 30
0.0
 11
46.736600000000003
 21
116.663
 31
0.0
  0
LINE
  5
7C4
  8
0
 62
     7
 10
46.736600000000003
 20
116.663
 30
0.0
 11
46.603799999999993
 21
116.547
 31
0.0
  0
ARC
  5
7C5
  8
0
 62
     7
 10
54.198370999999987
 20
116.156717
 30
0.0
 40
7.622007
 50
176.95642599999999
 51
179.024427
  0
LINE
  5
7C6
  8
0
 62
     7
 10
46.596099999999993
 20
116.3
 30
0.0
 11
46.721099999999993
 21
116.17700000000001
 31
0.0
  0
LINE
  5
7C7
  8
0
 62
     7
 10
46.721099999999993
 20
116.17700000000001
 30
0.0
 11
46.59729999999999
 21
116.05200000000001
 31
0.0
  0
ARC
  5
7C8
  8
0
 62
     7
 10
51.741349
 20
116.129829
 30
0.0
 40
5.1630599999999989
 50
180.70071100000001
 51
183.78105899999991
  0
LINE
  5
7C9
  8
0
 62
     7
 10
46.607399999999991
 20
115.806
 30
0.0
 11
46.741500000000002
 21
115.693
 31
0.0
  0
LINE
  5
7CA
  8
0
 62
     7
 10
46.741500000000002
 20
115.693
 30
0.0
 11
46.627800000000001
 21
115.55800000000001
 31
0.0
  0
ARC
  5
7CB
  8
0
 62
     7
 10
54.262017
 20
116.30999300000001
 30
0.0
 40
7.6919579999999996
 50
185.50586300000001
 51
187.587907
  0
LINE
  5
7CC
  8
0
 62
     7
 10
46.655799999999999
 20
115.31399999999999
 30
0.0
 11
46.797800000000002
 21
115.20999999999999
 31
0.0
  0
LINE
  5
7CD
  8
0
 62
     7
 10
46.797800000000002
 20
115.20999999999999
 30
0.0
 11
46.693600000000004
 21
115.068
 31
0.0
  0
ARC
  5
7CE
  8
0
 62
     7
 10
53.225687999999991
 20
116.18377
 30
0.0
 40
6.6480979999999992
 50
189.544861
 51
191.97798
  0
LINE
  5
7CF
  8
0
 62
     7
 10
46.740299999999998
 20
114.82599999999999
 30
0.0
 11
46.889400000000002
 21
114.733
 31
0.0
  0
LINE
  5
7D0
  8
0
 62
     7
 10
46.889400000000002
 20
114.733
 30
0.0
 11
46.795900000000003
 21
114.584
 31
0.0
  0
ARC
  5
7D1
  8
0
 62
     7
 10
52.589528000000001
 20
115.998648
 30
0.0
 40
5.9860489999999986
 50
193.55522799999989
 51
196.27179899999999
  0
LINE
  5
7D2
  8
0
 62
     7
 10
46.860699999999987
 20
114.346
 30
0.0
 11
47.016199999999998
 21
114.264
 31
0.0
  0
LINE
  5
7D3
  8
0
 62
     7
 10
47.016199999999998
 20
114.264
 30
0.0
 11
46.93419999999999
 21
114.108
 31
0.0
  0
ARC
  5
7D4
  8
0
 62
     7
 10
53.093842000000002
 20
116.12809900000001
 30
0.0
 40
6.506418
 50
197.987844
 51
200.500877
  0
LINE
  5
7D5
  8
0
 62
     7
 10
47.015700000000002
 20
113.876
 30
0.0
 11
47.177300000000002
 21
113.80500000000001
 31
0.0
  0
LINE
  5
7D6
  8
0
 62
     7
 10
47.177300000000002
 20
113.80500000000001
 30
0.0
 11
47.106599999999993
 21
113.645
 31
0.0
  0
ARC
  5
7D7
  8
0
 62
     7
 10
54.531627
 20
116.72355899999999
 30
0.0
 40
8.0627539999999982
 50
202.37967
 51
204.42316199999999
  0
LINE
  5
7D8
  8
0
 62
     7
 10
47.204799999999999
 20
113.419
 30
0.0
 11
47.371199999999988
 21
113.361
 31
0.0
  0
LINE
  5
7D9
  8
0
 62
     7
 10
47.371199999999988
 20
113.361
 30
0.0
 11
47.313200000000002
 21
113.19499999999999
 31
0.0
  0
ARC
  5
7DA
  8
0
 62
     7
 10
54.378792000000011
 20
116.768715
 30
0.0
 40
7.9443289999999989
 50
206.679408
 51
208.76785699999999
  0
LINE
  5
7DB
  8
0
 62
     7
 10
47.428100000000001
 20
112.977
 30
0.0
 11
47.597599999999993
 21
112.932
 31
0.0
  0
LINE
  5
7DC
  8
0
 62
     7
 10
47.597599999999993
 20
112.932
 30
0.0
 11
47.551900000000003
 21
112.761
 31
0.0
  0
ARC
  5
7DD
  8
0
 62
     7
 10
54.371326000000003
 20
116.850694
 30
0.0
 40
7.9782939999999991
 50
210.79330999999999
 51
212.88740000000001
  0
LINE
  5
7DE
  8
0
 62
     7
 10
47.682999999999993
 20
112.553
 30
0.0
 11
47.855400000000003
 21
112.52
 31
0.0
  0
LINE
  5
7DF
  8
0
 62
     7
 10
47.855400000000003
 20
112.52
 30
0.0
 11
47.822499999999998
 21
112.34699999999999
 31
0.0
  0
ARC
  5
7E0
  8
0
 62
     7
 10
52.372343000000001
 20
115.518669
 30
0.0
 40
5.5742519999999987
 50
214.64943
 51
217.662791
  0
LINE
  5
7E1
  8
0
 62
     7
 10
47.959600000000002
 20
112.113
 30
0.0
 11
47.968600000000002
 21
112.149
 31
0.0
  0
LINE
  5
7E2
  8
0
 62
     7
 10
47.968600000000002
 20
112.149
 30
0.0
 11
48.142800000000001
 21
112.128
 31
0.0
  0
LINE
  5
7E3
  8
0
 62
     7
 10
48.142800000000001
 20
112.128
 30
0.0
 11
48.122399999999999
 21
111.953
 31
0.0
  0
LINE
  5
7E4
  8
0
 62
     7
 10
48.122399999999999
 20
111.953
 30
0.0
 11
48.0854
 21
111.953
 31
0.0
  0
ARC
  5
7E5
  8
0
 62
     7
 10
52.506475999999999
 20
115.533546
 30
0.0
 40
5.6892129999999987
 50
219.004333
 51
221.96522999999999
  0
LINE
  5
7E6
  8
0
 62
     7
 10
48.276299999999999
 20
111.729
 30
0.0
 11
48.282800000000002
 21
111.76600000000001
 31
0.0
  0
LINE
  5
7E7
  8
0
 62
     7
 10
48.282800000000002
 20
111.76600000000001
 30
0.0
 11
48.458300000000001
 21
111.76000000000001
 31
0.0
  0
LINE
  5
7E8
  8
0
 62
     7
 10
48.458300000000001
 20
111.76000000000001
 30
0.0
 11
48.451599999999992
 21
111.584
 31
0.0
  0
LINE
  5
7E9
  8
0
 62
     7
 10
48.451599999999992
 20
111.584
 30
0.0
 11
48.4129
 21
111.58
 31
0.0
  0
ARC
  5
7EA
  8
0
 62
     7
 10
54.349519999999998
 20
117.245009
 30
0.0
 40
8.2060300000000002
 50
223.659831
 51
225.72741500000001
  0
LINE
  5
7EB
  8
0
 62
     7
 10
48.621099999999998
 20
111.369
 30
0.0
 11
48.624699999999997
 21
111.40900000000001
 31
0.0
  0
LINE
  5
7EC
  8
0
 62
     7
 10
48.624699999999997
 20
111.40900000000001
 30
0.0
 11
48.800600000000003
 21
111.41500000000001
 31
0.0
  0
LINE
  5
7ED
  8
0
 62
     7
 10
48.800600000000003
 20
111.41500000000001
 30
0.0
 11
48.806100000000001
 21
111.239
 31
0.0
  0
LINE
  5
7EE
  8
0
 62
     7
 10
48.806100000000001
 20
111.239
 30
0.0
 11
48.767200000000003
 21
111.232
 31
0.0
  0
ARC
  5
7EF
  8
0
 62
     7
 10
53.284396999999998
 20
116.180807
 30
0.0
 40
6.7003250000000003
 50
227.60965400000009
 51
230.14980700000001
  0
LINE
  5
7F0
  8
0
 62
     7
 10
48.990900000000011
 20
111.03700000000001
 30
0.0
 11
48.99219999999999
 21
111.077
 31
0.0
  0
LINE
  5
7F1
  8
0
 62
     7
 10
48.99219999999999
 20
111.077
 30
0.0
 11
49.167000000000002
 21
111.096
 31
0.0
  0
LINE
  5
7F2
  8
0
 62
     7
 10
49.167000000000002
 20
111.096
 30
0.0
 11
49.185600000000001
 21
110.92100000000001
 31
0.0
  0
LINE
  5
7F3
  8
0
 62
     7
 10
49.185600000000001
 20
110.92100000000001
 30
0.0
 11
49.146000000000001
 21
110.911
 31
0.0
  0
ARC
  5
7F4
  8
0
 62
     7
 10
52.833430000000007
 20
115.580313
 30
0.0
 40
5.949446
 50
231.69864100000009
 51
234.57481100000001
  0
LINE
  5
7F5
  8
0
 62
     7
 10
49.384900000000002
 20
110.732
 30
0.0
 11
49.383200000000002
 21
110.774
 31
0.0
  0
LINE
  5
7F6
  8
0
 62
     7
 10
49.383200000000002
 20
110.774
 30
0.0
 11
49.556100000000001
 21
110.80500000000001
 31
0.0
  0
LINE
  5
7F7
  8
0
 62
     7
 10
49.556100000000001
 20
110.80500000000001
 30
0.0
 11
49.587800000000001
 21
110.63200000000001
 31
0.0
  0
LINE
  5
7F8
  8
0
 62
     7
 10
49.587800000000001
 20
110.63200000000001
 30
0.0
 11
49.547699999999992
 21
110.62
 31
0.0
  0
ARC
  5
7F9
  8
0
 62
     7
 10
52.547913000000001
 20
115.032864
 30
0.0
 40
5.3362109999999996
 50
235.78909899999999
 51
239.016694
  0
LINE
  5
7FA
  8
0
 62
     7
 10
49.800899999999999
 20
110.458
 30
0.0
 11
49.794899999999998
 21
110.499
 31
0.0
  0
LINE
  5
7FB
  8
0
 62
     7
 10
49.794899999999998
 20
110.499
 30
0.0
 11
49.965600000000002
 21
110.544
 31
0.0
  0
LINE
  5
7FC
  8
0
 62
     7
 10
49.965600000000002
 20
110.544
 30
0.0
 11
50.009799999999998
 21
110.374
 31
0.0
  0
LINE
  5
7FD
  8
0
 62
     7
 10
50.009799999999998
 20
110.374
 30
0.0
 11
49.970399999999998
 21
110.358
 31
0.0
  0
ARC
  5
7FE
  8
0
 62
     7
 10
53.407328
 20
116.402224
 30
0.0
 40
6.9529559999999986
 50
240.37556499999999
 51
242.85402799999989
  0
LINE
  5
7FF
  8
0
 62
     7
 10
50.234999999999999
 20
110.215
 30
0.0
 11
50.226500000000001
 21
110.25700000000001
 31
0.0
  0
LINE
  5
800
  8
0
 62
     7
 10
50.226500000000001
 20
110.25700000000001
 30
0.0
 11
50.392899999999997
 21
110.31399999999999
 31
0.0
  0
LINE
  5
801
  8
0
 62
     7
 10
50.392899999999997
 20
110.31399999999999
 30
0.0
 11
50.449800000000003
 21
110.14700000000001
 31
0.0
  0
LINE
  5
802
  8
0
 62
     7
 10
50.449800000000003
 20
110.14700000000001
 30
0.0
 11
50.410899999999998
 21
110.128
 31
0.0
  0
ARC
  5
803
  8
0
 62
     7
 10
53.284001000000004
 20
116.192835
 30
0.0
 40
6.7106690000000002
 50
244.65001000000009
 51
247.22571300000001
  0
LINE
  5
804
  8
0
 62
     7
 10
50.686300000000003
 20
110.005
 30
0.0
 11
50.674900000000001
 21
110.047
 31
0.0
  0
LINE
  5
805
  8
0
 62
     7
 10
50.674900000000001
 20
110.047
 30
0.0
 11
50.836500000000001
 21
110.116
 31
0.0
  0
LINE
  5
806
  8
0
 62
     7
 10
50.836500000000001
 20
110.116
 30
0.0
 11
50.9054
 21
109.95399999999999
 31
0.0
  0
LINE
  5
807
  8
0
 62
     7
 10
50.9054
 20
109.95399999999999
 30
0.0
 11
50.867699999999999
 21
109.932
 31
0.0
  0
ARC
  5
808
  8
0
 62
     7
 10
53.589145000000002
 20
116.97387999999999
 30
0.0
 40
7.5491759999999992
 50
248.86915500000001
 51
251.16465600000001
  0
LINE
  5
809
  8
0
 62
     7
 10
51.151899999999998
 20
109.82899999999999
 30
0.0
 11
51.137099999999997
 21
109.871
 31
0.0
  0
LINE
  5
80A
  8
0
 62
     7
 10
51.137099999999997
 20
109.871
 30
0.0
 11
51.293300000000002
 21
109.95099999999999
 31
0.0
  0
LINE
  5
80B
  8
0
 62
     7
 10
51.293300000000002
 20
109.95099999999999
 30
0.0
 11
51.374099999999999
 21
109.795
 31
0.0
  0
LINE
  5
80C
  8
0
 62
     7
 10
51.374099999999999
 20
109.795
 30
0.0
 11
51.337600000000002
 21
109.77
 31
0.0
  0
ARC
  5
80D
  8
0
 62
     7
 10
53.492925999999997
 20
116.93299399999999
 30
0.0
 40
7.4805210000000004
 50
253.25416799999999
 51
255.571923
  0
LINE
  5
80E
  8
0
 62
     7
 10
51.628999999999998
 20
109.688
 30
0.0
 11
51.611600000000003
 21
109.72799999999999
 31
0.0
  0
LINE
  5
80F
  8
0
 62
     7
 10
51.611600000000003
 20
109.72799999999999
 30
0.0
 11
51.760800000000003
 21
109.821
 31
0.0
  0
LINE
  5
810
  8
0
 62
     7
 10
51.760800000000003
 20
109.821
 30
0.0
 11
51.853000000000002
 21
109.67100000000001
 31
0.0
  0
ARC
  5
811
  8
0
 62
     7
 10
53.359715000000001
 20
116.50716199999999
 30
0.0
 40
7.0350520000000003
 50
257.34830099999999
 51
259.81451199999998
  0
LINE
  5
812
  8
0
 62
     7
 10
52.115699999999997
 20
109.583
 30
0.0
 11
52.094099999999997
 21
109.622
 31
0.0
  0
LINE
  5
813
  8
0
 62
     7
 10
52.094099999999997
 20
109.622
 30
0.0
 11
52.237299999999991
 21
109.72499999999999
 31
0.0
  0
LINE
  5
814
  8
0
 62
     7
 10
52.237299999999991
 20
109.72499999999999
 30
0.0
 11
52.3401
 21
109.58199999999999
 31
0.0
  0
ARC
  5
815
  8
0
 62
     7
 10
53.208578000000003
 20
115.49856
 30
0.0
 40
6.014511999999999
 50
261.38092799999998
 51
264.27224999999999
  0
LINE
  5
816
  8
0
 62
     7
 10
52.6083
 20
109.514
 30
0.0
 11
52.584400000000002
 21
109.55200000000001
 31
0.0
  0
LINE
  5
817
  8
0
 62
     7
 10
52.584400000000002
 20
109.55200000000001
 30
0.0
 11
52.719099999999997
 21
109.66500000000001
 31
0.0
  0
LINE
  5
818
  8
0
 62
     7
 10
52.719099999999997
 20
109.66500000000001
 30
0.0
 11
52.832299999999989
 21
109.53100000000001
 31
0.0
  0
ARC
  5
819
  8
0
 62
     7
 10
53.265287000000001
 20
115.45367400000001
 30
0.0
 40
5.9741429999999989
 50
265.55004100000002
 51
268.458617
  0
LINE
  5
81A
  8
0
 62
     7
 10
53.104599999999991
 20
109.482
 30
0.0
 11
53.078200000000002
 21
109.518
 31
0.0
  0
LINE
  5
81B
  8
0
 62
     7
 10
53.078200000000002
 20
109.518
 30
0.0
 11
53.203999999999994
 21
109.64100000000001
 31
0.0
  0
LINE
  5
81C
  8
0
 62
     7
 10
53.203999999999994
 20
109.64100000000001
 30
0.0
 11
53.326599999999999
 21
109.515
 31
0.0
  0
ARC
  5
81D
  8
0
 62
     7
 10
53.300235999999998
 20
116.116395
 30
0.0
 40
6.6367690000000001
 50
269.98989899999998
 51
272.61107099999998
  0
LINE
  5
81E
  8
0
 62
     7
 10
53.572800000000001
 20
109.52
 30
0.0
 11
53.689399999999999
 21
109.652
 31
0.0
  0
LINE
  5
81F
  8
0
 62
     7
 10
53.689399999999999
 20
109.652
 30
0.0
 11
53.821199999999997
 21
109.535
 31
0.0
  0
LINE
  5
820
  8
0
 62
     7
 10
53.821199999999997
 20
109.535
 30
0.0
 11
53.795999999999999
 21
109.498
 31
0.0
  0
ARC
  5
821
  8
0
 62
     7
 10
53.240138999999999
 20
116.70735500000001
 30
0.0
 40
7.2305259999999993
 50
274.40927099999999
 51
276.81103300000001
  0
LINE
  5
822
  8
0
 62
     7
 10
54.066499999999991
 20
109.559
 30
0.0
 11
54.172600000000003
 21
109.699
 31
0.0
  0
LINE
  5
823
  8
0
 62
     7
 10
54.172600000000003
 20
109.699
 30
0.0
 11
54.313099999999991
 21
109.593
 31
0.0
  0
LINE
  5
824
  8
0
 62
     7
 10
54.313099999999991
 20
109.593
 30
0.0
 11
54.290399999999998
 21
109.554
 31
0.0
  0
ARC
  5
825
  8
0
 62
     7
 10
53.223678999999997
 20
116.608726
 30
0.0
 40
7.1348770000000004
 50
278.59839599999998
 51
281.03282000000002
  0
LINE
  5
826
  8
0
 62
     7
 10
54.555700000000002
 20
109.63500000000001
 30
0.0
 11
54.651400000000002
 21
109.782
 31
0.0
  0
LINE
  5
827
  8
0
 62
     7
 10
54.651400000000002
 20
109.782
 30
0.0
 11
54.7986
 21
109.68600000000001
 31
0.0
  0
LINE
  5
828
  8
0
 62
     7
 10
54.7986
 20
109.68600000000001
 30
0.0
 11
54.779400000000003
 21
109.646
 31
0.0
  0
ARC
  5
829
  8
0
 62
     7
 10
52.86290000000001
 20
117.892675
 30
0.0
 40
8.4660879999999992
 50
283.08389700000009
 51
285.131055
  0
LINE
  5
82A
  8
0
 62
     7
 10
55.037500000000001
 20
109.746
 30
0.0
 11
55.122599999999998
 21
109.90000000000001
 31
0.0
  0
LINE
  5
82B
  8
0
 62
     7
 10
55.122599999999998
 20
109.90000000000001
 30
0.0
 11
55.276400000000002
 21
109.815
 31
0.0
  0
LINE
  5
82C
  8
0
 62
     7
 10
55.276400000000002
 20
109.815
 30
0.0
 11
55.2607
 21
109.77500000000001
 31
0.0
  0
ARC
  5
82D
  8
0
 62
     7
 10
52.874001
 20
117.434301
 30
0.0
 40
8.0229999999999997
 50
287.30655200000001
 51
289.45984600000003
  0
LINE
  5
82E
  8
0
 62
     7
 10
55.546799999999998
 20
109.87
 30
0.0
 11
55.510300000000001
 21
109.892
 31
0.0
  0
LINE
  5
82F
  8
0
 62
     7
 10
55.510300000000001
 20
109.892
 30
0.0
 11
55.583300000000001
 21
110.05200000000001
 31
0.0
  0
LINE
  5
830
  8
0
 62
     7
 10
55.583300000000001
 20
110.05200000000001
 30
0.0
 11
55.743200000000002
 21
109.979
 31
0.0
  0
LINE
  5
831
  8
0
 62
     7
 10
55.743200000000002
 20
109.979
 30
0.0
 11
55.730600000000003
 21
109.938
 31
0.0
  0
ARC
  5
832
  8
0
 62
     7
 10
52.901589999999999
 20
117.119698
 30
0.0
 40
7.7189860000000001
 50
291.50017200000002
 51
293.73452800000001
  0
LINE
  5
833
  8
0
 62
     7
 10
56.008499999999998
 20
110.054
 30
0.0
 11
55.970799999999997
 21
110.074
 31
0.0
  0
LINE
  5
834
  8
0
 62
     7
 10
55.970799999999997
 20
110.074
 30
0.0
 11
56.032400000000003
 21
110.238
 31
0.0
  0
LINE
  5
835
  8
0
 62
     7
 10
56.032400000000003
 20
110.238
 30
0.0
 11
56.196899999999999
 21
110.178
 31
0.0
  0
LINE
  5
836
  8
0
 62
     7
 10
56.196899999999999
 20
110.178
 30
0.0
 11
56.1875
 21
110.136
 31
0.0
  0
ARC
  5
837
  8
0
 62
     7
 10
53.689914999999992
 20
115.416031
 30
0.0
 40
5.8406869999999991
 50
295.315989
 51
298.25599499999998
  0
LINE
  5
838
  8
0
 62
     7
 10
56.454999999999998
 20
110.271
 30
0.0
 11
56.416699999999999
 21
110.288
 31
0.0
  0
LINE
  5
839
  8
0
 62
     7
 10
56.416699999999999
 20
110.288
 30
0.0
 11
56.465800000000002
 21
110.45699999999999
 31
0.0
  0
LINE
  5
83A
  8
0
 62
     7
 10
56.465800000000002
 20
110.45699999999999
 30
0.0
 11
56.634599999999999
 21
110.408
 31
0.0
  0
LINE
  5
83B
  8
0
 62
     7
 10
56.634599999999999
 20
110.408
 30
0.0
 11
56.628599999999999
 21
110.367
 31
0.0
  0
ARC
  5
83C
  8
0
 62
     7
 10
53.040595999999987
 20
116.598578
 30
0.0
 40
7.1906350000000003
 50
299.93272000000002
 51
302.31223299999999
  0
LINE
  5
83D
  8
0
 62
     7
 10
56.8842
 20
110.521
 30
0.0
 11
56.845799999999997
 21
110.535
 31
0.0
  0
LINE
  5
83E
  8
0
 62
     7
 10
56.845799999999997
 20
110.535
 30
0.0
 11
56.881799999999998
 21
110.70699999999999
 31
0.0
  0
LINE
  5
83F
  8
0
 62
     7
 10
56.881799999999998
 20
110.70699999999999
 30
0.0
 11
57.053600000000003
 21
110.67100000000001
 31
0.0
  0
LINE
  5
840
  8
0
 62
     7
 10
57.053600000000003
 20
110.67100000000001
 30
0.0
 11
57.050600000000003
 21
110.63
 31
0.0
  0
ARC
  5
841
  8
0
 62
     7
 10
52.931318999999988
 20
116.659363
 30
0.0
 40
7.3019419999999986
 50
304.342491
 51
306.67892899999998
  0
LINE
  5
842
  8
0
 62
     7
 10
57.292999999999999
 20
110.803
 30
0.0
 11
57.255299999999998
 21
110.813
 31
0.0
  0
LINE
  5
843
  8
0
 62
     7
 10
57.255299999999998
 20
110.813
 30
0.0
 11
57.278700000000001
 21
110.98699999999999
 31
0.0
  0
LINE
  5
844
  8
0
 62
     7
 10
57.278700000000001
 20
110.98699999999999
 30
0.0
 11
57.452800000000011
 21
110.964
 31
0.0
  0
LINE
  5
845
  8
0
 62
     7
 10
57.452800000000011
 20
110.964
 30
0.0
 11
57.452800000000011
 21
110.925
 31
0.0
  0
ARC
  5
846
  8
0
 62
     7
 10
52.41357
 20
117.244247
 30
0.0
 40
8.0829059999999995
 50
308.56837400000001
 51
310.66718200000003
  0
LINE
  5
847
  8
0
 62
     7
 10
57.680900000000001
 20
111.113
 30
0.0
 11
57.6432
 21
111.121
 31
0.0
  0
LINE
  5
848
  8
0
 62
     7
 10
57.6432
 20
111.121
 30
0.0
 11
57.653300000000002
 21
111.29600000000001
 31
0.0
  0
LINE
  5
849
  8
0
 62
     7
 10
57.653300000000002
 20
111.29600000000001
 30
0.0
 11
57.828699999999991
 21
111.286
 31
0.0
  0
LINE
  5
84A
  8
0
 62
     7
 10
57.828699999999991
 20
111.286
 30
0.0
 11
57.831800000000001
 21
111.248
 31
0.0
  0
ARC
  5
84B
  8
0
 62
     7
 10
53.463260999999989
 20
116.0095639999999
 30
0.0
 40
6.4621909999999998
 50
312.53310800000003
 51
315.14409799999999
  0
LINE
  5
84C
  8
0
 62
     7
 10
58.044199999999996
 20
111.452
 30
0.0
 11
58.007199999999997
 21
111.456
 31
0.0
  0
LINE
  5
84D
  8
0
 62
     7
 10
58.007199999999997
 20
111.456
 30
0.0
 11
58.004800000000003
 21
111.631
 31
0.0
  0
LINE
  5
84E
  8
0
 62
     7
 10
58.004800000000003
 20
111.631
 30
0.0
 11
58.180300000000003
 21
111.634
 31
0.0
  0
LINE
  5
84F
  8
0
 62
     7
 10
58.180300000000003
 20
111.634
 30
0.0
 11
58.185400000000001
 21
111.598
 31
0.0
  0
ARC
  5
850
  8
0
 62
     7
 10
52.690167000000002
 20
116.72225400000001
 30
0.0
 40
7.5139420000000001
 50
316.99922900000001
 51
319.236403
  0
LINE
  5
851
  8
0
 62
     7
 10
58.381300000000003
 20
111.816
 30
0.0
 11
58.345300000000002
 21
111.81699999999999
 31
0.0
  0
LINE
  5
852
  8
0
 62
     7
 10
58.345300000000002
 20
111.81699999999999
 30
0.0
 11
58.329799999999999
 21
111.992
 31
0.0
  0
LINE
  5
853
  8
0
 62
     7
 10
58.329799999999999
 20
111.992
 30
0.0
 11
58.505200000000002
 21
112.008
 31
0.0
  0
ARC
  5
854
  8
0
 62
     7
 10
52.88367199999999
 20
116.522243
 30
0.0
 40
7.2371419999999986
 50
321.05539299999998
 51
323.36110200000002
  0
LINE
  5
855
  8
0
 62
     7
 10
58.655999999999999
 20
112.203
 30
0.0
 11
58.627800000000001
 21
112.376
 31
0.0
  0
LINE
  5
856
  8
0
 62
     7
 10
58.627800000000001
 20
112.376
 30
0.0
 11
58.800899999999999
 21
112.405
 31
0.0
  0
ARC
  5
857
  8
0
 62
     7
 10
53.534402999999998
 20
116.032472
 30
0.0
 40
6.4217659999999999
 50
325.24316900000002
 51
327.82992999999999
  0
LINE
  5
858
  8
0
 62
     7
 10
58.9375
 20
112.61
 30
0.0
 11
58.8962
 21
112.78
 31
0.0
  0
LINE
  5
859
  8
0
 62
     7
 10
58.8962
 20
112.78
 30
0.0
 11
59.067399999999999
 21
112.821
 31
0.0
  0
ARC
  5
85A
  8
0
 62
     7
 10
53.843218999999991
 20
115.89006999999999
 30
0.0
 40
6.0839739999999987
 50
329.378085
 51
332.08593100000002
  0
LINE
  5
85B
  8
0
 62
     7
 10
59.187600000000003
 20
113.036
 30
0.0
 11
59.1342
 21
113.203
 31
0.0
  0
LINE
  5
85C
  8
0
 62
     7
 10
59.1342
 20
113.203
 30
0.0
 11
59.301299999999998
 21
113.258
 31
0.0
  0
ARC
  5
85D
  8
0
 62
     7
 10
53.986016999999997
 20
115.866258
 30
0.0
 40
5.9458159999999998
 50
333.67262199999999
 51
336.41912600000001
  0
LINE
  5
85E
  8
0
 62
     7
 10
59.406100000000002
 20
113.48
 30
0.0
 11
59.340299999999992
 21
113.643
 31
0.0
  0
LINE
  5
85F
  8
0
 62
     7
 10
59.340299999999992
 20
113.643
 30
0.0
 11
59.5032
 21
113.709
 31
0.0
  0
ARC
  5
860
  8
0
 62
     7
 10
53.225408999999992
 20
116.221357
 30
0.0
 40
6.785158
 50
338.03429199999999
 51
340.43017600000002
  0
LINE
  5
861
  8
0
 62
     7
 10
59.59109999999999
 20
113.93899999999999
 30
0.0
 11
59.513199999999991
 21
114.09699999999999
 31
0.0
  0
LINE
  5
862
  8
0
 62
     7
 10
59.513199999999991
 20
114.09699999999999
 30
0.0
 11
59.671300000000002
 21
114.17400000000001
 31
0.0
  0
ARC
  5
863
  8
0
 62
     7
 10
53.433287999999997
 20
116.156695
 30
0.0
 40
6.5672490000000003
 50
342.21912099999997
 51
344.67762900000002
  0
LINE
  5
864
  8
0
 62
     7
 10
59.74199999999999
 20
114.411
 30
0.0
 11
59.652700000000003
 21
114.562
 31
0.0
  0
LINE
  5
865
  8
0
 62
     7
 10
59.652700000000003
 20
114.562
 30
0.0
 11
59.804099999999998
 21
114.651
 31
0.0
  0
ARC
  5
866
  8
0
 62
     7
 10
52.643585999999999
 20
116.34375300000001
 30
0.0
 40
7.3784229999999988
 50
346.57287000000002
 51
348.74464899999998
  0
LINE
  5
867
  8
0
 62
     7
 10
59.8568
 20
114.892
 30
0.0
 11
59.756799999999998
 21
115.036
 31
0.0
  0
LINE
  5
868
  8
0
 62
     7
 10
59.756799999999998
 20
115.036
 30
0.0
 11
59.9011
 21
115.137
 31
0.0
  0
ARC
  5
869
  8
0
 62
     7
 10
52.613208999999998
 20
116.293982
 30
0.0
 40
7.3988019999999999
 50
350.85645199999999
 51
353.00413800000001
  0
LINE
  5
86A
  8
0
 62
     7
 10
59.936399999999999
 20
115.38
 30
0.0
 11
59.826399999999992
 21
115.517
 31
0.0
  0
LINE
  5
86B
  8
0
 62
     7
 10
59.826399999999992
 20
115.517
 30
0.0
 11
59.962800000000001
 21
115.628
 31
0.0
  0
ARC
  5
86C
  8
0
 62
     7
 10
54.01209699999999
 20
116.149404
 30
0.0
 40
5.9917839999999991
 50
354.84696700000001
 51
357.48199599999998
  0
LINE
  5
86D
  8
0
 62
     7
 10
59.979700000000001
 20
115.873
 30
0.0
 11
59.85929999999999
 21
116.002
 31
0.0
  0
LINE
  5
86E
  8
0
 62
     7
 10
59.85929999999999
 20
116.002
 30
0.0
 11
59.987900000000003
 21
116.122
 31
0.0
  0
ARC
  5
86F
  8
0
 62
     7
 10
52.844408999999992
 20
116.199837
 30
0.0
 40
7.1602990000000002
 50
359.26812000000012
 51
1.454388999999999
  0
LINE
  5
870
  8
0
 62
     7
 10
59.98619999999999
 20
116.36799999999999
 30
0.0
 11
59.8568
 21
116.48699999999999
 31
0.0
  0
LINE
  5
871
  8
0
 62
     7
 10
59.8568
 20
116.48699999999999
 30
0.0
 11
59.975900000000003
 21
116.617
 31
0.0
  0
ARC
  5
872
  8
0
 62
     7
 10
53.384891000000003
 20
116.21889299999999
 30
0.0
 40
6.6184770000000004
 50
3.3487930000000001
 51
5.6944730000000012
  0
LINE
  5
873
  8
0
 62
     7
 10
59.95689999999999
 20
116.86199999999999
 30
0.0
 11
59.818399999999997
 21
116.971
 31
0.0
  0
LINE
  5
874
  8
0
 62
     7
 10
59.818399999999997
 20
116.971
 30
0.0
 11
59.927999999999997
 21
117.10899999999999
 31
0.0
  0
ARC
  5
875
  8
0
 62
     7
 10
51.677917000000001
 20
115.93492000000001
 30
0.0
 40
8.3473869999999994
 50
8.0199899999999982
 51
9.8680889999999994
  0
LINE
  5
876
  8
0
 62
     7
 10
59.8904
 20
117.35299999999999
 30
0.0
 11
59.744900000000001
 21
117.452
 31
0.0
  0
LINE
  5
877
  8
0
 62
     7
 10
59.744900000000001
 20
117.452
 30
0.0
 11
59.8431
 21
117.59699999999999
 31
0.0
  0
ARC
  5
878
  8
0
 62
     7
 10
54.791553999999998
 20
116.550524
 30
0.0
 40
5.1719160000000004
 50
11.588119000000001
 51
14.550514
  0
LINE
  5
879
  8
0
 62
     7
 10
59.7881
 20
117.837
 30
0.0
 11
59.635300000000001
 21
117.92400000000001
 31
0.0
  0
LINE
  5
87A
  8
0
 62
     7
 10
59.635300000000001
 20
117.92400000000001
 30
0.0
 11
59.722700000000003
 21
118.077
 31
0.0
  0
ARC
  5
87B
  8
0
 62
     7
 10
50.367094000000002
 20
115.28645299999999
 30
0.0
 40
9.7750470000000007
 50
16.551002
 51
18.1037
  0
LINE
  5
87C
  8
0
 62
     7
 10
59.650300000000001
 20
118.312
 30
0.0
 11
59.491700000000002
 21
118.389
 31
0.0
  0
LINE
  5
87D
  8
0
 62
     7
 10
59.491700000000002
 20
118.389
 30
0.0
 11
59.567599999999999
 21
118.54600000000001
 31
0.0
  0
ARC
  5
87E
  8
0
 62
     7
 10
53.247951
 20
116.18638
 30
0.0
 40
6.7564929999999981
 50
20.40766
 51
22.637536000000001
  0
LINE
  5
87F
  8
0
 62
     7
 10
59.477400000000003
 20
118.777
 30
0.0
 11
59.313400000000001
 21
118.84
 31
0.0
  0
LINE
  5
880
  8
0
 62
     7
 10
59.313400000000001
 20
118.84
 30
0.0
 11
59.378
 21
119.004
 31
0.0
  0
ARC
  5
881
  8
0
 62
     7
 10
54.006374999999998
 20
116.54490199999999
 30
0.0
 40
5.9166339999999993
 50
24.521937999999999
 51
27.056528
  0
LINE
  5
882
  8
0
 62
     7
 10
59.271299999999997
 20
119.226
 30
0.0
 11
59.103200000000001
 21
119.27800000000001
 31
0.0
  0
LINE
  5
883
  8
0
 62
     7
 10
59.103200000000001
 20
119.27800000000001
 30
0.0
 11
59.155200000000001
 21
119.446
 31
0.0
  0
ARC
  5
884
  8
0
 62
     7
 10
53.80969799999999
 20
116.49256200000001
 30
0.0
 40
6.1150699999999993
 50
28.854258000000009
 51
31.286365000000011
  0
LINE
  5
885
  8
0
 62
     7
 10
59.0319
 20
119.65900000000001
 30
0.0
 11
58.860700000000001
 21
119.699
 31
0.0
  0
LINE
  5
886
  8
0
 62
     7
 10
58.860700000000001
 20
119.699
 30
0.0
 11
58.900300000000001
 21
119.87
 31
0.0
  0
ARC
  5
887
  8
0
 62
     7
 10
52.053111999999999
 20
115.343103
 30
0.0
 40
8.2151119999999995
 50
33.428049999999999
 51
35.226209000000011
  0
LINE
  5
888
  8
0
 62
     7
 10
58.761499999999991
 20
120.07299999999999
 30
0.0
 11
58.587800000000001
 21
120.09999999999999
 31
0.0
  0
LINE
  5
889
  8
0
 62
     7
 10
58.587800000000001
 20
120.09999999999999
 30
0.0
 11
58.614699999999999
 21
120.274
 31
0.0
  0
ARC
  5
88A
  8
0
 62
     7
 10
53.935853000000002
 20
116.688293
 30
0.0
 40
5.9010379999999989
 50
37.417431000000001
 51
39.902177000000002
  0
LINE
  5
88B
  8
0
 62
     7
 10
58.4621
 20
120.467
 30
0.0
 11
58.286000000000001
 21
120.48099999999999
 31
0.0
  0
LINE
  5
88C
  8
0
 62
     7
 10
58.286000000000001
 20
120.48099999999999
 30
0.0
 11
58.299799999999991
 21
120.65600000000001
 31
0.0
  0
ARC
  5
88D
  8
0
 62
     7
 10
53.261575000000001
 20
116.156605
 30
0.0
 40
6.7604689999999996
 50
41.727255
 51
43.884400999999997
  0
LINE
  5
88E
  8
0
 62
     7
 10
58.132899999999999
 20
120.837
 30
0.0
 11
57.9574
 21
120.83799999999999
 31
0.0
  0
LINE
  5
88F
  8
0
 62
     7
 10
57.9574
 20
120.83799999999999
 30
0.0
 11
57.958100000000002
 21
121.014
 31
0.0
  0
ARC
  5
890
  8
0
 62
     7
 10
52.087724000000001
 20
114.908794
 30
0.0
 40
8.4738520000000008
 50
46.099312000000012
 51
47.812577000000012
  0
LINE
  5
891
  8
0
 62
     7
 10
57.778399999999998
 20
121.182
 30
0.0
 11
57.603000000000002
 21
121.17
 31
0.0
  0
LINE
  5
892
  8
0
 62
     7
 10
57.603000000000002
 20
121.17
 30
0.0
 11
57.590499999999999
 21
121.345
 31
0.0
  0
ARC
  5
893
  8
0
 62
     7
 10
52.727395999999999
 20
115.501876
 30
0.0
 40
7.6059259999999993
 50
50.207101999999992
 51
52.106460999999989
  0
LINE
  5
894
  8
0
 62
     7
 10
57.39889999999999
 20
121.5
 30
0.0
 11
57.224800000000002
 21
121.47499999999999
 31
0.0
  0
LINE
  5
895
  8
0
 62
     7
 10
57.224800000000002
 20
121.47499999999999
 30
0.0
 11
57.199599999999997
 21
121.648
 31
0.0
  0
ARC
  5
896
  8
0
 62
     7
 10
53.149025999999992
 20
115.9718
 30
0.0
 40
6.9768819999999998
 50
54.472541
 51
56.530683999999987
  0
LINE
  5
897
  8
0
 62
     7
 10
56.996699999999997
 20
121.788
 30
0.0
 11
56.825000000000003
 21
121.751
 31
0.0
  0
LINE
  5
898
  8
0
 62
     7
 10
56.825000000000003
 20
121.751
 30
0.0
 11
56.787199999999999
 21
121.923
 31
0.0
  0
ARC
  5
899
  8
0
 62
     7
 10
52.657927000000001
 20
115.089825
 30
0.0
 40
7.9860990000000003
 50
58.83997500000001
 51
60.630052999999997
  0
LINE
  5
89A
  8
0
 62
     7
 10
56.575200000000002
 20
122.047
 30
0.0
 11
56.406599999999997
 21
121.997
 31
0.0
  0
LINE
  5
89B
  8
0
 62
     7
 10
56.406599999999997
 20
121.997
 30
0.0
 11
56.35629999999999
 21
122.16500000000001
 31
0.0
  0
ARC
  5
89C
  8
0
 62
     7
 10
53.811841000000001
 20
117.25944699999999
 30
0.0
 40
5.5274760000000001
 50
62.571972000000002
 51
65.149877000000004
  0
LINE
  5
89D
  8
0
 62
     7
 10
56.134700000000002
 20
122.273
 30
0.0
 11
55.970799999999997
 21
122.211
 31
0.0
  0
LINE
  5
89E
  8
0
 62
     7
 10
55.970799999999997
 20
122.211
 30
0.0
 11
55.907899999999998
 21
122.375
 31
0.0
  0
ARC
  5
89F
  8
0
 62
     7
 10
53.334947999999997
 20
116.273833
 30
0.0
 40
6.6226409999999998
 50
67.127134999999996
 51
69.270031000000003
  0
LINE
  5
8A0
  8
0
 62
     7
 10
55.679099999999998
 20
122.467
 30
0.0
 11
55.520499999999998
 21
122.393
 31
0.0
  0
LINE
  5
8A1
  8
0
 62
     7
 10
55.520499999999998
 20
122.393
 30
0.0
 11
55.445700000000002
 21
122.551
 31
0.0
  0
ARC
  5
8A2
  8
0
 62
     7
 10
52.596516999999999
 20
114.005169
 30
0.0
 40
9.0092400000000001
 50
71.558894999999993
 51
73.133936000000006
  0
LINE
  5
8A3
  8
0
 62
     7
 10
55.2104
 20
122.627
 30
0.0
 11
55.0578
 21
122.54000000000001
 31
0.0
  0
LINE
  5
8A4
  8
0
 62
     7
 10
55.0578
 20
122.54000000000001
 30
0.0
 11
54.970999999999997
 21
122.693
 31
0.0
  0
ARC
  5
8A5
  8
0
 62
     7
 10
51.745995000000001
 20
109.682484
 30
0.0
 40
13.405117000000001
 50
76.076262
 51
77.13131700000001
  0
LINE
  5
8A6
  8
0
 62
     7
 10
54.732199999999999
 20
122.75
 30
0.0
 11
54.585500000000003
 21
122.65300000000001
 31
0.0
  0
LINE
  5
8A7
  8
0
 62
     7
 10
54.585500000000003
 20
122.65300000000001
 30
0.0
 11
54.488
 21
122.79900000000001
 31
0.0
  0
ARC
  5
8A8
  8
0
 62
     7
 10
53.290728999999999
 20
116.219987
 30
0.0
 40
6.687536999999999
 50
79.686933999999994
 51
81.796903999999998
  0
LINE
  5
8A9
  8
0
 62
     7
 10
54.244900000000001
 20
122.839
 30
0.0
 11
54.106099999999998
 21
122.73099999999999
 31
0.0
  0
LINE
  5
8AA
  8
0
 62
     7
 10
54.106099999999998
 20
122.73099999999999
 30
0.0
 11
53.9983
 21
122.869
 31
0.0
  0
ARC
  5
8AB
  8
0
 62
     7
 10
53.182250000000003
 20
114.78768100000001
 30
0.0
 40
8.1235140000000001
 50
84.234944999999996
 51
85.971416000000005
  0
LINE
  5
8AC
  8
0
 62
     7
 10
53.753
 20
122.89100000000001
 30
0.0
 11
53.622399999999992
 21
122.773
 31
0.0
  0
LINE
  5
8AD
  8
0
 62
     7
 10
53.622399999999992
 20
122.773
 30
0.0
 11
53.50439999999999
 21
122.904
 31
0.0
  0
ARC
  5
8AE
  8
0
 62
     7
 10
53.091700000000003
 20
115.99347899999999
 30
0.0
 40
5.425065
 50
2.1126450000000001
 51
87.896795999999995
  0
ARC
  5
8AF
  8
0
 62
     7
 10
53.491131999999993
 20
115.99295499999999
 30
0.0
 40
5.4256339999999987
 50
92.116059000000007
 51
177.88202100000001
  0
ARC
  5
8B0
  8
0
 62
     7
 10
53.291054000000003
 20
116.19321100000001
 30
0.0
 40
5.2218489999999989
 50
179.99713499999999
 51
269.997185
  0
ARC
  5
8B1
  8
0
 62
     7
 10
53.290882000000003
 20
116.193557
 30
0.0
 40
5.2221960000000003
 50
269.999075
 51
359.99904500000002
  0
ARC
  5
8B2
  8
0
 62
     7
 10
53.290882000000003
 20
116.193383
 30
0.0
 40
5.4705890000000004
 50
0.000912
 51
90.000882000000004
  0
ARC
  5
8B3
  8
0
 62
     7
 10
53.290711000000002
 20
116.193383
 30
0.0
 40
5.4705890000000004
 50
89.999098000000004
 51
179.99906799999999
  0
ARC
  5
8B4
  8
0
 62
     7
 10
53.290882000000003
 20
116.193383
 30
0.0
 40
5.4707589999999993
 50
179.99906799999999
 51
269.99911800000001
  0
ARC
  5
8B5
  8
0
 62
     7
 10
53.290709
 20
116.19338500000001
 30
0.0
 40
5.4707610000000004
 50
270.000922
 51
0.000892
  0
ARC
  5
8B6
  8
0
 62
     7
 10
53.301270999999993
 20
116.173204
 30
0.0
 40
7.608225
 50
110.252002
 51
129.31933699999999
  0
ARC
  5
8B7
  8
0
 62
     7
 10
53.33034399999999
 20
116.19395400000001
 30
0.0
 40
7.6247879999999997
 50
170.28537700000001
 51
189.30727200000001
  0
ARC
  5
8B8
  8
0
 62
     7
 10
53.279018999999991
 20
116.194424
 30
0.0
 40
7.5976610000000004
 50
350.23936500000002
 51
9.3297830000000008
  0
ARC
  5
8B9
  8
0
 62
     7
 10
53.279804000000013
 20
116.174222
 30
0.0
 40
7.6077469999999989
 50
50.257183000000012
 51
69.32015899999999
  0
ARC
  5
8BA
  8
0
 62
     7
 10
53.291645999999993
 20
116.193552
 30
0.0
 40
7.4112609999999988
 50
311.77087599999999
 51
41.771684999999991
  0
ARC
  5
8BB
  8
0
 62
     7
 10
53.291235999999991
 20
116.193202
 30
0.0
 40
7.4118000000000004
 50
41.771590999999987
 51
131.77336
  0
ARC
  5
8BC
  8
0
 62
     7
 10
53.291552000000003
 20
116.193213
 30
0.0
 40
7.4120029999999986
 50
131.775238
 51
221.77547899999999
  0
ARC
  5
8BD
  8
0
 62
     7
 10
53.264354000000012
 20
116.17081899999999
 30
0.0
 40
7.3768000000000002
 50
221.78650300000001
 51
228.26376500000001
  0
ARC
  5
8BE
  8
0
 62
     7
 10
53.29070999999999
 20
116.249194
 30
0.0
 40
7.4672830000000001
 50
262.34374700000001
 51
277.656272
  0
ARC
  5
8BF
  8
0
 62
     7
 10
53.290709
 20
116.193555
 30
0.0
 40
6.3451319999999987
 50
359.99923200000001
 51
89.999201999999997
  0
ARC
  5
8C0
  8
0
 62
     7
 10
53.290797999999988
 20
116.19346899999999
 30
0.0
 40
6.345218
 50
90.0
 51
179.99996999999999
  0
ARC
  5
8C1
  8
0
 62
     7
 10
53.290794999999989
 20
116.19346899999999
 30
0.0
 40
6.3452159999999997
 50
179.99996999999999
 51
270.00002000000001
  0
ARC
  5
8C2
  8
0
 62
     7
 10
53.290709
 20
116.19338500000001
 30
0.0
 40
6.3451319999999987
 50
270.00079799999997
 51
0.000768
  0
LINE
  5
8C3
  8
_________2
 62
     7
 10
134.93899999999999
 20
258.911
 30
0.0
 11
134.93899999999999
 21
230.911
 31
0.0
  0
LINE
  5
8C4
  8
_________2
 62
     7
 10
159.30500000000001
 20
258.911
 30
0.0
 11
159.30500000000001
 21
230.911
 31
0.0
  0
TEXT
  5
8C5
  8
_________2
 62
     7
 10
168.38133466666659
 20
233.06100000000001
 30
0.0
 40
3.3734599999999988
  1
クロム
 41
0.5
 72
     1
 11
171.30500000000001
 21
233.06100000000001
 31
0.0
  0
TEXT
  5
8C6
  8
_________2
 62
     7
 10
139.24959333333331
 20
233.06200000000001
 30
0.0
 40
3.3734599999999988
  1
HR63614-CH
 41
0.5
 72
     1
 11
147.12100000000001
 21
233.06200000000001
 31
0.0
  0
LINE
  5
8C7
  8
_________2
 62
     7
 10
134.93899999999999
 20
230.911
 30
0.0
 11
183.55099999999999
 21
230.911
 31
0.0
  0
TEXT
  5
8C8
  8
_________2
 62
     7
 10
168.49378333333331
 20
240.06100000000001
 30
0.0
 40
3.3734599999999988
  1
ブラス
 41
0.5
 72
     1
 11
171.30500000000001
 21
240.06100000000001
 31
0.0
  0
TEXT
  5
8C9
  8
_________2
 62
     7
 10
162.42155533333329
 20
247.06200000000001
 30
0.0
 40
3.3734599999999988
  1
アンティークブラス
 41
0.5
 72
     1
 11
171.30500000000001
 21
247.06200000000001
 31
0.0
  0
TEXT
  5
8CA
  8
_________2
 62
     7
 10
169.5058213333333
 20
254.06200000000001
 30
0.0
 40
3.3734599999999988
  1
仕上
 41
0.5
 72
     1
 11
171.30500000000001
 21
254.06200000000001
 31
0.0
  0
TEXT
  5
8CB
  8
_________2
 62
     7
 10
139.24959333333331
 20
240.06200000000001
 30
0.0
 40
3.3734599999999988
  1
HR63614-PB
 41
0.5
 72
     1
 11
147.12100000000001
 21
240.06200000000001
 31
0.0
  0
TEXT
  5
8CC
  8
_________2
 62
     7
 10
139.24959333333331
 20
247.06200000000001
 30
0.0
 40
3.3734599999999988
  1
HR63614-AB
 41
0.5
 72
     1
 11
147.12100000000001
 21
247.06200000000001
 31
0.0
  0
TEXT
  5
8CD
  8
_________2
 62
     7
 10
145.3218213333333
 20
254.06200000000001
 30
0.0
 40
3.3734599999999988
  1
品番
 41
0.5
 72
     1
 11
147.12100000000001
 21
254.06200000000001
 31
0.0
  0
LINE
  5
8CE
  8
_________2
 62
     7
 10
134.93899999999999
 20
237.911
 30
0.0
 11
183.55099999999999
 21
237.911
 31
0.0
  0
LINE
  5
8CF
  8
_________2
 62
     7
 10
134.93899999999999
 20
244.911
 30
0.0
 11
183.55099999999999
 21
244.911
 31
0.0
  0
LINE
  5
8D0
  8
_________2
 62
     7
 10
134.93899999999999
 20
251.911
 30
0.0
 11
183.55099999999999
 21
251.911
 31
0.0
  0
TEXT
  5
8D1
  8
_________2
 62
     7
 10
136.66252499999999
 20
9.1082000000000001
 30
0.0
 40
3.9357000000000002
  1
図中の表参照
 41
0.5
 72
     1
 11
143.55000000000001
 21
9.1082000000000001
 31
0.0
  0
TEXT
  5
8D2
  8
_________2
 62
     7
 10
137.31847500000001
 20
-0.8926299999999999
 30
0.0
 40
3.9357000000000002
  1
HR63614
 41
0.5
 72
     1
 11
143.55000000000001
 21
-0.8926299999999999
 31
0.0
  0
LINE
  5
8D3
  8
_________2
 62
     7
 10
205.30099999999999
 20
127.411
 30
0.0
 11
183.55099999999999
 21
127.411
 31
0.0
  0
LINE
  5
8D4
  8
_________2
 62
     7
 10
100.3
 20
-4.0910799999999998
 30
0.0
 11
100.3
 21
-21.071000000000002
 31
0.0
  0
LINE
  5
8D5
  8
_________2
 62
     7
 10
100.3
 20
275.93099999999998
 30
0.0
 11
100.3
 21
258.911
 31
0.0
  0
LINE
  5
8D6
  8
_________2
 62
     7
 10
17.049399999999999
 20
127.411
 30
0.0
 11
-4.7010300000000003
 21
127.411
 31
0.0
  0
LINE
  5
8D7
  8
_________2
 62
     7
 10
76.740799999999993
 20
29.8047
 30
0.0
 11
74.554599999999994
 21
29.8047
 31
0.0
  0
LINE
  5
8D8
  8
_________2
 62
     7
 10
77.233500000000006
 20
29.8047
 30
0.0
 11
76.981300000000005
 21
29.8047
 31
0.0
  0
LINE
  5
8D9
  8
_________2
 62
     7
 10
77.726200000000006
 20
29.8047
 30
0.0
 11
80.6511
 21
29.8047
 31
0.0
  0
LINE
  5
8DA
  8
_________2
 62
     7
 10
77.233500000000006
 20
29.8047
 30
0.0
 11
77.485699999999994
 21
29.8047
 31
0.0
  0
LINE
  5
8DB
  8
_________2
 62
     7
 10
70.837299999999999
 20
29.8047
 30
0.0
 11
68.650300000000001
 21
29.8047
 31
0.0
  0
LINE
  5
8DC
  8
_________2
 62
     7
 10
71.329300000000003
 20
29.8047
 30
0.0
 11
71.077799999999996
 21
29.8047
 31
0.0
  0
LINE
  5
8DD
  8
_________2
 62
     7
 10
71.329300000000003
 20
30.2974
 30
0.0
 11
71.329300000000003
 21
32.484400000000001
 31
0.0
  0
LINE
  5
8DE
  8
_________2
 62
     7
 10
71.329300000000003
 20
29.8047
 30
0.0
 11
71.329300000000003
 21
30.057300000000001
 31
0.0
  0
LINE
  5
8DF
  8
_________2
 62
     7
 10
71.821899999999999
 20
29.8047
 30
0.0
 11
74.008899999999997
 21
29.8047
 31
0.0
  0
LINE
  5
8E0
  8
_________2
 62
     7
 10
71.329300000000003
 20
29.8047
 30
0.0
 11
71.581400000000002
 21
29.8047
 31
0.0
  0
LINE
  5
8E1
  8
_________2
 62
     7
 10
71.329300000000003
 20
29.312799999999999
 30
0.0
 11
71.329300000000003
 21
27.126200000000001
 31
0.0
  0
LINE
  5
8E2
  8
_________2
 62
     7
 10
71.329300000000003
 20
29.8047
 30
0.0
 11
71.329300000000003
 21
29.5532
 31
0.0
  0
LINE
  5
8E3
  8
_________2
 62
     7
 10
75.040300000000002
 20
28.5852
 30
0.0
 11
80.218299999999985
 21
27.720400000000001
 31
0.0
  0
LINE
  5
8E4
  8
_________2
 62
     7
 10
75.040300000000002
 20
31.024699999999999
 30
0.0
 11
80.218299999999985
 21
31.8901
 31
0.0
  0
LINE
  5
8E5
  8
_________2
 62
     7
 10
80.218299999999985
 20
27.720400000000001
 30
0.0
 11
80.218299999999985
 21
31.8901
 31
0.0
  0
LINE
  5
8E6
  8
_________2
 62
     7
 10
75.040300000000002
 20
28.5852
 30
0.0
 11
75.040300000000002
 21
31.024699999999999
 31
0.0
  0
ARC
  5
8E7
  8
_________2
 62
     7
 10
71.282674
 20
29.757801000000001
 30
0.0
 40
1.267714
 50
2.1220840000000001
 51
87.894083999999992
  0
ARC
  5
8E8
  8
_________2
 62
     7
 10
71.375812999999994
 20
29.758545999999999
 30
0.0
 40
1.2669680000000001
 50
92.105782999999988
 51
177.91037
  0
ARC
  5
8E9
  8
_________2
 62
     7
 10
71.376186000000004
 20
29.851671
 30
0.0
 40
1.2673680000000001
 50
182.12203600000001
 51
267.877993
  0
ARC
  5
8EA
  8
_________2
 62
     7
 10
71.282368999999989
 20
29.852347999999999
 30
0.0
 40
1.2680439999999991
 50
272.11916400000001
 51
357.84848499999998
  0
ARC
  5
8EB
  8
_________2
 62
     7
 10
71.248890000000003
 20
29.724731999999999
 30
0.0
 40
2.1668310000000002
 50
2.1161439999999989
 51
87.874379000000005
  0
ARC
  5
8EC
  8
_________2
 62
     7
 10
71.408928000000003
 20
29.726146
 30
0.0
 40
2.165392999999999
 50
92.108508999999998
 51
177.91986499999999
  0
ARC
  5
8ED
  8
_________2
 62
     7
 10
71.409267
 20
29.884751999999999
 30
0.0
 40
2.1657829999999998
 50
182.117133
 51
267.88289700000001
  0
ARC
  5
8EE
  8
_________2
 62
     7
 10
71.249286999999995
 20
29.885429999999999
 30
0.0
 40
2.1664590000000001
 50
272.11546800000002
 51
357.86560400000002
  0
TEXT
  5
8EF
  8
_________2
 62
     7
 10
104.605
 20
1.6794899999999999
 30
0.0
 40
3.0923400000000001
  1
図番
 41
0.5
  0
LINE
  5
8F0
  8
_________2
 62
     7
 10
103.55
 20
5.9087199999999989
 30
0.0
 11
183.55099999999999
 21
5.9087199999999989
 31
0.0
  0
TEXT
  5
8F1
  8
_________2
 62
     7
 10
104.605
 20
11.6793
 30
0.0
 40
3.0923400000000001
  1
品番
 41
0.5
  0
TEXT
  5
8F2
  8
_________2
 62
     7
 10
104.605
 20
31.8184
 30
0.0
 40
3.0923400000000001
  1
名称
 41
0.5
  0
TEXT
  5
8F3
  8
_________2
 62
     7
 10
91.844958333333338
 20
26.822299999999998
 30
0.0
 40
3.6545800000000002
  1
mm
 41
0.5
 72
     1
 11
93.367699999999985
 21
26.822299999999998
 31
0.0
  0
TEXT
  5
8F4
  8
_________2
 62
     7
 10
85.642999999999986
 20
31.8184
 30
0.0
 40
3.0923400000000001
  1
単位
 41
0.5
  0
TEXT
  5
8F5
  8
_________2
 62
     7
 10
85.642999999999986
 20
19.410799999999998
 30
0.0
 40
3.0923400000000001
  1
尺度
 41
0.5
  0
TEXT
  5
8F6
  8
_________2
 62
     7
 10
90.548558666666679
 20
13.2182
 30
0.0
 40
3.6545800000000002
  1
1 ： 2
 41
0.5
 72
     1
 11
93.959500000000006
 21
13.2182
 31
0.0
  0
TEXT
  5
8F7
  8
_________2
 62
     7
 10
109.179
 20
24.226099999999999
 30
0.0
 40
3.9357000000000002
  1
ニューレトロ ダブルフック
 41
0.5
  0
TEXT
  5
8F8
  8
_________2
 62
     7
 10
39.425100333333333
 20
13.603400000000001
 30
0.0
 40
3.6545800000000002
  1
早川
 41
0.5
 72
     1
 11
41.313299999999998
 21
13.603400000000001
 31
0.0
  0
TEXT
  5
8F9
  8
_________2
 62
     7
 10
20.790190666666671
 20
13.603400000000001
 30
0.0
 40
3.6545800000000002
  1
石原
 41
0.5
 72
     1
 11
22.7393
 21
13.603400000000001
 31
0.0
  0
TEXT
  5
8FA
  8
_________2
 62
     7
 10
67.785600000000002
 20
13.2182
 30
0.0
 40
3.6545800000000002
  1
15.12.08
 41
0.5
  0
TEXT
  5
8FB
  8
_________2
 62
     7
 10
66.5929
 20
19.410799999999998
 30
0.0
 40
3.0923400000000001
  1
日付
 41
0.5
  0
TEXT
  5
8FC
  8
_________2
 62
     7
 10
29.639199999999999
 20
19.410799999999998
 30
0.0
 40
3.0923400000000001
  1
検図
 41
0.5
  0
TEXT
  5
8FD
  8
_________2
 62
     7
 10
18.020900000000001
 20
5.21143
 30
0.0
 40
3.0923400000000001
  1
備考
 41
0.5
  0
TEXT
  5
8FE
  8
_________2
 62
     7
 10
18.020900000000001
 20
19.410799999999998
 30
0.0
 40
3.0923400000000001
  1
製図
 41
0.5
  0
TEXT
  5
8FF
  8
_________2
 62
     7
 10
23.788265333333339
 20
27.936800000000002
 30
0.0
 40
4.4979399999999989
  1
セラトレーディング株式会社
 41
0.5
 72
     1
 11
41.180300000000003
 21
27.936800000000002
 31
0.0
  0
LINE
  5
900
  8
_________2
 62
     7
 10
183.55099999999999
 20
-4.0910799999999998
 30
0.0
 11
17.049399999999999
 21
-4.0910799999999998
 31
0.0
  0
LINE
  5
901
  8
_________2
 62
     7
 10
17.049399999999999
 20
-4.0910799999999998
 30
0.0
 11
17.049399999999999
 21
258.911
 31
0.0
  0
LINE
  5
902
  8
_________2
 62
     7
 10
17.049399999999999
 20
258.911
 30
0.0
 11
183.55099999999999
 21
258.911
 31
0.0
  0
LINE
  5
903
  8
_________2
 62
     7
 10
183.55099999999999
 20
258.911
 30
0.0
 11
183.55099999999999
 21
-4.0910799999999998
 31
0.0
  0
LINE
  5
904
  8
_________2
 62
     7
 10
65.549700000000001
 20
9.4092999999999982
 30
0.0
 11
65.549700000000001
 21
35.909100000000002
 31
0.0
  0
LINE
  5
905
  8
_________2
 62
     7
 10
84.549599999999984
 20
9.4092999999999982
 30
0.0
 11
84.549599999999984
 21
35.909100000000002
 31
0.0
  0
LINE
  5
906
  8
_________2
 62
     7
 10
103.55
 20
-4.0910799999999998
 30
0.0
 11
103.55
 21
35.909100000000002
 31
0.0
  0
LINE
  5
907
  8
_________2
 62
     7
 10
28.549199999999999
 20
9.4092999999999982
 30
0.0
 11
28.549199999999999
 21
23.409199999999998
 31
0.0
  0
LINE
  5
908
  8
_________2
 62
     7
 10
17.049399999999999
 20
9.4092999999999982
 30
0.0
 11
103.55
 21
9.4092999999999982
 31
0.0
  0
LINE
  5
909
  8
_________2
 62
     7
 10
17.049399999999999
 20
23.409199999999998
 30
0.0
 11
103.55
 21
23.409199999999998
 31
0.0
  0
LINE
  5
90A
  8
_________2
 62
     7
 10
103.55
 20
15.9085
 30
0.0
 11
183.55099999999999
 21
15.9085
 31
0.0
  0
LINE
  5
90B
  8
_________2
 62
     7
 10
17.049399999999999
 20
35.909100000000002
 30
0.0
 11
183.55099999999999
 21
35.909100000000002
 31
0.0
  0
ENDSEC
  0
EOF
