  0
SECTION
  2
HEADER
  9
$ACADVER
  1
AC1009
  9
$INSBASE
 10
0.0
 20
0.0
 30
0.0
  9
$EXTMIN
 10
-4.7010300000000003
 20
-21.071000000000002
 30
0.0
  9
$EXTMAX
 10
205.30099999999999
 20
275.93099999999998
 30
0.0
  9
$LIMMIN
 10
0.0
 20
0.0
  9
$LIMMAX
 10
12.0
 20
9.0
  9
$ORTHOMODE
 70
     0
  9
$REGENMODE
 70
     1
  9
$FILLMODE
 70
     1
  9
$QTEXTMODE
 70
     0
  9
$MIRRTEXT
 70
     1
  9
$DRAGMODE
 70
     2
  9
$LTSCALE
 40
1.0
  9
$OSMODE
 70
    37
  9
$ATTMODE
 70
     1
  9
$TEXTSIZE
 40
0.0
  9
$TRACEWID
 40
0.05
  9
$TEXTSTYLE
  7
STANDARD
  9
$CLAYER
  8
0
  9
$CELTYPE
  6
CONTINUOUS
  9
$CECOLOR
 62
   256
  9
$DIMSCALE
 40
1.0
  9
$DIMASZ
 40
0.18
  9
$DIMEXO
 40
0.0625
  9
$DIMDLI
 40
0.38
  9
$DIMRND
 40
0.0
  9
$DIMDLE
 40
0.0
  9
$DIMEXE
 40
0.18
  9
$DIMTP
 40
0.0
  9
$DIMTM
 40
0.0
  9
$DIMTXT
 40
0.18
  9
$DIMCEN
 40
0.09
  9
$DIMTSZ
 40
0.0
  9
$DIMTOL
 70
     0
  9
$DIMLIM
 70
     0
  9
$DIMTIH
 70
     1
  9
$DIMTOH
 70
     1
  9
$DIMSE1
 70
     0
  9
$DIMSE2
 70
     0
  9
$DIMTAD
 70
     0
  9
$DIMZIN
 70
     0
  9
$DIMBLK
  1

  9
$DIMASO
 70
     1
  9
$DIMSHO
 70
     1
  9
$DIMPOST
  1

  9
$DIMAPOST
  1

  9
$DIMALT
 70
     0
  9
$DIMALTD
 70
     2
  9
$DIMALTF
 40
25.399999999999999
  9
$DIMLFAC
 40
1.0
  9
$DIMTOFL
 70
     0
  9
$DIMTVP
 40
0.0
  9
$DIMTIX
 70
     0
  9
$DIMSOXD
 70
     0
  9
$DIMSAH
 70
     0
  9
$DIMBLK1
  1

  9
$DIMBLK2
  1

  9
$DIMSTYLE
  2
STANDARD
  9
$DIMCLRD
 70
     0
  9
$DIMCLRE
 70
     0
  9
$DIMCLRT
 70
     0
  9
$DIMTFAC
 40
1.0
  9
$DIMGAP
 40
0.09
  9
$LUNITS
 70
     2
  9
$LUPREC
 70
     4
  9
$SKETCHINC
 40
0.1
  9
$FILLETRAD
 40
0.0
  9
$AUNITS
 70
     0
  9
$AUPREC
 70
     0
  9
$MENU
  1
.
  9
$ELEVATION
 40
0.0
  9
$PELEVATION
 40
0.0
  9
$THICKNESS
 40
0.0
  9
$LIMCHECK
 70
     0
  9
$BLIPMODE
 70
     0
  9
$CHAMFERA
 40
0.0
  9
$CHAMFERB
 40
0.0
  9
$SKPOLY
 70
     0
  9
$TDCREATE
 40
2444972.375
  9
$TDUPDATE
 40
2457367.2556531359
  9
$TDINDWG
 40
0.0000294444
  9
$TDUSRTIMER
 40
0.0000294444
  9
$USRTIMER
 70
     1
  9
$ANGBASE
 50
0.0
  9
$ANGDIR
 70
     0
  9
$PDMODE
 70
     0
  9
$PDSIZE
 40
0.0
  9
$PLINEWID
 40
0.0
  9
$COORDS
 70
     1
  9
$SPLFRAME
 70
     0
  9
$SPLINETYPE
 70
     6
  9
$SPLINESEGS
 70
     8
  9
$ATTDIA
 70
     1
  9
$ATTREQ
 70
     1
  9
$HANDLING
 70
     1
  9
$HANDSEED
  5
8D3
  9
$SURFTAB1
 70
     6
  9
$SURFTAB2
 70
     6
  9
$SURFTYPE
 70
     6
  9
$SURFU
 70
     6
  9
$SURFV
 70
     6
  9
$UCSNAME
  2

  9
$UCSORG
 10
0.0
 20
0.0
 30
0.0
  9
$UCSXDIR
 10
1.0
 20
0.0
 30
0.0
  9
$UCSYDIR
 10
0.0
 20
1.0
 30
0.0
  9
$PUCSNAME
  2

  9
$PUCSORG
 10
0.0
 20
0.0
 30
0.0
  9
$PUCSXDIR
 10
1.0
 20
0.0
 30
0.0
  9
$PUCSYDIR
 10
0.0
 20
1.0
 30
0.0
  9
$USERI1
 70
     0
  9
$USERI2
 70
     0
  9
$USERI3
 70
     0
  9
$USERI4
 70
     0
  9
$USERI5
 70
     0
  9
$USERR1
 40
0.0
  9
$USERR2
 40
0.0
  9
$USERR3
 40
0.0
  9
$USERR4
 40
0.0
  9
$USERR5
 40
0.0
  9
$WORLDVIEW
 70
     1
  9
$SHADEDGE
 70
     3
  9
$SHADEDIF
 70
    70
  9
$TILEMODE
 70
     1
  9
$MAXACTVP
 70
    48
  9
$PLIMCHECK
 70
     0
  9
$PEXTMIN
 10
1.0000000000000000E+020
 20
1.0000000000000000E+020
 30
1.0000000000000000E+020
  9
$PEXTMAX
 10
-1.0000000000000000E+020
 20
-1.0000000000000000E+020
 30
-1.0000000000000000E+020
  9
$PLIMMIN
 10
0.0
 20
0.0
  9
$PLIMMAX
 10
12.0
 20
9.0
  9
$UNITMODE
 70
     0
  9
$VISRETAIN
 70
     1
  9
$PLINEGEN
 70
     0
  9
$PSLTSCALE
 70
     1
  0
ENDSEC
  0
SECTION
  2
TABLES
  0
TABLE
  2
VPORT
 70
     1
  0
VPORT
  2
*ACTIVE
 70
     0
 10
0.0
 20
0.0
 11
1.0
 21
1.0
 12
165.7277138025147
 22
127.42999999999989
 13
0.0
 23
0.0
 14
1.0
 24
1.0
 15
0.0
 25
0.0
 16
0.0
 26
0.0
 36
1.0
 17
0.0
 27
0.0
 37
0.0
 40
283.528435666853
 41
2.1001926782273599
 42
50.0
 43
0.0
 44
0.0
 50
0.0
 51
0.0
 71
     0
 72
   100
 73
     1
 74
     1
 75
     0
 76
     0
 77
     0
 78
     0
  0
ENDTAB
  0
TABLE
  2
LTYPE
 70
     4
  0
LTYPE
  2
CONTINUOUS
 70
     0
  3
Solid line
 72
    65
 73
     0
 40
0.0
  0
LTYPE
  2
AIGENLINE001
 70
     0
  3
generate AI->DXF Converter
 72
    65
 73
     6
 40
7.4083750000000004
 49
3.5278
 49
-0.776115
 49
0.776115
 49
-0.776115
 49
0.776115
 49
-0.776115
  0
LTYPE
  2
AIGENLINE002
 70
     0
  3
generate AI->DXF Converter
 72
    65
 73
     4
 40
5.8561449999999988
 49
3.5278
 49
-0.776115
 49
0.776115
 49
-0.776115
  0
LTYPE
  2
AIGENLINE003
 70
     0
  3
generate AI->DXF Converter
 72
    65
 73
     2
 40
1.5522299999999991
 49
0.776115
 49
-0.776115
  0
ENDTAB
  0
TABLE
  2
LAYER
 70
     2
  0
LAYER
  2
0
 70
     0
 62
     7
  6
CONTINUOUS
  0
LAYER
  2
_________2
 70
     0
 62
     7
  6
CONTINUOUS
  0
ENDTAB
  0
TABLE
  2
STYLE
 70
     1
  0
STYLE
  2
STANDARD
 70
     0
 40
0.0
 41
0.0
 50
0.0
 71
     0
 42
0.0
  3
TXT
  4
EXTFONT.SHX
  0
ENDTAB
  0
TABLE
  2
VIEW
 70
     0
  0
ENDTAB
  0
TABLE
  2
UCS
 70
     0
  0
ENDTAB
  0
TABLE
  2
APPID
 70
     3
  0
APPID
  2
ACAD
 70
     0
  0
APPID
  2
ACAD_NAV_VCDISPLAY
 70
     0
  0
APPID
  2
ACAD_MLEADERVER
 70
     0
  0
ENDTAB
  0
TABLE
  2
DIMSTYLE
 70
     1
  0
DIMSTYLE
  2
STANDARD
 70
     0
  3

  4

  5

  6

  7

 40
1.0
 41
0.18
 42
0.0625
 43
0.38
 44
0.18
 45
0.0
 46
0.0
 47
0.0
 48
0.0
140
0.18
141
0.09
142
0.0
143
25.399999999999999
144
1.0
145
0.0
146
1.0
147
0.09
 71
     0
 72
     0
 73
     1
 74
     1
 75
     0
 76
     0
 77
     0
 78
     0
170
     0
171
     2
172
     0
173
     0
174
     0
175
     0
176
     0
177
     0
178
     0
  0
ENDTAB
  0
ENDSEC
  0
SECTION
  2
BLOCKS
  0
BLOCK
  8
0
  2
$MODEL_SPACE
 70
     0
 10
0.0
 20
0.0
 30
0.0
  3
$MODEL_SPACE
  1

  0
ENDBLK
  5
1A
  8
0
  0
BLOCK
 67
     1
  8
0
  2
$PAPER_SPACE
 70
     0
 10
0.0
 20
0.0
 30
0.0
  3
$PAPER_SPACE
  1

  0
ENDBLK
  5
17
 67
     1
  8
0
  0
ENDSEC
  0
SECTION
  2
ENTITIES
  0
TEXT
  5
24
  8
0
 62
     7
 10
126.831
 20
158.834
 30
0.0
 40
3.0923400000000001
  1
%%c4.5\U+00D749SUS 十字穴付皿頭タッピングネジ
 41
0.5
  0
TEXT
  5
25
  8
0
 62
     7
 10
126.911
 20
153.965
 30
0.0
 40
3.0923400000000001
  1
（%%c6\U+00D730樹脂プラグ付）
 41
0.5
  0
TEXT
  5
26
  8
0
 62
     7
 10
126.79405
 20
112.45699999999999
 30
0.0
 40
3.0923400000000001
  1
%%c8
 41
0.5
 72
     2
 11
129.37100000000001
 21
112.45699999999999
 31
0.0
  0
TEXT
  5
27
  8
0
 62
     7
 10
130.2373253367212
 20
106.2653128248345
 30
0.0
 40
3.0923400000000001
  1
70
 50
68.198599999999999
 41
0.5
 72
     1
 11
130.66800000000001
 21
107.342
 31
0.0
  0
TEXT
  5
28
  8
0
 62
     7
 10
171.24299999999999
 20
118.47144
 30
0.0
 40
3.0923400000000001
  1
%%c57
 50
90.0
 41
0.5
 72
     1
 11
171.24299999999999
 21
120.533
 31
0.0
  0
TEXT
  5
29
  8
0
 62
     7
 10
164.23500000000001
 20
119.152525
 30
0.0
 40
3.0923400000000001
  1
32
 50
90.0
 41
0.5
 72
     1
 11
164.23500000000001
 21
120.441
 31
0.0
  0
TEXT
  5
2A
  8
0
 62
     7
 10
131.71037250000001
 20
139.762
 30
0.0
 40
3.0923400000000001
  1
70
 41
0.5
 72
     1
 11
132.87
 21
139.762
 31
0.0
  0
TEXT
  5
2B
  8
0
 62
     7
 10
128.581525
 20
145.91399999999999
 30
0.0
 40
3.0923400000000001
  1
88
 41
0.5
 72
     1
 11
129.87
 21
145.91399999999999
 31
0.0
  0
TEXT
  5
2C
  8
0
 62
     7
 10
96.445645269217394
 20
120.7689433135525
 30
0.0
 40
3.0923400000000001
  1
123
 50
35.09320000000001
 41
0.5
 72
     1
 11
97.921599999999998
 21
121.806
 31
0.0
  0
TEXT
  5
2D
  8
0
 62
     7
 10
49.95148249999999
 20
71.849599999999995
 30
0.0
 40
3.0923400000000001
  1
140
 41
0.5
 72
     1
 11
51.6265
 21
71.849599999999995
 31
0.0
  0
TEXT
  5
2E
  8
0
 62
     7
 10
50.080330000000011
 20
81.250699999999995
 30
0.0
 40
3.0923400000000001
  1
115
 41
0.5
 72
     1
 11
51.6265
 21
81.250699999999995
 31
0.0
  0
ARC
  5
2F
  8
0
 62
     7
 10
69.627052000000006
 20
183.31334000000001
 30
0.0
 40
1.96669
 50
306.37899299999998
 51
359.51237700000001
  0
ARC
  5
30
  8
0
 62
     7
 10
69.520831000000001
 20
183.40312
 30
0.0
 40
4.740556999999999
 50
285.57126399999999
 51
358.71248800000001
  0
LINE
  5
31
  8
0
 62
     7
 10
29.192900000000002
 20
181.36000000000001
 30
0.0
 11
32.459699999999998
 21
181.36000000000001
 31
0.0
  0
LINE
  5
32
  8
0
 62
     7
 10
32.459699999999998
 20
178.69399999999999
 30
0.0
 11
29.192900000000002
 21
178.69399999999999
 31
0.0
  0
ARC
  5
33
  8
0
 62
     7
 10
29.192889999999998
 20
180.02701400000001
 30
0.0
 40
1.333261
 50
270.00002000000001
 51
359.99999000000003
  0
ARC
  5
34
  8
0
 62
     7
 10
29.192889999999998
 20
180.02701400000001
 30
0.0
 40
1.3332599999999999
 50
179.99996999999999
 51
270.00002000000001
  0
ARC
  5
35
  8
0
 62
     7
 10
29.192889999999998
 20
180.02701400000001
 30
0.0
 40
1.333261
 50
90.0
 51
179.99996999999999
  0
ARC
  5
36
  8
0
 62
     7
 10
29.192889999999998
 20
180.02701400000001
 30
0.0
 40
1.333261
 50
0.00001
 51
89.999980000000008
  0
ARC
  5
37
  8
0
 62
     7
 10
72.875943000000007
 20
188.7757159999999
 30
0.0
 40
1.385187999999999
 50
2.1095280000000001
 51
87.890461999999985
  0
ARC
  5
38
  8
0
 62
     7
 10
72.92693100000001
 20
188.826705
 30
0.0
 40
1.333261
 50
270.00002000000001
 51
359.99999000000003
  0
LINE
  5
39
  8
0
 62
     7
 10
32.459699999999998
 20
161.56999999999999
 30
0.0
 11
32.459699999999998
 21
190.994
 31
0.0
  0
LINE
  5
3A
  8
0
 62
     7
 10
70.793000000000006
 20
190.994
 30
0.0
 11
70.793000000000006
 21
161.56999999999999
 31
0.0
  0
ARC
  5
3B
  8
0
 62
     7
 10
34.703969999999998
 20
162.02163100000001
 30
0.0
 40
2.289312999999999
 50
191.387383
 51
194.59575599999999
  0
ARC
  5
3C
  8
0
 62
     7
 10
33.019711999999998
 20
161.59349599999999
 30
0.0
 40
0.5516140000000001
 50
195.64602500000001
 51
213.41658000000001
  0
ARC
  5
3D
  8
0
 62
     7
 10
33.019618999999999
 20
161.60911200000001
 30
0.0
 40
0.5602890000000002
 50
214.754851
 51
230.41942499999999
  0
ARC
  5
3E
  8
0
 62
     7
 10
33.346161000000002
 20
161.97739799999999
 30
0.0
 40
1.052335
 50
229.49283500000001
 51
242.06383400000001
  0
ARC
  5
3F
  8
0
 62
     7
 10
33.639366000000003
 20
162.48221599999999
 30
0.0
 40
1.6358449999999991
 50
241.27446599999999
 51
250.36123000000001
  0
ARC
  5
40
  8
0
 62
     7
 10
33.893389999999997
 20
163.136202
 30
0.0
 40
2.3372439999999992
 50
249.88441800000001
 51
255.16990000000001
  0
ARC
  5
41
  8
0
 62
     7
 10
34.017575999999998
 20
163.57519400000001
 30
0.0
 40
2.7934099999999988
 50
255.01223300000001
 51
265.94115399999998
  0
ARC
  5
42
  8
0
 62
     7
 10
34.192079
 20
165.913793
 30
0.0
 40
5.138501999999999
 50
265.84596199999999
 51
269.27803499999999
  0
LINE
  5
43
  8
0
 62
     7
 10
34.127299999999998
 20
160.77600000000001
 30
0.0
 11
69.125399999999985
 21
160.77600000000001
 31
0.0
  0
ARC
  5
44
  8
0
 62
     7
 10
68.413905
 20
176.575276
 30
0.0
 40
15.81559
 50
272.5785029999999
 51
273.78446600000001
  0
ARC
  5
45
  8
0
 62
     7
 10
69.208624999999998
 20
164.08551
 30
0.0
 40
3.3007539999999991
 50
274.32913300000013
 51
277.93396300000012
  0
ARC
  5
46
  8
0
 62
     7
 10
69.308491000000004
 20
163.303045
 30
0.0
 40
2.5120110000000002
 50
278.14140800000001
 51
289.37620099999998
  0
ARC
  5
47
  8
0
 62
     7
 10
69.542867999999999
 20
162.597161
 30
0.0
 40
1.768397
 50
289.80027699999999
 51
303.20149400000003
  0
ARC
  5
48
  8
0
 62
     7
 10
69.962229000000008
 20
161.90342899999999
 30
0.0
 40
0.9587190000000001
 50
304.93348900000001
 51
316.19155999999998
  0
ARC
  5
49
  8
0
 62
     7
 10
70.269806000000003
 20
161.59877800000001
 30
0.0
 40
0.5259040000000002
 50
316.946957
 51
332.63747999999998
  0
ARC
  5
4A
  8
0
 62
     7
 10
70.318776999999983
 20
161.565575
 30
0.0
 40
0.467204
 50
333.49351799999999
 51
350.74720100000002
  0
ARC
  5
4B
  8
0
 62
     7
 10
68.619901999999996
 20
161.88916900000001
 30
0.0
 40
2.1964919999999988
 50
349.54145399999999
 51
351.63499200000001
  0
LINE
  5
4C
  8
0
 62
     7
 10
46.305999999999997
 20
186.52099999999999
 30
0.0
 11
46.305999999999997
 21
190.994
 31
0.0
  0
LINE
  5
4D
  8
0
 62
     7
 10
56.9786
 20
190.994
 30
0.0
 11
56.9786
 21
186.52099999999999
 31
0.0
  0
LINE
  5
4E
  8
0
 62
     7
 10
32.459699999999998
 20
190.994
 30
0.0
 11
46.305999999999997
 21
190.994
 31
0.0
  0
LINE
  5
4F
  8
0
 62
     7
 10
56.9786
 20
190.994
 30
0.0
 11
70.793000000000006
 21
190.994
 31
0.0
  0
ARC
  5
50
  8
0
 62
     7
 10
51.619058000000003
 20
190.48684700000001
 30
0.0
 40
7.6598160000000002
 50
270.04120599999999
 51
294.08091300000001
  0
LINE
  5
51
  8
0
 62
     7
 10
51.624400000000001
 20
183.494
 30
0.0
 11
55.302599999999998
 21
183.494
 31
0.0
  0
ARC
  5
52
  8
0
 62
     7
 10
54.896703000000002
 20
184.3765709999999
 30
0.0
 40
0.971728
 50
294.68806899999998
 51
333.878467
  0
ARC
  5
53
  8
0
 62
     7
 10
54.799667999999997
 20
184.44735299999999
 30
0.0
 40
1.090214999999999
 50
332.78371099999998
 51
3.7462919999999991
  0
ARC
  5
54
  8
0
 62
     7
 10
56.231637999999997
 20
184.538231
 30
0.0
 40
0.344645
 50
119.115506
 51
183.26763800000001
  0
LINE
  5
55
  8
0
 62
     7
 10
55.497599999999998
 20
191.92400000000001
 30
0.0
 11
51.624400000000001
 21
191.92400000000001
 31
0.0
  0
ARC
  5
56
  8
0
 62
     7
 10
55.363426000000011
 20
190.907838
 30
0.0
 40
1.0251859999999999
 50
17.891112
 51
82.481585999999993
  0
LINE
  5
57
  8
0
 62
     7
 10
56.295099999999991
 20
191.28
 30
0.0
 11
51.624400000000001
 21
191.28
 31
0.0
  0
ARC
  5
58
  8
0
 62
     7
 10
52.401792
 20
187.00341
 30
0.0
 40
3.9376319999999989
 50
337.45291500000002
 51
343.35368099999999
  0
ARC
  5
59
  8
0
 62
     7
 10
49.646884999999997
 20
187.863461
 30
0.0
 40
6.8235460000000003
 50
343.06122900000003
 51
348.411563
  0
ARC
  5
5A
  8
0
 62
     7
 10
45.58755399999999
 20
188.737438
 30
0.0
 40
10.975771
 50
348.19898599999999
 51
354.25473599999998
  0
ARC
  5
5B
  8
0
 62
     7
 10
42.739268000000003
 20
189.09982500000001
 30
0.0
 40
13.846232000000001
 50
353.94257900000002
 51
2.330560999999999
  0
ARC
  5
5C
  8
0
 62
     7
 10
47.881284999999998
 20
189.27400800000001
 30
0.0
 40
8.701455000000001
 50
2.5614140000000001
 51
9.3850820000000006
  0
ARC
  5
5D
  8
0
 62
     7
 10
52.160647999999988
 20
189.938805
 30
0.0
 40
4.3711669999999989
 50
9.9347410000000007
 51
17.346636
  0
ARC
  5
5E
  8
0
 62
     7
 10
51.629728
 20
190.48684700000001
 30
0.0
 40
7.6598160000000002
 50
245.919107
 51
269.95881400000002
  0
LINE
  5
5F
  8
0
 62
     7
 10
51.613500000000002
 20
185.494
 30
0.0
 11
47.111800000000002
 21
185.494
 31
0.0
  0
LINE
  5
60
  8
0
 62
     7
 10
47.111800000000002
 20
184.86799999999999
 30
0.0
 11
47.111800000000002
 21
185.39400000000001
 31
0.0
  0
LINE
  5
61
  8
0
 62
     7
 10
47.123499999999993
 20
184.86799999999999
 30
0.0
 11
47.123499999999993
 21
185.39400000000001
 31
0.0
  0
LINE
  5
62
  8
0
 62
     7
 10
47.113199999999992
 20
185.39400000000001
 30
0.0
 11
47.113199999999992
 21
184.86799999999999
 31
0.0
  0
LINE
  5
63
  8
0
 62
     7
 10
47.212400000000002
 20
185.494
 30
0.0
 11
47.137300000000003
 21
185.417
 31
0.0
  0
LINE
  5
64
  8
0
 62
     7
 10
47.145600000000002
 20
185.417
 30
0.0
 11
47.227600000000002
 21
185.494
 31
0.0
  0
LINE
  5
65
  8
0
 62
     7
 10
47.160400000000003
 20
184.86799999999999
 30
0.0
 11
47.160400000000003
 21
185.39400000000001
 31
0.0
  0
LINE
  5
66
  8
0
 62
     7
 10
47.134500000000003
 20
185.39400000000001
 30
0.0
 11
47.134500000000003
 21
184.86799999999999
 31
0.0
  0
LINE
  5
67
  8
0
 62
     7
 10
47.229300000000002
 20
185.494
 30
0.0
 11
47.160400000000003
 21
185.417
 31
0.0
  0
LINE
  5
68
  8
0
 62
     7
 10
47.180699999999987
 20
185.417
 30
0.0
 11
47.267899999999997
 21
185.494
 31
0.0
  0
LINE
  5
69
  8
0
 62
     7
 10
47.180699999999987
 20
184.86099999999999
 30
0.0
 11
47.180699999999987
 21
185.417
 31
0.0
  0
LINE
  5
6A
  8
0
 62
     7
 10
47.221400000000003
 20
184.86799999999999
 30
0.0
 11
47.221400000000003
 21
185.39400000000001
 31
0.0
  0
LINE
  5
6B
  8
0
 62
     7
 10
47.181100000000001
 20
185.39400000000001
 30
0.0
 11
47.181100000000001
 21
184.86799999999999
 31
0.0
  0
LINE
  5
6C
  8
0
 62
     7
 10
47.271000000000001
 20
185.494
 30
0.0
 11
47.207599999999999
 21
185.417
 31
0.0
  0
LINE
  5
6D
  8
0
 62
     7
 10
47.221400000000003
 20
185.39400000000001
 30
0.0
 11
47.181100000000001
 21
185.39400000000001
 31
0.0
  0
LINE
  5
6E
  8
0
 62
     7
 10
47.240299999999991
 20
185.417
 30
0.0
 11
47.331600000000002
 21
185.494
 31
0.0
  0
LINE
  5
6F
  8
0
 62
     7
 10
47.240299999999991
 20
184.86099999999999
 30
0.0
 11
47.240299999999991
 21
185.417
 31
0.0
  0
LINE
  5
70
  8
0
 62
     7
 10
47.306800000000003
 20
184.86799999999999
 30
0.0
 11
47.306800000000003
 21
185.39400000000001
 31
0.0
  0
LINE
  5
71
  8
0
 62
     7
 10
47.2517
 20
185.39400000000001
 30
0.0
 11
47.2517
 21
184.86799999999999
 31
0.0
  0
LINE
  5
72
  8
0
 62
     7
 10
47.335700000000003
 20
185.494
 30
0.0
 11
47.2789
 21
185.417
 31
0.0
  0
LINE
  5
73
  8
0
 62
     7
 10
47.306800000000003
 20
185.39400000000001
 30
0.0
 11
47.2517
 21
185.39400000000001
 31
0.0
  0
LINE
  5
74
  8
0
 62
     7
 10
47.323999999999998
 20
185.417
 30
0.0
 11
47.419800000000002
 21
185.494
 31
0.0
  0
LINE
  5
75
  8
0
 62
     7
 10
47.323999999999998
 20
184.86099999999999
 30
0.0
 11
47.323999999999998
 21
185.417
 31
0.0
  0
LINE
  5
76
  8
0
 62
     7
 10
47.415700000000001
 20
184.86799999999999
 30
0.0
 11
47.415700000000001
 21
185.39400000000001
 31
0.0
  0
LINE
  5
77
  8
0
 62
     7
 10
47.346799999999988
 20
185.39400000000001
 30
0.0
 11
47.346799999999988
 21
184.86799999999999
 31
0.0
  0
LINE
  5
78
  8
0
 62
     7
 10
47.4236
 20
185.494
 30
0.0
 11
47.374299999999991
 21
185.417
 31
0.0
  0
LINE
  5
79
  8
0
 62
     7
 10
47.415700000000001
 20
185.39400000000001
 30
0.0
 11
47.346799999999988
 21
185.39400000000001
 31
0.0
  0
LINE
  5
7A
  8
0
 62
     7
 10
47.430500000000002
 20
185.417
 30
0.0
 11
47.530700000000003
 21
185.494
 31
0.0
  0
LINE
  5
7B
  8
0
 62
     7
 10
47.430500000000002
 20
184.86099999999999
 30
0.0
 11
47.430500000000002
 21
185.417
 31
0.0
  0
LINE
  5
7C
  8
0
 62
     7
 10
47.548000000000002
 20
184.86799999999999
 30
0.0
 11
47.548000000000002
 21
185.39400000000001
 31
0.0
  0
LINE
  5
7D
  8
0
 62
     7
 10
47.4649
 20
185.39400000000001
 30
0.0
 11
47.4649
 21
184.86799999999999
 31
0.0
  0
LINE
  5
7E
  8
0
 62
     7
 10
47.560400000000001
 20
184.86099999999999
 30
0.0
 11
47.560400000000001
 21
185.417
 31
0.0
  0
LINE
  5
7F
  8
0
 62
     7
 10
47.560400000000001
 20
185.417
 30
0.0
 11
47.663400000000003
 21
185.494
 31
0.0
  0
LINE
  5
80
  8
0
 62
     7
 10
47.535600000000002
 20
185.494
 30
0.0
 11
47.49349999999999
 21
185.417
 31
0.0
  0
LINE
  5
81
  8
0
 62
     7
 10
47.548000000000002
 20
185.39400000000001
 30
0.0
 11
47.4649
 21
185.39400000000001
 31
0.0
  0
LINE
  5
82
  8
0
 62
     7
 10
47.701999999999991
 20
184.86799999999999
 30
0.0
 11
47.701999999999991
 21
185.39400000000001
 31
0.0
  0
LINE
  5
83
  8
0
 62
     7
 10
47.605800000000002
 20
185.39400000000001
 30
0.0
 11
47.605800000000002
 21
184.86799999999999
 31
0.0
  0
LINE
  5
84
  8
0
 62
     7
 10
47.712600000000002
 20
184.86099999999999
 30
0.0
 11
47.712600000000002
 21
185.416
 31
0.0
  0
LINE
  5
85
  8
0
 62
     7
 10
47.712600000000002
 20
185.416
 30
0.0
 11
47.8187
 21
185.494
 31
0.0
  0
LINE
  5
86
  8
0
 62
     7
 10
47.669899999999991
 20
185.494
 30
0.0
 11
47.634799999999998
 21
185.417
 31
0.0
  0
LINE
  5
87
  8
0
 62
     7
 10
47.701999999999991
 20
185.39400000000001
 30
0.0
 11
47.605800000000002
 21
185.39400000000001
 31
0.0
  0
LINE
  5
88
  8
0
 62
     7
 10
47.886299999999999
 20
184.86099999999999
 30
0.0
 11
47.886299999999999
 21
185.416
 31
0.0
  0
LINE
  5
89
  8
0
 62
     7
 10
47.886299999999999
 20
185.416
 30
0.0
 11
47.994399999999992
 21
185.494
 31
0.0
  0
LINE
  5
8A
  8
0
 62
     7
 10
47.8249
 20
185.494
 30
0.0
 11
47.797400000000003
 21
185.416
 31
0.0
  0
LINE
  5
8B
  8
0
 62
     7
 10
47.877999999999993
 20
184.86799999999999
 30
0.0
 11
47.877999999999993
 21
185.39400000000001
 31
0.0
  0
LINE
  5
8C
  8
0
 62
     7
 10
47.877999999999993
 20
185.39400000000001
 30
0.0
 11
47.769799999999996
 21
185.39400000000001
 31
0.0
  0
LINE
  5
8D
  8
0
 62
     7
 10
47.769799999999996
 20
185.39400000000001
 30
0.0
 11
47.769799999999996
 21
184.86799999999999
 31
0.0
  0
LINE
  5
8E
  8
0
 62
     7
 10
48.07439999999999
 20
184.86799999999999
 30
0.0
 11
48.07439999999999
 21
185.39400000000001
 31
0.0
  0
LINE
  5
8F
  8
0
 62
     7
 10
47.953800000000001
 20
185.39400000000001
 30
0.0
 11
47.953800000000001
 21
184.86799999999999
 31
0.0
  0
LINE
  5
90
  8
0
 62
     7
 10
48.001300000000001
 20
185.494
 30
0.0
 11
47.981400000000001
 21
185.416
 31
0.0
  0
LINE
  5
91
  8
0
 62
     7
 10
48.07439999999999
 20
185.39400000000001
 30
0.0
 11
47.953800000000001
 21
185.39400000000001
 31
0.0
  0
LINE
  5
92
  8
0
 62
     7
 10
48.080599999999997
 20
185.416
 30
0.0
 11
48.190800000000003
 21
185.494
 31
0.0
  0
LINE
  5
93
  8
0
 62
     7
 10
48.080599999999997
 20
184.86099999999999
 30
0.0
 11
48.080599999999997
 21
185.416
 31
0.0
  0
LINE
  5
94
  8
0
 62
     7
 10
48.294199999999989
 20
184.86099999999999
 30
0.0
 11
48.294199999999989
 21
185.41399999999999
 31
0.0
  0
LINE
  5
95
  8
0
 62
     7
 10
48.294199999999989
 20
185.41399999999999
 30
0.0
 11
48.405799999999999
 21
185.494
 31
0.0
  0
LINE
  5
96
  8
0
 62
     7
 10
48.197699999999998
 20
185.494
 30
0.0
 11
48.185299999999991
 21
185.41399999999999
 31
0.0
  0
LINE
  5
97
  8
0
 62
     7
 10
48.289999999999999
 20
184.86799999999999
 30
0.0
 11
48.289999999999999
 21
185.39400000000001
 31
0.0
  0
LINE
  5
98
  8
0
 62
     7
 10
48.289999999999999
 20
185.39400000000001
 30
0.0
 11
48.1584
 21
185.39400000000001
 31
0.0
  0
LINE
  5
99
  8
0
 62
     7
 10
48.1584
 20
185.39400000000001
 30
0.0
 11
48.1584
 21
184.86799999999999
 31
0.0
  0
LINE
  5
9A
  8
0
 62
     7
 10
48.526400000000002
 20
184.86099999999999
 30
0.0
 11
48.526400000000002
 21
185.41399999999999
 31
0.0
  0
LINE
  5
9B
  8
0
 62
     7
 10
48.526400000000002
 20
185.41399999999999
 30
0.0
 11
48.637599999999999
 21
185.494
 31
0.0
  0
LINE
  5
9C
  8
0
 62
     7
 10
48.411999999999999
 20
185.494
 30
0.0
 11
48.408499999999989
 21
185.41399999999999
 31
0.0
  0
LINE
  5
9D
  8
0
 62
     7
 10
48.523299999999999
 20
184.86799999999999
 30
0.0
 11
48.523299999999999
 21
185.39400000000001
 31
0.0
  0
LINE
  5
9E
  8
0
 62
     7
 10
48.523299999999999
 20
185.39400000000001
 30
0.0
 11
48.38239999999999
 21
185.39400000000001
 31
0.0
  0
LINE
  5
9F
  8
0
 62
     7
 10
48.38239999999999
 20
185.39400000000001
 30
0.0
 11
48.38239999999999
 21
184.86799999999999
 31
0.0
  0
LINE
  5
A0
  8
0
 62
     7
 10
48.644199999999991
 20
185.41
 30
0.0
 11
48.644199999999991
 21
185.494
 31
0.0
  0
LINE
  5
A1
  8
0
 62
     7
 10
48.644199999999991
 20
184.821
 30
0.0
 11
48.644199999999991
 21
184.86199999999999
 31
0.0
  0
LINE
  5
A2
  8
0
 62
     7
 10
48.774399999999993
 20
184.86199999999999
 30
0.0
 11
48.774399999999993
 21
185.4129999999999
 31
0.0
  0
LINE
  5
A3
  8
0
 62
     7
 10
48.774399999999993
 20
185.4129999999999
 30
0.0
 11
48.8874
 21
185.494
 31
0.0
  0
LINE
  5
A4
  8
0
 62
     7
 10
48.644199999999991
 20
185.494
 30
0.0
 11
48.648699999999991
 21
185.4129999999999
 31
0.0
  0
LINE
  5
A5
  8
0
 62
     7
 10
48.774399999999993
 20
184.86799999999999
 30
0.0
 11
48.774399999999993
 21
185.39400000000001
 31
0.0
  0
LINE
  5
A6
  8
0
 62
     7
 10
48.774399999999993
 20
185.39400000000001
 30
0.0
 11
48.623899999999999
 21
185.39400000000001
 31
0.0
  0
LINE
  5
A7
  8
0
 62
     7
 10
48.623899999999999
 20
185.39400000000001
 30
0.0
 11
48.623899999999999
 21
184.86799999999999
 31
0.0
  0
LINE
  5
A8
  8
0
 62
     7
 10
48.892200000000003
 20
185.40199999999999
 30
0.0
 11
48.892200000000003
 21
185.494
 31
0.0
  0
LINE
  5
A9
  8
0
 62
     7
 10
48.892200000000003
 20
184.821
 30
0.0
 11
48.892200000000003
 21
184.86500000000001
 31
0.0
  0
LINE
  5
AA
  8
0
 62
     7
 10
49.039700000000011
 20
185.41200000000001
 30
0.0
 11
49.151299999999999
 21
185.494
 31
0.0
  0
LINE
  5
AB
  8
0
 62
     7
 10
48.892200000000003
 20
185.494
 30
0.0
 11
48.905999999999999
 21
185.4129999999999
 31
0.0
  0
LINE
  5
AC
  8
0
 62
     7
 10
49.0411
 20
184.86799999999999
 30
0.0
 11
49.0411
 21
185.39400000000001
 31
0.0
  0
LINE
  5
AD
  8
0
 62
     7
 10
49.0411
 20
185.39400000000001
 30
0.0
 11
48.881599999999999
 21
185.39400000000001
 31
0.0
  0
LINE
  5
AE
  8
0
 62
     7
 10
48.881599999999999
 20
185.39400000000001
 30
0.0
 11
48.881599999999999
 21
184.86799999999999
 31
0.0
  0
LINE
  5
AF
  8
0
 62
     7
 10
49.1554
 20
185.39400000000001
 30
0.0
 11
49.1554
 21
185.494
 31
0.0
  0
LINE
  5
B0
  8
0
 62
     7
 10
49.1554
 20
184.822
 30
0.0
 11
49.1554
 21
184.86799999999999
 31
0.0
  0
LINE
  5
B1
  8
0
 62
     7
 10
49.318100000000001
 20
185.41200000000001
 30
0.0
 11
49.42969999999999
 21
185.494
 31
0.0
  0
LINE
  5
B2
  8
0
 62
     7
 10
49.156100000000002
 20
185.494
 30
0.0
 11
49.177500000000002
 21
185.41200000000001
 31
0.0
  0
LINE
  5
B3
  8
0
 62
     7
 10
49.320799999999998
 20
184.86799999999999
 30
0.0
 11
49.320799999999998
 21
185.39400000000001
 31
0.0
  0
LINE
  5
B4
  8
0
 62
     7
 10
49.320799999999998
 20
185.39400000000001
 30
0.0
 11
49.1554
 21
185.39400000000001
 31
0.0
  0
LINE
  5
B5
  8
0
 62
     7
 10
49.1554
 20
185.39400000000001
 30
0.0
 11
49.1554
 21
184.86799999999999
 31
0.0
  0
LINE
  5
B6
  8
0
 62
     7
 10
49.432400000000001
 20
184.822
 30
0.0
 11
49.432400000000001
 21
185.494
 31
0.0
  0
LINE
  5
B7
  8
0
 62
     7
 10
49.6143
 20
184.86799999999999
 30
0.0
 11
49.6143
 21
185.39400000000001
 31
0.0
  0
LINE
  5
B8
  8
0
 62
     7
 10
49.441400000000002
 20
185.39400000000001
 30
0.0
 11
49.441400000000002
 21
184.86799999999999
 31
0.0
  0
LINE
  5
B9
  8
0
 62
     7
 10
49.609200000000001
 20
185.411
 30
0.0
 11
49.718400000000003
 21
185.494
 31
0.0
  0
LINE
  5
BA
  8
0
 62
     7
 10
49.4328
 20
185.494
 30
0.0
 11
49.462800000000001
 21
185.41200000000001
 31
0.0
  0
LINE
  5
BB
  8
0
 62
     7
 10
49.6143
 20
185.39400000000001
 30
0.0
 11
49.441400000000002
 21
185.39400000000001
 31
0.0
  0
LINE
  5
BC
  8
0
 62
     7
 10
49.720799999999997
 20
184.822
 30
0.0
 11
49.720799999999997
 21
185.494
 31
0.0
  0
LINE
  5
BD
  8
0
 62
     7
 10
49.91749999999999
 20
184.86799999999999
 30
0.0
 11
49.91749999999999
 21
185.39400000000001
 31
0.0
  0
LINE
  5
BE
  8
0
 62
     7
 10
49.739699999999999
 20
185.39400000000001
 30
0.0
 11
49.739699999999999
 21
184.86799999999999
 31
0.0
  0
LINE
  5
BF
  8
0
 62
     7
 10
49.911999999999999
 20
185.411
 30
0.0
 11
50.019500000000001
 21
185.494
 31
0.0
  0
LINE
  5
C0
  8
0
 62
     7
 10
49.7211
 20
185.494
 30
0.0
 11
49.759700000000002
 21
185.411
 31
0.0
  0
LINE
  5
C1
  8
0
 62
     7
 10
49.91749999999999
 20
185.39400000000001
 30
0.0
 11
49.739699999999999
 21
185.39400000000001
 31
0.0
  0
LINE
  5
C2
  8
0
 62
     7
 10
50.019500000000001
 20
184.82300000000001
 30
0.0
 11
50.019500000000001
 21
185.494
 31
0.0
  0
LINE
  5
C3
  8
0
 62
     7
 10
50.2303
 20
184.86799999999999
 30
0.0
 11
50.2303
 21
185.39400000000001
 31
0.0
  0
LINE
  5
C4
  8
0
 62
     7
 10
50.049100000000003
 20
185.39400000000001
 30
0.0
 11
50.049100000000003
 21
184.86799999999999
 31
0.0
  0
LINE
  5
C5
  8
0
 62
     7
 10
50.328200000000002
 20
184.82300000000001
 30
0.0
 11
50.328200000000002
 21
185.494
 31
0.0
  0
LINE
  5
C6
  8
0
 62
     7
 10
50.550699999999999
 20
184.86799999999999
 30
0.0
 11
50.550699999999999
 21
185.39400000000001
 31
0.0
  0
LINE
  5
C7
  8
0
 62
     7
 10
50.366799999999998
 20
185.39400000000001
 30
0.0
 11
50.366799999999998
 21
184.86799999999999
 31
0.0
  0
LINE
  5
C8
  8
0
 62
     7
 10
50.64309999999999
 20
184.82499999999999
 30
0.0
 11
50.64309999999999
 21
185.49299999999999
 31
0.0
  0
LINE
  5
C9
  8
0
 62
     7
 10
50.876600000000003
 20
184.86799999999999
 30
0.0
 11
50.876600000000003
 21
185.39400000000001
 31
0.0
  0
LINE
  5
CA
  8
0
 62
     7
 10
50.691299999999998
 20
185.39400000000001
 30
0.0
 11
50.691299999999998
 21
184.86799999999999
 31
0.0
  0
LINE
  5
CB
  8
0
 62
     7
 10
50.9634
 20
184.82499999999999
 30
0.0
 11
50.9634
 21
185.49299999999999
 31
0.0
  0
LINE
  5
CC
  8
0
 62
     7
 10
51.287999999999997
 20
184.82599999999999
 30
0.0
 11
51.287999999999997
 21
185.49100000000001
 31
0.0
  0
LINE
  5
CD
  8
0
 62
     7
 10
51.2074
 20
184.86799999999999
 30
0.0
 11
51.2074
 21
185.39400000000001
 31
0.0
  0
LINE
  5
CE
  8
0
 62
     7
 10
51.020600000000002
 20
185.39400000000001
 30
0.0
 11
51.020600000000002
 21
184.86799999999999
 31
0.0
  0
LINE
  5
CF
  8
0
 62
     7
 10
51.624400000000001
 20
185.03399999999999
 30
0.0
 11
51.624400000000001
 21
185.49000000000001
 31
0.0
  0
LINE
  5
D0
  8
0
 62
     7
 10
51.539099999999991
 20
184.86799999999999
 30
0.0
 11
51.539099999999991
 21
185.39400000000001
 31
0.0
  0
LINE
  5
D1
  8
0
 62
     7
 10
51.353400000000001
 20
185.39400000000001
 30
0.0
 11
51.353400000000001
 21
184.86799999999999
 31
0.0
  0
LINE
  5
D2
  8
0
 62
     7
 10
50.020200000000003
 20
185.494
 30
0.0
 11
50.067700000000002
 21
185.41
 31
0.0
  0
LINE
  5
D3
  8
0
 62
     7
 10
50.2303
 20
185.39400000000001
 30
0.0
 11
50.049100000000003
 21
185.39400000000001
 31
0.0
  0
LINE
  5
D4
  8
0
 62
     7
 10
50.223399999999991
 20
185.41
 30
0.0
 11
50.328200000000002
 21
185.494
 31
0.0
  0
LINE
  5
D5
  8
0
 62
     7
 10
50.328200000000002
 20
185.494
 30
0.0
 11
50.383299999999998
 21
185.40899999999999
 31
0.0
  0
LINE
  5
D6
  8
0
 62
     7
 10
50.550699999999999
 20
185.39400000000001
 30
0.0
 11
50.366799999999998
 21
185.39400000000001
 31
0.0
  0
LINE
  5
D7
  8
0
 62
     7
 10
50.543100000000003
 20
185.40899999999999
 30
0.0
 11
50.64309999999999
 21
185.49299999999999
 31
0.0
  0
LINE
  5
D8
  8
0
 62
     7
 10
50.64309999999999
 20
185.49299999999999
 30
0.0
 11
50.705800000000004
 21
185.40899999999999
 31
0.0
  0
LINE
  5
D9
  8
0
 62
     7
 10
50.876600000000003
 20
185.39400000000001
 30
0.0
 11
50.691299999999998
 21
185.39400000000001
 31
0.0
  0
LINE
  5
DA
  8
0
 62
     7
 10
50.868400000000001
 20
185.40700000000001
 30
0.0
 11
50.9634
 21
185.49299999999999
 31
0.0
  0
LINE
  5
DB
  8
0
 62
     7
 10
50.9634
 20
185.49299999999999
 30
0.0
 11
51.033000000000001
 21
185.40700000000001
 31
0.0
  0
LINE
  5
DC
  8
0
 62
     7
 10
51.2074
 20
185.39400000000001
 30
0.0
 11
51.020600000000002
 21
185.39400000000001
 31
0.0
  0
LINE
  5
DD
  8
0
 62
     7
 10
51.198099999999997
 20
185.40700000000001
 30
0.0
 11
51.287999999999997
 21
185.49100000000001
 31
0.0
  0
LINE
  5
DE
  8
0
 62
     7
 10
51.619700000000002
 20
185.49100000000001
 30
0.0
 11
51.696199999999997
 21
185.40600000000001
 31
0.0
  0
LINE
  5
DF
  8
0
 62
     7
 10
51.287999999999997
 20
185.49100000000001
 30
0.0
 11
51.364499999999992
 21
185.40600000000001
 31
0.0
  0
LINE
  5
E0
  8
0
 62
     7
 10
51.539099999999991
 20
185.39400000000001
 30
0.0
 11
51.353400000000001
 21
185.39400000000001
 31
0.0
  0
LINE
  5
E1
  8
0
 62
     7
 10
51.529499999999999
 20
185.40600000000001
 30
0.0
 11
51.613500000000002
 21
185.49000000000001
 31
0.0
  0
LINE
  5
E2
  8
0
 62
     7
 10
51.353400000000001
 20
184.86799999999999
 30
0.0
 11
51.539099999999991
 21
184.86799999999999
 31
0.0
  0
LINE
  5
E3
  8
0
 62
     7
 10
51.696199999999997
 20
184.863
 30
0.0
 11
51.619700000000002
 21
184.82599999999999
 31
0.0
  0
LINE
  5
E4
  8
0
 62
     7
 10
51.619700000000002
 20
184.82599999999999
 30
0.0
 11
51.529800000000002
 21
184.863
 31
0.0
  0
LINE
  5
E5
  8
0
 62
     7
 10
51.364499999999992
 20
184.863
 30
0.0
 11
51.287999999999997
 21
184.82599999999999
 31
0.0
  0
LINE
  5
E6
  8
0
 62
     7
 10
51.287999999999997
 20
184.82599999999999
 30
0.0
 11
51.198099999999997
 21
184.863
 31
0.0
  0
LINE
  5
E7
  8
0
 62
     7
 10
51.020600000000002
 20
184.86799999999999
 30
0.0
 11
51.2074
 21
184.86799999999999
 31
0.0
  0
LINE
  5
E8
  8
0
 62
     7
 10
51.033000000000001
 20
184.863
 30
0.0
 11
50.9634
 21
184.82499999999999
 31
0.0
  0
LINE
  5
E9
  8
0
 62
     7
 10
50.9634
 20
184.82499999999999
 30
0.0
 11
50.868400000000001
 21
184.863
 31
0.0
  0
LINE
  5
EA
  8
0
 62
     7
 10
50.691299999999998
 20
184.86799999999999
 30
0.0
 11
50.876600000000003
 21
184.86799999999999
 31
0.0
  0
LINE
  5
EB
  8
0
 62
     7
 10
50.705800000000004
 20
184.863
 30
0.0
 11
50.64309999999999
 21
184.82499999999999
 31
0.0
  0
LINE
  5
EC
  8
0
 62
     7
 10
50.64309999999999
 20
184.82499999999999
 30
0.0
 11
50.543100000000003
 21
184.863
 31
0.0
  0
LINE
  5
ED
  8
0
 62
     7
 10
50.366799999999998
 20
184.86799999999999
 30
0.0
 11
50.550699999999999
 21
184.86799999999999
 31
0.0
  0
LINE
  5
EE
  8
0
 62
     7
 10
50.383299999999998
 20
184.863
 30
0.0
 11
50.328200000000002
 21
184.82300000000001
 31
0.0
  0
LINE
  5
EF
  8
0
 62
     7
 10
50.328200000000002
 20
184.82300000000001
 30
0.0
 11
50.223399999999991
 21
184.863
 31
0.0
  0
LINE
  5
F0
  8
0
 62
     7
 10
50.049100000000003
 20
184.86799999999999
 30
0.0
 11
50.2303
 21
184.86799999999999
 31
0.0
  0
LINE
  5
F1
  8
0
 62
     7
 10
50.067700000000002
 20
184.86199999999999
 30
0.0
 11
50.019500000000001
 21
184.82300000000001
 31
0.0
  0
LINE
  5
F2
  8
0
 62
     7
 10
50.019500000000001
 20
184.82300000000001
 30
0.0
 11
49.911999999999999
 21
184.86199999999999
 31
0.0
  0
LINE
  5
F3
  8
0
 62
     7
 10
49.739699999999999
 20
184.86799999999999
 30
0.0
 11
49.91749999999999
 21
184.86799999999999
 31
0.0
  0
LINE
  5
F4
  8
0
 62
     7
 10
49.759700000000002
 20
184.86199999999999
 30
0.0
 11
49.720799999999997
 21
184.822
 31
0.0
  0
LINE
  5
F5
  8
0
 62
     7
 10
49.720799999999997
 20
184.822
 30
0.0
 11
49.609200000000001
 21
184.86199999999999
 31
0.0
  0
LINE
  5
F6
  8
0
 62
     7
 10
49.441400000000002
 20
184.86799999999999
 30
0.0
 11
49.6143
 21
184.86799999999999
 31
0.0
  0
LINE
  5
F7
  8
0
 62
     7
 10
49.462800000000001
 20
184.86199999999999
 30
0.0
 11
49.432400000000001
 21
184.822
 31
0.0
  0
LINE
  5
F8
  8
0
 62
     7
 10
49.432400000000001
 20
184.822
 30
0.0
 11
49.318100000000001
 21
184.86199999999999
 31
0.0
  0
LINE
  5
F9
  8
0
 62
     7
 10
49.1554
 20
184.86799999999999
 30
0.0
 11
49.320799999999998
 21
184.86799999999999
 31
0.0
  0
LINE
  5
FA
  8
0
 62
     7
 10
49.177500000000002
 20
184.86199999999999
 30
0.0
 11
49.1554
 21
184.822
 31
0.0
  0
LINE
  5
FB
  8
0
 62
     7
 10
49.1554
 20
184.822
 30
0.0
 11
49.039700000000011
 21
184.86199999999999
 31
0.0
  0
LINE
  5
FC
  8
0
 62
     7
 10
48.881599999999999
 20
184.86799999999999
 30
0.0
 11
49.0411
 21
184.86799999999999
 31
0.0
  0
LINE
  5
FD
  8
0
 62
     7
 10
48.905999999999999
 20
184.86199999999999
 30
0.0
 11
48.892200000000003
 21
184.821
 31
0.0
  0
LINE
  5
FE
  8
0
 62
     7
 10
48.892200000000003
 20
184.821
 30
0.0
 11
48.774399999999993
 21
184.86199999999999
 31
0.0
  0
LINE
  5
FF
  8
0
 62
     7
 10
48.623899999999999
 20
184.86799999999999
 30
0.0
 11
48.774399999999993
 21
184.86799999999999
 31
0.0
  0
LINE
  5
100
  8
0
 62
     7
 10
48.648699999999991
 20
184.86099999999999
 30
0.0
 11
48.644199999999991
 21
184.821
 31
0.0
  0
LINE
  5
101
  8
0
 62
     7
 10
48.644199999999991
 20
184.821
 30
0.0
 11
48.526400000000002
 21
184.86099999999999
 31
0.0
  0
LINE
  5
102
  8
0
 62
     7
 10
48.38239999999999
 20
184.86799999999999
 30
0.0
 11
48.523299999999999
 21
184.86799999999999
 31
0.0
  0
LINE
  5
103
  8
0
 62
     7
 10
48.408499999999989
 20
184.86099999999999
 30
0.0
 11
48.412700000000001
 21
184.81999999999999
 31
0.0
  0
LINE
  5
104
  8
0
 62
     7
 10
48.412700000000001
 20
184.81999999999999
 30
0.0
 11
48.294199999999989
 21
184.86099999999999
 31
0.0
  0
LINE
  5
105
  8
0
 62
     7
 10
48.1584
 20
184.86799999999999
 30
0.0
 11
48.289999999999999
 21
184.86799999999999
 31
0.0
  0
LINE
  5
106
  8
0
 62
     7
 10
48.185299999999991
 20
184.86099999999999
 30
0.0
 11
48.198099999999997
 21
184.81999999999999
 31
0.0
  0
LINE
  5
107
  8
0
 62
     7
 10
48.198099999999997
 20
184.81999999999999
 30
0.0
 11
48.080599999999997
 21
184.86099999999999
 31
0.0
  0
LINE
  5
108
  8
0
 62
     7
 10
47.953800000000001
 20
184.86799999999999
 30
0.0
 11
48.07439999999999
 21
184.86799999999999
 31
0.0
  0
LINE
  5
109
  8
0
 62
     7
 10
47.981400000000001
 20
184.86099999999999
 30
0.0
 11
48.003399999999999
 21
184.81999999999999
 31
0.0
  0
LINE
  5
10A
  8
0
 62
     7
 10
48.003399999999999
 20
184.81999999999999
 30
0.0
 11
47.886299999999999
 21
184.86099999999999
 31
0.0
  0
LINE
  5
10B
  8
0
 62
     7
 10
47.769799999999996
 20
184.86799999999999
 30
0.0
 11
47.877999999999993
 21
184.86799999999999
 31
0.0
  0
LINE
  5
10C
  8
0
 62
     7
 10
47.797400000000003
 20
184.86099999999999
 30
0.0
 11
47.826999999999998
 21
184.81999999999999
 31
0.0
  0
LINE
  5
10D
  8
0
 62
     7
 10
47.826999999999998
 20
184.81999999999999
 30
0.0
 11
47.712600000000002
 21
184.86099999999999
 31
0.0
  0
LINE
  5
10E
  8
0
 62
     7
 10
47.605800000000002
 20
184.86799999999999
 30
0.0
 11
47.701999999999991
 21
184.86799999999999
 31
0.0
  0
LINE
  5
10F
  8
0
 62
     7
 10
47.634799999999998
 20
184.86099999999999
 30
0.0
 11
47.672699999999992
 21
184.81899999999999
 31
0.0
  0
LINE
  5
110
  8
0
 62
     7
 10
47.672699999999992
 20
184.81899999999999
 30
0.0
 11
47.560400000000001
 21
184.86099999999999
 31
0.0
  0
LINE
  5
111
  8
0
 62
     7
 10
47.4649
 20
184.86799999999999
 30
0.0
 11
47.548000000000002
 21
184.86799999999999
 31
0.0
  0
LINE
  5
112
  8
0
 62
     7
 10
47.49349999999999
 20
184.86099999999999
 30
0.0
 11
47.538999999999987
 21
184.81899999999999
 31
0.0
  0
LINE
  5
113
  8
0
 62
     7
 10
47.538999999999987
 20
184.81899999999999
 30
0.0
 11
47.430500000000002
 21
184.86099999999999
 31
0.0
  0
LINE
  5
114
  8
0
 62
     7
 10
47.346799999999988
 20
184.86799999999999
 30
0.0
 11
47.415700000000001
 21
184.86799999999999
 31
0.0
  0
LINE
  5
115
  8
0
 62
     7
 10
47.374299999999991
 20
184.86099999999999
 30
0.0
 11
47.428800000000003
 21
184.81899999999999
 31
0.0
  0
LINE
  5
116
  8
0
 62
     7
 10
47.428800000000003
 20
184.81899999999999
 30
0.0
 11
47.323999999999998
 21
184.86099999999999
 31
0.0
  0
LINE
  5
117
  8
0
 62
     7
 10
47.2517
 20
184.86799999999999
 30
0.0
 11
47.306800000000003
 21
184.86799999999999
 31
0.0
  0
LINE
  5
118
  8
0
 62
     7
 10
47.2789
 20
184.86099999999999
 30
0.0
 11
47.340899999999998
 21
184.81899999999999
 31
0.0
  0
LINE
  5
119
  8
0
 62
     7
 10
47.340899999999998
 20
184.81899999999999
 30
0.0
 11
47.240299999999991
 21
184.86099999999999
 31
0.0
  0
LINE
  5
11A
  8
0
 62
     7
 10
47.181100000000001
 20
184.86799999999999
 30
0.0
 11
47.221400000000003
 21
184.86799999999999
 31
0.0
  0
LINE
  5
11B
  8
0
 62
     7
 10
47.207599999999999
 20
184.86099999999999
 30
0.0
 11
47.277200000000001
 21
184.81899999999999
 31
0.0
  0
LINE
  5
11C
  8
0
 62
     7
 10
47.277200000000001
 20
184.81899999999999
 30
0.0
 11
47.180699999999987
 21
184.86099999999999
 31
0.0
  0
LINE
  5
11D
  8
0
 62
     7
 10
47.211699999999993
 20
185.494
 30
0.0
 11
47.159999999999997
 21
185.44200000000001
 31
0.0
  0
LINE
  5
11E
  8
0
 62
     7
 10
51.635199999999998
 20
185.494
 30
0.0
 11
56.137
 21
185.494
 31
0.0
  0
LINE
  5
11F
  8
0
 62
     7
 10
56.137
 20
184.86799999999999
 30
0.0
 11
56.137
 21
185.39400000000001
 31
0.0
  0
LINE
  5
120
  8
0
 62
     7
 10
56.125300000000003
 20
184.86799999999999
 30
0.0
 11
56.125300000000003
 21
185.39400000000001
 31
0.0
  0
LINE
  5
121
  8
0
 62
     7
 10
56.13559999999999
 20
185.39400000000001
 30
0.0
 11
56.13559999999999
 21
184.86799999999999
 31
0.0
  0
LINE
  5
122
  8
0
 62
     7
 10
56.0364
 20
185.494
 30
0.0
 11
56.111499999999999
 21
185.417
 31
0.0
  0
LINE
  5
123
  8
0
 62
     7
 10
56.103200000000001
 20
185.417
 30
0.0
 11
56.0212
 21
185.494
 31
0.0
  0
LINE
  5
124
  8
0
 62
     7
 10
56.0884
 20
184.86799999999999
 30
0.0
 11
56.0884
 21
185.39400000000001
 31
0.0
  0
LINE
  5
125
  8
0
 62
     7
 10
56.11419999999999
 20
185.39400000000001
 30
0.0
 11
56.11419999999999
 21
184.86799999999999
 31
0.0
  0
LINE
  5
126
  8
0
 62
     7
 10
56.019500000000001
 20
185.494
 30
0.0
 11
56.0884
 21
185.417
 31
0.0
  0
LINE
  5
127
  8
0
 62
     7
 10
56.068100000000001
 20
185.417
 30
0.0
 11
55.980899999999998
 21
185.494
 31
0.0
  0
LINE
  5
128
  8
0
 62
     7
 10
56.068100000000001
 20
184.86099999999999
 30
0.0
 11
56.068100000000001
 21
185.417
 31
0.0
  0
LINE
  5
129
  8
0
 62
     7
 10
56.0274
 20
184.86799999999999
 30
0.0
 11
56.0274
 21
185.39400000000001
 31
0.0
  0
LINE
  5
12A
  8
0
 62
     7
 10
56.067700000000002
 20
185.39400000000001
 30
0.0
 11
56.067700000000002
 21
184.86799999999999
 31
0.0
  0
LINE
  5
12B
  8
0
 62
     7
 10
55.977800000000002
 20
185.494
 30
0.0
 11
56.041200000000003
 21
185.417
 31
0.0
  0
LINE
  5
12C
  8
0
 62
     7
 10
56.0274
 20
185.39400000000001
 30
0.0
 11
56.067700000000002
 21
185.39400000000001
 31
0.0
  0
LINE
  5
12D
  8
0
 62
     7
 10
56.008499999999998
 20
185.417
 30
0.0
 11
55.917200000000001
 21
185.494
 31
0.0
  0
LINE
  5
12E
  8
0
 62
     7
 10
56.008499999999998
 20
184.86099999999999
 30
0.0
 11
56.008499999999998
 21
185.417
 31
0.0
  0
LINE
  5
12F
  8
0
 62
     7
 10
55.942
 20
184.86799999999999
 30
0.0
 11
55.942
 21
185.39400000000001
 31
0.0
  0
LINE
  5
130
  8
0
 62
     7
 10
55.997100000000003
 20
185.39400000000001
 30
0.0
 11
55.997100000000003
 21
184.86799999999999
 31
0.0
  0
LINE
  5
131
  8
0
 62
     7
 10
55.912999999999997
 20
185.494
 30
0.0
 11
55.969900000000003
 21
185.417
 31
0.0
  0
LINE
  5
132
  8
0
 62
     7
 10
55.942
 20
185.39400000000001
 30
0.0
 11
55.997100000000003
 21
185.39400000000001
 31
0.0
  0
LINE
  5
133
  8
0
 62
     7
 10
55.924799999999998
 20
185.417
 30
0.0
 11
55.828999999999994
 21
185.494
 31
0.0
  0
LINE
  5
134
  8
0
 62
     7
 10
55.924799999999998
 20
184.86099999999999
 30
0.0
 11
55.924799999999998
 21
185.417
 31
0.0
  0
LINE
  5
135
  8
0
 62
     7
 10
55.833100000000002
 20
184.86799999999999
 30
0.0
 11
55.833100000000002
 21
185.39400000000001
 31
0.0
  0
LINE
  5
136
  8
0
 62
     7
 10
55.902000000000001
 20
185.39400000000001
 30
0.0
 11
55.902000000000001
 21
184.86799999999999
 31
0.0
  0
LINE
  5
137
  8
0
 62
     7
 10
55.825200000000002
 20
185.494
 30
0.0
 11
55.874499999999998
 21
185.417
 31
0.0
  0
LINE
  5
138
  8
0
 62
     7
 10
55.833100000000002
 20
185.39400000000001
 30
0.0
 11
55.902000000000001
 21
185.39400000000001
 31
0.0
  0
LINE
  5
139
  8
0
 62
     7
 10
55.818300000000001
 20
185.417
 30
0.0
 11
55.7181
 21
185.494
 31
0.0
  0
LINE
  5
13A
  8
0
 62
     7
 10
55.818300000000001
 20
184.86099999999999
 30
0.0
 11
55.818300000000001
 21
185.417
 31
0.0
  0
LINE
  5
13B
  8
0
 62
     7
 10
55.700800000000001
 20
184.86799999999999
 30
0.0
 11
55.700800000000001
 21
185.39400000000001
 31
0.0
  0
LINE
  5
13C
  8
0
 62
     7
 10
55.783900000000003
 20
185.39400000000001
 30
0.0
 11
55.783900000000003
 21
184.86799999999999
 31
0.0
  0
LINE
  5
13D
  8
0
 62
     7
 10
55.688400000000001
 20
184.86099999999999
 30
0.0
 11
55.688400000000001
 21
185.417
 31
0.0
  0
LINE
  5
13E
  8
0
 62
     7
 10
55.688400000000001
 20
185.417
 30
0.0
 11
55.5854
 21
185.494
 31
0.0
  0
LINE
  5
13F
  8
0
 62
     7
 10
55.713200000000001
 20
185.494
 30
0.0
 11
55.755299999999998
 21
185.417
 31
0.0
  0
LINE
  5
140
  8
0
 62
     7
 10
55.700800000000001
 20
185.39400000000001
 30
0.0
 11
55.783900000000003
 21
185.39400000000001
 31
0.0
  0
LINE
  5
141
  8
0
 62
     7
 10
55.546799999999998
 20
184.86799999999999
 30
0.0
 11
55.546799999999998
 21
185.39400000000001
 31
0.0
  0
LINE
  5
142
  8
0
 62
     7
 10
55.643000000000001
 20
185.39400000000001
 30
0.0
 11
55.643000000000001
 21
184.86799999999999
 31
0.0
  0
LINE
  5
143
  8
0
 62
     7
 10
55.536200000000001
 20
184.86099999999999
 30
0.0
 11
55.536200000000001
 21
185.416
 31
0.0
  0
LINE
  5
144
  8
0
 62
     7
 10
55.536200000000001
 20
185.416
 30
0.0
 11
55.43
 21
185.494
 31
0.0
  0
LINE
  5
145
  8
0
 62
     7
 10
55.578899999999997
 20
185.494
 30
0.0
 11
55.61399999999999
 21
185.417
 31
0.0
  0
LINE
  5
146
  8
0
 62
     7
 10
55.546799999999998
 20
185.39400000000001
 30
0.0
 11
55.643000000000001
 21
185.39400000000001
 31
0.0
  0
LINE
  5
147
  8
0
 62
     7
 10
55.36249999999999
 20
184.86099999999999
 30
0.0
 11
55.36249999999999
 21
185.416
 31
0.0
  0
LINE
  5
148
  8
0
 62
     7
 10
55.36249999999999
 20
185.416
 30
0.0
 11
55.254300000000001
 21
185.494
 31
0.0
  0
LINE
  5
149
  8
0
 62
     7
 10
55.4238
 20
185.494
 30
0.0
 11
55.451399999999992
 21
185.416
 31
0.0
  0
LINE
  5
14A
  8
0
 62
     7
 10
55.370800000000003
 20
184.86799999999999
 30
0.0
 11
55.370800000000003
 21
185.39400000000001
 31
0.0
  0
LINE
  5
14B
  8
0
 62
     7
 10
55.370800000000003
 20
185.39400000000001
 30
0.0
 11
55.478999999999999
 21
185.39400000000001
 31
0.0
  0
LINE
  5
14C
  8
0
 62
     7
 10
55.478999999999999
 20
185.39400000000001
 30
0.0
 11
55.478999999999999
 21
184.86799999999999
 31
0.0
  0
LINE
  5
14D
  8
0
 62
     7
 10
55.174399999999999
 20
184.86799999999999
 30
0.0
 11
55.174399999999999
 21
185.39400000000001
 31
0.0
  0
LINE
  5
14E
  8
0
 62
     7
 10
55.295000000000002
 20
185.39400000000001
 30
0.0
 11
55.295000000000002
 21
184.86799999999999
 31
0.0
  0
LINE
  5
14F
  8
0
 62
     7
 10
55.247500000000002
 20
185.494
 30
0.0
 11
55.267400000000002
 21
185.416
 31
0.0
  0
LINE
  5
150
  8
0
 62
     7
 10
55.174399999999999
 20
185.39400000000001
 30
0.0
 11
55.295000000000002
 21
185.39400000000001
 31
0.0
  0
LINE
  5
151
  8
0
 62
     7
 10
55.168199999999999
 20
185.416
 30
0.0
 11
55.058
 21
185.494
 31
0.0
  0
LINE
  5
152
  8
0
 62
     7
 10
55.168199999999999
 20
184.86099999999999
 30
0.0
 11
55.168199999999999
 21
185.416
 31
0.0
  0
LINE
  5
153
  8
0
 62
     7
 10
54.954599999999999
 20
184.86099999999999
 30
0.0
 11
54.954599999999999
 21
185.41399999999999
 31
0.0
  0
LINE
  5
154
  8
0
 62
     7
 10
54.954599999999999
 20
185.41399999999999
 30
0.0
 11
54.843000000000011
 21
185.494
 31
0.0
  0
LINE
  5
155
  8
0
 62
     7
 10
55.051099999999998
 20
185.494
 30
0.0
 11
55.063499999999998
 21
185.41399999999999
 31
0.0
  0
LINE
  5
156
  8
0
 62
     7
 10
54.9587
 20
184.86799999999999
 30
0.0
 11
54.9587
 21
185.39400000000001
 31
0.0
  0
LINE
  5
157
  8
0
 62
     7
 10
54.9587
 20
185.39400000000001
 30
0.0
 11
55.090400000000002
 21
185.39400000000001
 31
0.0
  0
LINE
  5
158
  8
0
 62
     7
 10
55.090400000000002
 20
185.39400000000001
 30
0.0
 11
55.090400000000002
 21
184.86799999999999
 31
0.0
  0
LINE
  5
159
  8
0
 62
     7
 10
54.7224
 20
184.86099999999999
 30
0.0
 11
54.7224
 21
185.41399999999999
 31
0.0
  0
LINE
  5
15A
  8
0
 62
     7
 10
54.7224
 20
185.41399999999999
 30
0.0
 11
54.6111
 21
185.494
 31
0.0
  0
LINE
  5
15B
  8
0
 62
     7
 10
54.83679999999999
 20
185.494
 30
0.0
 11
54.84020000000001
 21
185.41399999999999
 31
0.0
  0
LINE
  5
15C
  8
0
 62
     7
 10
54.725499999999997
 20
184.86799999999999
 30
0.0
 11
54.725499999999997
 21
185.39400000000001
 31
0.0
  0
LINE
  5
15D
  8
0
 62
     7
 10
54.725499999999997
 20
185.39400000000001
 30
0.0
 11
54.866399999999999
 21
185.39400000000001
 31
0.0
  0
LINE
  5
15E
  8
0
 62
     7
 10
54.866399999999999
 20
185.39400000000001
 30
0.0
 11
54.866399999999999
 21
184.86799999999999
 31
0.0
  0
LINE
  5
15F
  8
0
 62
     7
 10
54.604599999999998
 20
185.41
 30
0.0
 11
54.604599999999998
 21
185.494
 31
0.0
  0
LINE
  5
160
  8
0
 62
     7
 10
54.604599999999998
 20
184.821
 30
0.0
 11
54.604599999999998
 21
184.86199999999999
 31
0.0
  0
LINE
  5
161
  8
0
 62
     7
 10
54.474400000000003
 20
184.86199999999999
 30
0.0
 11
54.474400000000003
 21
185.4129999999999
 31
0.0
  0
LINE
  5
162
  8
0
 62
     7
 10
54.474400000000003
 20
185.4129999999999
 30
0.0
 11
54.361400000000003
 21
185.494
 31
0.0
  0
LINE
  5
163
  8
0
 62
     7
 10
54.604599999999998
 20
185.494
 30
0.0
 11
54.600099999999998
 21
185.4129999999999
 31
0.0
  0
LINE
  5
164
  8
0
 62
     7
 10
54.474400000000003
 20
184.86799999999999
 30
0.0
 11
54.474400000000003
 21
185.39400000000001
 31
0.0
  0
LINE
  5
165
  8
0
 62
     7
 10
54.474400000000003
 20
185.39400000000001
 30
0.0
 11
54.62489999999999
 21
185.39400000000001
 31
0.0
  0
LINE
  5
166
  8
0
 62
     7
 10
54.62489999999999
 20
185.39400000000001
 30
0.0
 11
54.62489999999999
 21
184.86799999999999
 31
0.0
  0
LINE
  5
167
  8
0
 62
     7
 10
54.35649999999999
 20
185.40199999999999
 30
0.0
 11
54.35649999999999
 21
185.494
 31
0.0
  0
LINE
  5
168
  8
0
 62
     7
 10
54.35649999999999
 20
184.821
 30
0.0
 11
54.35649999999999
 21
184.86500000000001
 31
0.0
  0
LINE
  5
169
  8
0
 62
     7
 10
54.209099999999999
 20
185.41200000000001
 30
0.0
 11
54.097499999999989
 21
185.494
 31
0.0
  0
LINE
  5
16A
  8
0
 62
     7
 10
54.35649999999999
 20
185.494
 30
0.0
 11
54.342799999999997
 21
185.4129999999999
 31
0.0
  0
LINE
  5
16B
  8
0
 62
     7
 10
54.207700000000003
 20
184.86799999999999
 30
0.0
 11
54.207700000000003
 21
185.39400000000001
 31
0.0
  0
LINE
  5
16C
  8
0
 62
     7
 10
54.207700000000003
 20
185.39400000000001
 30
0.0
 11
54.367199999999997
 21
185.39400000000001
 31
0.0
  0
LINE
  5
16D
  8
0
 62
     7
 10
54.367199999999997
 20
185.39400000000001
 30
0.0
 11
54.367199999999997
 21
184.86799999999999
 31
0.0
  0
LINE
  5
16E
  8
0
 62
     7
 10
54.093299999999999
 20
185.39400000000001
 30
0.0
 11
54.093299999999999
 21
185.494
 31
0.0
  0
LINE
  5
16F
  8
0
 62
     7
 10
54.093299999999999
 20
184.822
 30
0.0
 11
54.093299999999999
 21
184.86799999999999
 31
0.0
  0
LINE
  5
170
  8
0
 62
     7
 10
53.930700000000002
 20
185.41200000000001
 30
0.0
 11
53.819099999999999
 21
185.494
 31
0.0
  0
LINE
  5
171
  8
0
 62
     7
 10
54.09259999999999
 20
185.494
 30
0.0
 11
54.071300000000001
 21
185.41200000000001
 31
0.0
  0
LINE
  5
172
  8
0
 62
     7
 10
53.928000000000011
 20
184.86799999999999
 30
0.0
 11
53.928000000000011
 21
185.39400000000001
 31
0.0
  0
LINE
  5
173
  8
0
 62
     7
 10
53.928000000000011
 20
185.39400000000001
 30
0.0
 11
54.093299999999999
 21
185.39400000000001
 31
0.0
  0
LINE
  5
174
  8
0
 62
     7
 10
54.093299999999999
 20
185.39400000000001
 30
0.0
 11
54.093299999999999
 21
184.86799999999999
 31
0.0
  0
LINE
  5
175
  8
0
 62
     7
 10
53.816299999999998
 20
184.822
 30
0.0
 11
53.816299999999998
 21
185.494
 31
0.0
  0
LINE
  5
176
  8
0
 62
     7
 10
53.634399999999999
 20
184.86799999999999
 30
0.0
 11
53.634399999999999
 21
185.39400000000001
 31
0.0
  0
LINE
  5
177
  8
0
 62
     7
 10
53.807400000000001
 20
185.39400000000001
 30
0.0
 11
53.807400000000001
 21
184.86799999999999
 31
0.0
  0
LINE
  5
178
  8
0
 62
     7
 10
53.639600000000002
 20
185.411
 30
0.0
 11
53.5304
 21
185.494
 31
0.0
  0
LINE
  5
179
  8
0
 62
     7
 10
53.816000000000003
 20
185.494
 30
0.0
 11
53.786000000000001
 21
185.41200000000001
 31
0.0
  0
LINE
  5
17A
  8
0
 62
     7
 10
53.634399999999999
 20
185.39400000000001
 30
0.0
 11
53.807400000000001
 21
185.39400000000001
 31
0.0
  0
LINE
  5
17B
  8
0
 62
     7
 10
53.527999999999999
 20
184.822
 30
0.0
 11
53.527999999999999
 21
185.494
 31
0.0
  0
LINE
  5
17C
  8
0
 62
     7
 10
53.331299999999999
 20
184.86799999999999
 30
0.0
 11
53.331299999999999
 21
185.39400000000001
 31
0.0
  0
LINE
  5
17D
  8
0
 62
     7
 10
53.508999999999993
 20
185.39400000000001
 30
0.0
 11
53.508999999999993
 21
184.86799999999999
 31
0.0
  0
LINE
  5
17E
  8
0
 62
     7
 10
53.336799999999997
 20
185.411
 30
0.0
 11
53.229300000000002
 21
185.494
 31
0.0
  0
LINE
  5
17F
  8
0
 62
     7
 10
53.527599999999993
 20
185.494
 30
0.0
 11
53.489100000000001
 21
185.411
 31
0.0
  0
LINE
  5
180
  8
0
 62
     7
 10
53.331299999999999
 20
185.39400000000001
 30
0.0
 11
53.508999999999993
 21
185.39400000000001
 31
0.0
  0
LINE
  5
181
  8
0
 62
     7
 10
53.229300000000002
 20
184.82300000000001
 30
0.0
 11
53.229300000000002
 21
185.494
 31
0.0
  0
LINE
  5
182
  8
0
 62
     7
 10
53.018500000000003
 20
184.86799999999999
 30
0.0
 11
53.018500000000003
 21
185.39400000000001
 31
0.0
  0
LINE
  5
183
  8
0
 62
     7
 10
53.1997
 20
185.39400000000001
 30
0.0
 11
53.1997
 21
184.86799999999999
 31
0.0
  0
LINE
  5
184
  8
0
 62
     7
 10
52.9206
 20
184.82300000000001
 30
0.0
 11
52.9206
 21
185.494
 31
0.0
  0
LINE
  5
185
  8
0
 62
     7
 10
52.69809999999999
 20
184.86799999999999
 30
0.0
 11
52.69809999999999
 21
185.39400000000001
 31
0.0
  0
LINE
  5
186
  8
0
 62
     7
 10
52.881999999999991
 20
185.39400000000001
 30
0.0
 11
52.881999999999991
 21
184.86799999999999
 31
0.0
  0
LINE
  5
187
  8
0
 62
     7
 10
52.605699999999999
 20
184.82499999999999
 30
0.0
 11
52.605699999999999
 21
185.49299999999999
 31
0.0
  0
LINE
  5
188
  8
0
 62
     7
 10
52.372199999999999
 20
184.86799999999999
 30
0.0
 11
52.372199999999999
 21
185.39400000000001
 31
0.0
  0
LINE
  5
189
  8
0
 62
     7
 10
52.55749999999999
 20
185.39400000000001
 30
0.0
 11
52.55749999999999
 21
184.86799999999999
 31
0.0
  0
LINE
  5
18A
  8
0
 62
     7
 10
52.285299999999999
 20
184.82499999999999
 30
0.0
 11
52.285299999999999
 21
185.49299999999999
 31
0.0
  0
LINE
  5
18B
  8
0
 62
     7
 10
51.624400000000001
 20
183.494
 30
0.0
 11
47.946199999999997
 21
183.494
 31
0.0
  0
LINE
  5
18C
  8
0
 62
     7
 10
51.960799999999999
 20
184.82599999999999
 30
0.0
 11
51.960799999999999
 21
185.49100000000001
 31
0.0
  0
LINE
  5
18D
  8
0
 62
     7
 10
52.041400000000003
 20
184.86799999999999
 30
0.0
 11
52.041400000000003
 21
185.39400000000001
 31
0.0
  0
LINE
  5
18E
  8
0
 62
     7
 10
52.228099999999991
 20
185.39400000000001
 30
0.0
 11
52.228099999999991
 21
184.86799999999999
 31
0.0
  0
LINE
  5
18F
  8
0
 62
     7
 10
51.624400000000001
 20
185.03399999999999
 30
0.0
 11
51.624400000000001
 21
185.49000000000001
 31
0.0
  0
LINE
  5
190
  8
0
 62
     7
 10
51.709699999999998
 20
184.86799999999999
 30
0.0
 11
51.709699999999998
 21
185.39400000000001
 31
0.0
  0
LINE
  5
191
  8
0
 62
     7
 10
51.895400000000002
 20
185.39400000000001
 30
0.0
 11
51.895400000000002
 21
184.86799999999999
 31
0.0
  0
LINE
  5
192
  8
0
 62
     7
 10
53.2286
 20
185.494
 30
0.0
 11
53.181100000000001
 21
185.41
 31
0.0
  0
LINE
  5
193
  8
0
 62
     7
 10
53.018500000000003
 20
185.39400000000001
 30
0.0
 11
53.1997
 21
185.39400000000001
 31
0.0
  0
LINE
  5
194
  8
0
 62
     7
 10
53.025399999999998
 20
185.41
 30
0.0
 11
52.9206
 21
185.494
 31
0.0
  0
LINE
  5
195
  8
0
 62
     7
 10
52.9206
 20
185.494
 30
0.0
 11
52.865499999999997
 21
185.40899999999999
 31
0.0
  0
LINE
  5
196
  8
0
 62
     7
 10
52.69809999999999
 20
185.39400000000001
 30
0.0
 11
52.881999999999991
 21
185.39400000000001
 31
0.0
  0
LINE
  5
197
  8
0
 62
     7
 10
52.70559999999999
 20
185.40899999999999
 30
0.0
 11
52.605699999999999
 21
185.49299999999999
 31
0.0
  0
LINE
  5
198
  8
0
 62
     7
 10
52.605699999999999
 20
185.49299999999999
 30
0.0
 11
52.542999999999999
 21
185.40899999999999
 31
0.0
  0
LINE
  5
199
  8
0
 62
     7
 10
52.372199999999999
 20
185.39400000000001
 30
0.0
 11
52.55749999999999
 21
185.39400000000001
 31
0.0
  0
LINE
  5
19A
  8
0
 62
     7
 10
52.380400000000002
 20
185.40700000000001
 30
0.0
 11
52.285299999999999
 21
185.49299999999999
 31
0.0
  0
LINE
  5
19B
  8
0
 62
     7
 10
52.285299999999999
 20
185.49299999999999
 30
0.0
 11
52.215699999999991
 21
185.40700000000001
 31
0.0
  0
LINE
  5
19C
  8
0
 62
     7
 10
52.041400000000003
 20
185.39400000000001
 30
0.0
 11
52.228099999999991
 21
185.39400000000001
 31
0.0
  0
LINE
  5
19D
  8
0
 62
     7
 10
52.050699999999999
 20
185.40700000000001
 30
0.0
 11
51.960799999999999
 21
185.49100000000001
 31
0.0
  0
LINE
  5
19E
  8
0
 62
     7
 10
51.628999999999998
 20
185.49100000000001
 30
0.0
 11
51.552599999999998
 21
185.40600000000001
 31
0.0
  0
LINE
  5
19F
  8
0
 62
     7
 10
51.960799999999999
 20
185.49100000000001
 30
0.0
 11
51.884300000000003
 21
185.40600000000001
 31
0.0
  0
LINE
  5
1A0
  8
0
 62
     7
 10
51.709699999999998
 20
185.39400000000001
 30
0.0
 11
51.895400000000002
 21
185.39400000000001
 31
0.0
  0
LINE
  5
1A1
  8
0
 62
     7
 10
51.71929999999999
 20
185.40600000000001
 30
0.0
 11
51.635199999999998
 21
185.49000000000001
 31
0.0
  0
LINE
  5
1A2
  8
0
 62
     7
 10
51.895400000000002
 20
184.86799999999999
 30
0.0
 11
51.709699999999998
 21
184.86799999999999
 31
0.0
  0
LINE
  5
1A3
  8
0
 62
     7
 10
51.552599999999998
 20
184.863
 30
0.0
 11
51.628999999999998
 21
184.82599999999999
 31
0.0
  0
LINE
  5
1A4
  8
0
 62
     7
 10
51.628999999999998
 20
184.82599999999999
 30
0.0
 11
51.718999999999987
 21
184.863
 31
0.0
  0
LINE
  5
1A5
  8
0
 62
     7
 10
51.884300000000003
 20
184.863
 30
0.0
 11
51.960799999999999
 21
184.82599999999999
 31
0.0
  0
LINE
  5
1A6
  8
0
 62
     7
 10
51.960799999999999
 20
184.82599999999999
 30
0.0
 11
52.050699999999999
 21
184.863
 31
0.0
  0
LINE
  5
1A7
  8
0
 62
     7
 10
52.228099999999991
 20
184.86799999999999
 30
0.0
 11
52.041400000000003
 21
184.86799999999999
 31
0.0
  0
LINE
  5
1A8
  8
0
 62
     7
 10
52.215699999999991
 20
184.863
 30
0.0
 11
52.285299999999999
 21
184.82499999999999
 31
0.0
  0
LINE
  5
1A9
  8
0
 62
     7
 10
52.285299999999999
 20
184.82499999999999
 30
0.0
 11
52.380400000000002
 21
184.863
 31
0.0
  0
LINE
  5
1AA
  8
0
 62
     7
 10
52.55749999999999
 20
184.86799999999999
 30
0.0
 11
52.372199999999999
 21
184.86799999999999
 31
0.0
  0
LINE
  5
1AB
  8
0
 62
     7
 10
52.542999999999999
 20
184.863
 30
0.0
 11
52.605699999999999
 21
184.82499999999999
 31
0.0
  0
LINE
  5
1AC
  8
0
 62
     7
 10
52.605699999999999
 20
184.82499999999999
 30
0.0
 11
52.70559999999999
 21
184.863
 31
0.0
  0
LINE
  5
1AD
  8
0
 62
     7
 10
52.881999999999991
 20
184.86799999999999
 30
0.0
 11
52.69809999999999
 21
184.86799999999999
 31
0.0
  0
LINE
  5
1AE
  8
0
 62
     7
 10
52.865499999999997
 20
184.863
 30
0.0
 11
52.9206
 21
184.82300000000001
 31
0.0
  0
LINE
  5
1AF
  8
0
 62
     7
 10
52.9206
 20
184.82300000000001
 30
0.0
 11
53.025399999999998
 21
184.863
 31
0.0
  0
LINE
  5
1B0
  8
0
 62
     7
 10
53.1997
 20
184.86799999999999
 30
0.0
 11
53.018500000000003
 21
184.86799999999999
 31
0.0
  0
LINE
  5
1B1
  8
0
 62
     7
 10
53.181100000000001
 20
184.86199999999999
 30
0.0
 11
53.229300000000002
 21
184.82300000000001
 31
0.0
  0
LINE
  5
1B2
  8
0
 62
     7
 10
53.229300000000002
 20
184.82300000000001
 30
0.0
 11
53.336799999999997
 21
184.86199999999999
 31
0.0
  0
LINE
  5
1B3
  8
0
 62
     7
 10
53.508999999999993
 20
184.86799999999999
 30
0.0
 11
53.331299999999999
 21
184.86799999999999
 31
0.0
  0
LINE
  5
1B4
  8
0
 62
     7
 10
53.489100000000001
 20
184.86199999999999
 30
0.0
 11
53.527999999999999
 21
184.822
 31
0.0
  0
LINE
  5
1B5
  8
0
 62
     7
 10
53.527999999999999
 20
184.822
 30
0.0
 11
53.639600000000002
 21
184.86199999999999
 31
0.0
  0
LINE
  5
1B6
  8
0
 62
     7
 10
53.807400000000001
 20
184.86799999999999
 30
0.0
 11
53.634399999999999
 21
184.86799999999999
 31
0.0
  0
LINE
  5
1B7
  8
0
 62
     7
 10
53.786000000000001
 20
184.86199999999999
 30
0.0
 11
53.816299999999998
 21
184.822
 31
0.0
  0
LINE
  5
1B8
  8
0
 62
     7
 10
53.816299999999998
 20
184.822
 30
0.0
 11
53.930700000000002
 21
184.86199999999999
 31
0.0
  0
LINE
  5
1B9
  8
0
 62
     7
 10
54.093299999999999
 20
184.86799999999999
 30
0.0
 11
53.928000000000011
 21
184.86799999999999
 31
0.0
  0
LINE
  5
1BA
  8
0
 62
     7
 10
54.071300000000001
 20
184.86199999999999
 30
0.0
 11
54.093299999999999
 21
184.822
 31
0.0
  0
LINE
  5
1BB
  8
0
 62
     7
 10
54.093299999999999
 20
184.822
 30
0.0
 11
54.209099999999999
 21
184.86199999999999
 31
0.0
  0
LINE
  5
1BC
  8
0
 62
     7
 10
54.367199999999997
 20
184.86799999999999
 30
0.0
 11
54.207700000000003
 21
184.86799999999999
 31
0.0
  0
LINE
  5
1BD
  8
0
 62
     7
 10
54.342799999999997
 20
184.86199999999999
 30
0.0
 11
54.35649999999999
 21
184.821
 31
0.0
  0
LINE
  5
1BE
  8
0
 62
     7
 10
54.35649999999999
 20
184.821
 30
0.0
 11
54.474400000000003
 21
184.86199999999999
 31
0.0
  0
LINE
  5
1BF
  8
0
 62
     7
 10
54.62489999999999
 20
184.86799999999999
 30
0.0
 11
54.474400000000003
 21
184.86799999999999
 31
0.0
  0
LINE
  5
1C0
  8
0
 62
     7
 10
54.600099999999998
 20
184.86099999999999
 30
0.0
 11
54.604599999999998
 21
184.821
 31
0.0
  0
LINE
  5
1C1
  8
0
 62
     7
 10
54.604599999999998
 20
184.821
 30
0.0
 11
54.7224
 21
184.86099999999999
 31
0.0
  0
LINE
  5
1C2
  8
0
 62
     7
 10
54.866399999999999
 20
184.86799999999999
 30
0.0
 11
54.725499999999997
 21
184.86799999999999
 31
0.0
  0
LINE
  5
1C3
  8
0
 62
     7
 10
54.84020000000001
 20
184.86099999999999
 30
0.0
 11
54.836100000000002
 21
184.81999999999999
 31
0.0
  0
LINE
  5
1C4
  8
0
 62
     7
 10
54.836100000000002
 20
184.81999999999999
 30
0.0
 11
54.954599999999999
 21
184.86099999999999
 31
0.0
  0
LINE
  5
1C5
  8
0
 62
     7
 10
55.090400000000002
 20
184.86799999999999
 30
0.0
 11
54.9587
 21
184.86799999999999
 31
0.0
  0
LINE
  5
1C6
  8
0
 62
     7
 10
55.063499999999998
 20
184.86099999999999
 30
0.0
 11
55.050699999999992
 21
184.81999999999999
 31
0.0
  0
LINE
  5
1C7
  8
0
 62
     7
 10
55.050699999999992
 20
184.81999999999999
 30
0.0
 11
55.168199999999999
 21
184.86099999999999
 31
0.0
  0
LINE
  5
1C8
  8
0
 62
     7
 10
55.295000000000002
 20
184.86799999999999
 30
0.0
 11
55.174399999999999
 21
184.86799999999999
 31
0.0
  0
LINE
  5
1C9
  8
0
 62
     7
 10
55.267400000000002
 20
184.86099999999999
 30
0.0
 11
55.245399999999997
 21
184.81999999999999
 31
0.0
  0
LINE
  5
1CA
  8
0
 62
     7
 10
55.245399999999997
 20
184.81999999999999
 30
0.0
 11
55.36249999999999
 21
184.86099999999999
 31
0.0
  0
LINE
  5
1CB
  8
0
 62
     7
 10
55.478999999999999
 20
184.86799999999999
 30
0.0
 11
55.370800000000003
 21
184.86799999999999
 31
0.0
  0
LINE
  5
1CC
  8
0
 62
     7
 10
55.451399999999992
 20
184.86099999999999
 30
0.0
 11
55.421799999999998
 21
184.81999999999999
 31
0.0
  0
LINE
  5
1CD
  8
0
 62
     7
 10
55.421799999999998
 20
184.81999999999999
 30
0.0
 11
55.536200000000001
 21
184.86099999999999
 31
0.0
  0
LINE
  5
1CE
  8
0
 62
     7
 10
55.643000000000001
 20
184.86799999999999
 30
0.0
 11
55.546799999999998
 21
184.86799999999999
 31
0.0
  0
LINE
  5
1CF
  8
0
 62
     7
 10
55.61399999999999
 20
184.86099999999999
 30
0.0
 11
55.576099999999997
 21
184.81899999999999
 31
0.0
  0
LINE
  5
1D0
  8
0
 62
     7
 10
55.576099999999997
 20
184.81899999999999
 30
0.0
 11
55.688400000000001
 21
184.86099999999999
 31
0.0
  0
LINE
  5
1D1
  8
0
 62
     7
 10
55.783900000000003
 20
184.86799999999999
 30
0.0
 11
55.700800000000001
 21
184.86799999999999
 31
0.0
  0
LINE
  5
1D2
  8
0
 62
     7
 10
55.755299999999998
 20
184.86099999999999
 30
0.0
 11
55.709800000000001
 21
184.81899999999999
 31
0.0
  0
LINE
  5
1D3
  8
0
 62
     7
 10
55.709800000000001
 20
184.81899999999999
 30
0.0
 11
55.818300000000001
 21
184.86099999999999
 31
0.0
  0
LINE
  5
1D4
  8
0
 62
     7
 10
55.902000000000001
 20
184.86799999999999
 30
0.0
 11
55.833100000000002
 21
184.86799999999999
 31
0.0
  0
LINE
  5
1D5
  8
0
 62
     7
 10
55.874499999999998
 20
184.86099999999999
 30
0.0
 11
55.82
 21
184.81899999999999
 31
0.0
  0
LINE
  5
1D6
  8
0
 62
     7
 10
55.82
 20
184.81899999999999
 30
0.0
 11
55.924799999999998
 21
184.86099999999999
 31
0.0
  0
LINE
  5
1D7
  8
0
 62
     7
 10
55.997100000000003
 20
184.86799999999999
 30
0.0
 11
55.942
 21
184.86799999999999
 31
0.0
  0
LINE
  5
1D8
  8
0
 62
     7
 10
55.969900000000003
 20
184.86099999999999
 30
0.0
 11
55.907899999999998
 21
184.81899999999999
 31
0.0
  0
LINE
  5
1D9
  8
0
 62
     7
 10
55.907899999999998
 20
184.81899999999999
 30
0.0
 11
56.008499999999998
 21
184.86099999999999
 31
0.0
  0
LINE
  5
1DA
  8
0
 62
     7
 10
56.067700000000002
 20
184.86799999999999
 30
0.0
 11
56.0274
 21
184.86799999999999
 31
0.0
  0
LINE
  5
1DB
  8
0
 62
     7
 10
56.041200000000003
 20
184.86099999999999
 30
0.0
 11
55.971600000000002
 21
184.81899999999999
 31
0.0
  0
LINE
  5
1DC
  8
0
 62
     7
 10
55.971600000000002
 20
184.81899999999999
 30
0.0
 11
56.068100000000001
 21
184.86099999999999
 31
0.0
  0
LINE
  5
1DD
  8
0
 62
     7
 10
56.037100000000002
 20
185.494
 30
0.0
 11
56.088700000000003
 21
185.44200000000001
 31
0.0
  0
ARC
  5
1DE
  8
0
 62
     7
 10
48.352083
 20
184.3765709999999
 30
0.0
 40
0.971728
 50
206.12155300000001
 51
245.31195099999999
  0
ARC
  5
1DF
  8
0
 62
     7
 10
48.449117000000001
 20
184.447352
 30
0.0
 40
1.090214
 50
176.253669
 51
207.216329
  0
ARC
  5
1E0
  8
0
 62
     7
 10
47.017147999999999
 20
184.53823
 30
0.0
 40
0.344645
 50
356.73239999999998
 51
60.884456
  0
LINE
  5
1E1
  8
0
 62
     7
 10
52.374699999999997
 20
224.81899999999999
 30
0.0
 11
50.87469999999999
 21
224.13499999999999
 31
0.0
  0
LINE
  5
1E2
  8
0
 62
     7
 10
52.374699999999997
 20
223.90899999999999
 30
0.0
 11
50.87469999999999
 21
223.22399999999999
 31
0.0
  0
LINE
  5
1E3
  8
0
 62
     7
 10
52.374699999999997
 20
222.99799999999999
 30
0.0
 11
50.87469999999999
 21
222.31399999999999
 31
0.0
  0
LINE
  5
1E4
  8
0
 62
     7
 10
52.374699999999997
 20
222.08799999999999
 30
0.0
 11
50.87469999999999
 21
221.404
 31
0.0
  0
LINE
  5
1E5
  8
0
 62
     7
 10
52.374699999999997
 20
221.178
 30
0.0
 11
50.87469999999999
 21
220.494
 31
0.0
  0
LINE
  5
1E6
  8
0
 62
     7
 10
52.374699999999997
 20
220.268
 30
0.0
 11
50.87469999999999
 21
219.584
 31
0.0
  0
LINE
  5
1E7
  8
0
 62
     7
 10
52.374699999999997
 20
219.357
 30
0.0
 11
50.87469999999999
 21
218.673
 31
0.0
  0
LINE
  5
1E8
  8
0
 62
     7
 10
52.374699999999997
 20
218.447
 30
0.0
 11
50.87469999999999
 21
217.76300000000001
 31
0.0
  0
LINE
  5
1E9
  8
0
 62
     7
 10
52.374699999999997
 20
217.53700000000001
 30
0.0
 11
50.87469999999999
 21
216.85300000000001
 31
0.0
  0
LINE
  5
1EA
  8
0
 62
     7
 10
52.374699999999997
 20
216.62700000000001
 30
0.0
 11
50.87469999999999
 21
215.94300000000001
 31
0.0
  0
LINE
  5
1EB
  8
0
 62
     7
 10
52.374699999999997
 20
215.71700000000001
 30
0.0
 11
50.87469999999999
 21
215.03299999999999
 31
0.0
  0
LINE
  5
1EC
  8
0
 62
     7
 10
52.374699999999997
 20
214.80600000000001
 30
0.0
 11
50.87469999999999
 21
214.12200000000001
 31
0.0
  0
LINE
  5
1ED
  8
0
 62
     7
 10
52.374699999999997
 20
213.89599999999999
 30
0.0
 11
50.87469999999999
 21
213.21199999999999
 31
0.0
  0
LINE
  5
1EE
  8
0
 62
     7
 10
52.374699999999997
 20
212.98599999999999
 30
0.0
 11
50.87469999999999
 21
212.30199999999999
 31
0.0
  0
LINE
  5
1EF
  8
0
 62
     7
 10
52.091900000000003
 20
224.81899999999999
 30
0.0
 11
51.624600000000001
 21
227.15199999999999
 31
0.0
  0
LINE
  5
1F0
  8
0
 62
     7
 10
51.157600000000002
 20
224.81899999999999
 30
0.0
 11
51.624600000000001
 21
227.15199999999999
 31
0.0
  0
LINE
  5
1F1
  8
0
 62
     7
 10
52.091900000000003
 20
224.81899999999999
 30
0.0
 11
52.091900000000003
 21
212.15199999999999
 31
0.0
  0
LINE
  5
1F2
  8
0
 62
     7
 10
51.157600000000002
 20
224.81899999999999
 30
0.0
 11
51.157600000000002
 21
212.15199999999999
 31
0.0
  0
LINE
  5
1F3
  8
0
 62
     7
 10
46.305999999999997
 20
190.16
 30
0.0
 11
46.710599999999992
 21
190.16
 31
0.0
  0
LINE
  5
1F4
  8
0
 62
     7
 10
46.756999999999991
 20
187.49299999999999
 30
0.0
 11
46.305999999999997
 21
187.49299999999999
 31
0.0
  0
LINE
  5
1F5
  8
0
 62
     7
 10
56.538200000000003
 20
190.16
 30
0.0
 11
56.9786
 21
190.16
 31
0.0
  0
LINE
  5
1F6
  8
0
 62
     7
 10
56.9786
 20
187.49299999999999
 30
0.0
 11
56.481799999999993
 21
187.49299999999999
 31
0.0
  0
LINE
  5
1F7
  8
0
 62
     7
 10
70.793000000000006
 20
190.16
 30
0.0
 11
72.926900000000003
 21
190.16
 31
0.0
  0
LINE
  5
1F8
  8
0
 62
     7
 10
72.926900000000003
 20
187.49299999999999
 30
0.0
 11
70.793000000000006
 21
187.49299999999999
 31
0.0
  0
LINE
  5
1F9
  8
0
  6
AIGENLINE002
 62
     7
 10
51.624400000000001
 20
157.869
 30
0.0
 11
51.624400000000001
 21
229.483
 31
0.0
  0
LINE
  5
1FA
  8
0
  6
AIGENLINE002
 62
     7
 10
76.118499999999997
 20
188.827
 30
0.0
 11
29.282499999999999
 21
188.827
 31
0.0
  0
LINE
  5
1FB
  8
0
 62
     7
 10
47.17329999999999
 20
207.47200000000001
 30
0.0
 11
47.212600000000002
 21
207.47200000000001
 31
0.0
  0
LINE
  5
1FC
  8
0
 62
     7
 10
47.212600000000002
 20
207.47200000000001
 30
0.0
 11
47.326999999999998
 21
207.47200000000001
 31
0.0
  0
LINE
  5
1FD
  8
0
 62
     7
 10
47.326999999999998
 20
207.47200000000001
 30
0.0
 11
47.511299999999991
 21
207.47200000000001
 31
0.0
  0
LINE
  5
1FE
  8
0
 62
     7
 10
47.511299999999991
 20
207.47200000000001
 30
0.0
 11
47.768599999999999
 21
207.47200000000001
 31
0.0
  0
LINE
  5
1FF
  8
0
 62
     7
 10
47.768599999999999
 20
207.47200000000001
 30
0.0
 11
48.014600000000002
 21
207.47200000000001
 31
0.0
  0
LINE
  5
200
  8
0
 62
     7
 10
48.014600000000002
 20
207.47200000000001
 30
0.0
 11
48.297800000000002
 21
207.47200000000001
 31
0.0
  0
LINE
  5
201
  8
0
 62
     7
 10
48.297800000000002
 20
207.47200000000001
 30
0.0
 11
48.977699999999999
 21
207.47200000000001
 31
0.0
  0
LINE
  5
202
  8
0
 62
     7
 10
48.977699999999999
 20
207.47200000000001
 30
0.0
 11
49.361499999999999
 21
207.47200000000001
 31
0.0
  0
LINE
  5
203
  8
0
 62
     7
 10
49.361499999999999
 20
207.47200000000001
 30
0.0
 11
49.7697
 21
207.47200000000001
 31
0.0
  0
LINE
  5
204
  8
0
 62
     7
 10
49.7697
 20
207.47200000000001
 30
0.0
 11
50.188499999999998
 21
207.47200000000001
 31
0.0
  0
LINE
  5
205
  8
0
 62
     7
 10
50.188499999999998
 20
207.47200000000001
 30
0.0
 11
50.622
 21
207.47200000000001
 31
0.0
  0
LINE
  5
206
  8
0
 62
     7
 10
50.622
 20
207.47200000000001
 30
0.0
 11
51.478999999999992
 21
207.47200000000001
 31
0.0
  0
LINE
  5
207
  8
0
 62
     7
 10
51.478999999999992
 20
207.47200000000001
 30
0.0
 11
52.292700000000004
 21
207.47200000000001
 31
0.0
  0
LINE
  5
208
  8
0
 62
     7
 10
52.292700000000004
 20
207.47200000000001
 30
0.0
 11
52.8245
 21
207.47200000000001
 31
0.0
  0
LINE
  5
209
  8
0
 62
     7
 10
52.8245
 20
207.47200000000001
 30
0.0
 11
53.3538
 21
207.47200000000001
 31
0.0
  0
LINE
  5
20A
  8
0
 62
     7
 10
53.3538
 20
207.47200000000001
 30
0.0
 11
53.869700000000002
 21
207.47200000000001
 31
0.0
  0
LINE
  5
20B
  8
0
 62
     7
 10
53.869700000000002
 20
207.47200000000001
 30
0.0
 11
54.247
 21
207.47200000000001
 31
0.0
  0
LINE
  5
20C
  8
0
 62
     7
 10
54.247
 20
207.47200000000001
 30
0.0
 11
54.597900000000003
 21
207.47200000000001
 31
0.0
  0
LINE
  5
20D
  8
0
 62
     7
 10
54.597900000000003
 20
207.47200000000001
 30
0.0
 11
55.216299999999997
 21
207.47200000000001
 31
0.0
  0
LINE
  5
20E
  8
0
 62
     7
 10
55.216299999999997
 20
207.47200000000001
 30
0.0
 11
55.469799999999999
 21
207.47200000000001
 31
0.0
  0
LINE
  5
20F
  8
0
 62
     7
 10
55.469799999999999
 20
207.47200000000001
 30
0.0
 11
55.682200000000002
 21
207.47200000000001
 31
0.0
  0
LINE
  5
210
  8
0
 62
     7
 10
55.682200000000002
 20
207.47200000000001
 30
0.0
 11
55.848300000000002
 21
207.47200000000001
 31
0.0
  0
LINE
  5
211
  8
0
 62
     7
 10
55.848300000000002
 20
207.47200000000001
 30
0.0
 11
55.971800000000002
 21
207.47200000000001
 31
0.0
  0
LINE
  5
212
  8
0
 62
     7
 10
55.971800000000002
 20
207.47200000000001
 30
0.0
 11
56.083399999999997
 21
207.47200000000001
 31
0.0
  0
LINE
  5
213
  8
0
 62
     7
 10
56.083399999999997
 20
207.47200000000001
 30
0.0
 11
56.075000000000003
 21
207.47200000000001
 31
0.0
  0
LINE
  5
214
  8
0
 62
     7
 10
44.049599999999991
 20
209.47800000000001
 30
0.0
 11
59.198700000000002
 21
209.47800000000001
 31
0.0
  0
LINE
  5
215
  8
0
 62
     7
 10
61.124099999999999
 20
212.16
 30
0.0
 11
42.124299999999998
 21
212.16
 31
0.0
  0
LINE
  5
216
  8
0
 62
     7
 10
60.208799999999997
 20
210.489
 30
0.0
 11
43.03949999999999
 21
210.489
 31
0.0
  0
LINE
  5
217
  8
0
 62
     7
 10
53.633099999999999
 20
196.172
 30
0.0
 11
53.634799999999998
 21
196.172
 31
0.0
  0
LINE
  5
218
  8
0
 62
     7
 10
53.634799999999998
 20
196.172
 30
0.0
 11
53.561399999999992
 21
196.172
 31
0.0
  0
LINE
  5
219
  8
0
 62
     7
 10
53.561399999999992
 20
196.172
 30
0.0
 11
53.413600000000002
 21
196.172
 31
0.0
  0
LINE
  5
21A
  8
0
 62
     7
 10
53.413600000000002
 20
196.172
 30
0.0
 11
53.1967
 21
196.172
 31
0.0
  0
LINE
  5
21B
  8
0
 62
     7
 10
53.1967
 20
196.172
 30
0.0
 11
52.919199999999996
 21
196.172
 31
0.0
  0
LINE
  5
21C
  8
0
 62
     7
 10
52.919199999999996
 20
196.172
 30
0.0
 11
52.592300000000002
 21
196.172
 31
0.0
  0
LINE
  5
21D
  8
0
 62
     7
 10
52.592300000000002
 20
196.172
 30
0.0
 11
52.228000000000002
 21
196.172
 31
0.0
  0
LINE
  5
21E
  8
0
 62
     7
 10
52.228000000000002
 20
196.172
 30
0.0
 11
51.840600000000002
 21
196.172
 31
0.0
  0
LINE
  5
21F
  8
0
 62
     7
 10
51.840600000000002
 20
196.172
 30
0.0
 11
51.444400000000002
 21
196.172
 31
0.0
  0
LINE
  5
220
  8
0
 62
     7
 10
51.444400000000002
 20
196.172
 30
0.0
 11
51.055300000000003
 21
196.172
 31
0.0
  0
LINE
  5
221
  8
0
 62
     7
 10
51.055300000000003
 20
196.172
 30
0.0
 11
50.688200000000002
 21
196.172
 31
0.0
  0
LINE
  5
222
  8
0
 62
     7
 10
50.688200000000002
 20
196.172
 30
0.0
 11
50.3566
 21
196.172
 31
0.0
  0
LINE
  5
223
  8
0
 62
     7
 10
50.3566
 20
196.172
 30
0.0
 11
50.073900000000002
 21
196.172
 31
0.0
  0
LINE
  5
224
  8
0
 62
     7
 10
50.073900000000002
 20
196.172
 30
0.0
 11
49.850999999999999
 21
196.172
 31
0.0
  0
LINE
  5
225
  8
0
 62
     7
 10
49.850999999999999
 20
196.172
 30
0.0
 11
49.695799999999998
 21
196.172
 31
0.0
  0
LINE
  5
226
  8
0
 62
     7
 10
49.695799999999998
 20
196.172
 30
0.0
 11
49.614699999999999
 21
196.172
 31
0.0
  0
LINE
  5
227
  8
0
 62
     7
 10
49.614699999999999
 20
196.172
 30
0.0
 11
49.6126
 21
196.172
 31
0.0
  0
LINE
  5
228
  8
0
 62
     7
 10
53.845999999999997
 20
196.172
 30
0.0
 11
52.689799999999991
 21
196.172
 31
0.0
  0
LINE
  5
229
  8
0
 62
     7
 10
52.689799999999991
 20
196.172
 30
0.0
 11
49.400100000000002
 21
196.172
 31
0.0
  0
LINE
  5
22A
  8
0
 62
     7
 10
53.980200000000004
 20
196.30600000000001
 30
0.0
 11
52.75439999999999
 21
196.30600000000001
 31
0.0
  0
LINE
  5
22B
  8
0
 62
     7
 10
52.75439999999999
 20
196.30600000000001
 30
0.0
 11
49.265900000000002
 21
196.30600000000001
 31
0.0
  0
LINE
  5
22C
  8
0
 62
     7
 10
55.99969999999999
 20
201.554
 30
0.0
 11
53.723199999999999
 21
201.554
 31
0.0
  0
LINE
  5
22D
  8
0
 62
     7
 10
53.723199999999999
 20
201.554
 30
0.0
 11
47.246299999999998
 21
201.554
 31
0.0
  0
LINE
  5
22E
  8
0
 62
     7
 10
47.246299999999998
 20
205.297
 30
0.0
 11
55.99969999999999
 21
205.297
 31
0.0
  0
LINE
  5
22F
  8
0
 62
     7
 10
47.113
 20
205.80000000000001
 30
0.0
 11
56.135100000000001
 21
205.80000000000001
 31
0.0
  0
LINE
  5
230
  8
0
 62
     7
 10
46.944899999999997
 20
207.47200000000001
 30
0.0
 11
56.303600000000003
 21
207.47200000000001
 31
0.0
  0
LINE
  5
231
  8
0
 62
     7
 10
47.011000000000003
 20
204.68899999999999
 30
0.0
 11
56.234999999999992
 21
204.68899999999999
 31
0.0
  0
ARC
  5
232
  8
0
 62
     7
 10
56.393528000000011
 20
204.43918500000001
 30
0.0
 40
0.041887
 50
11.046711999999999
 51
21.873314000000001
  0
ARC
  5
233
  8
0
 62
     7
 10
56.430377
 20
204.452765
 30
0.0
 40
0.002862
 50
45.060369999999999
 51
181.687071
  0
ARC
  5
234
  8
0
 62
     7
 10
56.647852
 20
204.38980900000001
 30
0.0
 40
0.22913
 50
164.07422099999999
 51
173.55814699999999
  0
ARC
  5
235
  8
0
 62
     7
 10
57.752590000000012
 20
204.23101199999999
 30
0.0
 40
1.3451349999999991
 50
172.11621
 51
177.79016300000001
  0
ARC
  5
236
  8
0
 62
     7
 10
60.516469999999991
 20
204.00457599999999
 30
0.0
 40
4.117430999999999
 50
176.124326
 51
178.370664
  0
ARC
  5
237
  8
0
 62
     7
 10
66.778067000000007
 20
203.74175700000001
 30
0.0
 40
10.384314
 50
177.90345400000001
 51
179.23639800000001
  0
ARC
  5
238
  8
0
 62
     7
 10
72.449916000000002
 20
203.54674600000001
 30
0.0
 40
16.058702
 50
178.810363
 51
179.53320199999999
  0
ARC
  5
239
  8
0
 62
     7
 10
74.389071999999999
 20
203.50815900000001
 30
0.0
 40
17.998123
 50
179.460657
 51
180.198804
  0
ARC
  5
23A
  8
0
 62
     7
 10
85.492800000000017
 20
203.444096
 30
0.0
 40
29.101742000000002
 50
179.996791
 51
180.394305
  0
ARC
  5
23B
  8
0
 62
     7
 10
70.732356999999993
 20
203.319715
 30
0.0
 40
14.340811
 50
180.30319900000001
 51
181.01899299999991
  0
ARC
  5
23C
  8
0
 62
     7
 10
73.296922999999992
 20
203.365475
 30
0.0
 40
16.905785999999999
 50
181.019485
 51
181.8020149999999
  0
ARC
  5
23D
  8
0
 62
     7
 10
65.542598999999996
 20
203.153448
 30
0.0
 40
9.1486839999999994
 50
182.001902
 51
183.470775
  0
ARC
  5
23E
  8
0
 62
     7
 10
58.220739999999999
 20
202.742863
 30
0.0
 40
1.8157069999999991
 50
184.525632
 51
187.773526
  0
ARC
  5
23F
  8
0
 62
     7
 10
56.568600000000004
 20
202.51969700000001
 30
0.0
 40
0.148583
 50
188.679553
 51
201.71686199999999
  0
ARC
  5
240
  8
0
 62
     7
 10
56.427268000000012
 20
202.469708
 30
0.0
 40
0.00598
 50
303.442947
 51
346.73340100000001
  0
ARC
  5
241
  8
0
 62
     7
 10
56.384309999999999
 20
202.485029
 30
0.0
 40
0.051555
 50
341.10791899999998
 51
347.47480900000011
  0
ARC
  5
242
  8
0
 62
     7
 10
54.284843999999993
 20
195.92912699999999
 30
0.0
 40
8.5329859999999993
 50
92.373803000000024
 51
94.028330000000011
  0
ARC
  5
243
  8
0
 62
     7
 10
53.877741
 20
201.94726600000001
 30
0.0
 40
2.5011719999999991
 50
94.41036099999998
 51
99.403556000000009
  0
ARC
  5
244
  8
0
 62
     7
 10
53.790210999999999
 20
202.50178399999999
 30
0.0
 40
1.9398089999999999
 50
99.528997999999987
 51
113.338429
  0
ARC
  5
245
  8
0
 62
     7
 10
53.704349999999998
 20
202.737041
 30
0.0
 40
1.6898470000000001
 50
113.82548300000001
 51
124.978397
  0
ARC
  5
246
  8
0
 62
     7
 10
53.381217999999997
 20
203.234543
 30
0.0
 40
1.0971580000000001
 50
126.045728
 51
143.95424299999999
  0
ARC
  5
247
  8
0
 62
     7
 10
53.142724000000001
 20
203.423486
 30
0.0
 40
0.793243
 50
144.852294
 51
161.318139
  0
ARC
  5
248
  8
0
 62
     7
 10
53.028300000000002
 20
203.46193400000001
 30
0.0
 40
0.6725310000000001
 50
161.29857699999999
 51
181.3818709999999
  0
ARC
  5
249
  8
0
 62
     7
 10
53.040390000000002
 20
203.461401
 30
0.0
 40
0.684605
 50
181.31290799999999
 51
198.53013300000001
  0
ARC
  5
24A
  8
0
 62
     7
 10
53.110590000000002
 20
203.48424399999999
 30
0.0
 40
0.7584270000000001
 50
198.480921
 51
213.58657199999999
  0
ARC
  5
24B
  8
0
 62
     7
 10
53.26164399999999
 20
203.574884
 30
0.0
 40
0.9344379999999999
 50
213.09271899999999
 51
232.46799999999999
  0
ARC
  5
24C
  8
0
 62
     7
 10
53.557531000000012
 20
203.91509600000001
 30
0.0
 40
1.384757
 50
231.3349
 51
251.802784
  0
ARC
  5
24D
  8
0
 62
     7
 10
53.834494999999997
 20
204.566115
 30
0.0
 40
2.0905649999999998
 50
250.16346300000001
 51
261.865163
  0
ARC
  5
24E
  8
0
 62
     7
 10
53.906169999999989
 20
204.818163
 30
0.0
 40
2.3504839999999989
 50
261.00493299999999
 51
271.3545509999999
  0
ARC
  5
24F
  8
0
 62
     7
 10
53.929982000000003
 20
205.214912
 30
0.0
 40
2.7467599999999992
 50
270.662328
 51
280.14000700000003
  0
ARC
  5
250
  8
0
 62
     7
 10
54.013882999999993
 20
204.60798199999999
 30
0.0
 40
2.134676999999999
 50
280.79124000000002
 51
293.07099399999998
  0
ARC
  5
251
  8
0
 62
     7
 10
54.231617000000007
 20
204.062116
 30
0.0
 40
1.5472049999999991
 50
293.57422400000002
 51
305.67534999999998
  0
ARC
  5
252
  8
0
 62
     7
 10
54.468136000000001
 20
203.70072500000001
 30
0.0
 40
1.1158539999999999
 50
306.63189199999999
 51
324.18778600000002
  0
ARC
  5
253
  8
0
 62
     7
 10
54.718324000000003
 20
203.49919299999999
 30
0.0
 40
0.7952270000000001
 50
325.41540500000002
 51
341.76673599999998
  0
ARC
  5
254
  8
0
 62
     7
 10
54.820611
 20
203.46326099999999
 30
0.0
 40
0.6868350000000002
 50
341.94391000000002
 51
1.4966929999999989
  0
ARC
  5
255
  8
0
 62
     7
 10
54.823250000000002
 20
203.46096800000001
 30
0.0
 40
0.6842620000000002
 50
1.694372
 51
18.880782
  0
ARC
  5
256
  8
0
 62
     7
 10
54.736663
 20
203.43044599999999
 30
0.0
 40
0.776068
 50
18.944274
 51
33.744239
  0
ARC
  5
257
  8
0
 62
     7
 10
54.597402000000002
 20
203.344223
 30
0.0
 40
0.93978
 50
33.399121999999998
 51
52.75754899999999
  0
ARC
  5
258
  8
0
 62
     7
 10
54.287863999999992
 20
202.977429
 30
0.0
 40
1.4193169999999991
 50
51.770983000000001
 51
71.915633
  0
ARC
  5
259
  8
0
 62
     7
 10
54.042557999999993
 20
202.40699699999999
 30
0.0
 40
2.0384889999999989
 50
70.338181000000006
 51
81.766225999999989
  0
ARC
  5
25A
  8
0
 62
     7
 10
54.000392000000012
 20
202.128547
 30
0.0
 40
2.3201079999999998
 50
81.720436000000007
 51
84.915035999999986
  0
ARC
  5
25B
  8
0
 62
     7
 10
53.813014000000003
 20
199.847385
 30
0.0
 40
4.6089269999999987
 50
85.108292000000006
 51
88.527923000000001
  0
ARC
  5
25C
  8
0
 62
     7
 10
49.466034000000001
 20
196.36202299999999
 30
0.0
 40
8.1000610000000002
 50
92.431582999999989
 51
94.131773999999993
  0
ARC
  5
25D
  8
0
 62
     7
 10
49.068921000000003
 20
202.08442099999999
 30
0.0
 40
2.3639790000000001
 50
94.524936999999994
 51
99.667723000000024
  0
ARC
  5
25E
  8
0
 62
     7
 10
48.986758999999999
 20
202.59027800000001
 30
0.0
 40
1.8515119999999989
 50
99.790132
 51
113.911551
  0
ARC
  5
25F
  8
0
 62
     7
 10
48.917824000000003
 20
202.78222700000001
 30
0.0
 40
1.648163
 50
114.42547500000001
 51
125.64188799999999
  0
ARC
  5
260
  8
0
 62
     7
 10
48.617846
 20
203.244067
 30
0.0
 40
1.0983279999999991
 50
126.96378799999999
 51
144.61037099999999
  0
ARC
  5
261
  8
0
 62
     7
 10
48.38841
 20
203.42512199999999
 30
0.0
 40
0.806563
 50
145.656665
 51
161.76017100000001
  0
ARC
  5
262
  8
0
 62
     7
 10
48.290264000000001
 20
203.45984300000001
 30
0.0
 40
0.7024850000000001
 50
161.94432499999999
 51
181.15237500000001
  0
ARC
  5
263
  8
0
 62
     7
 10
48.2913
 20
203.46186499999999
 30
0.0
 40
0.7035640000000001
 50
181.31525099999999
 51
198.05309099999999
  0
ARC
  5
264
  8
0
 62
     7
 10
48.388352000000012
 20
203.49854400000001
 30
0.0
 40
0.8072189999999999
 50
198.39358100000001
 51
212.51175599999999
  0
ARC
  5
265
  8
0
 62
     7
 10
48.50015599999999
 20
203.56905599999999
 30
0.0
 40
0.9394
 50
212.47335100000001
 51
231.501105
  0
ARC
  5
266
  8
0
 62
     7
 10
48.773592999999998
 20
203.88199800000001
 30
0.0
 40
1.354665
 50
230.689404
 51
251.201414
  0
ARC
  5
267
  8
0
 62
     7
 10
49.026715000000003
 20
204.45617799999999
 30
0.0
 40
1.9805360000000001
 50
249.621837
 51
261.66025000000002
  0
ARC
  5
268
  8
0
 62
     7
 10
49.098325000000003
 20
204.71158299999999
 30
0.0
 40
2.243881
 50
260.796942
 51
271.362011
  0
ARC
  5
269
  8
0
 62
     7
 10
49.120773999999997
 20
205.075018
 30
0.0
 40
2.6068649999999991
 50
270.67887000000002
 51
280.40919500000001
  0
ARC
  5
26A
  8
0
 62
     7
 10
49.201000999999991
 20
204.50740400000001
 30
0.0
 40
2.0342349999999989
 50
281.07526300000001
 51
293.65129999999999
  0
ARC
  5
26B
  8
0
 62
     7
 10
49.399653000000001
 20
204.019454
 30
0.0
 40
1.507641
 50
294.17517800000002
 51
306.35547600000001
  0
ARC
  5
26C
  8
0
 62
     7
 10
49.628900000000002
 20
203.673846
 30
0.0
 40
1.093596
 50
307.41642200000001
 51
325.07792999999998
  0
ARC
  5
26D
  8
0
 62
     7
 10
49.852787999999997
 20
203.500292
 30
0.0
 40
0.810792
 50
326.07683400000002
 51
342.047099
  0
ARC
  5
26E
  8
0
 62
     7
 10
49.94459299999999
 20
203.46339499999999
 30
0.0
 40
0.7121170000000001
 50
342.594493
 51
1.4327399999999999
  0
ARC
  5
26F
  8
0
 62
     7
 10
49.949609999999993
 20
203.46025499999999
 30
0.0
 40
0.7071870000000001
 50
1.697211
 51
18.307552999999999
  0
ARC
  5
270
  8
0
 62
     7
 10
49.872987999999999
 20
203.43368599999999
 30
0.0
 40
0.788279
 50
18.391566999999998
 51
32.872527000000012
  0
ARC
  5
271
  8
0
 62
     7
 10
49.733958000000001
 20
203.34150600000001
 30
0.0
 40
0.955081
 50
32.990015999999997
 51
51.829177999999999
  0
ARC
  5
272
  8
0
 62
     7
 10
49.467852000000001
 20
203.03899200000001
 30
0.0
 40
1.3575469999999989
 50
50.890116999999996
 51
71.532724999999985
  0
ARC
  5
273
  8
0
 62
     7
 10
49.230592000000001
 20
202.512327
 30
0.0
 40
1.933122999999999
 50
69.807048999999992
 51
81.551608999999999
  0
ARC
  5
274
  8
0
 62
     7
 10
49.187120999999998
 20
202.22832700000001
 30
0.0
 40
2.2204280000000001
 50
81.518724000000006
 51
84.773566999999986
  0
ARC
  5
275
  8
0
 62
     7
 10
49.007010000000001
 20
200.09438800000001
 30
0.0
 40
4.3619279999999989
 50
84.970894000000001
 51
88.484426999999997
  0
ARC
  5
276
  8
0
 62
     7
 10
46.924168000000002
 20
202.52642900000001
 30
0.0
 40
0.124155
 50
187.43338700000001
 51
204.53089800000009
  0
ARC
  5
277
  8
0
 62
     7
 10
48.076875000000001
 20
202.68453700000001
 30
0.0
 40
1.287652
 50
181.802413
 51
187.77379099999999
  0
ARC
  5
278
  8
0
 62
     7
 10
50.430849000000002
 20
202.903785
 30
0.0
 40
3.6502419999999991
 50
181.54656399999999
 51
184.08058399999999
  0
ARC
  5
279
  8
0
 62
     7
 10
56.922173999999998
 20
203.171471
 30
0.0
 40
10.146848
 50
180.69833800000001
 51
182.06828899999999
  0
ARC
  5
27A
  8
0
 62
     7
 10
60.878104
 20
203.36496199999999
 30
0.0
 40
14.105589999999999
 50
180.46545800000001
 51
181.288397
  0
ARC
  5
27B
  8
0
 62
     7
 10
114.716565
 20
203.56860699999999
 30
0.0
 40
67.944331000000005
 50
180.07372699999999
 51
180.26837599999999
  0
ARC
  5
27C
  8
0
 62
     7
 10
75.674122999999994
 20
203.48282
 30
0.0
 40
28.901833
 50
179.60433399999999
 51
180.00323099999989
  0
ARC
  5
27D
  8
0
 62
     7
 10
-3.1729829999999999
 20
204.49236099999999
 30
0.0
 40
49.952528999999998
 50
359.07092499999999
 51
359.27642700000001
  0
ARC
  5
27E
  8
0
 62
     7
 10
63.678671999999999
 20
203.56075200000001
 30
0.0
 40
16.905785999999999
 50
178.19798499999999
 51
178.980515
  0
ARC
  5
27F
  8
0
 62
     7
 10
54.212477999999997
 20
203.849141
 30
0.0
 40
7.4352099999999997
 50
176.31789499999999
 51
178.12536499999999
  0
ARC
  5
280
  8
0
 62
     7
 10
48.445532
 20
204.19700399999999
 30
0.0
 40
1.6579909999999991
 50
172.13839400000001
 51
175.5157889999999
  0
ARC
  5
281
  8
0
 62
     7
 10
46.871159000000013
 20
204.41338500000001
 30
0.0
 40
0.068825
 50
150.56176500000001
 51
171.30910499999999
  0
LINE
  5
282
  8
0
 62
     7
 10
49.771599999999999
 20
195.33699999999999
 30
0.0
 11
51.622999999999998
 21
195.33699999999999
 31
0.0
  0
LINE
  5
283
  8
0
 62
     7
 10
51.622999999999998
 20
195.33699999999999
 30
0.0
 11
53.474400000000003
 21
195.33699999999999
 31
0.0
  0
LINE
  5
284
  8
0
 62
     7
 10
49.434800000000003
 20
195.00200000000001
 30
0.0
 11
51.622999999999998
 21
195.00200000000001
 31
0.0
  0
LINE
  5
285
  8
0
 62
     7
 10
51.622999999999998
 20
195.00200000000001
 30
0.0
 11
53.811199999999999
 21
195.00200000000001
 31
0.0
  0
LINE
  5
286
  8
0
 62
     7
 10
49.434800000000003
 20
193.66499999999999
 30
0.0
 11
53.811199999999999
 21
193.66499999999999
 31
0.0
  0
LINE
  5
287
  8
0
 62
     7
 10
47.751199999999997
 20
191.92400000000001
 30
0.0
 11
51.624400000000001
 21
191.92400000000001
 31
0.0
  0
ARC
  5
288
  8
0
 62
     7
 10
56.075088000000001
 20
208.16190700000001
 30
0.0
 40
0.690311
 50
270.89084300000002
 51
335.01011099999999
  0
ARC
  5
289
  8
0
 62
     7
 10
47.171939000000002
 20
208.16025500000001
 30
0.0
 40
0.688643
 50
204.902952
 51
269.19613399999997
  0
ARC
  5
28A
  8
0
 62
     7
 10
59.220022
 20
206.70009400000001
 30
0.0
 40
2.7777590000000001
 50
90.440708999999984
 51
155.08521500000001
  0
ARC
  5
28B
  8
0
 62
     7
 10
44.008796999999987
 20
206.670142
 30
0.0
 40
2.8079259999999988
 50
25.303342000000001
 51
89.167096999999998
  0
ARC
  5
28C
  8
0
 62
     7
 10
59.159402
 20
210.527107
 30
0.0
 40
1.0500689999999999
 50
272.142335
 51
357.89674400000001
  0
ARC
  5
28D
  8
0
 62
     7
 10
44.088625
 20
210.52686499999999
 30
0.0
 40
1.0498190000000001
 50
182.09057200000001
 51
267.87038799999999
  0
ARC
  5
28E
  8
0
 62
     7
 10
58.831665000000001
 20
212.160415
 30
0.0
 40
2.2924660000000001
 50
339.72109
 51
359.99312300000003
  0
ARC
  5
28F
  8
0
 62
     7
 10
59.386557999999987
 20
211.99272199999999
 30
0.0
 40
1.7142049999999991
 50
298.66209199999997
 51
338.55044800000002
  0
ARC
  5
290
  8
0
 62
     7
 10
43.842075999999992
 20
211.97726900000001
 30
0.0
 40
1.6912560000000001
 50
196.48532700000001
 51
241.67055500000001
  0
ARC
  5
291
  8
0
 62
     7
 10
44.299163
 20
212.136898
 30
0.0
 40
2.174977999999999
 50
179.387711
 51
197.10070099999999
  0
LINE
  5
292
  8
0
 62
     7
 10
49.6126
 20
196.172
 30
0.0
 11
49.400100000000002
 21
196.172
 31
0.0
  0
LINE
  5
293
  8
0
 62
     7
 10
53.845999999999997
 20
196.172
 30
0.0
 11
53.633099999999999
 21
196.172
 31
0.0
  0
LINE
  5
294
  8
0
 62
     7
 10
49.400100000000002
 20
196.172
 30
0.0
 11
49.265900000000002
 21
196.30600000000001
 31
0.0
  0
LINE
  5
295
  8
0
 62
     7
 10
53.980200000000004
 20
196.30600000000001
 30
0.0
 11
53.845999999999997
 21
196.172
 31
0.0
  0
LINE
  5
296
  8
0
 62
     7
 10
53.979300000000002
 20
199.09700000000001
 30
0.0
 11
53.980200000000004
 21
196.30600000000001
 31
0.0
  0
LINE
  5
297
  8
0
 62
     7
 10
49.265900000000002
 20
196.30600000000001
 30
0.0
 11
49.26639999999999
 21
199.09700000000001
 31
0.0
  0
ARC
  5
298
  8
0
 62
     7
 10
42.333729999999989
 20
198.60016999999999
 30
0.0
 40
6.9504289999999989
 50
4.0986440000000002
 51
5.9539749999999998
  0
ARC
  5
299
  8
0
 62
     7
 10
47.470914999999998
 20
199.11806799999999
 30
0.0
 40
1.7873220000000001
 50
6.523752
 51
12.871278999999991
  0
ARC
  5
29A
  8
0
 62
     7
 10
47.770625999999993
 20
199.17837800000001
 30
0.0
 40
1.4817299999999991
 50
13.179458
 51
33.544244999999997
  0
ARC
  5
29B
  8
0
 62
     7
 10
47.510567999999992
 20
199.04196400000001
 30
0.0
 40
1.774109999999999
 50
32.575097
 51
42.387578000000012
  0
ARC
  5
29C
  8
0
 62
     7
 10
47.53772
 20
199.041156
 30
0.0
 40
1.754702999999999
 50
43.004756999999991
 51
53.777911000000003
  0
ARC
  5
29D
  8
0
 62
     7
 10
47.616494999999993
 20
199.15712600000001
 30
0.0
 40
1.6146039999999999
 50
53.601255000000002
 51
66.115960999999984
  0
ARC
  5
29E
  8
0
 62
     7
 10
47.747596000000001
 20
199.429102
 30
0.0
 40
1.3128729999999991
 50
66.541679999999999
 51
70.923567000000006
  0
ARC
  5
29F
  8
0
 62
     7
 10
47.168453
 20
197.74442400000001
 30
0.0
 40
3.0943169999999989
 50
70.983982999999995
 51
75.946117999999998
  0
ARC
  5
2A0
  8
0
 62
     7
 10
57.056660999999998
 20
194.33715100000001
 30
0.0
 40
6.6385309999999986
 50
105.11156099999999
 51
106.97752300000001
  0
ARC
  5
2A1
  8
0
 62
     7
 10
55.609242999999999
 20
199.14216499999989
 30
0.0
 40
1.6203899999999991
 50
107.63910199999999
 51
113.02487600000001
  0
ARC
  5
2A2
  8
0
 62
     7
 10
55.532165999999997
 20
199.325064
 30
0.0
 40
1.421913999999999
 50
113.04905599999999
 51
127.261861
  0
ARC
  5
2A3
  8
0
 62
     7
 10
55.695680000000003
 20
199.055183
 30
0.0
 40
1.736025999999999
 50
126.16394200000001
 51
137.05334999999999
  0
ARC
  5
2A4
  8
0
 62
     7
 10
55.672175000000003
 20
199.089336
 30
0.0
 40
1.6955750000000001
 50
137.35697999999999
 51
147.62870599999999
  0
ARC
  5
2A5
  8
0
 62
     7
 10
55.640963999999997
 20
199.107868
 30
0.0
 40
1.6592919999999991
 50
147.592139
 51
165.75331399999999
  0
ARC
  5
2A6
  8
0
 62
     7
 10
55.451334000000003
 20
199.18129200000001
 30
0.0
 40
1.457630999999999
 50
166.71633499999999
 51
170.73710199999999
  0
ARC
  5
2A7
  8
0
 62
     7
 10
56.340524000000002
 20
199.03765000000001
 30
0.0
 40
2.358349
 50
170.770116
 51
174.863539
  0
ARC
  5
2A8
  8
0
 62
     7
 10
63.673802999999999
 20
198.385311
 30
0.0
 40
9.7205839999999988
 50
174.90369799999999
 51
175.80166700000001
  0
ARC
  5
2A9
  8
0
 62
     7
 10
55.131855999999999
 20
201.59285600000001
 30
0.0
 40
0.8687059999999998
 50
282.91389399999991
 51
357.436531
  0
ARC
  5
2AA
  8
0
 62
     7
 10
48.114049999999999
 20
201.59271000000001
 30
0.0
 40
0.8685739999999999
 50
182.554259
 51
257.08094199999999
  0
LINE
  5
2AB
  8
0
 62
     7
 10
55.99969999999999
 20
202.00999999999999
 30
0.0
 11
55.99969999999999
 21
201.554
 31
0.0
  0
LINE
  5
2AC
  8
0
 62
     7
 10
47.246299999999998
 20
201.554
 30
0.0
 11
47.246299999999998
 21
202.00999999999999
 31
0.0
  0
ARC
  5
2AD
  8
0
 62
     7
 10
47.127070000000003
 20
202.01031499999999
 30
0.0
 40
0.119268
 50
0.079376
 51
7.5487729999999988
  0
ARC
  5
2AE
  8
0
 62
     7
 10
47.160653000000003
 20
202.00752700000001
 30
0.0
 40
0.08664
 50
12.299355
 51
24.57053800000001
  0
ARC
  5
2AF
  8
0
 62
     7
 10
47.160913000000001
 20
202.01054099999999
 30
0.0
 40
0.085191
 50
22.79926
 51
37.583978999999999
  0
ARC
  5
2B0
  8
0
 62
     7
 10
47.142026999999999
 20
201.98806300000001
 30
0.0
 40
0.114042
 50
40.747656999999997
 51
53.202201000000009
  0
ARC
  5
2B1
  8
0
 62
     7
 10
56.251565999999997
 20
201.82518300000001
 30
0.0
 40
0.333494
 50
130.33865399999999
 51
134.63369599999999
  0
ARC
  5
2B2
  8
0
 62
     7
 10
56.091465999999997
 20
202.00819300000001
 30
0.0
 40
0.091954
 50
143.80058399999999
 51
157.38500500000001
  0
ARC
  5
2B3
  8
0
 62
     7
 10
56.052047999999999
 20
202.01863700000001
 30
0.0
 40
0.051845
 50
151.276005
 51
171.854062
  0
ARC
  5
2B4
  8
0
 62
     7
 10
56.081488
 20
202.01281299999999
 30
0.0
 40
0.081829
 50
170.73815200000001
 51
181.63369900000001
  0
ARC
  5
2B5
  8
0
 62
     7
 10
44.263212000000003
 20
205.252962
 30
0.0
 40
2.9834279999999991
 50
0.8150159999999999
 51
3.497148999999999
  0
ARC
  5
2B6
  8
0
 62
     7
 10
46.538995
 20
205.38022100000001
 30
0.0
 40
0.704219
 50
4.4571519999999989
 51
12.367006
  0
ARC
  5
2B7
  8
0
 62
     7
 10
46.541789999999999
 20
205.37247199999999
 30
0.0
 40
0.7031960000000002
 50
13.032441
 51
27.12016800000001
  0
ARC
  5
2B8
  8
0
 62
     7
 10
44.275565
 20
204.28422599999999
 30
0.0
 40
3.2169880000000002
 50
25.971665000000002
 51
28.112995000000002
  0
ARC
  5
2B9
  8
0
 62
     7
 10
59.996689000000003
 20
203.76742899999999
 30
0.0
 40
4.3639169999999989
 50
152.23845700000001
 51
154.51359500000001
  0
ARC
  5
2BA
  8
0
 62
     7
 10
56.665336000000003
 20
205.37690599999999
 30
0.0
 40
0.6644770000000002
 50
156.185349
 51
166.58685800000001
  0
ARC
  5
2BB
  8
0
 62
     7
 10
56.595970999999999
 20
205.39995200000001
 30
0.0
 40
0.591691
 50
167.19952000000001
 51
173.56396799999999
  0
ARC
  5
2BC
  8
0
 62
     7
 10
57.418640000000003
 20
205.31197900000001
 30
0.0
 40
1.4190439999999991
 50
173.75767200000001
 51
180.66948500000001
  0
ARC
  5
2BD
  8
0
 62
     7
 10
45.262
 20
206.13003
 30
0.0
 40
2.2714369999999988
 50
320.35509400000001
 51
325.434439
  0
ARC
  5
2BE
  8
0
 62
     7
 10
46.678608999999987
 20
205.11690899999999
 30
0.0
 40
0.530979
 50
328.73503099999999
 51
335.5737180000001
  0
ARC
  5
2BF
  8
0
 62
     7
 10
46.390844999999999
 20
205.252489
 30
0.0
 40
0.8490629999999999
 50
335.27352000000002
 51
343.51260000000002
  0
ARC
  5
2C0
  8
0
 62
     7
 10
46.391764999999999
 20
205.25452300000001
 30
0.0
 40
0.8487620000000001
 50
343.36335600000001
 51
356.37015700000001
  0
ARC
  5
2C1
  8
0
 62
     7
 10
45.05616899999999
 20
205.421752
 30
0.0
 40
2.1938110000000002
 50
354.21925899999991
 51
356.69820399999998
  0
ARC
  5
2C2
  8
0
 62
     7
 10
59.539653000000001
 20
205.547121
 30
0.0
 40
3.5488989999999991
 50
184.06740099999999
 51
186.61460400000001
  0
ARC
  5
2C3
  8
0
 62
     7
 10
56.860303999999999
 20
205.249953
 30
0.0
 40
0.8532610000000001
 50
187.517438
 51
196.22657000000001
  0
ARC
  5
2C4
  8
0
 62
     7
 10
56.838586999999997
 20
205.250091
 30
0.0
 40
0.8324709999999999
 50
196.65331699999999
 51
209.40752599999999
  0
ARC
  5
2C5
  8
0
 62
     7
 10
56.830047
 20
205.28595899999999
 30
0.0
 40
0.843387
 50
211.81590499999999
 51
217.255157
  0
ARC
  5
2C6
  8
0
 62
     7
 10
57.885668999999993
 20
206.08895200000001
 30
0.0
 40
2.1697120000000001
 50
217.25787099999999
 51
220.46691899999999
  0
ARC
  5
2C7
  8
0
 62
     7
 10
55.455309999999997
 20
206.307479
 30
0.0
 40
0.848244
 50
323.26309600000002
 51
359.8435629999999
  0
ARC
  5
2C8
  8
0
 62
     7
 10
47.783650999999999
 20
206.30385899999999
 30
0.0
 40
0.8387620000000001
 50
179.91093499999999
 51
216.91205299999999
  0
LINE
  5
2C9
  8
0
 62
     7
 10
56.303600000000003
 20
207.47200000000001
 30
0.0
 11
56.303600000000003
 21
206.30500000000001
 31
0.0
  0
LINE
  5
2CA
  8
0
 62
     7
 10
46.944899999999997
 20
206.30500000000001
 30
0.0
 11
46.944899999999997
 21
207.47200000000001
 31
0.0
  0
ARC
  5
2CB
  8
0
 62
     7
 10
55.097044999999987
 20
203.48214200000001
 30
0.0
 40
1.6527810000000001
 50
35.799342000000003
 51
46.488062999999997
  0
ARC
  5
2CC
  8
0
 62
     7
 10
55.080114000000002
 20
203.45531600000001
 30
0.0
 40
1.675209999999999
 50
304.77981399999999
 51
324.07680399999998
  0
ARC
  5
2CD
  8
0
 62
     7
 10
48.191572999999998
 20
203.483307
 30
0.0
 40
1.7128419999999991
 50
216.167788
 51
235.04940500000001
  0
ARC
  5
2CE
  8
0
 62
     7
 10
48.188503000000011
 20
203.44313
 30
0.0
 40
1.708283
 50
133.57226
 51
143.88656
  0
LINE
  5
2CF
  8
0
 62
     7
 10
53.474400000000003
 20
196.172
 30
0.0
 11
53.474400000000003
 21
195.33699999999999
 31
0.0
  0
LINE
  5
2D0
  8
0
 62
     7
 10
49.771599999999999
 20
195.33699999999999
 30
0.0
 11
49.771599999999999
 21
196.172
 31
0.0
  0
LINE
  5
2D1
  8
0
 62
     7
 10
53.811199999999999
 20
195.00200000000001
 30
0.0
 11
53.811199999999999
 21
193.66499999999999
 31
0.0
  0
LINE
  5
2D2
  8
0
 62
     7
 10
49.434800000000003
 20
193.66499999999999
 30
0.0
 11
49.434800000000003
 21
195.00200000000001
 31
0.0
  0
LINE
  5
2D3
  8
0
 62
     7
 10
53.474400000000003
 20
195.33699999999999
 30
0.0
 11
53.811199999999999
 21
195.00200000000001
 31
0.0
  0
LINE
  5
2D4
  8
0
 62
     7
 10
49.434800000000003
 20
195.00200000000001
 30
0.0
 11
49.771599999999999
 21
195.33699999999999
 31
0.0
  0
ARC
  5
2D5
  8
0
 62
     7
 10
45.118918999999998
 20
200.21198000000001
 30
0.0
 40
8.7831799999999998
 50
290.413138
 51
292.05372499999999
  0
ARC
  5
2D6
  8
0
 62
     7
 10
47.665570999999993
 20
193.892258
 30
0.0
 40
1.9696919999999991
 50
292.41976399999999
 51
301.71542399999998
  0
ARC
  5
2D7
  8
0
 62
     7
 10
47.831336999999991
 20
193.55501899999999
 30
0.0
 40
1.596082
 50
303.01771200000002
 51
324.49462999999997
  0
ARC
  5
2D8
  8
0
 62
     7
 10
47.742669999999997
 20
193.599581
 30
0.0
 40
1.6942109999999999
 50
325.00933099999997
 51
344.69543700000003
  0
ARC
  5
2D9
  8
0
 62
     7
 10
47.854365999999992
 20
193.53075699999999
 30
0.0
 40
1.5687439999999999
 50
346.04332499999998
 51
355.41806400000002
  0
ARC
  5
2DA
  8
0
 62
     7
 10
44.401539999999997
 20
193.85976099999999
 30
0.0
 40
5.0370879999999989
 50
354.82513799999998
 51
357.78047199999997
  0
ARC
  5
2DB
  8
0
 62
     7
 10
62.162391999999997
 20
194.01613900000001
 30
0.0
 40
8.3586030000000004
 50
182.40985299999991
 51
184.02256499999999
  0
ARC
  5
2DC
  8
0
 62
     7
 10
55.569338999999999
 20
193.568546
 30
0.0
 40
1.7504669999999991
 50
184.54648999999989
 51
193.753072
  0
ARC
  5
2DD
  8
0
 62
     7
 10
55.183806999999987
 20
193.493313
 30
0.0
 40
1.3582289999999999
 50
194.53686300000001
 51
204.56137200000001
  0
ARC
  5
2DE
  8
0
 62
     7
 10
55.815872999999989
 20
193.76863299999999
 30
0.0
 40
2.0475819999999989
 50
204.21659
 51
213.85136299999999
  0
ARC
  5
2DF
  8
0
 62
     7
 10
55.377222000000003
 20
193.45478299999999
 30
0.0
 40
1.5085500000000001
 50
213.232215
 51
222.18606699999989
  0
ARC
  5
2E0
  8
0
 62
     7
 10
55.147306
 20
193.27425500000001
 30
0.0
 40
1.217131999999999
 50
223.157355
 51
240.329937
  0
ARC
  5
2E1
  8
0
 62
     7
 10
55.42997299999999
 20
193.715923
 30
0.0
 40
1.7410239999999999
 50
239.44206299999999
 51
243.192747
  0
ARC
  5
2E2
  8
0
 62
     7
 10
56.076039000000002
 20
194.984084
 30
0.0
 40
3.164267999999999
 50
243.10757799999999
 51
246.67297300000001
  0
ARC
  5
2E3
  8
0
 62
     7
 10
57.646152999999998
 20
198.65373600000001
 30
0.0
 40
7.1557019999999998
 50
246.763711
 51
248.84300200000001
  0
ARC
  5
2E4
  8
0
 62
     7
 10
55.066194999999993
 20
191.97834399999999
 30
0.0
 40
0.003383
 50
306.62582400000002
 51
143.309021
  0
ARC
  5
2E5
  8
0
 62
     7
 10
55.089046000000003
 20
192.08566200000001
 30
0.0
 40
0.111988
 50
256.16985799999998
 51
259.27905199999998
  0
ARC
  5
2E6
  8
0
 62
     7
 10
47.885359999999991
 20
190.907838
 30
0.0
 40
1.0251859999999999
 50
97.518394000000015
 51
162.108869
  0
LINE
  5
2E7
  8
0
 62
     7
 10
46.953699999999991
 20
191.28
 30
0.0
 11
51.624400000000001
 21
191.28
 31
0.0
  0
ARC
  5
2E8
  8
0
 62
     7
 10
50.846995
 20
187.00341
 30
0.0
 40
3.9376319999999989
 50
196.6463389999999
 51
202.5471050000001
  0
ARC
  5
2E9
  8
0
 62
     7
 10
53.601902000000003
 20
187.863461
 30
0.0
 40
6.8235460000000003
 50
191.58845700000001
 51
196.93879100000001
  0
ARC
  5
2EA
  8
0
 62
     7
 10
57.661233000000003
 20
188.737438
 30
0.0
 40
10.975771
 50
185.74528299999989
 51
191.80103399999999
  0
ARC
  5
2EB
  8
0
 62
     7
 10
60.509453000000001
 20
189.09982199999999
 30
0.0
 40
13.846166
 50
177.6694
 51
186.05745999999999
  0
ARC
  5
2EC
  8
0
 62
     7
 10
55.367500999999997
 20
189.27400800000001
 30
0.0
 40
8.701455000000001
 50
170.61489800000001
 51
177.43856600000001
  0
ARC
  5
2ED
  8
0
 62
     7
 10
51.088138000000001
 20
189.938805
 30
0.0
 40
4.3711669999999989
 50
162.653344
 51
170.06523899999999
  0
ARC
  5
2EE
  8
0
 62
     7
 10
122.786716
 20
120.520191
 30
0.0
 40
7.583143999999999
 50
187.964844
 51
204.174522
  0
ARC
  5
2EF
  8
0
 62
     7
 10
123.09474400000001
 20
120.536517
 30
0.0
 40
7.8917460000000004
 50
180.02599299999989
 51
183.898402
  0
ARC
  5
2F0
  8
0
 62
     7
 10
122.86279999999999
 20
120.527435
 30
0.0
 40
7.6598030000000001
 50
155.91905800000001
 51
179.95880399999999
  0
LINE
  5
2F1
  8
0
 62
     7
 10
117.87
 20
124.947
 30
0.0
 11
117.87
 21
121.307
 31
0.0
  0
LINE
  5
2F2
  8
0
 62
     7
 10
117.87
 20
120.749
 30
0.0
 11
117.87
 21
116.02
 31
0.0
  0
LINE
  5
2F3
  8
0
 62
     7
 10
117.244
 20
116.02
 30
0.0
 11
117.77
 21
116.02
 31
0.0
  0
LINE
  5
2F4
  8
0
 62
     7
 10
117.77
 20
125.047
 30
0.0
 11
117.244
 21
125.047
 31
0.0
  0
LINE
  5
2F5
  8
0
 62
     7
 10
117.244
 20
125.047
 30
0.0
 11
117.77
 21
125.047
 31
0.0
  0
LINE
  5
2F6
  8
0
 62
     7
 10
117.244
 20
116.032
 30
0.0
 11
117.77
 21
116.032
 31
0.0
  0
LINE
  5
2F7
  8
0
 62
     7
 10
117.77
 20
116.02200000000001
 30
0.0
 11
117.244
 21
116.02200000000001
 31
0.0
  0
LINE
  5
2F8
  8
0
 62
     7
 10
117.244
 20
125.04300000000001
 30
0.0
 11
117.77
 21
125.04300000000001
 31
0.0
  0
LINE
  5
2F9
  8
0
 62
     7
 10
117.77
 20
125.033
 30
0.0
 11
117.244
 21
125.033
 31
0.0
  0
LINE
  5
2FA
  8
0
 62
     7
 10
117.87
 20
116.121
 30
0.0
 11
117.79300000000001
 21
116.04600000000001
 31
0.0
  0
LINE
  5
2FB
  8
0
 62
     7
 10
117.79300000000001
 20
116.054
 30
0.0
 11
117.87
 21
116.136
 31
0.0
  0
LINE
  5
2FC
  8
0
 62
     7
 10
117.244
 20
125.033
 30
0.0
 11
117.77
 21
125.033
 31
0.0
  0
LINE
  5
2FD
  8
0
 62
     7
 10
117.244
 20
116.069
 30
0.0
 11
117.77
 21
116.069
 31
0.0
  0
LINE
  5
2FE
  8
0
 62
     7
 10
117.77
 20
116.04300000000001
 30
0.0
 11
117.244
 21
116.04300000000001
 31
0.0
  0
LINE
  5
2FF
  8
0
 62
     7
 10
117.244
 20
125.017
 30
0.0
 11
117.77
 21
125.017
 31
0.0
  0
LINE
  5
300
  8
0
 62
     7
 10
117.77
 20
124.995
 30
0.0
 11
117.244
 21
124.995
 31
0.0
  0
LINE
  5
301
  8
0
 62
     7
 10
117.87
 20
116.13800000000001
 30
0.0
 11
117.79300000000001
 21
116.069
 31
0.0
  0
LINE
  5
302
  8
0
 62
     7
 10
117.79300000000001
 20
116.089
 30
0.0
 11
117.87
 21
116.176
 31
0.0
  0
LINE
  5
303
  8
0
 62
     7
 10
117.23699999999999
 20
116.089
 30
0.0
 11
117.79300000000001
 21
116.089
 31
0.0
  0
LINE
  5
304
  8
0
 62
     7
 10
117.244
 20
124.994
 30
0.0
 11
117.77
 21
124.994
 31
0.0
  0
LINE
  5
305
  8
0
 62
     7
 10
117.244
 20
116.13
 30
0.0
 11
117.77
 21
116.13
 31
0.0
  0
LINE
  5
306
  8
0
 62
     7
 10
117.77
 20
116.089
 30
0.0
 11
117.244
 21
116.089
 31
0.0
  0
LINE
  5
307
  8
0
 62
     7
 10
117.244
 20
124.96599999999999
 30
0.0
 11
117.77
 21
124.96599999999999
 31
0.0
  0
LINE
  5
308
  8
0
 62
     7
 10
117.77
 20
124.932
 30
0.0
 11
117.244
 21
124.932
 31
0.0
  0
LINE
  5
309
  8
0
 62
     7
 10
117.87
 20
116.179
 30
0.0
 11
117.79300000000001
 21
116.116
 31
0.0
  0
LINE
  5
30A
  8
0
 62
     7
 10
117.77
 20
116.13
 30
0.0
 11
117.77
 21
116.089
 31
0.0
  0
LINE
  5
30B
  8
0
 62
     7
 10
117.79300000000001
 20
116.149
 30
0.0
 11
117.87
 21
116.23999999999999
 31
0.0
  0
LINE
  5
30C
  8
0
 62
     7
 10
117.23699999999999
 20
116.149
 30
0.0
 11
117.79300000000001
 21
116.149
 31
0.0
  0
LINE
  5
30D
  8
0
 62
     7
 10
117.244
 20
124.932
 30
0.0
 11
117.77
 21
124.932
 31
0.0
  0
LINE
  5
30E
  8
0
 62
     7
 10
117.244
 20
116.215
 30
0.0
 11
117.77
 21
116.215
 31
0.0
  0
LINE
  5
30F
  8
0
 62
     7
 10
117.77
 20
116.16
 30
0.0
 11
117.244
 21
116.16
 31
0.0
  0
LINE
  5
310
  8
0
 62
     7
 10
117.244
 20
124.892
 30
0.0
 11
117.77
 21
124.892
 31
0.0
  0
LINE
  5
311
  8
0
 62
     7
 10
117.77
 20
124.846
 30
0.0
 11
117.244
 21
124.846
 31
0.0
  0
LINE
  5
312
  8
0
 62
     7
 10
117.87
 20
116.244
 30
0.0
 11
117.79300000000001
 21
116.187
 31
0.0
  0
LINE
  5
313
  8
0
 62
     7
 10
117.77
 20
116.215
 30
0.0
 11
117.77
 21
116.16
 31
0.0
  0
LINE
  5
314
  8
0
 62
     7
 10
117.79300000000001
 20
116.232
 30
0.0
 11
117.87
 21
116.328
 31
0.0
  0
LINE
  5
315
  8
0
 62
     7
 10
117.23699999999999
 20
116.232
 30
0.0
 11
117.79300000000001
 21
116.232
 31
0.0
  0
LINE
  5
316
  8
0
 62
     7
 10
117.24299999999999
 20
124.845
 30
0.0
 11
117.771
 21
124.845
 31
0.0
  0
LINE
  5
317
  8
0
 62
     7
 10
117.244
 20
116.324
 30
0.0
 11
117.77
 21
116.324
 31
0.0
  0
LINE
  5
318
  8
0
 62
     7
 10
117.77
 20
116.255
 30
0.0
 11
117.244
 21
116.255
 31
0.0
  0
LINE
  5
319
  8
0
 62
     7
 10
117.244
 20
124.79300000000001
 30
0.0
 11
117.77
 21
124.79300000000001
 31
0.0
  0
LINE
  5
31A
  8
0
 62
     7
 10
117.77
 20
124.736
 30
0.0
 11
117.244
 21
124.736
 31
0.0
  0
LINE
  5
31B
  8
0
 62
     7
 10
117.87
 20
116.33199999999999
 30
0.0
 11
117.79300000000001
 21
116.283
 31
0.0
  0
LINE
  5
31C
  8
0
 62
     7
 10
117.77
 20
116.324
 30
0.0
 11
117.77
 21
116.255
 31
0.0
  0
LINE
  5
31D
  8
0
 62
     7
 10
117.79300000000001
 20
116.339
 30
0.0
 11
117.87
 21
116.43899999999999
 31
0.0
  0
LINE
  5
31E
  8
0
 62
     7
 10
117.23699999999999
 20
116.339
 30
0.0
 11
117.79300000000001
 21
116.339
 31
0.0
  0
LINE
  5
31F
  8
0
 62
     7
 10
117.24299999999999
 20
124.735
 30
0.0
 11
117.771
 21
124.735
 31
0.0
  0
LINE
  5
320
  8
0
 62
     7
 10
117.244
 20
116.456
 30
0.0
 11
117.77
 21
116.456
 31
0.0
  0
LINE
  5
321
  8
0
 62
     7
 10
117.77
 20
116.373
 30
0.0
 11
117.244
 21
116.373
 31
0.0
  0
LINE
  5
322
  8
0
 62
     7
 10
117.244
 20
124.673
 30
0.0
 11
117.77
 21
124.673
 31
0.0
  0
LINE
  5
323
  8
0
 62
     7
 10
117.77
 20
124.602
 30
0.0
 11
117.244
 21
124.602
 31
0.0
  0
LINE
  5
324
  8
0
 62
     7
 10
117.23699999999999
 20
116.46899999999999
 30
0.0
 11
117.79300000000001
 21
116.46899999999999
 31
0.0
  0
LINE
  5
325
  8
0
 62
     7
 10
117.79300000000001
 20
116.46899999999999
 30
0.0
 11
117.87
 21
116.572
 31
0.0
  0
LINE
  5
326
  8
0
 62
     7
 10
117.87
 20
116.444
 30
0.0
 11
117.79300000000001
 21
116.402
 31
0.0
  0
LINE
  5
327
  8
0
 62
     7
 10
117.77
 20
116.456
 30
0.0
 11
117.77
 21
116.373
 31
0.0
  0
LINE
  5
328
  8
0
 62
     7
 10
117.24299999999999
 20
124.602
 30
0.0
 11
117.771
 21
124.602
 31
0.0
  0
LINE
  5
329
  8
0
 62
     7
 10
117.244
 20
116.61
 30
0.0
 11
117.77
 21
116.61
 31
0.0
  0
LINE
  5
32A
  8
0
 62
     7
 10
117.77
 20
116.514
 30
0.0
 11
117.244
 21
116.514
 31
0.0
  0
LINE
  5
32B
  8
0
 62
     7
 10
117.23699999999999
 20
116.621
 30
0.0
 11
117.792
 21
116.621
 31
0.0
  0
LINE
  5
32C
  8
0
 62
     7
 10
117.792
 20
116.621
 30
0.0
 11
117.87
 21
116.727
 31
0.0
  0
LINE
  5
32D
  8
0
 62
     7
 10
117.87
 20
116.578
 30
0.0
 11
117.79300000000001
 21
116.54300000000001
 31
0.0
  0
LINE
  5
32E
  8
0
 62
     7
 10
117.77
 20
116.61
 30
0.0
 11
117.77
 21
116.514
 31
0.0
  0
LINE
  5
32F
  8
0
 62
     7
 10
117.244
 20
124.52800000000001
 30
0.0
 11
117.77
 21
124.52800000000001
 31
0.0
  0
LINE
  5
330
  8
0
 62
     7
 10
117.77
 20
124.447
 30
0.0
 11
117.244
 21
124.447
 31
0.0
  0
LINE
  5
331
  8
0
 62
     7
 10
117.24299999999999
 20
124.447
 30
0.0
 11
117.77200000000001
 21
124.447
 31
0.0
  0
LINE
  5
332
  8
0
 62
     7
 10
117.23699999999999
 20
116.795
 30
0.0
 11
117.792
 21
116.795
 31
0.0
  0
LINE
  5
333
  8
0
 62
     7
 10
117.792
 20
116.795
 30
0.0
 11
117.87
 21
116.90300000000001
 31
0.0
  0
LINE
  5
334
  8
0
 62
     7
 10
117.87
 20
116.733
 30
0.0
 11
117.792
 21
116.706
 31
0.0
  0
LINE
  5
335
  8
0
 62
     7
 10
117.244
 20
116.786
 30
0.0
 11
117.77
 21
116.786
 31
0.0
  0
LINE
  5
336
  8
0
 62
     7
 10
117.77
 20
116.786
 30
0.0
 11
117.77
 21
116.678
 31
0.0
  0
LINE
  5
337
  8
0
 62
     7
 10
117.77
 20
116.678
 30
0.0
 11
117.244
 21
116.678
 31
0.0
  0
LINE
  5
338
  8
0
 62
     7
 10
117.244
 20
124.363
 30
0.0
 11
117.77
 21
124.363
 31
0.0
  0
LINE
  5
339
  8
0
 62
     7
 10
117.77
 20
124.271
 30
0.0
 11
117.244
 21
124.271
 31
0.0
  0
LINE
  5
33A
  8
0
 62
     7
 10
117.24299999999999
 20
124.27
 30
0.0
 11
117.77200000000001
 21
124.27
 31
0.0
  0
LINE
  5
33B
  8
0
 62
     7
 10
117.244
 20
116.983
 30
0.0
 11
117.77
 21
116.983
 31
0.0
  0
LINE
  5
33C
  8
0
 62
     7
 10
117.77
 20
116.86199999999999
 30
0.0
 11
117.244
 21
116.86199999999999
 31
0.0
  0
LINE
  5
33D
  8
0
 62
     7
 10
117.87
 20
116.91
 30
0.0
 11
117.792
 21
116.89
 31
0.0
  0
LINE
  5
33E
  8
0
 62
     7
 10
117.77
 20
116.983
 30
0.0
 11
117.77
 21
116.86199999999999
 31
0.0
  0
LINE
  5
33F
  8
0
 62
     7
 10
117.792
 20
116.989
 30
0.0
 11
117.87
 21
117.099
 31
0.0
  0
LINE
  5
340
  8
0
 62
     7
 10
117.23699999999999
 20
116.989
 30
0.0
 11
117.792
 21
116.989
 31
0.0
  0
LINE
  5
341
  8
0
 62
     7
 10
117.244
 20
124.17700000000001
 30
0.0
 11
117.77
 21
124.17700000000001
 31
0.0
  0
LINE
  5
342
  8
0
 62
     7
 10
117.77
 20
124.074
 30
0.0
 11
117.244
 21
124.074
 31
0.0
  0
LINE
  5
343
  8
0
 62
     7
 10
117.24299999999999
 20
124.07299999999999
 30
0.0
 11
117.77200000000001
 21
124.07299999999999
 31
0.0
  0
LINE
  5
344
  8
0
 62
     7
 10
117.23699999999999
 20
117.203
 30
0.0
 11
117.79000000000001
 21
117.203
 31
0.0
  0
LINE
  5
345
  8
0
 62
     7
 10
117.79000000000001
 20
117.203
 30
0.0
 11
117.87
 21
117.31399999999999
 31
0.0
  0
LINE
  5
346
  8
0
 62
     7
 10
117.87
 20
117.10599999999999
 30
0.0
 11
117.79000000000001
 21
117.09399999999999
 31
0.0
  0
LINE
  5
347
  8
0
 62
     7
 10
117.244
 20
117.19799999999999
 30
0.0
 11
117.77
 21
117.19799999999999
 31
0.0
  0
LINE
  5
348
  8
0
 62
     7
 10
117.77
 20
117.19799999999999
 30
0.0
 11
117.77
 21
117.06699999999999
 31
0.0
  0
LINE
  5
349
  8
0
 62
     7
 10
117.77
 20
117.06699999999999
 30
0.0
 11
117.244
 21
117.06699999999999
 31
0.0
  0
LINE
  5
34A
  8
0
 62
     7
 10
117.244
 20
123.971
 30
0.0
 11
117.77
 21
123.971
 31
0.0
  0
LINE
  5
34B
  8
0
 62
     7
 10
117.77
 20
123.857
 30
0.0
 11
117.244
 21
123.857
 31
0.0
  0
LINE
  5
34C
  8
0
 62
     7
 10
117.24299999999999
 20
123.857
 30
0.0
 11
117.773
 21
123.857
 31
0.0
  0
LINE
  5
34D
  8
0
 62
     7
 10
117.23699999999999
 20
117.435
 30
0.0
 11
117.79000000000001
 21
117.435
 31
0.0
  0
LINE
  5
34E
  8
0
 62
     7
 10
117.79000000000001
 20
117.435
 30
0.0
 11
117.87
 21
117.54600000000001
 31
0.0
  0
LINE
  5
34F
  8
0
 62
     7
 10
117.87
 20
117.31999999999999
 30
0.0
 11
117.79000000000001
 21
117.31699999999999
 31
0.0
  0
LINE
  5
350
  8
0
 62
     7
 10
117.244
 20
117.432
 30
0.0
 11
117.77
 21
117.432
 31
0.0
  0
LINE
  5
351
  8
0
 62
     7
 10
117.77
 20
117.432
 30
0.0
 11
117.77
 21
117.291
 31
0.0
  0
LINE
  5
352
  8
0
 62
     7
 10
117.77
 20
117.291
 30
0.0
 11
117.244
 21
117.291
 31
0.0
  0
LINE
  5
353
  8
0
 62
     7
 10
117.244
 20
123.746
 30
0.0
 11
117.77
 21
123.746
 31
0.0
  0
LINE
  5
354
  8
0
 62
     7
 10
117.77
 20
123.623
 30
0.0
 11
117.244
 21
123.623
 31
0.0
  0
LINE
  5
355
  8
0
 62
     7
 10
117.24299999999999
 20
123.622
 30
0.0
 11
117.773
 21
123.622
 31
0.0
  0
LINE
  5
356
  8
0
 62
     7
 10
117.786
 20
117.553
 30
0.0
 11
117.87
 21
117.553
 31
0.0
  0
LINE
  5
357
  8
0
 62
     7
 10
117.197
 20
117.553
 30
0.0
 11
117.238
 21
117.553
 31
0.0
  0
LINE
  5
358
  8
0
 62
     7
 10
117.20699999999999
 20
123.505
 30
0.0
 11
117.858
 21
123.505
 31
0.0
  0
LINE
  5
359
  8
0
 62
     7
 10
117.238
 20
117.68300000000001
 30
0.0
 11
117.789
 21
117.68300000000001
 31
0.0
  0
LINE
  5
35A
  8
0
 62
     7
 10
117.789
 20
117.68300000000001
 30
0.0
 11
117.87
 21
117.79600000000001
 31
0.0
  0
LINE
  5
35B
  8
0
 62
     7
 10
117.87
 20
117.553
 30
0.0
 11
117.789
 21
117.557
 31
0.0
  0
LINE
  5
35C
  8
0
 62
     7
 10
117.244
 20
117.68300000000001
 30
0.0
 11
117.77
 21
117.68300000000001
 31
0.0
  0
LINE
  5
35D
  8
0
 62
     7
 10
117.77
 20
117.68300000000001
 30
0.0
 11
117.77
 21
117.532
 31
0.0
  0
LINE
  5
35E
  8
0
 62
     7
 10
117.77
 20
117.532
 30
0.0
 11
117.244
 21
117.532
 31
0.0
  0
LINE
  5
35F
  8
0
 62
     7
 10
117.244
 20
123.505
 30
0.0
 11
117.77
 21
123.505
 31
0.0
  0
LINE
  5
360
  8
0
 62
     7
 10
117.77
 20
123.372
 30
0.0
 11
117.244
 21
123.372
 31
0.0
  0
LINE
  5
361
  8
0
 62
     7
 10
117.242
 20
123.372
 30
0.0
 11
117.774
 21
123.372
 31
0.0
  0
LINE
  5
362
  8
0
 62
     7
 10
117.77800000000001
 20
117.801
 30
0.0
 11
117.87
 21
117.801
 31
0.0
  0
LINE
  5
363
  8
0
 62
     7
 10
117.197
 20
117.801
 30
0.0
 11
117.241
 21
117.801
 31
0.0
  0
LINE
  5
364
  8
0
 62
     7
 10
117.206
 20
123.254
 30
0.0
 11
117.85899999999999
 21
123.254
 31
0.0
  0
LINE
  5
365
  8
0
 62
     7
 10
117.788
 20
117.94799999999999
 30
0.0
 11
117.87
 21
118.06
 31
0.0
  0
LINE
  5
366
  8
0
 62
     7
 10
117.87
 20
117.801
 30
0.0
 11
117.789
 21
117.81399999999999
 31
0.0
  0
LINE
  5
367
  8
0
 62
     7
 10
117.244
 20
117.949
 30
0.0
 11
117.77
 21
117.949
 31
0.0
  0
LINE
  5
368
  8
0
 62
     7
 10
117.77
 20
117.949
 30
0.0
 11
117.77
 21
117.79000000000001
 31
0.0
  0
LINE
  5
369
  8
0
 62
     7
 10
117.77
 20
117.79000000000001
 30
0.0
 11
117.244
 21
117.79000000000001
 31
0.0
  0
LINE
  5
36A
  8
0
 62
     7
 10
117.77
 20
123.105
 30
0.0
 11
117.244
 21
123.105
 31
0.0
  0
LINE
  5
36B
  8
0
 62
     7
 10
117.244
 20
123.246
 30
0.0
 11
117.77
 21
123.246
 31
0.0
  0
LINE
  5
36C
  8
0
 62
     7
 10
117.77
 20
118.06399999999999
 30
0.0
 11
117.87
 21
118.06399999999999
 31
0.0
  0
LINE
  5
36D
  8
0
 62
     7
 10
117.19799999999999
 20
118.06399999999999
 30
0.0
 11
117.244
 21
118.06399999999999
 31
0.0
  0
LINE
  5
36E
  8
0
 62
     7
 10
117.206
 20
122.989
 30
0.0
 11
117.85899999999999
 21
122.989
 31
0.0
  0
LINE
  5
36F
  8
0
 62
     7
 10
117.788
 20
118.226
 30
0.0
 11
117.87
 21
118.33799999999999
 31
0.0
  0
LINE
  5
370
  8
0
 62
     7
 10
117.87
 20
118.065
 30
0.0
 11
117.788
 21
118.086
 31
0.0
  0
LINE
  5
371
  8
0
 62
     7
 10
117.244
 20
118.229
 30
0.0
 11
117.77
 21
118.229
 31
0.0
  0
LINE
  5
372
  8
0
 62
     7
 10
117.77
 20
118.229
 30
0.0
 11
117.77
 21
118.06399999999999
 31
0.0
  0
LINE
  5
373
  8
0
 62
     7
 10
117.77
 20
118.06399999999999
 30
0.0
 11
117.244
 21
118.06399999999999
 31
0.0
  0
LINE
  5
374
  8
0
 62
     7
 10
117.77
 20
122.82299999999999
 30
0.0
 11
117.244
 21
122.82299999999999
 31
0.0
  0
LINE
  5
375
  8
0
 62
     7
 10
117.244
 20
122.973
 30
0.0
 11
117.77
 21
122.973
 31
0.0
  0
LINE
  5
376
  8
0
 62
     7
 10
117.19799999999999
 20
118.34099999999999
 30
0.0
 11
117.87
 21
118.34099999999999
 31
0.0
  0
LINE
  5
377
  8
0
 62
     7
 10
117.205
 20
122.711
 30
0.0
 11
117.861
 21
122.711
 31
0.0
  0
LINE
  5
378
  8
0
 62
     7
 10
117.244
 20
122.687
 30
0.0
 11
117.77
 21
122.687
 31
0.0
  0
LINE
  5
379
  8
0
 62
     7
 10
117.77
 20
122.53
 30
0.0
 11
117.244
 21
122.53
 31
0.0
  0
LINE
  5
37A
  8
0
 62
     7
 10
117.244
 20
118.523
 30
0.0
 11
117.77
 21
118.523
 31
0.0
  0
LINE
  5
37B
  8
0
 62
     7
 10
117.77
 20
118.34999999999999
 30
0.0
 11
117.244
 21
118.34999999999999
 31
0.0
  0
LINE
  5
37C
  8
0
 62
     7
 10
117.78700000000001
 20
118.518
 30
0.0
 11
117.87
 21
118.627
 31
0.0
  0
LINE
  5
37D
  8
0
 62
     7
 10
117.87
 20
118.34099999999999
 30
0.0
 11
117.788
 21
118.371
 31
0.0
  0
LINE
  5
37E
  8
0
 62
     7
 10
117.77
 20
118.523
 30
0.0
 11
117.77
 21
118.34999999999999
 31
0.0
  0
LINE
  5
37F
  8
0
 62
     7
 10
117.19799999999999
 20
118.629
 30
0.0
 11
117.87
 21
118.629
 31
0.0
  0
LINE
  5
380
  8
0
 62
     7
 10
117.205
 20
122.42100000000001
 30
0.0
 11
117.86199999999999
 21
122.42100000000001
 31
0.0
  0
LINE
  5
381
  8
0
 62
     7
 10
117.244
 20
122.38800000000001
 30
0.0
 11
117.77
 21
122.38800000000001
 31
0.0
  0
LINE
  5
382
  8
0
 62
     7
 10
117.77
 20
122.224
 30
0.0
 11
117.244
 21
122.224
 31
0.0
  0
LINE
  5
383
  8
0
 62
     7
 10
117.244
 20
118.82599999999999
 30
0.0
 11
117.77
 21
118.82599999999999
 31
0.0
  0
LINE
  5
384
  8
0
 62
     7
 10
117.77
 20
118.648
 30
0.0
 11
117.244
 21
118.648
 31
0.0
  0
LINE
  5
385
  8
0
 62
     7
 10
117.78700000000001
 20
118.81999999999999
 30
0.0
 11
117.87
 21
118.928
 31
0.0
  0
LINE
  5
386
  8
0
 62
     7
 10
117.87
 20
118.63
 30
0.0
 11
117.78700000000001
 21
118.66800000000001
 31
0.0
  0
LINE
  5
387
  8
0
 62
     7
 10
117.77
 20
118.82599999999999
 30
0.0
 11
117.77
 21
118.648
 31
0.0
  0
LINE
  5
388
  8
0
 62
     7
 10
117.199
 20
118.928
 30
0.0
 11
117.87
 21
118.928
 31
0.0
  0
LINE
  5
389
  8
0
 62
     7
 10
117.205
 20
122.12
 30
0.0
 11
117.86199999999999
 21
122.12
 31
0.0
  0
LINE
  5
38A
  8
0
 62
     7
 10
117.244
 20
122.08
 30
0.0
 11
117.77
 21
122.08
 31
0.0
  0
LINE
  5
38B
  8
0
 62
     7
 10
117.77
 20
121.911
 30
0.0
 11
117.244
 21
121.911
 31
0.0
  0
LINE
  5
38C
  8
0
 62
     7
 10
117.244
 20
119.139
 30
0.0
 11
117.77
 21
119.139
 31
0.0
  0
LINE
  5
38D
  8
0
 62
     7
 10
117.77
 20
118.95699999999999
 30
0.0
 11
117.244
 21
118.95699999999999
 31
0.0
  0
LINE
  5
38E
  8
0
 62
     7
 10
117.199
 20
119.23699999999999
 30
0.0
 11
117.87
 21
119.23699999999999
 31
0.0
  0
LINE
  5
38F
  8
0
 62
     7
 10
117.20399999999999
 20
121.81100000000001
 30
0.0
 11
117.863
 21
121.81100000000001
 31
0.0
  0
LINE
  5
390
  8
0
 62
     7
 10
117.77
 20
121.589
 30
0.0
 11
117.244
 21
121.589
 31
0.0
  0
LINE
  5
391
  8
0
 62
     7
 10
117.244
 20
121.764
 30
0.0
 11
117.77
 21
121.764
 31
0.0
  0
LINE
  5
392
  8
0
 62
     7
 10
117.244
 20
119.459
 30
0.0
 11
117.77
 21
119.459
 31
0.0
  0
LINE
  5
393
  8
0
 62
     7
 10
117.77
 20
119.27500000000001
 30
0.0
 11
117.244
 21
119.27500000000001
 31
0.0
  0
LINE
  5
394
  8
0
 62
     7
 10
117.2
 20
119.551
 30
0.0
 11
117.86799999999999
 21
119.551
 31
0.0
  0
LINE
  5
395
  8
0
 62
     7
 10
117.20399999999999
 20
121.495
 30
0.0
 11
117.864
 21
121.495
 31
0.0
  0
LINE
  5
396
  8
0
 62
     7
 10
117.244
 20
121.44
 30
0.0
 11
117.77
 21
121.44
 31
0.0
  0
LINE
  5
397
  8
0
 62
     7
 10
117.77
 20
121.262
 30
0.0
 11
117.244
 21
121.262
 31
0.0
  0
LINE
  5
398
  8
0
 62
     7
 10
117.244
 20
119.785
 30
0.0
 11
117.77
 21
119.785
 31
0.0
  0
LINE
  5
399
  8
0
 62
     7
 10
117.77
 20
119.59999999999999
 30
0.0
 11
117.244
 21
119.59999999999999
 31
0.0
  0
LINE
  5
39A
  8
0
 62
     7
 10
117.2
 20
119.872
 30
0.0
 11
117.86799999999999
 21
119.872
 31
0.0
  0
LINE
  5
39B
  8
0
 62
     7
 10
117.203
 20
121.17400000000001
 30
0.0
 11
117.59999999999999
 21
121.17400000000001
 31
0.0
  0
LINE
  5
39C
  8
0
 62
     7
 10
115.87
 20
116.85599999999999
 30
0.0
 11
115.87
 21
119.762
 31
0.0
  0
LINE
  5
39D
  8
0
 62
     7
 10
115.87
 20
120.31999999999999
 30
0.0
 11
115.87
 21
124.211
 31
0.0
  0
LINE
  5
39E
  8
0
 62
     7
 10
117.244
 20
121.113
 30
0.0
 11
117.477
 21
121.113
 31
0.0
  0
LINE
  5
39F
  8
0
 62
     7
 10
117.202
 20
120.196
 30
0.0
 11
117.867
 21
120.196
 31
0.0
  0
LINE
  5
3A0
  8
0
 62
     7
 10
117.244
 20
120.116
 30
0.0
 11
117.77
 21
120.116
 31
0.0
  0
LINE
  5
3A1
  8
0
 62
     7
 10
117.77
 20
119.929
 30
0.0
 11
117.244
 21
119.929
 31
0.0
  0
LINE
  5
3A2
  8
0
 62
     7
 10
117.41
 20
120.52200000000001
 30
0.0
 11
117.866
 21
120.52200000000001
 31
0.0
  0
LINE
  5
3A3
  8
0
 62
     7
 10
117.77
 20
120.596
 30
0.0
 11
117.559
 21
120.596
 31
0.0
  0
LINE
  5
3A4
  8
0
 62
     7
 10
117.244
 20
120.44799999999999
 30
0.0
 11
117.77
 21
120.44799999999999
 31
0.0
  0
LINE
  5
3A5
  8
0
 62
     7
 10
117.77
 20
120.262
 30
0.0
 11
117.244
 21
120.262
 31
0.0
  0
LINE
  5
3A6
  8
0
 62
     7
 10
117.77
 20
125.04300000000001
 30
0.0
 11
117.854
 21
124.961
 31
0.0
  0
LINE
  5
3A7
  8
0
 62
     7
 10
117.854
 20
124.961
 30
0.0
 11
117.77
 21
125.047
 31
0.0
  0
LINE
  5
3A8
  8
0
 62
     7
 10
117.87
 20
118.929
 30
0.0
 11
117.786
 21
118.976
 31
0.0
  0
LINE
  5
3A9
  8
0
 62
     7
 10
117.77
 20
119.139
 30
0.0
 11
117.77
 21
118.95699999999999
 31
0.0
  0
LINE
  5
3AA
  8
0
 62
     7
 10
117.786
 20
119.13200000000001
 30
0.0
 11
117.87
 21
119.23699999999999
 31
0.0
  0
LINE
  5
3AB
  8
0
 62
     7
 10
117.87
 20
119.23699999999999
 30
0.0
 11
117.785
 21
119.292
 31
0.0
  0
LINE
  5
3AC
  8
0
 62
     7
 10
117.77
 20
119.459
 30
0.0
 11
117.77
 21
119.27500000000001
 31
0.0
  0
LINE
  5
3AD
  8
0
 62
     7
 10
117.785
 20
119.452
 30
0.0
 11
117.86799999999999
 21
119.551
 31
0.0
  0
LINE
  5
3AE
  8
0
 62
     7
 10
117.86799999999999
 20
119.551
 30
0.0
 11
117.785
 21
119.614
 31
0.0
  0
LINE
  5
3AF
  8
0
 62
     7
 10
117.77
 20
119.785
 30
0.0
 11
117.77
 21
119.59999999999999
 31
0.0
  0
LINE
  5
3B0
  8
0
 62
     7
 10
117.783
 20
119.777
 30
0.0
 11
117.86799999999999
 21
119.872
 31
0.0
  0
LINE
  5
3B1
  8
0
 62
     7
 10
117.86799999999999
 20
119.872
 30
0.0
 11
117.783
 21
119.941
 31
0.0
  0
LINE
  5
3B2
  8
0
 62
     7
 10
117.77
 20
120.116
 30
0.0
 11
117.77
 21
119.929
 31
0.0
  0
LINE
  5
3B3
  8
0
 62
     7
 10
117.783
 20
120.10599999999999
 30
0.0
 11
117.867
 21
120.196
 31
0.0
  0
LINE
  5
3B4
  8
0
 62
     7
 10
117.867
 20
120.196
 30
0.0
 11
117.782
 21
120.273
 31
0.0
  0
LINE
  5
3B5
  8
0
 62
     7
 10
117.77
 20
120.44799999999999
 30
0.0
 11
117.77
 21
120.262
 31
0.0
  0
LINE
  5
3B6
  8
0
 62
     7
 10
117.782
 20
120.438
 30
0.0
 11
117.866
 21
120.52200000000001
 31
0.0
  0
LINE
  5
3B7
  8
0
 62
     7
 10
117.866
 20
120.52200000000001
 30
0.0
 11
117.78100000000001
 21
120.60599999999999
 31
0.0
  0
LINE
  5
3B8
  8
0
 62
     7
 10
117.77
 20
120.7
 30
0.0
 11
117.77
 21
120.596
 31
0.0
  0
LINE
  5
3B9
  8
0
 62
     7
 10
117.77
 20
121.44
 30
0.0
 11
117.77
 21
121.262
 31
0.0
  0
LINE
  5
3BA
  8
0
 62
     7
 10
117.78
 20
121.431
 30
0.0
 11
117.864
 21
121.495
 31
0.0
  0
LINE
  5
3BB
  8
0
 62
     7
 10
117.864
 20
121.495
 30
0.0
 11
117.779
 21
121.59399999999999
 31
0.0
  0
LINE
  5
3BC
  8
0
 62
     7
 10
117.77
 20
121.764
 30
0.0
 11
117.77
 21
121.589
 31
0.0
  0
LINE
  5
3BD
  8
0
 62
     7
 10
117.779
 20
121.755
 30
0.0
 11
117.863
 21
121.81100000000001
 31
0.0
  0
LINE
  5
3BE
  8
0
 62
     7
 10
117.863
 20
121.81100000000001
 30
0.0
 11
117.779
 21
121.91500000000001
 31
0.0
  0
LINE
  5
3BF
  8
0
 62
     7
 10
117.77
 20
122.08
 30
0.0
 11
117.77
 21
121.911
 31
0.0
  0
LINE
  5
3C0
  8
0
 62
     7
 10
117.77800000000001
 20
122.072
 30
0.0
 11
117.86199999999999
 21
122.12
 31
0.0
  0
LINE
  5
3C1
  8
0
 62
     7
 10
117.86199999999999
 20
122.12
 30
0.0
 11
117.77800000000001
 21
122.22799999999999
 31
0.0
  0
LINE
  5
3C2
  8
0
 62
     7
 10
117.77
 20
122.38800000000001
 30
0.0
 11
117.77
 21
122.224
 31
0.0
  0
LINE
  5
3C3
  8
0
 62
     7
 10
117.777
 20
122.38
 30
0.0
 11
117.86199999999999
 21
122.42100000000001
 31
0.0
  0
LINE
  5
3C4
  8
0
 62
     7
 10
117.86199999999999
 20
122.42100000000001
 30
0.0
 11
117.777
 21
122.532
 31
0.0
  0
LINE
  5
3C5
  8
0
 62
     7
 10
117.77
 20
122.687
 30
0.0
 11
117.77
 21
122.53
 31
0.0
  0
LINE
  5
3C6
  8
0
 62
     7
 10
117.777
 20
122.679
 30
0.0
 11
117.861
 21
122.711
 31
0.0
  0
LINE
  5
3C7
  8
0
 62
     7
 10
117.861
 20
122.711
 30
0.0
 11
117.77500000000001
 21
122.824
 31
0.0
  0
LINE
  5
3C8
  8
0
 62
     7
 10
117.77
 20
122.973
 30
0.0
 11
117.77
 21
122.82299999999999
 31
0.0
  0
LINE
  5
3C9
  8
0
 62
     7
 10
117.77500000000001
 20
122.96599999999999
 30
0.0
 11
117.85899999999999
 21
122.989
 31
0.0
  0
LINE
  5
3CA
  8
0
 62
     7
 10
117.85899999999999
 20
122.989
 30
0.0
 11
117.77500000000001
 21
123.105
 31
0.0
  0
LINE
  5
3CB
  8
0
 62
     7
 10
117.77
 20
123.246
 30
0.0
 11
117.77
 21
123.105
 31
0.0
  0
LINE
  5
3CC
  8
0
 62
     7
 10
117.774
 20
123.239
 30
0.0
 11
117.85899999999999
 21
123.254
 31
0.0
  0
LINE
  5
3CD
  8
0
 62
     7
 10
117.85899999999999
 20
123.254
 30
0.0
 11
117.774
 21
123.372
 31
0.0
  0
LINE
  5
3CE
  8
0
 62
     7
 10
117.77
 20
123.505
 30
0.0
 11
117.77
 21
123.372
 31
0.0
  0
LINE
  5
3CF
  8
0
 62
     7
 10
117.774
 20
123.498
 30
0.0
 11
117.858
 21
123.505
 31
0.0
  0
LINE
  5
3D0
  8
0
 62
     7
 10
117.858
 20
123.505
 30
0.0
 11
117.773
 21
123.622
 31
0.0
  0
LINE
  5
3D1
  8
0
 62
     7
 10
117.77
 20
123.746
 30
0.0
 11
117.77
 21
123.623
 31
0.0
  0
LINE
  5
3D2
  8
0
 62
     7
 10
117.773
 20
123.741
 30
0.0
 11
117.857
 21
123.739
 31
0.0
  0
LINE
  5
3D3
  8
0
 62
     7
 10
117.857
 20
123.739
 30
0.0
 11
117.773
 21
123.857
 31
0.0
  0
LINE
  5
3D4
  8
0
 62
     7
 10
117.77
 20
123.971
 30
0.0
 11
117.77
 21
123.857
 31
0.0
  0
LINE
  5
3D5
  8
0
 62
     7
 10
117.773
 20
123.96599999999999
 30
0.0
 11
117.857
 21
123.955
 31
0.0
  0
LINE
  5
3D6
  8
0
 62
     7
 10
117.857
 20
123.955
 30
0.0
 11
117.77200000000001
 21
124.07299999999999
 31
0.0
  0
LINE
  5
3D7
  8
0
 62
     7
 10
117.77
 20
124.17700000000001
 30
0.0
 11
117.77
 21
124.074
 31
0.0
  0
LINE
  5
3D8
  8
0
 62
     7
 10
117.77200000000001
 20
124.173
 30
0.0
 11
117.857
 21
124.15300000000001
 31
0.0
  0
LINE
  5
3D9
  8
0
 62
     7
 10
117.857
 20
124.15300000000001
 30
0.0
 11
117.77200000000001
 21
124.27
 31
0.0
  0
LINE
  5
3DA
  8
0
 62
     7
 10
117.77
 20
124.363
 30
0.0
 11
117.77
 21
124.271
 31
0.0
  0
LINE
  5
3DB
  8
0
 62
     7
 10
117.77200000000001
 20
124.36
 30
0.0
 11
117.85599999999999
 21
124.33199999999999
 31
0.0
  0
LINE
  5
3DC
  8
0
 62
     7
 10
117.85599999999999
 20
124.33199999999999
 30
0.0
 11
117.77200000000001
 21
124.447
 31
0.0
  0
LINE
  5
3DD
  8
0
 62
     7
 10
117.77
 20
124.52800000000001
 30
0.0
 11
117.77
 21
124.447
 31
0.0
  0
LINE
  5
3DE
  8
0
 62
     7
 10
117.771
 20
124.527
 30
0.0
 11
117.85599999999999
 21
124.489
 31
0.0
  0
LINE
  5
3DF
  8
0
 62
     7
 10
117.85599999999999
 20
124.489
 30
0.0
 11
117.771
 21
124.602
 31
0.0
  0
LINE
  5
3E0
  8
0
 62
     7
 10
117.77
 20
124.673
 30
0.0
 11
117.77
 21
124.602
 31
0.0
  0
LINE
  5
3E1
  8
0
 62
     7
 10
117.771
 20
124.67100000000001
 30
0.0
 11
117.855
 21
124.625
 31
0.0
  0
LINE
  5
3E2
  8
0
 62
     7
 10
117.855
 20
124.625
 30
0.0
 11
117.771
 21
124.735
 31
0.0
  0
LINE
  5
3E3
  8
0
 62
     7
 10
117.77
 20
124.79300000000001
 30
0.0
 11
117.77
 21
124.736
 31
0.0
  0
LINE
  5
3E4
  8
0
 62
     7
 10
117.771
 20
124.792
 30
0.0
 11
117.855
 21
124.739
 31
0.0
  0
LINE
  5
3E5
  8
0
 62
     7
 10
117.855
 20
124.739
 30
0.0
 11
117.771
 21
124.845
 31
0.0
  0
LINE
  5
3E6
  8
0
 62
     7
 10
117.77
 20
124.892
 30
0.0
 11
117.77
 21
124.846
 31
0.0
  0
LINE
  5
3E7
  8
0
 62
     7
 10
117.77
 20
124.89100000000001
 30
0.0
 11
117.855
 21
124.83
 31
0.0
  0
LINE
  5
3E8
  8
0
 62
     7
 10
117.855
 20
124.83
 30
0.0
 11
117.77
 21
124.932
 31
0.0
  0
LINE
  5
3E9
  8
0
 62
     7
 10
117.77
 20
124.965
 30
0.0
 11
117.855
 21
124.898
 31
0.0
  0
LINE
  5
3EA
  8
0
 62
     7
 10
117.855
 20
124.898
 30
0.0
 11
117.77
 21
124.994
 31
0.0
  0
LINE
  5
3EB
  8
0
 62
     7
 10
117.77
 20
125.017
 30
0.0
 11
117.854
 21
124.941
 31
0.0
  0
LINE
  5
3EC
  8
0
 62
     7
 10
117.854
 20
124.941
 30
0.0
 11
117.77
 21
125.033
 31
0.0
  0
LINE
  5
3ED
  8
0
 62
     7
 10
117.244
 20
124.994
 30
0.0
 11
117.20999999999999
 21
124.898
 31
0.0
  0
LINE
  5
3EE
  8
0
 62
     7
 10
117.20999999999999
 20
124.898
 30
0.0
 11
117.244
 21
124.965
 31
0.0
  0
LINE
  5
3EF
  8
0
 62
     7
 10
117.244
 20
124.932
 30
0.0
 11
117.208
 21
124.83
 31
0.0
  0
LINE
  5
3F0
  8
0
 62
     7
 10
117.208
 20
124.83
 30
0.0
 11
117.24299999999999
 21
124.89100000000001
 31
0.0
  0
LINE
  5
3F1
  8
0
 62
     7
 10
117.244
 20
124.846
 30
0.0
 11
117.244
 21
124.892
 31
0.0
  0
LINE
  5
3F2
  8
0
 62
     7
 10
117.24299999999999
 20
124.845
 30
0.0
 11
117.208
 21
124.739
 31
0.0
  0
LINE
  5
3F3
  8
0
 62
     7
 10
117.208
 20
124.739
 30
0.0
 11
117.24299999999999
 21
124.792
 31
0.0
  0
LINE
  5
3F4
  8
0
 62
     7
 10
117.244
 20
124.736
 30
0.0
 11
117.244
 21
124.79300000000001
 31
0.0
  0
LINE
  5
3F5
  8
0
 62
     7
 10
117.24299999999999
 20
124.735
 30
0.0
 11
117.208
 21
124.625
 31
0.0
  0
LINE
  5
3F6
  8
0
 62
     7
 10
117.208
 20
124.625
 30
0.0
 11
117.24299999999999
 21
124.67100000000001
 31
0.0
  0
LINE
  5
3F7
  8
0
 62
     7
 10
117.244
 20
124.602
 30
0.0
 11
117.244
 21
124.673
 31
0.0
  0
LINE
  5
3F8
  8
0
 62
     7
 10
117.24299999999999
 20
124.602
 30
0.0
 11
117.208
 21
124.489
 31
0.0
  0
LINE
  5
3F9
  8
0
 62
     7
 10
117.208
 20
124.489
 30
0.0
 11
117.24299999999999
 21
124.527
 31
0.0
  0
LINE
  5
3FA
  8
0
 62
     7
 10
117.244
 20
124.447
 30
0.0
 11
117.244
 21
124.52800000000001
 31
0.0
  0
LINE
  5
3FB
  8
0
 62
     7
 10
117.24299999999999
 20
124.447
 30
0.0
 11
117.208
 21
124.33199999999999
 31
0.0
  0
LINE
  5
3FC
  8
0
 62
     7
 10
117.208
 20
124.33199999999999
 30
0.0
 11
117.24299999999999
 21
124.36
 31
0.0
  0
LINE
  5
3FD
  8
0
 62
     7
 10
117.244
 20
124.271
 30
0.0
 11
117.244
 21
124.363
 31
0.0
  0
LINE
  5
3FE
  8
0
 62
     7
 10
117.24299999999999
 20
124.27
 30
0.0
 11
117.20699999999999
 21
124.15300000000001
 31
0.0
  0
LINE
  5
3FF
  8
0
 62
     7
 10
117.20699999999999
 20
124.15300000000001
 30
0.0
 11
117.24299999999999
 21
124.173
 31
0.0
  0
LINE
  5
400
  8
0
 62
     7
 10
117.244
 20
124.074
 30
0.0
 11
117.244
 21
124.17700000000001
 31
0.0
  0
LINE
  5
401
  8
0
 62
     7
 10
117.24299999999999
 20
124.07299999999999
 30
0.0
 11
117.20699999999999
 21
123.955
 31
0.0
  0
LINE
  5
402
  8
0
 62
     7
 10
117.20699999999999
 20
123.955
 30
0.0
 11
117.24299999999999
 21
123.96599999999999
 31
0.0
  0
LINE
  5
403
  8
0
 62
     7
 10
117.244
 20
123.857
 30
0.0
 11
117.244
 21
123.971
 31
0.0
  0
LINE
  5
404
  8
0
 62
     7
 10
117.24299999999999
 20
123.857
 30
0.0
 11
117.20699999999999
 21
123.739
 31
0.0
  0
LINE
  5
405
  8
0
 62
     7
 10
117.20699999999999
 20
123.739
 30
0.0
 11
117.24299999999999
 21
123.741
 31
0.0
  0
LINE
  5
406
  8
0
 62
     7
 10
117.244
 20
123.623
 30
0.0
 11
117.244
 21
123.746
 31
0.0
  0
LINE
  5
407
  8
0
 62
     7
 10
117.24299999999999
 20
123.622
 30
0.0
 11
117.20699999999999
 21
123.505
 31
0.0
  0
LINE
  5
408
  8
0
 62
     7
 10
117.20699999999999
 20
123.505
 30
0.0
 11
117.24299999999999
 21
123.498
 31
0.0
  0
LINE
  5
409
  8
0
 62
     7
 10
117.244
 20
123.372
 30
0.0
 11
117.244
 21
123.505
 31
0.0
  0
LINE
  5
40A
  8
0
 62
     7
 10
117.242
 20
123.372
 30
0.0
 11
117.206
 21
123.254
 31
0.0
  0
LINE
  5
40B
  8
0
 62
     7
 10
117.206
 20
123.254
 30
0.0
 11
117.242
 21
123.239
 31
0.0
  0
LINE
  5
40C
  8
0
 62
     7
 10
117.244
 20
123.105
 30
0.0
 11
117.244
 21
123.246
 31
0.0
  0
LINE
  5
40D
  8
0
 62
     7
 10
117.242
 20
123.105
 30
0.0
 11
117.206
 21
122.989
 31
0.0
  0
LINE
  5
40E
  8
0
 62
     7
 10
117.206
 20
122.989
 30
0.0
 11
117.242
 21
122.96599999999999
 31
0.0
  0
LINE
  5
40F
  8
0
 62
     7
 10
117.244
 20
122.82299999999999
 30
0.0
 11
117.244
 21
122.973
 31
0.0
  0
LINE
  5
410
  8
0
 62
     7
 10
117.242
 20
122.824
 30
0.0
 11
117.205
 21
122.711
 31
0.0
  0
LINE
  5
411
  8
0
 62
     7
 10
117.205
 20
122.711
 30
0.0
 11
117.242
 21
122.679
 31
0.0
  0
LINE
  5
412
  8
0
 62
     7
 10
117.244
 20
122.53
 30
0.0
 11
117.244
 21
122.687
 31
0.0
  0
LINE
  5
413
  8
0
 62
     7
 10
117.242
 20
122.532
 30
0.0
 11
117.205
 21
122.42100000000001
 31
0.0
  0
LINE
  5
414
  8
0
 62
     7
 10
117.205
 20
122.42100000000001
 30
0.0
 11
117.242
 21
122.38
 31
0.0
  0
LINE
  5
415
  8
0
 62
     7
 10
117.244
 20
122.224
 30
0.0
 11
117.244
 21
122.38800000000001
 31
0.0
  0
LINE
  5
416
  8
0
 62
     7
 10
117.242
 20
122.22799999999999
 30
0.0
 11
117.205
 21
122.12
 31
0.0
  0
LINE
  5
417
  8
0
 62
     7
 10
117.205
 20
122.12
 30
0.0
 11
117.242
 21
122.072
 31
0.0
  0
LINE
  5
418
  8
0
 62
     7
 10
117.244
 20
121.911
 30
0.0
 11
117.244
 21
122.08
 31
0.0
  0
LINE
  5
419
  8
0
 62
     7
 10
117.242
 20
121.91500000000001
 30
0.0
 11
117.20399999999999
 21
121.81100000000001
 31
0.0
  0
LINE
  5
41A
  8
0
 62
     7
 10
117.20399999999999
 20
121.81100000000001
 30
0.0
 11
117.241
 21
121.755
 31
0.0
  0
LINE
  5
41B
  8
0
 62
     7
 10
117.244
 20
121.589
 30
0.0
 11
117.244
 21
121.764
 31
0.0
  0
LINE
  5
41C
  8
0
 62
     7
 10
117.241
 20
121.59399999999999
 30
0.0
 11
117.20399999999999
 21
121.495
 31
0.0
  0
LINE
  5
41D
  8
0
 62
     7
 10
117.20399999999999
 20
121.495
 30
0.0
 11
117.241
 21
121.431
 31
0.0
  0
LINE
  5
41E
  8
0
 62
     7
 10
117.244
 20
121.262
 30
0.0
 11
117.244
 21
121.44
 31
0.0
  0
LINE
  5
41F
  8
0
 62
     7
 10
117.241
 20
121.268
 30
0.0
 11
117.203
 21
121.17400000000001
 31
0.0
  0
LINE
  5
420
  8
0
 62
     7
 10
117.203
 20
121.17400000000001
 30
0.0
 11
117.241
 21
121.10299999999999
 31
0.0
  0
LINE
  5
421
  8
0
 62
     7
 10
117.244
 20
120.998
 30
0.0
 11
117.244
 21
121.113
 31
0.0
  0
LINE
  5
422
  8
0
 62
     7
 10
117.244
 20
120.262
 30
0.0
 11
117.244
 21
120.44799999999999
 31
0.0
  0
LINE
  5
423
  8
0
 62
     7
 10
117.239
 20
120.273
 30
0.0
 11
117.202
 21
120.196
 31
0.0
  0
LINE
  5
424
  8
0
 62
     7
 10
117.202
 20
120.196
 30
0.0
 11
117.239
 21
120.10599999999999
 31
0.0
  0
LINE
  5
425
  8
0
 62
     7
 10
117.244
 20
119.929
 30
0.0
 11
117.244
 21
120.116
 31
0.0
  0
LINE
  5
426
  8
0
 62
     7
 10
117.239
 20
119.941
 30
0.0
 11
117.2
 21
119.872
 31
0.0
  0
LINE
  5
427
  8
0
 62
     7
 10
117.2
 20
119.872
 30
0.0
 11
117.239
 21
119.777
 31
0.0
  0
LINE
  5
428
  8
0
 62
     7
 10
117.244
 20
119.59999999999999
 30
0.0
 11
117.244
 21
119.785
 31
0.0
  0
LINE
  5
429
  8
0
 62
     7
 10
117.239
 20
119.614
 30
0.0
 11
117.2
 21
119.551
 31
0.0
  0
LINE
  5
42A
  8
0
 62
     7
 10
117.2
 20
119.551
 30
0.0
 11
117.239
 21
119.452
 31
0.0
  0
LINE
  5
42B
  8
0
 62
     7
 10
117.244
 20
119.27500000000001
 30
0.0
 11
117.244
 21
119.459
 31
0.0
  0
LINE
  5
42C
  8
0
 62
     7
 10
117.239
 20
119.292
 30
0.0
 11
117.199
 21
119.23699999999999
 31
0.0
  0
LINE
  5
42D
  8
0
 62
     7
 10
117.199
 20
119.23699999999999
 30
0.0
 11
117.239
 21
119.13200000000001
 31
0.0
  0
LINE
  5
42E
  8
0
 62
     7
 10
117.244
 20
118.95699999999999
 30
0.0
 11
117.244
 21
119.139
 31
0.0
  0
LINE
  5
42F
  8
0
 62
     7
 10
117.238
 20
118.976
 30
0.0
 11
117.199
 21
118.928
 31
0.0
  0
LINE
  5
430
  8
0
 62
     7
 10
117.199
 20
118.928
 30
0.0
 11
117.238
 21
118.81999999999999
 31
0.0
  0
LINE
  5
431
  8
0
 62
     7
 10
117.244
 20
118.648
 30
0.0
 11
117.244
 21
118.82599999999999
 31
0.0
  0
LINE
  5
432
  8
0
 62
     7
 10
117.238
 20
118.66800000000001
 30
0.0
 11
117.19799999999999
 21
118.629
 31
0.0
  0
LINE
  5
433
  8
0
 62
     7
 10
117.19799999999999
 20
118.629
 30
0.0
 11
117.238
 21
118.518
 31
0.0
  0
LINE
  5
434
  8
0
 62
     7
 10
117.244
 20
118.34999999999999
 30
0.0
 11
117.244
 21
118.523
 31
0.0
  0
LINE
  5
435
  8
0
 62
     7
 10
117.238
 20
118.371
 30
0.0
 11
117.19799999999999
 21
118.34099999999999
 31
0.0
  0
LINE
  5
436
  8
0
 62
     7
 10
117.19799999999999
 20
118.34099999999999
 30
0.0
 11
117.238
 21
118.226
 31
0.0
  0
LINE
  5
437
  8
0
 62
     7
 10
117.244
 20
118.06399999999999
 30
0.0
 11
117.244
 21
118.229
 31
0.0
  0
LINE
  5
438
  8
0
 62
     7
 10
117.238
 20
118.086
 30
0.0
 11
117.19799999999999
 21
118.06399999999999
 31
0.0
  0
LINE
  5
439
  8
0
 62
     7
 10
117.19799999999999
 20
118.06399999999999
 30
0.0
 11
117.238
 21
117.94799999999999
 31
0.0
  0
LINE
  5
43A
  8
0
 62
     7
 10
117.244
 20
117.79000000000001
 30
0.0
 11
117.244
 21
117.949
 31
0.0
  0
LINE
  5
43B
  8
0
 62
     7
 10
117.238
 20
117.81399999999999
 30
0.0
 11
117.197
 21
117.801
 31
0.0
  0
LINE
  5
43C
  8
0
 62
     7
 10
117.197
 20
117.801
 30
0.0
 11
117.238
 21
117.68300000000001
 31
0.0
  0
LINE
  5
43D
  8
0
 62
     7
 10
117.244
 20
117.532
 30
0.0
 11
117.244
 21
117.68300000000001
 31
0.0
  0
LINE
  5
43E
  8
0
 62
     7
 10
117.23699999999999
 20
117.557
 30
0.0
 11
117.197
 21
117.553
 31
0.0
  0
LINE
  5
43F
  8
0
 62
     7
 10
117.197
 20
117.553
 30
0.0
 11
117.23699999999999
 21
117.435
 31
0.0
  0
LINE
  5
440
  8
0
 62
     7
 10
117.244
 20
117.291
 30
0.0
 11
117.244
 21
117.432
 31
0.0
  0
LINE
  5
441
  8
0
 62
     7
 10
117.23699999999999
 20
117.31699999999999
 30
0.0
 11
117.196
 21
117.321
 31
0.0
  0
LINE
  5
442
  8
0
 62
     7
 10
117.196
 20
117.321
 30
0.0
 11
117.23699999999999
 21
117.203
 31
0.0
  0
LINE
  5
443
  8
0
 62
     7
 10
117.244
 20
117.06699999999999
 30
0.0
 11
117.244
 21
117.19799999999999
 31
0.0
  0
LINE
  5
444
  8
0
 62
     7
 10
117.23699999999999
 20
117.09399999999999
 30
0.0
 11
117.196
 21
117.10599999999999
 31
0.0
  0
LINE
  5
445
  8
0
 62
     7
 10
117.196
 20
117.10599999999999
 30
0.0
 11
117.23699999999999
 21
116.989
 31
0.0
  0
LINE
  5
446
  8
0
 62
     7
 10
117.244
 20
116.86199999999999
 30
0.0
 11
117.244
 21
116.983
 31
0.0
  0
LINE
  5
447
  8
0
 62
     7
 10
117.23699999999999
 20
116.89
 30
0.0
 11
117.196
 21
116.91200000000001
 31
0.0
  0
LINE
  5
448
  8
0
 62
     7
 10
117.196
 20
116.91200000000001
 30
0.0
 11
117.23699999999999
 21
116.795
 31
0.0
  0
LINE
  5
449
  8
0
 62
     7
 10
117.244
 20
116.678
 30
0.0
 11
117.244
 21
116.786
 31
0.0
  0
LINE
  5
44A
  8
0
 62
     7
 10
117.23699999999999
 20
116.706
 30
0.0
 11
117.196
 21
116.735
 31
0.0
  0
LINE
  5
44B
  8
0
 62
     7
 10
117.196
 20
116.735
 30
0.0
 11
117.23699999999999
 21
116.621
 31
0.0
  0
LINE
  5
44C
  8
0
 62
     7
 10
117.244
 20
116.514
 30
0.0
 11
117.244
 21
116.61
 31
0.0
  0
LINE
  5
44D
  8
0
 62
     7
 10
117.23699999999999
 20
116.54300000000001
 30
0.0
 11
117.19499999999999
 21
116.581
 31
0.0
  0
LINE
  5
44E
  8
0
 62
     7
 10
117.19499999999999
 20
116.581
 30
0.0
 11
117.23699999999999
 21
116.46899999999999
 31
0.0
  0
LINE
  5
44F
  8
0
 62
     7
 10
117.244
 20
116.373
 30
0.0
 11
117.244
 21
116.456
 31
0.0
  0
LINE
  5
450
  8
0
 62
     7
 10
117.23699999999999
 20
116.402
 30
0.0
 11
117.19499999999999
 21
116.447
 31
0.0
  0
LINE
  5
451
  8
0
 62
     7
 10
117.19499999999999
 20
116.447
 30
0.0
 11
117.23699999999999
 21
116.339
 31
0.0
  0
LINE
  5
452
  8
0
 62
     7
 10
117.244
 20
116.255
 30
0.0
 11
117.244
 21
116.324
 31
0.0
  0
LINE
  5
453
  8
0
 62
     7
 10
117.23699999999999
 20
116.283
 30
0.0
 11
117.19499999999999
 21
116.337
 31
0.0
  0
LINE
  5
454
  8
0
 62
     7
 10
117.19499999999999
 20
116.337
 30
0.0
 11
117.23699999999999
 21
116.232
 31
0.0
  0
LINE
  5
455
  8
0
 62
     7
 10
117.244
 20
116.16
 30
0.0
 11
117.244
 21
116.215
 31
0.0
  0
LINE
  5
456
  8
0
 62
     7
 10
117.23699999999999
 20
116.187
 30
0.0
 11
117.19499999999999
 21
116.249
 31
0.0
  0
LINE
  5
457
  8
0
 62
     7
 10
117.19499999999999
 20
116.249
 30
0.0
 11
117.23699999999999
 21
116.149
 31
0.0
  0
LINE
  5
458
  8
0
 62
     7
 10
117.244
 20
116.089
 30
0.0
 11
117.244
 21
116.13
 31
0.0
  0
LINE
  5
459
  8
0
 62
     7
 10
117.23699999999999
 20
116.116
 30
0.0
 11
117.19499999999999
 21
116.18600000000001
 31
0.0
  0
LINE
  5
45A
  8
0
 62
     7
 10
117.19499999999999
 20
116.18600000000001
 30
0.0
 11
117.23699999999999
 21
116.089
 31
0.0
  0
LINE
  5
45B
  8
0
 62
     7
 10
117.87
 20
116.12
 30
0.0
 11
117.818
 21
116.068
 31
0.0
  0
ARC
  5
45C
  8
0
 62
     7
 10
116.767539
 20
123.794741
 30
0.0
 40
0.989682
 50
109.82346200000001
 51
155.130999
  0
ARC
  5
45D
  8
0
 62
     7
 10
116.821366
 20
123.717991
 30
0.0
 40
1.080419
 50
86.115925000000004
 51
111.12862
  0
ARC
  5
45E
  8
0
 62
     7
 10
116.832796
 20
117.352159
 30
0.0
 40
1.083623999999999
 50
207.27226899999999
 51
273.26703500000002
  0
LINE
  5
45F
  8
0
 62
     7
 10
117.77
 20
125.047
 30
0.0
 11
117.87
 21
124.947
 31
0.0
  0
ARC
  5
460
  8
0
 62
     7
 10
116.914196
 20
125.140013
 30
0.0
 40
0.344645
 50
266.73241000000002
 51
330.88446599999997
  0
ARC
  5
461
  8
0
 62
     7
 10
116.914203
 20
115.92701099999999
 30
0.0
 40
0.343847
 50
24.534478
 51
93.276411999999993
  0
ARC
  5
462
  8
0
  6
AIGENLINE001
 62
     7
 10
112.40383799999999
 20
92.751172999999994
 30
0.0
 40
18.333538999999998
 50
270.00002000000001
 51
359.99999000000003
  0
ARC
  5
463
  8
0
  6
AIGENLINE001
 62
     7
 10
112.40383799999999
 20
92.751165999999998
 30
0.0
 40
18.333532999999999
 50
179.99996999999999
 51
270.00002000000001
  0
ARC
  5
464
  8
0
  6
AIGENLINE001
 62
     7
 10
112.403672
 20
92.750994000000006
 30
0.0
 40
18.333366999999999
 50
89.999461999999994
 51
179.99943200000001
  0
ARC
  5
465
  8
0
  6
AIGENLINE001
 62
     7
 10
112.40401
 20
92.750994000000006
 30
0.0
 40
18.333366999999999
 50
0.000548
 51
90.000517999999985
  0
LINE
  5
466
  8
0
 62
     7
 10
153.535
 20
128.80500000000001
 30
0.0
 11
152.87
 21
126.616
 31
0.0
  0
LINE
  5
467
  8
0
 62
     7
 10
152.87
 20
126.616
 30
0.0
 11
154.541
 21
128.179
 31
0.0
  0
LINE
  5
468
  8
0
 62
     7
 10
154.541
 20
128.179
 30
0.0
 11
153.535
 21
128.80500000000001
 31
0.0
  0
LINE
  5
469
  8
0
 62
     7
 10
152.87
 20
126.616
 30
0.0
 11
171.619
 21
158.13399999999999
 31
0.0
  0
LINE
  5
46A
  8
0
 62
     7
 10
171.619
 20
158.13399999999999
 30
0.0
 11
126.831
 21
158.13399999999999
 31
0.0
  0
LINE
  5
46B
  8
0
 62
     7
 10
122.098
 20
120.167
 30
0.0
 11
135.15199999999999
 21
114.831
 31
0.0
  0
LINE
  5
46C
  8
0
 62
     7
 10
117.658
 20
111.172
 30
0.0
 11
119.869
 21
111.764
 31
0.0
  0
LINE
  5
46D
  8
0
 62
     7
 10
119.869
 20
111.764
 30
0.0
 11
117.658
 21
112.357
 31
0.0
  0
LINE
  5
46E
  8
0
 62
     7
 10
117.658
 20
112.357
 30
0.0
 11
117.658
 21
111.172
 31
0.0
  0
LINE
  5
46F
  8
0
 62
     7
 10
124.747
 20
111.172
 30
0.0
 11
122.536
 21
111.764
 31
0.0
  0
LINE
  5
470
  8
0
 62
     7
 10
122.536
 20
111.764
 30
0.0
 11
124.747
 21
112.357
 31
0.0
  0
LINE
  5
471
  8
0
 62
     7
 10
124.747
 20
112.357
 30
0.0
 11
124.747
 21
111.172
 31
0.0
  0
LINE
  5
472
  8
0
 62
     7
 10
129.37100000000001
 20
111.75700000000001
 30
0.0
 11
116.60599999999999
 21
111.75700000000001
 31
0.0
  0
LINE
  5
473
  8
0
 62
     7
 10
134.232
 20
112.824
 30
0.0
 11
134.50299999999999
 21
115.09699999999999
 31
0.0
  0
LINE
  5
474
  8
0
 62
     7
 10
134.50299999999999
 20
115.09699999999999
 30
0.0
 11
133.13200000000001
 21
113.264
 31
0.0
  0
LINE
  5
475
  8
0
 62
     7
 10
133.13200000000001
 20
113.264
 30
0.0
 11
134.232
 21
112.824
 31
0.0
  0
LINE
  5
476
  8
0
 62
     7
 10
126.015
 20
95.456599999999995
 30
0.0
 11
125.744
 21
93.183899999999994
 31
0.0
  0
LINE
  5
477
  8
0
 62
     7
 10
125.744
 20
93.183899999999994
 30
0.0
 11
127.11499999999999
 21
95.0167
 31
0.0
  0
LINE
  5
478
  8
0
 62
     7
 10
127.11499999999999
 20
95.0167
 30
0.0
 11
126.015
 21
95.456599999999995
 31
0.0
  0
LINE
  5
479
  8
0
 62
     7
 10
134.50899999999999
 20
115.09399999999999
 30
0.0
 11
125.73699999999999
 21
93.186599999999984
 31
0.0
  0
LINE
  5
47A
  8
0
 62
     7
 10
114.33199999999999
 20
97.854100000000003
 30
0.0
 11
126.39400000000001
 21
92.923799999999986
 31
0.0
  0
CIRCLE
  5
47B
  8
0
  6
AIGENLINE001
 62
     7
 10
112.40600000000001
 20
92.748500000000007
 30
0.0
 40
7.4987500000000002
  0
LINE
  5
47C
  8
0
 62
     7
 10
172.52799999999999
 20
113.244
 30
0.0
 11
171.93599999999989
 21
111.033
 31
0.0
  0
LINE
  5
47D
  8
0
 62
     7
 10
171.93599999999989
 20
111.033
 30
0.0
 11
171.34299999999999
 21
113.244
 31
0.0
  0
LINE
  5
47E
  8
0
 62
     7
 10
171.34299999999999
 20
113.244
 30
0.0
 11
172.52799999999999
 21
113.244
 31
0.0
  0
LINE
  5
47F
  8
0
 62
     7
 10
171.358
 20
127.822
 30
0.0
 11
171.94999999999999
 21
130.03299999999999
 31
0.0
  0
LINE
  5
480
  8
0
 62
     7
 10
171.94999999999999
 20
130.03299999999999
 30
0.0
 11
172.54300000000001
 21
127.822
 31
0.0
  0
LINE
  5
481
  8
0
 62
     7
 10
172.54300000000001
 20
127.822
 30
0.0
 11
171.358
 21
127.822
 31
0.0
  0
LINE
  5
482
  8
0
 62
     7
 10
171.94300000000001
 20
111.033
 30
0.0
 11
171.94300000000001
 21
130.03299999999999
 31
0.0
  0
LINE
  5
483
  8
0
 62
     7
 10
165.52000000000001
 20
117.41
 30
0.0
 11
164.92699999999999
 21
115.2
 31
0.0
  0
LINE
  5
484
  8
0
 62
     7
 10
164.92699999999999
 20
115.2
 30
0.0
 11
164.33500000000001
 21
117.41
 31
0.0
  0
LINE
  5
485
  8
0
 62
     7
 10
164.33500000000001
 20
117.41
 30
0.0
 11
165.52000000000001
 21
117.41
 31
0.0
  0
LINE
  5
486
  8
0
 62
     7
 10
164.34999999999999
 20
123.655
 30
0.0
 11
164.94200000000001
 21
125.866
 31
0.0
  0
LINE
  5
487
  8
0
 62
     7
 10
164.94200000000001
 20
125.866
 30
0.0
 11
165.53399999999999
 21
123.655
 31
0.0
  0
LINE
  5
488
  8
0
 62
     7
 10
165.53399999999999
 20
123.655
 30
0.0
 11
164.34999999999999
 21
123.655
 31
0.0
  0
LINE
  5
489
  8
0
 62
     7
 10
164.935
 20
115.2
 30
0.0
 11
164.935
 21
125.866
 31
0.0
  0
LINE
  5
48A
  8
0
 62
     7
 10
165.642
 20
125.866
 30
0.0
 11
161.33600000000001
 21
125.866
 31
0.0
  0
LINE
  5
48B
  8
0
 62
     7
 10
172.65000000000001
 20
130.03299999999999
 30
0.0
 11
145.23599999999999
 21
130.03299999999999
 31
0.0
  0
LINE
  5
48C
  8
0
 62
     7
 10
172.65000000000001
 20
111.033
 30
0.0
 11
145.23599999999999
 21
111.033
 31
0.0
  0
LINE
  5
48D
  8
0
 62
     7
 10
165.642
 20
115.2
 30
0.0
 11
161.33600000000001
 21
115.2
 31
0.0
  0
LINE
  5
48E
  8
0
 62
     7
 10
123.413
 20
138.477
 30
0.0
 11
121.203
 21
139.06999999999999
 31
0.0
  0
LINE
  5
48F
  8
0
 62
     7
 10
121.203
 20
139.06999999999999
 30
0.0
 11
123.413
 21
139.66200000000001
 31
0.0
  0
LINE
  5
490
  8
0
 62
     7
 10
123.413
 20
139.66200000000001
 30
0.0
 11
123.413
 21
138.477
 31
0.0
  0
LINE
  5
491
  8
0
 62
     7
 10
142.32499999999999
 20
139.64699999999999
 30
0.0
 11
144.536
 21
139.05500000000001
 31
0.0
  0
LINE
  5
492
  8
0
 62
     7
 10
144.536
 20
139.05500000000001
 30
0.0
 11
142.32499999999999
 21
138.46299999999999
 31
0.0
  0
LINE
  5
493
  8
0
 62
     7
 10
142.32499999999999
 20
138.46299999999999
 30
0.0
 11
142.32499999999999
 21
139.64699999999999
 31
0.0
  0
LINE
  5
494
  8
0
 62
     7
 10
121.203
 20
139.06200000000001
 30
0.0
 11
144.536
 21
139.06200000000001
 31
0.0
  0
LINE
  5
495
  8
0
 62
     7
 10
117.413
 20
144.62899999999999
 30
0.0
 11
115.203
 21
145.22200000000001
 31
0.0
  0
LINE
  5
496
  8
0
 62
     7
 10
115.203
 20
145.22200000000001
 30
0.0
 11
117.413
 21
145.81399999999999
 31
0.0
  0
LINE
  5
497
  8
0
 62
     7
 10
117.413
 20
145.81399999999999
 30
0.0
 11
117.413
 21
144.62899999999999
 31
0.0
  0
LINE
  5
498
  8
0
 62
     7
 10
142.32499999999999
 20
145.79900000000001
 30
0.0
 11
144.536
 21
145.20699999999999
 31
0.0
  0
LINE
  5
499
  8
0
 62
     7
 10
144.536
 20
145.20699999999999
 30
0.0
 11
142.32499999999999
 21
144.61500000000001
 31
0.0
  0
LINE
  5
49A
  8
0
 62
     7
 10
142.32499999999999
 20
144.61500000000001
 30
0.0
 11
142.32499999999999
 21
145.79900000000001
 31
0.0
  0
LINE
  5
49B
  8
0
 62
     7
 10
115.203
 20
145.214
 30
0.0
 11
144.536
 21
145.214
 31
0.0
  0
LINE
  5
49C
  8
0
 62
     7
 10
121.203
 20
139.755
 30
0.0
 11
121.203
 21
124.566
 31
0.0
  0
LINE
  5
49D
  8
0
 62
     7
 10
144.536
 20
145.922
 30
0.0
 11
144.536
 21
130.733
 31
0.0
  0
LINE
  5
49E
  8
0
 62
     7
 10
115.203
 20
145.922
 30
0.0
 11
115.203
 21
123.312
 31
0.0
  0
LINE
  5
49F
  8
0
 62
     7
 10
113.625
 20
131.27000000000001
 30
0.0
 11
115.093
 21
133.02500000000001
 31
0.0
  0
LINE
  5
4A0
  8
0
 62
     7
 10
115.093
 20
133.02500000000001
 30
0.0
 11
112.944
 21
132.239
 31
0.0
  0
LINE
  5
4A1
  8
0
 62
     7
 10
112.944
 20
132.239
 30
0.0
 11
113.625
 21
131.27000000000001
 31
0.0
  0
LINE
  5
4A2
  8
0
 62
     7
 10
83.023499999999999
 20
111.197
 30
0.0
 11
81.554500000000004
 21
109.44199999999999
 31
0.0
  0
LINE
  5
4A3
  8
0
 62
     7
 10
81.554500000000004
 20
109.44199999999999
 30
0.0
 11
83.704300000000003
 21
110.22799999999999
 31
0.0
  0
LINE
  5
4A4
  8
0
 62
     7
 10
83.704300000000003
 20
110.22799999999999
 30
0.0
 11
83.023499999999999
 21
111.197
 31
0.0
  0
LINE
  5
4A5
  8
0
 62
     7
 10
115.09699999999999
 20
133.01900000000001
 30
0.0
 11
81.550399999999996
 21
109.44799999999999
 31
0.0
  0
LINE
  5
4A6
  8
0
 62
     7
 10
114.69
 20
133.59800000000001
 30
0.0
 11
122.089
 21
123.068
 31
0.0
  0
LINE
  5
4A7
  8
0
 62
     7
 10
81.143900000000002
 20
110.026
 30
0.0
 11
92.956500000000005
 21
93.2149
 31
0.0
  0
LINE
  5
4A8
  8
0
 62
     7
 10
72.049800000000005
 20
70.564599999999999
 30
0.0
 11
74.260199999999998
 21
71.156800000000004
 31
0.0
  0
LINE
  5
4A9
  8
0
 62
     7
 10
74.260199999999998
 20
71.156800000000004
 30
0.0
 11
72.049800000000005
 21
71.749399999999994
 31
0.0
  0
LINE
  5
4AA
  8
0
 62
     7
 10
72.049800000000005
 20
71.749399999999994
 30
0.0
 11
72.049800000000005
 21
70.564599999999999
 31
0.0
  0
LINE
  5
4AB
  8
0
 62
     7
 10
30.070699999999999
 20
71.7346
 30
0.0
 11
27.8596
 21
71.142399999999995
 31
0.0
  0
LINE
  5
4AC
  8
0
 62
     7
 10
27.8596
 20
71.142399999999995
 30
0.0
 11
30.070699999999999
 21
70.549800000000005
 31
0.0
  0
LINE
  5
4AD
  8
0
 62
     7
 10
30.070699999999999
 20
70.549800000000005
 30
0.0
 11
30.070699999999999
 21
71.7346
 31
0.0
  0
LINE
  5
4AE
  8
0
 62
     7
 10
74.260199999999998
 20
71.149600000000007
 30
0.0
 11
27.8596
 21
71.149600000000007
 31
0.0
  0
LINE
  5
4AF
  8
0
 62
     7
 10
27.8596
 20
99.951499999999996
 30
0.0
 11
27.8596
 21
70.456800000000001
 31
0.0
  0
LINE
  5
4B0
  8
0
 62
     7
 10
74.260199999999998
 20
98.949600000000004
 30
0.0
 11
74.260199999999998
 21
70.456800000000001
 31
0.0
  0
LINE
  5
4B1
  8
0
 62
     7
 10
68.582599999999999
 20
79.965699999999998
 30
0.0
 11
70.793000000000006
 21
80.557900000000004
 31
0.0
  0
LINE
  5
4B2
  8
0
 62
     7
 10
70.793000000000006
 20
80.557900000000004
 30
0.0
 11
68.582599999999999
 21
81.150400000000005
 31
0.0
  0
LINE
  5
4B3
  8
0
 62
     7
 10
68.582599999999999
 20
81.150400000000005
 30
0.0
 11
68.582599999999999
 21
79.965699999999998
 31
0.0
  0
LINE
  5
4B4
  8
0
 62
     7
 10
34.6708
 20
81.135599999999997
 30
0.0
 11
32.459699999999998
 21
80.543400000000005
 31
0.0
  0
LINE
  5
4B5
  8
0
 62
     7
 10
32.459699999999998
 20
80.543400000000005
 30
0.0
 11
34.6708
 21
79.950800000000001
 31
0.0
  0
LINE
  5
4B6
  8
0
 62
     7
 10
34.6708
 20
79.950800000000001
 30
0.0
 11
34.6708
 21
81.135599999999997
 31
0.0
  0
LINE
  5
4B7
  8
0
 62
     7
 10
70.793000000000006
 20
80.550600000000003
 30
0.0
 11
32.459699999999998
 21
80.550600000000003
 31
0.0
  0
LINE
  5
4B8
  8
0
 62
     7
 10
32.459699999999998
 20
91.433400000000006
 30
0.0
 11
32.459699999999998
 21
79.857799999999997
 31
0.0
  0
LINE
  5
4B9
  8
0
 62
     7
 10
70.793000000000006
 20
91.433400000000006
 30
0.0
 11
70.793000000000006
 21
79.857799999999997
 31
0.0
  0
ARC
  5
4BA
  8
0
  6
AIGENLINE003
 62
     7
 10
51.595649000000002
 20
115.22811900000001
 30
0.0
 40
0.779098
 50
272.11440099999999
 51
357.89877000000001
  0
ARC
  5
4BB
  8
0
  6
AIGENLINE003
 62
     7
 10
51.65336400000001
 20
115.228703
 30
0.0
 40
0.77969
 50
182.142571
 51
267.87061699999998
  0
ARC
  5
4BC
  8
0
  6
AIGENLINE003
 62
     7
 10
51.652804000000003
 20
115.1709639999999
 30
0.0
 40
0.7791100000000001
 50
92.089804999999984
 51
177.897008
  0
ARC
  5
4BD
  8
0
  6
AIGENLINE003
 62
     7
 10
51.595413999999998
 20
115.170753
 30
0.0
 40
0.779341
 50
2.117840999999999
 51
87.868988000000016
  0
LINE
  5
4BE
  8
0
  6
AIGENLINE002
 62
     7
 10
51.624400000000001
 20
112.833
 30
0.0
 11
51.624400000000001
 21
128.233
 31
0.0
  0
LINE
  5
4BF
  8
0
  6
AIGENLINE002
 62
     7
 10
49.257599999999996
 20
115.2
 30
0.0
 11
53.991199999999992
 21
115.2
 31
0.0
  0
ARC
  5
4C0
  8
0
  6
AIGENLINE003
 62
     7
 10
51.595987000000001
 20
125.894566
 30
0.0
 40
0.7787609999999999
 50
272.09038500000003
 51
357.89646099999999
  0
ARC
  5
4C1
  8
0
  6
AIGENLINE003
 62
     7
 10
51.653339000000003
 20
125.895464
 30
0.0
 40
0.779678
 50
182.16713899999999
 51
267.87237400000009
  0
ARC
  5
4C2
  8
0
  6
AIGENLINE003
 62
     7
 10
51.624479000000001
 20
125.866067
 30
0.0
 40
0.750261
 50
90.006577000000007
 51
180.006587
  0
ARC
  5
4C3
  8
0
  6
AIGENLINE003
 62
     7
 10
51.595389000000011
 20
125.837514
 30
0.0
 40
0.7793540000000001
 50
2.0932870000000001
 51
87.867230000000006
  0
LINE
  5
4C4
  8
0
  6
AIGENLINE002
 62
     7
 10
49.257599999999996
 20
125.866
 30
0.0
 11
53.991199999999992
 21
125.866
 31
0.0
  0
LINE
  5
4C5
  8
0
 62
     7
 10
157.19499999999999
 20
125.116
 30
0.0
 11
156.511
 21
126.616
 31
0.0
  0
LINE
  5
4C6
  8
0
 62
     7
 10
156.285
 20
125.116
 30
0.0
 11
155.59999999999999
 21
126.616
 31
0.0
  0
LINE
  5
4C7
  8
0
 62
     7
 10
155.374
 20
125.116
 30
0.0
 11
154.69
 21
126.616
 31
0.0
  0
LINE
  5
4C8
  8
0
 62
     7
 10
154.464
 20
125.116
 30
0.0
 11
153.78
 21
126.616
 31
0.0
  0
LINE
  5
4C9
  8
0
 62
     7
 10
153.554
 20
125.116
 30
0.0
 11
152.87
 21
126.616
 31
0.0
  0
LINE
  5
4CA
  8
0
 62
     7
 10
152.643
 20
125.116
 30
0.0
 11
151.96000000000001
 21
126.616
 31
0.0
  0
LINE
  5
4CB
  8
0
 62
     7
 10
151.733
 20
125.116
 30
0.0
 11
151.04900000000001
 21
126.616
 31
0.0
  0
LINE
  5
4CC
  8
0
 62
     7
 10
150.82300000000001
 20
125.116
 30
0.0
 11
150.13900000000001
 21
126.616
 31
0.0
  0
LINE
  5
4CD
  8
0
 62
     7
 10
149.91300000000001
 20
125.116
 30
0.0
 11
149.22900000000001
 21
126.616
 31
0.0
  0
LINE
  5
4CE
  8
0
 62
     7
 10
149.00299999999999
 20
125.116
 30
0.0
 11
148.31899999999999
 21
126.616
 31
0.0
  0
LINE
  5
4CF
  8
0
 62
     7
 10
148.09200000000001
 20
125.116
 30
0.0
 11
147.40899999999999
 21
126.616
 31
0.0
  0
LINE
  5
4D0
  8
0
 62
     7
 10
147.18199999999999
 20
125.116
 30
0.0
 11
146.49799999999999
 21
126.616
 31
0.0
  0
LINE
  5
4D1
  8
0
 62
     7
 10
146.27199999999999
 20
125.116
 30
0.0
 11
145.58799999999999
 21
126.616
 31
0.0
  0
LINE
  5
4D2
  8
0
 62
     7
 10
145.36199999999999
 20
125.116
 30
0.0
 11
144.678
 21
126.616
 31
0.0
  0
LINE
  5
4D3
  8
0
 62
     7
 10
157.19499999999999
 20
125.398
 30
0.0
 11
159.52799999999999
 21
125.866
 31
0.0
  0
LINE
  5
4D4
  8
0
 62
     7
 10
157.19499999999999
 20
126.333
 30
0.0
 11
159.52799999999999
 21
125.866
 31
0.0
  0
LINE
  5
4D5
  8
0
 62
     7
 10
157.19499999999999
 20
125.398
 30
0.0
 11
144.52799999999999
 21
125.398
 31
0.0
  0
LINE
  5
4D6
  8
0
 62
     7
 10
157.19499999999999
 20
126.333
 30
0.0
 11
144.52799999999999
 21
126.333
 31
0.0
  0
LINE
  5
4D7
  8
0
  6
AIGENLINE002
 62
     7
 10
160.636
 20
125.866
 30
0.0
 11
143.733
 21
125.866
 31
0.0
  0
LINE
  5
4D8
  8
0
 62
     7
 10
157.19499999999999
 20
114.449
 30
0.0
 11
156.511
 21
115.949
 31
0.0
  0
LINE
  5
4D9
  8
0
 62
     7
 10
156.285
 20
114.449
 30
0.0
 11
155.59999999999999
 21
115.949
 31
0.0
  0
LINE
  5
4DA
  8
0
 62
     7
 10
155.374
 20
114.449
 30
0.0
 11
154.69
 21
115.949
 31
0.0
  0
LINE
  5
4DB
  8
0
 62
     7
 10
154.464
 20
114.449
 30
0.0
 11
153.78
 21
115.949
 31
0.0
  0
LINE
  5
4DC
  8
0
 62
     7
 10
153.554
 20
114.449
 30
0.0
 11
152.87
 21
115.949
 31
0.0
  0
LINE
  5
4DD
  8
0
 62
     7
 10
152.643
 20
114.449
 30
0.0
 11
151.96000000000001
 21
115.949
 31
0.0
  0
LINE
  5
4DE
  8
0
 62
     7
 10
151.733
 20
114.449
 30
0.0
 11
151.04900000000001
 21
115.949
 31
0.0
  0
LINE
  5
4DF
  8
0
 62
     7
 10
150.82300000000001
 20
114.449
 30
0.0
 11
150.13900000000001
 21
115.949
 31
0.0
  0
LINE
  5
4E0
  8
0
 62
     7
 10
149.91300000000001
 20
114.449
 30
0.0
 11
149.22900000000001
 21
115.949
 31
0.0
  0
LINE
  5
4E1
  8
0
 62
     7
 10
149.00299999999999
 20
114.449
 30
0.0
 11
148.31899999999999
 21
115.949
 31
0.0
  0
LINE
  5
4E2
  8
0
 62
     7
 10
148.09200000000001
 20
114.449
 30
0.0
 11
147.40899999999999
 21
115.949
 31
0.0
  0
LINE
  5
4E3
  8
0
 62
     7
 10
147.18199999999999
 20
114.449
 30
0.0
 11
146.49799999999999
 21
115.949
 31
0.0
  0
LINE
  5
4E4
  8
0
 62
     7
 10
146.27199999999999
 20
114.449
 30
0.0
 11
145.58799999999999
 21
115.949
 31
0.0
  0
LINE
  5
4E5
  8
0
 62
     7
 10
145.36199999999999
 20
114.449
 30
0.0
 11
144.678
 21
115.949
 31
0.0
  0
LINE
  5
4E6
  8
0
 62
     7
 10
157.19499999999999
 20
114.732
 30
0.0
 11
159.52799999999999
 21
115.199
 31
0.0
  0
LINE
  5
4E7
  8
0
 62
     7
 10
157.19499999999999
 20
115.666
 30
0.0
 11
159.52799999999999
 21
115.199
 31
0.0
  0
LINE
  5
4E8
  8
0
 62
     7
 10
157.19499999999999
 20
114.732
 30
0.0
 11
144.52799999999999
 21
114.732
 31
0.0
  0
LINE
  5
4E9
  8
0
 62
     7
 10
157.19499999999999
 20
115.666
 30
0.0
 11
144.52799999999999
 21
115.666
 31
0.0
  0
LINE
  5
4EA
  8
0
  6
AIGENLINE002
 62
     7
 10
160.636
 20
115.199
 30
0.0
 11
143.733
 21
115.199
 31
0.0
  0
ARC
  5
4EB
  8
0
 62
     7
 10
123.50576700000001
 20
119.17092700000001
 30
0.0
 40
3.9984790000000001
 50
146.891333
 51
149.236887
  0
ARC
  5
4EC
  8
0
 62
     7
 10
120.798548
 20
120.924533
 30
0.0
 40
0.773007
 50
130.963469
 51
146.15935500000001
  0
ARC
  5
4ED
  8
0
 62
     7
 10
120.68851100000001
 20
121.025195
 30
0.0
 40
0.625091
 50
123.124374
 51
129.395881
  0
ARC
  5
4EE
  8
0
 62
     7
 10
121.38387899999999
 20
119.951629
 30
0.0
 40
1.904182
 50
119.944836
 51
122.995046
  0
ARC
  5
4EF
  8
0
 62
     7
 10
121.206853
 20
120.53301999999999
 30
0.0
 40
1.337796999999999
 50
146.31392600000001
 51
180.21001799999999
  0
ARC
  5
4F0
  8
0
 62
     7
 10
121.217201
 20
120.46380000000001
 30
0.0
 40
1.3857699999999999
 50
58.364344999999993
 51
144.16932299999999
  0
ARC
  5
4F1
  8
0
 62
     7
 10
121.179852
 20
120.522008
 30
0.0
 40
1.3572340000000001
 50
0.766925
 51
55.732125000000003
  0
ARC
  5
4F2
  8
0
 62
     7
 10
121.099217
 20
120.55197200000001
 30
0.0
 40
2.2465739999999998
 50
309.75552599999997
 51
31.124842999999998
  0
ARC
  5
4F3
  8
0
 62
     7
 10
121.20132
 20
120.530109
 30
0.0
 40
2.1643099999999991
 50
212.89374699999999
 51
232.01926
  0
ARC
  5
4F4
  8
0
 62
     7
 10
121.150114
 20
120.535487
 30
0.0
 40
1.7115149999999999
 50
324.06683399999997
 51
31.945568000000002
  0
LINE
  5
4F5
  8
0
 62
     7
 10
119.191
 20
120.59999999999999
 30
0.0
 11
118.759
 21
120.31999999999999
 31
0.0
  0
LINE
  5
4F6
  8
0
 62
     7
 10
119.191
 20
120.59999999999999
 30
0.0
 11
119.869
 21
119.553
 31
0.0
  0
LINE
  5
4F7
  8
0
 62
     7
 10
119.384
 20
119.355
 30
0.0
 11
118.759
 21
120.31999999999999
 31
0.0
  0
ARC
  5
4F8
  8
0
 62
     7
 10
113.910844
 20
96.244827000000015
 30
0.0
 40
20.725819999999999
 50
117.339611
 51
186.255257
  0
ARC
  5
4F9
  8
0
 62
     7
 10
113.88887699999999
 20
96.253872000000001
 30
0.0
 40
20.208280999999999
 50
117.322198
 51
185.7749
  0
ARC
  5
4FA
  8
0
 62
     7
 10
121.17629700000001
 20
120.437335
 30
0.0
 40
2.244092999999999
 50
34.649876999999996
 51
114.55996500000001
  0
LINE
  5
4FB
  8
0
 62
     7
 10
120.244
 20
122.47799999999999
 30
0.0
 11
104.392
 21
114.65600000000001
 31
0.0
  0
LINE
  5
4FC
  8
0
 62
     7
 10
123.02200000000001
 20
121.71299999999999
 30
0.0
 11
122.602
 21
121.441
 31
0.0
  0
ARC
  5
4FD
  8
0
 62
     7
 10
121.182717
 20
120.46023700000001
 30
0.0
 40
1.7255720000000001
 50
34.639561999999998
 51
114.575295
  0
LINE
  5
4FE
  8
0
 62
     7
 10
120.465
 20
122.029
 30
0.0
 11
104.613
 21
114.208
 31
0.0
  0
ARC
  5
4FF
  8
0
 62
     7
 10
161.663286
 20
103.50394
 30
0.0
 40
69.014259999999993
 50
187.92660399999991
 51
188.42244400000001
  0
ARC
  5
500
  8
0
 62
     7
 10
110.80597299999999
 20
96.133623
 30
0.0
 40
17.626617
 50
188.936858
 51
190.660877
  0
ARC
  5
501
  8
0
 62
     7
 10
118.02582200000001
 20
97.491585000000001
 30
0.0
 40
24.973064000000001
 50
190.6583159999999
 51
191.53710000000001
  0
ARC
  5
502
  8
0
 62
     7
 10
224.86910900000001
 20
119.90552700000001
 30
0.0
 40
134.141775
 50
191.79004499999999
 51
191.87544199999991
  0
ARC
  5
503
  8
0
 62
     7
 10
93.162658999999991
 20
92.199767000000008
 30
0.0
 40
0.4473250000000001
 50
9.3761100000000006
 51
13.11097
  0
ARC
  5
504
  8
0
 62
     7
 10
95.056577000000004
 20
92.756388999999999
 30
0.0
 40
1.021288999999999
 50
189.321225
 51
194.47825499999999
  0
ARC
  5
505
  8
0
 62
     7
 10
106.04861699999999
 20
95.121220999999991
 30
0.0
 40
12.263703
 50
190.66924700000001
 51
191.906812
  0
ARC
  5
506
  8
0
 62
     7
 10
111.873132
 20
96.29813399999999
 30
0.0
 40
18.205586
 50
189.62949
 51
190.915426
  0
ARC
  5
507
  8
0
 62
     7
 10
109.433756
 20
95.959857999999997
 30
0.0
 40
15.744172000000001
 50
188.00321099999999
 51
189.90074899999999
  0
ARC
  5
508
  8
0
 62
     7
 10
125.23661300000001
 20
98.143322999999995
 30
0.0
 40
31.697137999999999
 50
187.10912300000001
 51
187.93451300000001
  0
LINE
  5
509
  8
0
 62
     7
 10
93.603999999999999
 20
92.272599999999997
 30
0.0
 11
94.067699999999988
 21
92.501099999999994
 31
0.0
  0
ARC
  5
50A
  8
0
  6
AIGENLINE001
 62
     7
 10
112.405692
 20
92.748110999999994
 30
0.0
 40
7.498613999999999
 50
248.00081700000001
 51
338.00435800000002
  0
ARC
  5
50B
  8
0
  6
AIGENLINE001
 62
     7
 10
112.40607900000001
 20
92.748584999999977
 30
0.0
 40
7.4991979999999989
 50
157.99938499999999
 51
247.99943500000009
  0
ARC
  5
50C
  8
0
  6
AIGENLINE001
 62
     7
 10
112.405896
 20
92.748552000000004
 30
0.0
 40
7.4990420000000002
 50
68.003078999999985
 51
157.99862999999999
  0
ARC
  5
50D
  8
0
  6
AIGENLINE001
 62
     7
 10
112.405562
 20
92.748756999999998
 30
0.0
 40
7.498977
 50
338.00015200000001
 51
68.00012199999999
  0
ARC
  5
50E
  8
0
 62
     7
 10
112.400654
 20
98.929685000000006
 30
0.0
 40
1.3467489999999991
 50
270.22353800000002
 51
314.939145
  0
ARC
  5
50F
  8
0
 62
     7
 10
112.456883
 20
98.967539000000002
 30
0.0
 40
1.385530999999999
 50
182.12324699999999
 51
267.89158600000002
  0
ARC
  5
510
  8
0
 62
     7
 10
112.422461
 20
98.908856999999998
 30
0.0
 40
1.3501780000000001
 50
135.28646599999999
 51
179.68805900000001
  0
ARC
  5
511
  8
0
 62
     7
 10
121.253654
 20
120.481956
 30
0.0
 40
1.385181999999999
 50
92.109302999999997
 51
177.89066700000001
  0
ARC
  5
512
  8
0
 62
     7
 10
121.15167700000001
 20
120.48194599999999
 30
0.0
 40
1.3851929999999999
 50
2.109726999999999
 51
87.890263000000004
  0
LINE
  5
513
  8
0
 62
     7
 10
111.47
 20
99.867099999999994
 30
0.0
 11
113.738
 21
102.136
 31
0.0
  0
ARC
  5
514
  8
0
 62
     7
 10
110.244944
 20
111.52850100000001
 30
0.0
 40
9.6244669999999992
 50
350.11856899999998
 51
0.018077
  0
ARC
  5
515
  8
0
 62
     7
 10
112.749987
 20
111.163481
 30
0.0
 40
7.0942929999999986
 50
315.05233199999998
 51
349.55090899999999
  0
ARC
  5
516
  8
0
 62
     7
 10
111.817091
 20
111.584399
 30
0.0
 40
10.718970000000001
 50
315.29389400000002
 51
359.71744100000001
  0
LINE
  5
517
  8
0
 62
     7
 10
122.536
 20
120.533
 30
0.0
 11
122.536
 21
115.633
 31
0.0
  0
LINE
  5
518
  8
0
 62
     7
 10
119.869
 20
115.633
 30
0.0
 11
119.869
 21
120.533
 31
0.0
  0
LINE
  5
519
  8
0
 62
     7
 10
122.536
 20
115.633
 30
0.0
 11
122.536
 21
111.532
 31
0.0
  0
LINE
  5
51A
  8
0
 62
     7
 10
119.869
 20
111.532
 30
0.0
 11
119.869
 21
115.765
 31
0.0
  0
LINE
  5
51B
  8
0
 62
     7
 10
119.435
 20
104.044
 30
0.0
 11
115.65900000000001
 21
100.28400000000001
 31
0.0
  0
LINE
  5
51C
  8
0
 62
     7
 10
113.773
 20
102.169
 30
0.0
 11
117.771
 21
106.152
 31
0.0
  0
LINE
  5
51D
  8
0
 62
     7
 10
115.65900000000001
 20
100.28400000000001
 30
0.0
 11
115.33
 21
99.954899999999995
 31
0.0
  0
LINE
  5
51E
  8
0
 62
     7
 10
115.33
 20
99.954899999999995
 30
0.0
 11
115.008
 21
99.632800000000003
 31
0.0
  0
LINE
  5
51F
  8
0
 62
     7
 10
115.008
 20
99.632800000000003
 30
0.0
 11
114.699
 21
99.323800000000006
 31
0.0
  0
LINE
  5
520
  8
0
 62
     7
 10
114.699
 20
99.323800000000006
 30
0.0
 11
114.41
 21
99.0351
 31
0.0
  0
LINE
  5
521
  8
0
 62
     7
 10
114.41
 20
99.0351
 30
0.0
 11
114.146
 21
98.770799999999994
 31
0.0
  0
LINE
  5
522
  8
0
 62
     7
 10
114.146
 20
98.770799999999994
 30
0.0
 11
113.913
 21
98.537899999999993
 31
0.0
  0
LINE
  5
523
  8
0
 62
     7
 10
113.913
 20
98.537899999999993
 30
0.0
 11
113.715
 21
98.340199999999996
 31
0.0
  0
LINE
  5
524
  8
0
 62
     7
 10
113.715
 20
98.340199999999996
 30
0.0
 11
113.557
 21
98.182400000000015
 31
0.0
  0
LINE
  5
525
  8
0
 62
     7
 10
113.557
 20
98.182400000000015
 30
0.0
 11
113.443
 21
98.067300000000003
 31
0.0
  0
LINE
  5
526
  8
0
 62
     7
 10
113.443
 20
98.067300000000003
 30
0.0
 11
113.372
 21
97.997000000000014
 31
0.0
  0
LINE
  5
527
  8
0
 62
     7
 10
113.372
 20
97.997000000000014
 30
0.0
 11
113.349
 21
97.973600000000005
 31
0.0
  0
LINE
  5
528
  8
0
 62
     7
 10
113.738
 20
102.136
 30
0.0
 11
113.773
 21
102.169
 31
0.0
  0
LINE
  5
529
  8
0
 62
     7
 10
113.738
 20
105.384
 30
0.0
 11
111.072
 21
105.384
 31
0.0
  0
LINE
  5
52A
  8
0
 62
     7
 10
111.072
 20
98.916200000000003
 30
0.0
 11
111.072
 21
102.184
 31
0.0
  0
LINE
  5
52B
  8
0
 62
     7
 10
113.738
 20
105.384
 30
0.0
 11
113.738
 21
102.184
 31
0.0
  0
LINE
  5
52C
  8
0
 62
     7
 10
111.072
 20
102.184
 30
0.0
 11
111.072
 21
105.384
 31
0.0
  0
ARC
  5
52D
  8
0
 62
     7
 10
112.432376
 20
104.674526
 30
0.0
 40
1.5341769999999999
 50
66.717753999999999
 51
152.46648300000001
  0
ARC
  5
52E
  8
0
 62
     7
 10
112.395685
 20
104.74129600000001
 30
0.0
 40
1.4885600000000001
 50
25.567739
 51
64.404046999999991
  0
ARC
  5
52F
  8
0
 62
     7
 10
51.818042999999989
 20
120.45545
 30
0.0
 40
8.6655289999999994
 50
91.266823999999986
 51
164.974436
  0
ARC
  5
530
  8
0
 62
     7
 10
51.42793799999999
 20
120.446831
 30
0.0
 40
8.6743020000000008
 50
15.068937999999999
 51
88.688590999999988
  0
LINE
  5
531
  8
0
  6
AIGENLINE002
 62
     7
 10
44.517099999999999
 20
120.533
 30
0.0
 11
58.738900000000001
 21
120.533
 31
0.0
  0
LINE
  5
532
  8
0
  6
AIGENLINE002
 62
     7
 10
113.023
 20
120.533
 30
0.0
 11
147.33600000000001
 21
120.533
 31
0.0
  0
LINE
  5
533
  8
0
  6
AIGENLINE002
 62
     7
 10
90.380599999999987
 20
92.751199999999983
 30
0.0
 11
133.37700000000001
 21
92.751199999999983
 31
0.0
  0
LINE
  5
534
  8
0
  6
AIGENLINE002
 62
     7
 10
112.404
 20
71.200199999999995
 30
0.0
 11
112.404
 21
113.2
 31
0.0
  0
LINE
  5
535
  8
0
  6
AIGENLINE002
 62
     7
 10
117.87
 20
120.533
 30
0.0
 11
124.536
 21
120.533
 31
0.0
  0
LINE
  5
536
  8
0
  6
AIGENLINE002
 62
     7
 10
121.203
 20
114.273
 30
0.0
 11
121.203
 21
123.866
 31
0.0
  0
LINE
  5
537
  8
0
 62
     7
 10
139.84800000000001
 20
124.98399999999999
 30
0.0
 11
139.84800000000001
 21
124.94499999999999
 31
0.0
  0
LINE
  5
538
  8
0
 62
     7
 10
139.84800000000001
 20
124.94499999999999
 30
0.0
 11
139.84800000000001
 21
124.83
 31
0.0
  0
LINE
  5
539
  8
0
 62
     7
 10
139.84800000000001
 20
124.83
 30
0.0
 11
139.84800000000001
 21
124.646
 31
0.0
  0
LINE
  5
53A
  8
0
 62
     7
 10
139.84800000000001
 20
124.646
 30
0.0
 11
139.84800000000001
 21
124.389
 31
0.0
  0
LINE
  5
53B
  8
0
 62
     7
 10
139.84800000000001
 20
124.389
 30
0.0
 11
139.84800000000001
 21
124.143
 31
0.0
  0
LINE
  5
53C
  8
0
 62
     7
 10
139.84800000000001
 20
124.143
 30
0.0
 11
139.84800000000001
 21
123.86
 31
0.0
  0
LINE
  5
53D
  8
0
 62
     7
 10
139.84800000000001
 20
123.86
 30
0.0
 11
139.84800000000001
 21
123.179
 31
0.0
  0
LINE
  5
53E
  8
0
 62
     7
 10
139.84800000000001
 20
123.179
 30
0.0
 11
139.84800000000001
 21
122.79600000000001
 31
0.0
  0
LINE
  5
53F
  8
0
 62
     7
 10
139.84800000000001
 20
122.79600000000001
 30
0.0
 11
139.84800000000001
 21
122.387
 31
0.0
  0
LINE
  5
540
  8
0
 62
     7
 10
139.84800000000001
 20
122.387
 30
0.0
 11
139.84800000000001
 21
121.96899999999999
 31
0.0
  0
LINE
  5
541
  8
0
 62
     7
 10
139.84800000000001
 20
121.96899999999999
 30
0.0
 11
139.84800000000001
 21
121.535
 31
0.0
  0
LINE
  5
542
  8
0
 62
     7
 10
139.84800000000001
 20
121.535
 30
0.0
 11
139.84800000000001
 21
120.678
 31
0.0
  0
LINE
  5
543
  8
0
 62
     7
 10
139.84800000000001
 20
120.678
 30
0.0
 11
139.84800000000001
 21
119.86499999999999
 31
0.0
  0
LINE
  5
544
  8
0
 62
     7
 10
139.84800000000001
 20
119.86499999999999
 30
0.0
 11
139.84800000000001
 21
119.333
 31
0.0
  0
LINE
  5
545
  8
0
 62
     7
 10
139.84800000000001
 20
119.333
 30
0.0
 11
139.84800000000001
 21
118.803
 31
0.0
  0
LINE
  5
546
  8
0
 62
     7
 10
139.84800000000001
 20
118.803
 30
0.0
 11
139.84800000000001
 21
118.28700000000001
 31
0.0
  0
LINE
  5
547
  8
0
 62
     7
 10
139.84800000000001
 20
118.28700000000001
 30
0.0
 11
139.84800000000001
 21
117.91
 31
0.0
  0
LINE
  5
548
  8
0
 62
     7
 10
139.84800000000001
 20
117.91
 30
0.0
 11
139.84800000000001
 21
117.559
 31
0.0
  0
LINE
  5
549
  8
0
 62
     7
 10
139.84800000000001
 20
117.559
 30
0.0
 11
139.84800000000001
 21
116.941
 31
0.0
  0
LINE
  5
54A
  8
0
 62
     7
 10
139.84800000000001
 20
116.941
 30
0.0
 11
139.84800000000001
 21
116.687
 31
0.0
  0
LINE
  5
54B
  8
0
 62
     7
 10
139.84800000000001
 20
116.687
 30
0.0
 11
139.84800000000001
 21
116.47499999999999
 31
0.0
  0
LINE
  5
54C
  8
0
 62
     7
 10
139.84800000000001
 20
116.47499999999999
 30
0.0
 11
139.84800000000001
 21
116.309
 31
0.0
  0
LINE
  5
54D
  8
0
 62
     7
 10
139.84800000000001
 20
116.309
 30
0.0
 11
139.84800000000001
 21
116.185
 31
0.0
  0
LINE
  5
54E
  8
0
 62
     7
 10
139.84800000000001
 20
116.185
 30
0.0
 11
139.84800000000001
 21
116.074
 31
0.0
  0
LINE
  5
54F
  8
0
 62
     7
 10
139.84800000000001
 20
116.074
 30
0.0
 11
139.84800000000001
 21
116.08199999999999
 31
0.0
  0
LINE
  5
550
  8
0
 62
     7
 10
141.85400000000001
 20
128.108
 30
0.0
 11
141.85400000000001
 21
112.959
 31
0.0
  0
LINE
  5
551
  8
0
 62
     7
 10
144.536
 20
111.033
 30
0.0
 11
144.536
 21
130.03299999999999
 31
0.0
  0
LINE
  5
552
  8
0
 62
     7
 10
142.86500000000001
 20
111.94799999999999
 30
0.0
 11
142.86500000000001
 21
129.11799999999999
 31
0.0
  0
LINE
  5
553
  8
0
 62
     7
 10
128.548
 20
118.524
 30
0.0
 11
128.548
 21
118.52200000000001
 31
0.0
  0
LINE
  5
554
  8
0
 62
     7
 10
128.548
 20
118.52200000000001
 30
0.0
 11
128.548
 21
118.596
 31
0.0
  0
LINE
  5
555
  8
0
 62
     7
 10
128.548
 20
118.596
 30
0.0
 11
128.548
 21
118.744
 31
0.0
  0
LINE
  5
556
  8
0
 62
     7
 10
128.548
 20
118.744
 30
0.0
 11
128.548
 21
118.961
 31
0.0
  0
LINE
  5
557
  8
0
 62
     7
 10
128.548
 20
118.961
 30
0.0
 11
128.548
 21
119.238
 31
0.0
  0
LINE
  5
558
  8
0
 62
     7
 10
128.548
 20
119.238
 30
0.0
 11
128.548
 21
119.565
 31
0.0
  0
LINE
  5
559
  8
0
 62
     7
 10
128.548
 20
119.565
 30
0.0
 11
128.548
 21
119.929
 31
0.0
  0
LINE
  5
55A
  8
0
 62
     7
 10
128.548
 20
119.929
 30
0.0
 11
128.548
 21
120.31699999999999
 31
0.0
  0
LINE
  5
55B
  8
0
 62
     7
 10
128.548
 20
120.31699999999999
 30
0.0
 11
128.548
 21
120.71299999999999
 31
0.0
  0
LINE
  5
55C
  8
0
 62
     7
 10
128.548
 20
120.71299999999999
 30
0.0
 11
128.548
 21
121.102
 31
0.0
  0
LINE
  5
55D
  8
0
 62
     7
 10
128.548
 20
121.102
 30
0.0
 11
128.548
 21
121.46899999999999
 31
0.0
  0
LINE
  5
55E
  8
0
 62
     7
 10
128.548
 20
121.46899999999999
 30
0.0
 11
128.548
 21
121.801
 31
0.0
  0
LINE
  5
55F
  8
0
 62
     7
 10
128.548
 20
121.801
 30
0.0
 11
128.548
 21
122.083
 31
0.0
  0
LINE
  5
560
  8
0
 62
     7
 10
128.548
 20
122.083
 30
0.0
 11
128.548
 21
122.306
 31
0.0
  0
LINE
  5
561
  8
0
 62
     7
 10
128.548
 20
122.306
 30
0.0
 11
128.548
 21
122.462
 31
0.0
  0
LINE
  5
562
  8
0
 62
     7
 10
128.548
 20
122.462
 30
0.0
 11
128.548
 21
122.542
 31
0.0
  0
LINE
  5
563
  8
0
 62
     7
 10
128.548
 20
122.542
 30
0.0
 11
128.548
 21
122.545
 31
0.0
  0
LINE
  5
564
  8
0
 62
     7
 10
128.548
 20
118.31100000000001
 30
0.0
 11
128.548
 21
119.467
 31
0.0
  0
LINE
  5
565
  8
0
 62
     7
 10
128.548
 20
119.467
 30
0.0
 11
128.548
 21
122.75700000000001
 31
0.0
  0
LINE
  5
566
  8
0
 62
     7
 10
128.68199999999999
 20
118.17700000000001
 30
0.0
 11
128.68199999999999
 21
119.40300000000001
 31
0.0
  0
LINE
  5
567
  8
0
 62
     7
 10
128.68199999999999
 20
119.40300000000001
 30
0.0
 11
128.68199999999999
 21
122.89100000000001
 31
0.0
  0
LINE
  5
568
  8
0
 62
     7
 10
133.93000000000001
 20
116.158
 30
0.0
 11
133.93000000000001
 21
118.434
 31
0.0
  0
LINE
  5
569
  8
0
 62
     7
 10
133.93000000000001
 20
118.434
 30
0.0
 11
133.93000000000001
 21
124.911
 31
0.0
  0
LINE
  5
56A
  8
0
 62
     7
 10
137.673
 20
124.911
 30
0.0
 11
137.673
 21
116.158
 31
0.0
  0
LINE
  5
56B
  8
0
 62
     7
 10
138.17599999999999
 20
125.044
 30
0.0
 11
138.17599999999999
 21
116.02200000000001
 31
0.0
  0
LINE
  5
56C
  8
0
 62
     7
 10
139.84800000000001
 20
125.212
 30
0.0
 11
139.84800000000001
 21
115.854
 31
0.0
  0
LINE
  5
56D
  8
0
 62
     7
 10
137.065
 20
125.146
 30
0.0
 11
137.065
 21
115.922
 31
0.0
  0
LINE
  5
56E
  8
0
 62
     7
 10
136.82300000000001
 20
115.723
 30
0.0
 11
136.83099999999999
 21
115.72499999999999
 31
0.0
  0
ARC
  5
56F
  8
0
 62
     7
 10
136.82856899999999
 20
115.726905
 30
0.0
 40
0.002944
 50
317.980121
 51
93.530415000000005
  0
ARC
  5
570
  8
0
 62
     7
 10
136.76247499999999
 20
115.488398
 30
0.0
 40
0.25028
 50
74.730682000000002
 51
83.344544999999997
  0
ARC
  5
571
  8
0
 62
     7
 10
136.608216
 20
114.418595
 30
0.0
 40
1.331073999999999
 50
82.086224000000016
 51
87.820169000000007
  0
ARC
  5
572
  8
0
 62
     7
 10
136.39702600000001
 20
112.06558
 30
0.0
 40
3.6924190000000001
 50
85.933901000000006
 51
88.438970999999995
  0
ARC
  5
573
  8
0
 62
     7
 10
135.96982299999999
 20
98.975195999999997
 30
0.0
 40
16.789731
 50
88.198583999999997
 51
89.022972999999979
  0
ARC
  5
574
  8
0
 62
     7
 10
135.71685299999999
 20
87.149908999999994
 30
0.0
 40
28.617657999999999
 50
88.920270999999985
 51
89.325893000000008
  0
ARC
  5
575
  8
0
 62
     7
 10
135.88436299999989
 20
97.848405000000014
 30
0.0
 40
17.91798
 50
89.459017000000003
 51
90.200424999999996
  0
ARC
  5
576
  8
0
 62
     7
 10
135.82007100000001
 20
86.661625999999984
 30
0.0
 40
29.104648999999998
 50
89.996820999999997
 51
90.394254999999987
  0
ARC
  5
577
  8
0
 62
     7
 10
136.82392100000001
 20
3.6441400000000002
 30
0.0
 40
112.12791199999999
 50
90.615291999999997
 51
90.706839000000002
  0
ARC
  5
578
  8
0
 62
     7
 10
135.90997400000001
 20
92.715164000000016
 30
0.0
 40
23.053134
 50
91.166516999999999
 51
91.740386000000015
  0
ARC
  5
579
  8
0
 62
     7
 10
135.507139
 20
107.211899
 30
0.0
 40
8.5509339999999998
 50
91.992532999999995
 51
93.564148000000003
  0
ARC
  5
57A
  8
0
 62
     7
 10
135.089494
 20
114.208504
 30
0.0
 40
1.542004999999999
 50
94.237257
 51
98.061841000000015
  0
ARC
  5
57B
  8
0
 62
     7
 10
134.89292599999999
 20
115.59211999999999
 30
0.0
 40
0.144496
 50
97.830185999999998
 51
111.18605700000001
  0
ARC
  5
57C
  8
0
 62
     7
 10
134.84563899999989
 20
115.72987500000001
 30
0.0
 40
0.005787
 50
211.5143600000001
 51
256.63518399999998
  0
LINE
  5
57D
  8
0
 62
     7
 10
134.84399999999999
 20
115.724
 30
0.0
 11
134.84999999999999
 21
115.723
 31
0.0
  0
ARC
  5
57E
  8
0
 62
     7
 10
128.45959500000001
 20
117.878754
 30
0.0
 40
8.378349
 50
2.3735900000000001
 51
4.1082830000000001
  0
ARC
  5
57F
  8
0
 62
     7
 10
134.34753799999999
 20
118.282551
 30
0.0
 40
2.4766799999999991
 50
4.5492919999999986
 51
9.4239730000000002
  0
ARC
  5
580
  8
0
 62
     7
 10
134.828688
 20
118.35278
 30
0.0
 40
1.990548
 50
9.6974529999999994
 51
23.158024999999999
  0
ARC
  5
581
  8
0
 62
     7
 10
135.17401000000001
 20
118.486796
 30
0.0
 40
1.620395
 50
23.603100999999999
 51
35.230319000000001
  0
ARC
  5
582
  8
0
 62
     7
 10
135.632408
 20
118.797843
 30
0.0
 40
1.0665759999999991
 50
35.786784000000011
 51
54.213206000000007
  0
ARC
  5
583
  8
0
 62
     7
 10
135.80033299999999
 20
119.017427
 30
0.0
 40
0.7902899999999999
 50
54.779752999999999
 51
71.313250999999994
  0
ARC
  5
584
  8
0
 62
     7
 10
135.837717
 20
119.12453499999999
 30
0.0
 40
0.6768520000000001
 50
71.406060999999994
 51
91.357581000000025
  0
ARC
  5
585
  8
0
 62
     7
 10
135.83613800000001
 20
119.120649
 30
0.0
 40
0.680701
 50
91.216942999999986
 51
108.531153
  0
ARC
  5
586
  8
0
 62
     7
 10
135.86154500000001
 20
119.044009
 30
0.0
 40
0.761442
 50
108.510977
 51
123.55645800000001
  0
ARC
  5
587
  8
0
 62
     7
 10
135.964596
 20
118.880835
 30
0.0
 40
0.954395
 50
123.297149
 51
142.26351
  0
ARC
  5
588
  8
0
 62
     7
 10
136.28231700000001
 20
118.60453699999999
 30
0.0
 40
1.374971999999999
 50
141.26124899999999
 51
161.87637599999999
  0
ARC
  5
589
  8
0
 62
     7
 10
137.014351
 20
118.304969
 30
0.0
 40
2.164625
 50
160.36764700000001
 51
171.67210800000001
  0
ARC
  5
58A
  8
0
 62
     7
 10
137.28801899999999
 20
118.244721
 30
0.0
 40
2.4442149999999998
 50
171.203858
 51
181.15560600000001
  0
ARC
  5
58B
  8
0
 62
     7
 10
137.49115599999999
 20
118.21793099999999
 30
0.0
 40
2.646949999999999
 50
180.4871269999999
 51
190.319323
  0
ARC
  5
58C
  8
0
 62
     7
 10
136.983948
 20
118.14345
 30
0.0
 40
2.134676999999999
 50
190.79124999999999
 51
203.0710040000001
  0
ARC
  5
58D
  8
0
 62
     7
 10
136.42470800000001
 20
117.917025
 30
0.0
 40
1.531474
 50
203.47632400000001
 51
215.713494
  0
ARC
  5
58E
  8
0
 62
     7
 10
136.07669000000001
 20
117.688852
 30
0.0
 40
1.1158539999999999
 50
216.631902
 51
234.18779599999999
  0
ARC
  5
58F
  8
0
 62
     7
 10
135.88251600000001
 20
117.45348
 30
0.0
 40
0.8116039999999999
 50
235.581489
 51
251.600672
  0
ARC
  5
590
  8
0
 62
     7
 10
135.839361
 20
117.34084900000001
 30
0.0
 40
0.6911310000000001
 50
252.04818599999999
 51
271.47618900000009
  0
ARC
  5
591
  8
0
 62
     7
 10
135.835498
 20
117.34182
 30
0.0
 40
0.692211
 50
271.79379599999999
 51
288.78137800000002
  0
ARC
  5
592
  8
0
 62
     7
 10
135.81323
 20
117.40795799999999
 30
0.0
 40
0.7619970000000002
 50
288.76548600000001
 51
303.83452699999998
  0
ARC
  5
593
  8
0
 62
     7
 10
135.714384
 20
117.565336
 30
0.0
 40
0.947776
 50
303.50076300000001
 51
322.70153499999998
  0
ARC
  5
594
  8
0
 62
     7
 10
135.41473300000001
 20
117.82514
 30
0.0
 40
1.343812
 50
321.63155799999998
 51
337.646368
  0
ARC
  5
595
  8
0
 62
     7
 10
134.849737
 20
118.08929999999999
 30
0.0
 40
1.967036999999999
 50
336.78915599999999
 51
340.3825359999999
  0
ARC
  5
596
  8
0
 62
     7
 10
134.77047999999999
 20
118.118004
 30
0.0
 40
2.0513300000000001
 50
340.37056200000001
 51
351.72213900000003
  0
ARC
  5
597
  8
0
 62
     7
 10
134.78375199999999
 20
118.123282
 30
0.0
 40
2.0389689999999989
 50
351.52166299999999
 51
354.98257899999999
  0
ARC
  5
598
  8
0
 62
     7
 10
132.3149719999999
 20
118.339772
 30
0.0
 40
4.5172230000000004
 50
354.98582199999998
 51
358.55353600000001
  0
ARC
  5
599
  8
0
 62
     7
 10
128.87203799999989
 20
122.69684700000001
 30
0.0
 40
7.9658889999999989
 50
2.4313839999999991
 51
4.211678
  0
ARC
  5
59A
  8
0
 62
     7
 10
134.47842600000001
 20
123.090917
 30
0.0
 40
2.3457750000000002
 50
4.6693150000000001
 51
9.6814179999999972
  0
ARC
  5
59B
  8
0
 62
     7
 10
134.91592800000001
 20
123.15503099999999
 30
0.0
 40
1.9037500000000001
 50
9.9936170000000004
 51
23.720661
  0
ARC
  5
59C
  8
0
 62
     7
 10
135.20918599999999
 20
123.26939299999999
 30
0.0
 40
1.589318
 50
24.199106
 51
35.837622000000003
  0
ARC
  5
59D
  8
0
 62
     7
 10
135.62410800000001
 20
123.543676
 30
0.0
 40
1.0925519999999991
 50
36.916775999999999
 51
54.657401999999998
  0
ARC
  5
59E
  8
0
 62
     7
 10
135.79675800000001
 20
123.758824
 30
0.0
 40
0.8173470000000001
 50
55.805469000000002
 51
71.689736999999994
  0
ARC
  5
59F
  8
0
 62
     7
 10
135.83466899999999
 20
123.859228
 30
0.0
 40
0.7101290000000001
 50
72.048684999999992
 51
91.047995999999983
  0
ARC
  5
5A0
  8
0
 62
     7
 10
135.836477
 20
123.873789
 30
0.0
 40
0.695607
 50
91.218799000000004
 51
108.149483
  0
ARC
  5
5A1
  8
0
 62
     7
 10
135.87912
 20
123.760513
 30
0.0
 40
0.816547
 50
108.51688
 51
122.47819699999989
  0
ARC
  5
5A2
  8
0
 62
     7
 10
135.94714200000001
 20
123.65350100000001
 30
0.0
 40
0.9433489999999999
 50
122.47331699999999
 51
141.4065159999999
  0
ARC
  5
5A3
  8
0
 62
     7
 10
136.24384800000001
 20
123.391582
 30
0.0
 40
1.3387789999999999
 50
140.56633400000001
 51
161.32442399999999
  0
ARC
  5
5A4
  8
0
 62
     7
 10
136.91269600000001
 20
123.10999700000001
 30
0.0
 40
2.063245999999999
 50
159.86393899999999
 51
171.4180879999999
  0
ARC
  5
5A5
  8
0
 62
     7
 10
137.17769200000001
 20
123.05280999999999
 30
0.0
 40
2.3338700000000001
 50
171.00065599999999
 51
181.161542
  0
ARC
  5
5A6
  8
0
 62
     7
 10
137.35646299999999
 20
123.027393
 30
0.0
 40
2.5122569999999991
 50
180.49931900000001
 51
190.59307999999999
  0
ARC
  5
5A7
  8
0
 62
     7
 10
136.88085899999999
 20
122.955217
 30
0.0
 40
2.0315569999999989
 50
191.05801199999999
 51
203.65535600000001
  0
ARC
  5
5A8
  8
0
 62
     7
 10
136.395419
 20
122.757508
 30
0.0
 40
1.507641
 50
204.17518799999999
 51
216.35548600000001
  0
ARC
  5
5A9
  8
0
 62
     7
 10
136.05613700000001
 20
122.534868
 30
0.0
 40
1.102635
 50
217.489397
 51
235.004975
  0
ARC
  5
5AA
  8
0
 62
     7
 10
135.871668
 20
122.29493600000001
 30
0.0
 40
0.800402
 50
235.972499
 51
252.151454
  0
ARC
  5
5AB
  8
0
 62
     7
 10
135.84043800000001
 20
122.22024999999999
 30
0.0
 40
0.7197710000000001
 50
252.69556399999999
 51
271.3316890000001
  0
ARC
  5
5AC
  8
0
 62
     7
 10
135.83377999999999
 20
122.22139
 30
0.0
 40
0.721097
 50
271.85851700000001
 51
288.14626600000003
  0
ARC
  5
5AD
  8
0
 62
     7
 10
135.80731299999999
 20
122.287713
 30
0.0
 40
0.7923770000000001
 50
288.471272
 51
302.88237400000003
  0
ARC
  5
5AE
  8
0
 62
     7
 10
135.72446099999999
 20
122.415723
 30
0.0
 40
0.9448589999999999
 50
302.8871759999999
 51
321.93203700000009
  0
ARC
  5
5AF
  8
0
 62
     7
 10
135.470403
 20
122.648501
 30
0.0
 40
1.2886789999999999
 50
320.748829
 51
337.10553399999998
  0
ARC
  5
5B0
  8
0
 62
     7
 10
134.943096
 20
122.900853
 30
0.0
 40
1.8728199999999999
 50
336.26934699999998
 51
339.96668499999998
  0
ARC
  5
5B1
  8
0
 62
     7
 10
134.900263
 20
122.92338599999999
 30
0.0
 40
1.920790999999999
 50
339.77288700000003
 51
351.59812899999997
  0
ARC
  5
5B2
  8
0
 62
     7
 10
134.86155299999999
 20
122.938884
 30
0.0
 40
1.961374
 50
351.315495
 51
354.81746600000002
  0
ARC
  5
5B3
  8
0
 62
     7
 10
132.56663800000001
 20
123.145258
 30
0.0
 40
4.265549
 50
354.841206
 51
358.51592399999998
  0
ARC
  5
5B4
  8
0
 62
     7
 10
134.90022200000001
 20
125.24233099999999
 30
0.0
 40
0.114618
 50
96.960629000000012
 51
115.517031
  0
ARC
  5
5B5
  8
0
 62
     7
 10
135.09360599999999
 20
123.658788
 30
0.0
 40
1.709924999999999
 50
92.467062999999968
 51
96.962424999999996
  0
ARC
  5
5B6
  8
0
 62
     7
 10
135.31190799999999
 20
121.251105
 30
0.0
 40
4.1263610000000002
 50
91.814746999999997
 51
94.056579999999997
  0
ARC
  5
5B7
  8
0
 62
     7
 10
135.62401800000001
 20
111.231427
 30
0.0
 40
14.150898
 50
90.810805999999985
 51
91.793080000000003
  0
LINE
  5
5B8
  8
0
 62
     7
 10
135.42400000000001
 20
125.381
 30
0.0
 11
135.626
 21
125.384
 31
0.0
  0
LINE
  5
5B9
  8
0
 62
     7
 10
135.626
 20
125.384
 30
0.0
 11
135.857
 21
125.38500000000001
 31
0.0
  0
LINE
  5
5BA
  8
0
 62
     7
 10
135.857
 20
125.38500000000001
 30
0.0
 11
136.05799999999999
 21
125.384
 31
0.0
  0
LINE
  5
5BB
  8
0
 62
     7
 10
136.05799999999999
 20
125.384
 30
0.0
 11
136.238
 21
125.38200000000001
 31
0.0
  0
ARC
  5
5BC
  8
0
 62
     7
 10
136.034301
 20
112.03676400000001
 30
0.0
 40
13.346380999999999
 50
88.136386000000002
 51
89.127599000000004
  0
ARC
  5
5BD
  8
0
 62
     7
 10
136.20012
 20
117.663354
 30
0.0
 40
7.7173929999999986
 50
86.266835
 51
88.008336
  0
ARC
  5
5BE
  8
0
 62
     7
 10
136.621049
 20
124.136031
 30
0.0
 40
1.231045999999999
 50
81.653331000000009
 51
86.201738000000006
  0
ARC
  5
5BF
  8
0
 62
     7
 10
136.79383100000001
 20
125.29994600000001
 30
0.0
 40
0.054414
 50
57.364150999999993
 51
83.755763999999985
  0
LINE
  5
5C0
  8
0
 62
     7
 10
127.71299999999999
 20
122.386
 30
0.0
 11
127.71299999999999
 21
120.53400000000001
 31
0.0
  0
LINE
  5
5C1
  8
0
 62
     7
 10
127.71299999999999
 20
120.53400000000001
 30
0.0
 11
127.71299999999999
 21
118.68300000000001
 31
0.0
  0
LINE
  5
5C2
  8
0
 62
     7
 10
127.378
 20
122.72199999999999
 30
0.0
 11
127.378
 21
120.53400000000001
 31
0.0
  0
LINE
  5
5C3
  8
0
 62
     7
 10
127.378
 20
120.53400000000001
 30
0.0
 11
127.378
 21
118.346
 31
0.0
  0
LINE
  5
5C4
  8
0
 62
     7
 10
126.041
 20
122.72199999999999
 30
0.0
 11
126.041
 21
118.346
 31
0.0
  0
LINE
  5
5C5
  8
0
 62
     7
 10
124.3
 20
124.40600000000001
 30
0.0
 11
124.3
 21
116.663
 31
0.0
  0
ARC
  5
5C6
  8
0
 62
     7
 10
140.53869
 20
116.082424
 30
0.0
 40
0.6911310000000001
 50
180.90460999999999
 51
244.96707499999999
  0
ARC
  5
5C7
  8
0
 62
     7
 10
140.537454
 20
124.984244
 30
0.0
 40
0.689893
 50
114.967642
 51
179.10207199999999
  0
ARC
  5
5C8
  8
0
 62
     7
 10
139.076922
 20
112.93752000000001
 30
0.0
 40
2.7768939999999991
 50
0.4329840000000001
 51
65.096556000000007
  0
ARC
  5
5C9
  8
0
 62
     7
 10
139.044059
 20
128.149507
 30
0.0
 40
2.8099910000000001
 50
295.329656
 51
359.14440000000002
  0
ARC
  5
5CA
  8
0
 62
     7
 10
142.90346400000001
 20
112.99815099999999
 30
0.0
 40
1.0504759999999991
 50
182.16292300000001
 51
267.87617599999999
  0
ARC
  5
5CB
  8
0
 62
     7
 10
142.902826
 20
128.06854000000001
 30
0.0
 40
1.049814
 50
92.090289999999996
 51
177.87061
  0
ARC
  5
5CC
  8
0
 62
     7
 10
144.53638100000001
 20
113.325639
 30
0.0
 40
2.2926099999999989
 50
249.72212999999999
 51
269.99312400000002
  0
ARC
  5
5CD
  8
0
 62
     7
 10
144.369045
 20
112.770989
 30
0.0
 40
1.714704999999999
 50
208.66769300000001
 51
248.54377400000001
  0
ARC
  5
5CE
  8
0
 62
     7
 10
144.35436200000001
 20
128.31369699999999
 30
0.0
 40
1.6929069999999991
 50
106.508546
 51
151.64727500000001
  0
ARC
  5
5CF
  8
0
 62
     7
 10
144.51278300000001
 20
127.85855599999999
 30
0.0
 40
2.17442
 50
89.385431999999994
 51
107.10296
  0
LINE
  5
5D0
  8
0
 62
     7
 10
128.548
 20
122.545
 30
0.0
 11
128.548
 21
122.75700000000001
 31
0.0
  0
LINE
  5
5D1
  8
0
 62
     7
 10
128.548
 20
118.31100000000001
 30
0.0
 11
128.548
 21
118.524
 31
0.0
  0
LINE
  5
5D2
  8
0
 62
     7
 10
128.548
 20
122.75700000000001
 30
0.0
 11
128.68199999999999
 21
122.89100000000001
 31
0.0
  0
LINE
  5
5D3
  8
0
 62
     7
 10
128.68199999999999
 20
118.17700000000001
 30
0.0
 11
128.548
 21
118.31100000000001
 31
0.0
  0
LINE
  5
5D4
  8
0
 62
     7
 10
131.47300000000001
 20
118.178
 30
0.0
 11
128.68199999999999
 21
118.17700000000001
 31
0.0
  0
LINE
  5
5D5
  8
0
 62
     7
 10
128.68199999999999
 20
122.89100000000001
 30
0.0
 11
131.47300000000001
 21
122.89100000000001
 31
0.0
  0
ARC
  5
5D6
  8
0
 62
     7
 10
130.858227
 20
131.11759599999999
 30
0.0
 40
8.2497500000000006
 50
274.27303599999999
 51
275.85905300000002
  0
ARC
  5
5D7
  8
0
 62
     7
 10
131.49792199999999
 20
124.667322
 30
0.0
 40
1.7680089999999991
 50
276.5752819999999
 51
282.88506999999998
  0
ARC
  5
5D8
  8
0
 62
     7
 10
131.545717
 20
124.40650599999999
 30
0.0
 40
1.503147
 50
283.32606199999998
 51
303.39766100000003
  0
ARC
  5
5D9
  8
0
 62
     7
 10
131.41792899999999
 20
124.646592
 30
0.0
 40
1.774109999999999
 50
302.575107
 51
312.38758799999999
  0
ARC
  5
5DA
  8
0
 62
     7
 10
131.435542
 20
124.603081
 30
0.0
 40
1.7301770000000001
 50
312.928178
 51
323.85451
  0
ARC
  5
5DB
  8
0
 62
     7
 10
131.52051900000001
 20
124.54759199999999
 30
0.0
 40
1.628835
 50
323.66759000000002
 51
336.07779399999998
  0
ARC
  5
5DC
  8
0
 62
     7
 10
131.6574389999999
 20
124.468087
 30
0.0
 40
1.4715379999999989
 50
336.74573800000002
 51
340.650037
  0
ARC
  5
5DD
  8
0
 62
     7
 10
130.12842900000001
 20
124.986828
 30
0.0
 40
3.0861040000000002
 50
340.96898599999997
 51
345.94063299999999
  0
ARC
  5
5DE
  8
0
 62
     7
 10
126.989262
 20
115.175133
 30
0.0
 40
6.3524779999999987
 50
15.111015
 51
17.137968999999998
  0
ARC
  5
5DF
  8
0
 62
     7
 10
131.55354
 20
116.560979
 30
0.0
 40
1.5826260000000001
 50
17.885954000000002
 51
23.085328000000001
  0
ARC
  5
5E0
  8
0
 62
     7
 10
131.66558599999999
 20
116.605228
 30
0.0
 40
1.462205999999999
 50
23.211812999999999
 51
37.042802999999999
  0
ARC
  5
5E1
  8
0
 62
     7
 10
131.45451800000001
 20
116.48065699999999
 30
0.0
 40
1.7059459999999991
 50
36.111812999999998
 51
47.185133999999991
  0
ARC
  5
5E2
  8
0
 62
     7
 10
131.45909
 20
116.478061
 30
0.0
 40
1.7047499999999991
 50
47.357153999999987
 51
57.576988
  0
ARC
  5
5E3
  8
0
 62
     7
 10
131.47795199999999
 20
116.50255900000001
 30
0.0
 40
1.673959999999999
 50
57.672381000000009
 51
75.673092000000011
  0
ARC
  5
5E4
  8
0
 62
     7
 10
131.49618000000001
 20
116.43992
 30
0.0
 40
1.7304580000000001
 50
76.771112000000002
 51
85.738972000000004
  0
ARC
  5
5E5
  8
0
 62
     7
 10
130.826786
 20
109.230788
 30
0.0
 40
8.9703699999999991
 50
84.896448000000007
 51
85.869476000000006
  0
ARC
  5
5E6
  8
0
 62
     7
 10
133.9692969999999
 20
117.026098
 30
0.0
 40
0.8693469999999999
 50
192.95783299999999
 51
267.40702499999998
  0
ARC
  5
5E7
  8
0
 62
     7
 10
133.968164
 20
124.04399600000001
 30
0.0
 40
0.8678399999999999
 50
92.522585000000007
 51
167.14138
  0
LINE
  5
5E8
  8
0
 62
     7
 10
134.386
 20
116.158
 30
0.0
 11
133.93000000000001
 21
116.158
 31
0.0
  0
LINE
  5
5E9
  8
0
 62
     7
 10
133.93000000000001
 20
124.911
 30
0.0
 11
134.386
 21
124.911
 31
0.0
  0
LINE
  5
5EA
  8
0
 62
     7
 10
134.386
 20
124.911
 30
0.0
 11
134.40199999999999
 21
124.91200000000001
 31
0.0
  0
ARC
  5
5EB
  8
0
 62
     7
 10
134.385638
 20
124.985889
 30
0.0
 40
0.075977
 50
282.39678199999997
 51
296.48330299999998
  0
ARC
  5
5EC
  8
0
 62
     7
 10
134.39051499999999
 20
124.98953
 30
0.0
 40
0.077293
 50
292.03902599999998
 51
308.34423299999997
  0
ARC
  5
5ED
  8
0
 62
     7
 10
134.37214599999999
 20
125.008315
 30
0.0
 40
0.103459
 50
309.86920400000002
 51
323.53351500000002
  0
ARC
  5
5EE
  8
0
 62
     7
 10
134.153629
 20
115.859453
 30
0.0
 40
0.399606
 50
40.971243999999999
 51
44.537260999999987
  0
ARC
  5
5EF
  8
0
 62
     7
 10
134.385335
 20
116.07020199999999
 30
0.0
 40
0.087502
 50
52.612273999999992
 51
67.004467000000005
  0
ARC
  5
5F0
  8
0
 62
     7
 10
134.39326299999999
 20
116.097819
 30
0.0
 40
0.059086
 50
63.617229000000002
 51
81.546813
  0
ARC
  5
5F1
  8
0
 62
     7
 10
134.38799900000001
 20
116.08722299999999
 30
0.0
 40
0.070435
 50
78.577029999999993
 51
91.263735999999994
  0
ARC
  5
5F2
  8
0
 62
     7
 10
137.63760199999999
 20
127.87613899999999
 30
0.0
 40
2.9653360000000002
 50
270.65238499999998
 51
273.27873399999999
  0
ARC
  5
5F3
  8
0
 62
     7
 10
137.75501600000001
 20
125.619417
 30
0.0
 40
0.7056930000000001
 50
274.24069800000001
 51
282.43806799999999
  0
ARC
  5
5F4
  8
0
 62
     7
 10
137.77385899999999
 20
125.509525
 30
0.0
 40
0.5943450000000001
 50
282.94587000000001
 51
289.52390400000002
  0
ARC
  5
5F5
  8
0
 62
     7
 10
137.65367000000001
 20
125.850415
 30
0.0
 40
0.955802
 50
289.48515600000002
 51
295.89315099999999
  0
ARC
  5
5F6
  8
0
 62
     7
 10
136.47976199999999
 20
128.24921900000001
 30
0.0
 40
3.6264389999999991
 50
296.0276980000001
 51
297.88917199999997
  0
ARC
  5
5F7
  8
0
 62
     7
 10
135.97515100000001
 20
111.84047200000001
 30
0.0
 40
4.7252970000000003
 50
62.239631000000003
 51
64.314218999999994
  0
ARC
  5
5F8
  8
0
 62
     7
 10
137.74909500000001
 20
115.482949
 30
0.0
 40
0.6741560000000001
 50
66.003434999999996
 51
76.453040000000001
  0
ARC
  5
5F9
  8
0
 62
     7
 10
137.76949099999999
 20
115.516047
 30
0.0
 40
0.637315
 50
77.538679999999999
 51
83.611753000000007
  0
ARC
  5
5FA
  8
0
 62
     7
 10
137.68276299999999
 20
114.652804
 30
0.0
 40
1.5048790000000001
 50
83.987158000000008
 51
90.433988000000014
  0
ARC
  5
5FB
  8
0
 62
     7
 10
138.508984
 20
126.901601
 30
0.0
 40
2.2784360000000001
 50
230.40334100000001
 51
235.46445700000001
  0
ARC
  5
5FC
  8
0
 62
     7
 10
137.55506
 20
125.58288
 30
0.0
 40
0.6524310000000001
 50
238.82208399999999
 51
255.117133
  0
ARC
  5
5FD
  8
0
 62
     7
 10
137.588571
 20
125.618731
 30
0.0
 40
0.6960730000000001
 50
253.20888600000001
 51
259.09931
  0
ARC
  5
5FE
  8
0
 62
     7
 10
137.729039
 20
126.38269099999999
 30
0.0
 40
1.4728259999999991
 50
259.353611
 51
267.755788
  0
ARC
  5
5FF
  8
0
 62
     7
 10
137.92308700000001
 20
112.61767999999999
 30
0.0
 40
3.5488989999999991
 50
94.067370999999994
 51
96.61457399999999
  0
ARC
  5
600
  8
0
 62
     7
 10
137.62552700000001
 20
115.29889300000001
 30
0.0
 40
0.8513609999999999
 50
97.507672000000014
 51
106.236277
  0
ARC
  5
601
  8
0
 62
     7
 10
137.637485
 20
115.291859
 30
0.0
 40
0.8615109999999999
 50
106.869096
 51
119.191687
  0
ARC
  5
602
  8
0
 62
     7
 10
137.67619099999999
 20
115.309743
 30
0.0
 40
0.865821
 50
122.006068
 51
127.207452
  0
ARC
  5
603
  8
0
 62
     7
 10
138.4905629999999
 20
114.24254999999999
 30
0.0
 40
2.2082429999999991
 50
127.292371
 51
130.48866599999999
  0
ARC
  5
604
  8
0
 62
     7
 10
138.68342799999999
 20
116.703366
 30
0.0
 40
0.8495879999999999
 50
233.332089
 51
269.844944
  0
ARC
  5
605
  8
0
 62
     7
 10
138.67899800000001
 20
124.375821
 30
0.0
 40
0.83628
 50
89.854034999999996
 51
126.968932
  0
LINE
  5
606
  8
0
 62
     7
 10
139.84800000000001
 20
115.854
 30
0.0
 11
138.68100000000001
 21
115.854
 31
0.0
  0
LINE
  5
607
  8
0
 62
     7
 10
138.68100000000001
 20
125.212
 30
0.0
 11
139.84800000000001
 21
125.212
 31
0.0
  0
ARC
  5
608
  8
0
 62
     7
 10
135.85810799999999
 20
117.059944
 30
0.0
 40
1.6527810000000001
 50
305.799352
 51
316.48807299999999
  0
ARC
  5
609
  8
0
 62
     7
 10
135.84163599999999
 20
117.087197
 30
0.0
 40
1.689506
 50
214.86223899999999
 51
233.99439899999999
  0
ARC
  5
60A
  8
0
 62
     7
 10
135.84665100000001
 20
123.978531
 30
0.0
 40
1.6950860000000001
 50
126.07812
 51
145.16358299999999
  0
ARC
  5
60B
  8
0
 62
     7
 10
135.84149600000001
 20
123.99401
 30
0.0
 40
1.674463
 50
43.467816999999997
 51
53.991022000000001
  0
LINE
  5
60C
  8
0
 62
     7
 10
128.548
 20
118.68300000000001
 30
0.0
 11
127.71299999999999
 21
118.68300000000001
 31
0.0
  0
LINE
  5
60D
  8
0
 62
     7
 10
127.71299999999999
 20
122.386
 30
0.0
 11
128.548
 21
122.386
 31
0.0
  0
LINE
  5
60E
  8
0
 62
     7
 10
127.378
 20
118.346
 30
0.0
 11
126.041
 21
118.346
 31
0.0
  0
LINE
  5
60F
  8
0
 62
     7
 10
126.041
 20
122.72199999999999
 30
0.0
 11
127.378
 21
122.72199999999999
 31
0.0
  0
LINE
  5
610
  8
0
 62
     7
 10
127.71299999999999
 20
118.68300000000001
 30
0.0
 11
127.378
 21
118.346
 31
0.0
  0
LINE
  5
611
  8
0
 62
     7
 10
127.378
 20
122.72199999999999
 30
0.0
 11
127.71299999999999
 21
122.386
 31
0.0
  0
ARC
  5
612
  8
0
 62
     7
 10
132.79825600000001
 20
127.12444499999999
 30
0.0
 40
9.0104129999999998
 50
200.46146300000001
 51
202.08827299999999
  0
ARC
  5
613
  8
0
 62
     7
 10
126.262702
 20
124.488591
 30
0.0
 40
1.9634189999999989
 50
202.53168299999999
 51
211.72567900000001
  0
ARC
  5
614
  8
0
 62
     7
 10
125.915451
 20
124.310951
 30
0.0
 40
1.5749580000000001
 50
212.87194500000001
 51
234.64041700000001
  0
ARC
  5
615
  8
0
 62
     7
 10
125.977977
 20
124.42081399999999
 30
0.0
 40
1.7007869999999989
 50
235.064447
 51
254.67119199999999
  0
ARC
  5
616
  8
0
 62
     7
 10
125.908294
 20
124.30932
 30
0.0
 40
1.5752889999999991
 50
256.04360600000001
 51
265.37981300000001
  0
ARC
  5
617
  8
0
 62
     7
 10
126.243422
 20
127.84844200000001
 30
0.0
 40
5.1301389999999989
 50
264.8329700000001
 51
267.73475000000002
  0
ARC
  5
618
  8
0
 62
     7
 10
126.38581499999999
 20
110.143344
 30
0.0
 40
8.2098940000000002
 50
92.409571999999997
 51
94.079616999999985
  0
ARC
  5
619
  8
0
 62
     7
 10
125.94253999999999
 20
116.59917299999999
 30
0.0
 40
1.738972
 50
94.644132999999997
 51
103.77884899999999
  0
ARC
  5
61A
  8
0
 62
     7
 10
125.875266
 20
116.956654
 30
0.0
 40
1.3758989999999991
 50
104.60363099999999
 51
114.498733
  0
ARC
  5
61B
  8
0
 62
     7
 10
126.144081
 20
116.342105
 30
0.0
 40
2.0466159999999989
 50
114.212529
 51
123.85205499999999
  0
ARC
  5
61C
  8
0
 62
     7
 10
125.72268099999999
 20
116.941917
 30
0.0
 40
1.3138389999999991
 50
123.16134700000001
 51
149.326291
  0
ARC
  5
61D
  8
0
 62
     7
 10
126.068009
 20
116.740037
 30
0.0
 40
1.7138409999999991
 50
149.411012
 51
153.22024500000001
  0
ARC
  5
61E
  8
0
 62
     7
 10
127.36612
 20
116.077416
 30
0.0
 40
3.1712820000000002
 50
153.099693
 51
156.65552500000001
  0
ARC
  5
61F
  8
0
 62
     7
 10
130.88526300000001
 20
114.569159
 30
0.0
 40
7.0000109999999989
 50
156.73491200000001
 51
158.86016100000001
  0
ARC
  5
620
  8
0
 62
     7
 10
124.354555
 20
117.094019
 30
0.0
 40
0.001808
 50
157.43067300000001
 51
349.17082199999999
  0
ARC
  5
621
  8
0
 62
     7
 10
123.274742
 20
116.80458900000001
 30
0.0
 40
1.035204
 50
288.23945400000002
 51
352.12172500000008
  0
ARC
  5
622
  8
0
 62
     7
 10
123.284555
 20
124.272227
 30
0.0
 40
1.0243850000000001
 50
7.5002269999999989
 51
72.138593999999998
  0
LINE
  5
623
  8
0
 62
     7
 10
27.8596
 20
105.384
 30
0.0
 11
30.526199999999999
 21
105.384
 31
0.0
  0
ARC
  5
624
  8
0
 62
     7
 10
32.533875999999999
 20
102.25788799999999
 30
0.0
 40
2.0091009999999989
 50
182.12030899999999
 51
267.88482499999998
  0
ARC
  5
625
  8
0
 62
     7
 10
32.459980000000002
 20
102.183297
 30
0.0
 40
4.6003499999999988
 50
179.99675199999999
 51
269.996802
  0
LINE
  5
626
  8
0
 62
     7
 10
27.8596
 20
105.384
 30
0.0
 11
27.8596
 21
102.184
 31
0.0
  0
LINE
  5
627
  8
0
 62
     7
 10
30.526199999999999
 20
102.184
 30
0.0
 11
30.526199999999999
 21
105.384
 31
0.0
  0
ARC
  5
628
  8
0
 62
     7
 10
29.165900000000001
 20
104.674995
 30
0.0
 40
1.533812
 50
27.520844000000011
 51
113.29487899999999
  0
ARC
  5
629
  8
0
 62
     7
 10
29.206073
 20
104.73764799999999
 30
0.0
 40
1.4934270000000001
 50
115.661743
 51
154.36643100000001
  0
LINE
  5
62A
  8
0
 62
     7
 10
123.65600000000001
 20
125.203
 30
0.0
 11
123.65600000000001
 21
115.86499999999999
 31
0.0
  0
ARC
  5
62B
  8
0
 62
     7
 10
121.82846000000001
 20
121.241592
 30
0.0
 40
5.701967999999999
 50
277.127343
 51
288.08756099999999
  0
ARC
  5
62C
  8
0
 62
     7
 10
119.869806
 20
119.091763
 30
0.0
 40
3.3888780000000001
 50
267.10760599999998
 51
269.98749100000009
  0
ARC
  5
62D
  8
0
 62
     7
 10
119.961556
 20
121.054501
 30
0.0
 40
5.3537499999999989
 50
264.42020100000002
 51
267.18688500000002
  0
ARC
  5
62E
  8
0
 62
     7
 10
120.307542
 20
124.573153
 30
0.0
 40
8.8893710000000006
 50
259.885042
 51
264.405889
  0
ARC
  5
62F
  8
0
 62
     7
 10
120.478476
 20
125.893728
 30
0.0
 40
10.219639000000001
 50
256.10671400000001
 51
260.24187799999999
  0
ARC
  5
630
  8
0
 62
     7
 10
118.341593
 20
117.295278
 30
0.0
 40
1.3596790000000001
 50
249.684181
 51
256.517808
  0
ARC
  5
631
  8
0
 62
     7
 10
119.382851
 20
121.301692
 30
0.0
 40
3.9467910000000002
 50
106.65937599999999
 51
112.546498
  0
ARC
  5
632
  8
0
 62
     7
 10
120.240437
 20
118.552933
 30
0.0
 40
6.8261099999999999
 50
101.59257700000001
 51
106.941165
  0
ARC
  5
633
  8
0
 62
     7
 10
121.113257
 20
114.499027
 30
0.0
 40
10.97279
 50
95.745995000000008
 51
101.80341799999999
  0
ARC
  5
634
  8
0
 62
     7
 10
121.47550699999999
 20
111.65445099999999
 30
0.0
 40
13.839548000000001
 50
87.667128999999989
 51
96.059122000000002
  0
ARC
  5
635
  8
0
 62
     7
 10
121.649962
 20
116.793947
 30
0.0
 40
8.697280000000001
 50
80.610287999999997
 51
87.437271999999993
  0
ARC
  5
636
  8
0
 62
     7
 10
122.3141
 20
121.067999
 30
0.0
 40
4.372342999999999
 50
72.648965000000004
 51
80.059030000000007
  0
ARC
  5
637
  8
0
 62
     7
 10
51.624332000000003
 20
120.534046
 30
0.0
 40
9.5055479999999992
 50
13.183524
 51
103.18252099999999
  0
ARC
  5
638
  8
0
 62
     7
 10
51.80211899999999
 20
120.356649
 30
0.0
 40
9.7197200000000006
 50
103.964465
 51
166.03689800000001
  0
LINE
  5
639
  8
0
 62
     7
 10
48.3855
 20
124.456
 30
0.0
 11
48.387
 21
124.458
 31
0.0
  0
ARC
  5
63A
  8
0
 62
     7
 10
44.251484999999988
 20
126.810031
 30
0.0
 40
4.7574389999999989
 50
329.89146599999998
 51
330.374707
  0
ARC
  5
63B
  8
0
 62
     7
 10
51.897109
 20
122.331973
 30
0.0
 40
4.1031639999999987
 50
149.353621
 51
150.73620199999999
  0
ARC
  5
63C
  8
0
 62
     7
 10
87.079227000000003
 20
101.779358
 30
0.0
 40
44.848010000000002
 50
149.80157199999999
 51
150.109692
  0
ARC
  5
63D
  8
0
 62
     7
 10
49.051786999999997
 20
123.62464799999999
 30
0.0
 40
0.9925959999999999
 50
149.46485200000001
 51
150.49838
  0
LINE
  5
63E
  8
0
 62
     7
 10
50.289400000000001
 20
125.3
 30
0.0
 11
50.266500000000001
 21
125.3
 31
0.0
  0
LINE
  5
63F
  8
0
 62
     7
 10
50.266500000000001
 20
125.3
 30
0.0
 11
49.996699999999997
 21
125.3
 31
0.0
  0
LINE
  5
640
  8
0
 62
     7
 10
49.996699999999997
 20
125.3
 30
0.0
 11
49.882699999999993
 21
125.3
 31
0.0
  0
LINE
  5
641
  8
0
 62
     7
 10
49.882699999999993
 20
125.3
 30
0.0
 11
49.8491
 21
125.3
 31
0.0
  0
LINE
  5
642
  8
0
 62
     7
 10
53.401400000000002
 20
125.3
 30
0.0
 11
53.40379999999999
 21
125.3
 31
0.0
  0
LINE
  5
643
  8
0
 62
     7
 10
53.40379999999999
 20
125.3
 30
0.0
 11
53.363999999999997
 21
125.3
 31
0.0
  0
LINE
  5
644
  8
0
 62
     7
 10
53.363999999999997
 20
125.3
 30
0.0
 11
53.264800000000001
 21
125.3
 31
0.0
  0
LINE
  5
645
  8
0
 62
     7
 10
53.264800000000001
 20
125.3
 30
0.0
 11
53.023999999999987
 21
125.3
 31
0.0
  0
LINE
  5
646
  8
0
 62
     7
 10
53.023999999999987
 20
125.3
 30
0.0
 11
52.915300000000002
 21
125.3
 31
0.0
  0
LINE
  5
647
  8
0
 62
     7
 10
55.091000000000001
 20
124.062
 30
0.0
 11
55.072600000000001
 21
124.093
 31
0.0
  0
ARC
  5
648
  8
0
 62
     7
 10
-60.646590000000003
 20
57.599175000000002
 30
0.0
 40
133.46302399999999
 50
29.882303000000011
 51
29.998021999999999
  0
ARC
  5
649
  8
0
 62
     7
 10
67.775261999999998
 20
131.820975
 30
0.0
 40
14.864635
 50
209.837357
 51
210.27614800000001
  0
ARC
  5
64A
  8
0
 62
     7
 10
53.866498999999997
 20
123.855192
 30
0.0
 40
1.1637379999999991
 50
29.329819000000001
 51
31.01721400000001
  0
LINE
  5
64B
  8
0
 62
     7
 10
51.3521
 20
125.02800000000001
 30
0.0
 11
51.505400000000002
 21
125.035
 31
0.0
  0
LINE
  5
64C
  8
0
 62
     7
 10
51.016500000000001
 20
124.996
 30
0.0
 11
51.071100000000001
 21
125.003
 31
0.0
  0
LINE
  5
64D
  8
0
 62
     7
 10
51.071100000000001
 20
125.003
 30
0.0
 11
51.157400000000003
 21
125.012
 31
0.0
  0
LINE
  5
64E
  8
0
 62
     7
 10
50.688499999999998
 20
124.93899999999999
 30
0.0
 11
50.837400000000002
 21
124.967
 31
0.0
  0
LINE
  5
64F
  8
0
 62
     7
 10
50.371400000000001
 20
124.85899999999999
 30
0.0
 11
50.515099999999997
 21
124.898
 31
0.0
  0
LINE
  5
650
  8
0
 62
     7
 10
50.059800000000003
 20
124.756
 30
0.0
 11
50.177799999999998
 21
124.798
 31
0.0
  0
LINE
  5
651
  8
0
 62
     7
 10
49.745100000000001
 20
124.626
 30
0.0
 11
49.873600000000003
 21
124.682
 31
0.0
  0
LINE
  5
652
  8
0
 62
     7
 10
49.448799999999999
 20
124.476
 30
0.0
 11
49.494599999999998
 21
124.501
 31
0.0
  0
LINE
  5
653
  8
0
 62
     7
 10
49.494599999999998
 20
124.501
 30
0.0
 11
49.605899999999991
 21
124.559
 31
0.0
  0
LINE
  5
654
  8
0
 62
     7
 10
49.169699999999999
 20
124.309
 30
0.0
 11
49.276200000000003
 21
124.376
 31
0.0
  0
LINE
  5
655
  8
0
 62
     7
 10
48.894799999999989
 20
124.11499999999999
 30
0.0
 11
49.000100000000003
 21
124.19199999999999
 31
0.0
  0
LINE
  5
656
  8
0
 62
     7
 10
48.633200000000002
 20
123.899
 30
0.0
 11
48.753100000000003
 21
124.002
 31
0.0
  0
LINE
  5
657
  8
0
 62
     7
 10
48.391500000000001
 20
123.66800000000001
 30
0.0
 11
48.491900000000001
 21
123.768
 31
0.0
  0
LINE
  5
658
  8
0
 62
     7
 10
48.168599999999998
 20
123.42100000000001
 30
0.0
 11
48.205100000000002
 21
123.464
 31
0.0
  0
LINE
  5
659
  8
0
 62
     7
 10
48.205100000000002
 20
123.464
 30
0.0
 11
48.257800000000003
 21
123.524
 31
0.0
  0
LINE
  5
65A
  8
0
 62
     7
 10
47.965499999999992
 20
123.158
 30
0.0
 11
48.0563
 21
123.28
 31
0.0
  0
LINE
  5
65B
  8
0
 62
     7
 10
47.7881
 20
122.89100000000001
 30
0.0
 11
47.861600000000003
 21
123.00700000000001
 31
0.0
  0
LINE
  5
65C
  8
0
 62
     7
 10
47.625999999999998
 20
122.604
 30
0.0
 11
47.682499999999997
 21
122.70999999999999
 31
0.0
  0
LINE
  5
65D
  8
0
 62
     7
 10
47.480299999999993
 20
122.295
 30
0.0
 11
47.541200000000003
 21
122.432
 31
0.0
  0
LINE
  5
65E
  8
0
 62
     7
 10
47.363300000000002
 20
121.989
 30
0.0
 11
47.377799999999993
 21
122.03100000000001
 31
0.0
  0
LINE
  5
65F
  8
0
 62
     7
 10
47.377799999999993
 20
122.03100000000001
 30
0.0
 11
47.413600000000002
 21
122.129
 31
0.0
  0
LINE
  5
660
  8
0
 62
     7
 10
47.26939999999999
 20
121.67700000000001
 30
0.0
 11
47.301099999999991
 21
121.792
 31
0.0
  0
LINE
  5
661
  8
0
 62
     7
 10
47.195900000000002
 20
121.34699999999999
 30
0.0
 11
47.221200000000003
 21
121.47499999999999
 31
0.0
  0
LINE
  5
662
  8
0
 62
     7
 10
47.148299999999999
 20
121.021
 30
0.0
 11
47.167400000000001
 21
121.172
 31
0.0
  0
LINE
  5
663
  8
0
 62
     7
 10
47.125399999999992
 20
120.708
 30
0.0
 11
47.131100000000004
 21
120.816
 31
0.0
  0
LINE
  5
664
  8
0
 62
     7
 10
47.12489999999999
 20
120.373
 30
0.0
 11
47.124200000000002
 21
120.395
 31
0.0
  0
LINE
  5
665
  8
0
 62
     7
 10
47.124200000000002
 20
120.395
 30
0.0
 11
47.122100000000003
 21
120.512
 31
0.0
  0
LINE
  5
666
  8
0
 62
     7
 10
47.151899999999991
 20
120.015
 30
0.0
 11
47.135699999999993
 21
120.181
 31
0.0
  0
LINE
  5
667
  8
0
 62
     7
 10
47.197599999999987
 20
119.71299999999999
 30
0.0
 11
47.177399999999999
 21
119.82899999999999
 31
0.0
  0
LINE
  5
668
  8
0
 62
     7
 10
47.269100000000002
 20
119.393
 30
0.0
 11
47.2438
 21
119.494
 31
0.0
  0
LINE
  5
669
  8
0
 62
     7
 10
47.374699999999997
 20
119.047
 30
0.0
 11
47.328000000000003
 21
119.187
 31
0.0
  0
LINE
  5
66A
  8
0
 62
     7
 10
55.823599999999999
 20
118.90900000000001
 30
0.0
 11
55.807600000000001
 21
118.869
 31
0.0
  0
LINE
  5
66B
  8
0
 62
     7
 10
55.932499999999997
 20
119.224
 30
0.0
 11
55.8979
 21
119.116
 31
0.0
  0
LINE
  5
66C
  8
0
 62
     7
 10
56.017600000000002
 20
119.547
 30
0.0
 11
55.98449999999999
 21
119.411
 31
0.0
  0
LINE
  5
66D
  8
0
 62
     7
 10
56.078200000000002
 20
119.875
 30
0.0
 11
56.073799999999999
 21
119.84399999999999
 31
0.0
  0
LINE
  5
66E
  8
0
 62
     7
 10
56.073799999999999
 20
119.84399999999999
 30
0.0
 11
56.059600000000003
 21
119.75700000000001
 31
0.0
  0
LINE
  5
66F
  8
0
 62
     7
 10
56.115400000000001
 20
120.211
 30
0.0
 11
56.103000000000002
 21
120.069
 31
0.0
  0
LINE
  5
670
  8
0
 62
     7
 10
56.12680000000001
 20
120.54000000000001
 30
0.0
 11
56.125100000000003
 21
120.399
 31
0.0
  0
LINE
  5
671
  8
0
 62
     7
 10
56.113599999999998
 20
120.886
 30
0.0
 11
56.123199999999997
 21
120.72799999999999
 31
0.0
  0
LINE
  5
672
  8
0
 62
     7
 10
56.07459999999999
 20
121.21899999999999
 30
0.0
 11
56.096699999999998
 21
121.056
 31
0.0
  0
LINE
  5
673
  8
0
 62
     7
 10
56.0152
 20
121.532
 30
0.0
 11
56.022799999999997
 21
121.498
 31
0.0
  0
LINE
  5
674
  8
0
 62
     7
 10
56.022799999999997
 20
121.498
 30
0.0
 11
56.044499999999992
 21
121.392
 31
0.0
  0
LINE
  5
675
  8
0
 62
     7
 10
55.928400000000003
 20
121.857
 30
0.0
 11
55.96820000000001
 21
121.71899999999999
 31
0.0
  0
LINE
  5
676
  8
0
 62
     7
 10
55.819200000000002
 20
122.17100000000001
 30
0.0
 11
55.8626
 21
122.05500000000001
 31
0.0
  0
LINE
  5
677
  8
0
 62
     7
 10
55.686399999999999
 20
122.477
 30
0.0
 11
55.74819999999999
 21
122.342
 31
0.0
  0
LINE
  5
678
  8
0
 62
     7
 10
55.531300000000002
 20
122.77200000000001
 30
0.0
 11
55.5989
 21
122.65000000000001
 31
0.0
  0
LINE
  5
679
  8
0
 62
     7
 10
55.3536
 20
123.05800000000001
 30
0.0
 11
55.377699999999997
 21
123.021
 31
0.0
  0
LINE
  5
67A
  8
0
 62
     7
 10
55.377699999999997
 20
123.021
 30
0.0
 11
55.421799999999998
 21
122.95399999999999
 31
0.0
  0
LINE
  5
67B
  8
0
 62
     7
 10
55.157699999999991
 20
123.325
 30
0.0
 11
55.22829999999999
 21
123.23399999999999
 31
0.0
  0
LINE
  5
67C
  8
0
 62
     7
 10
54.941400000000002
 20
123.57899999999999
 30
0.0
 11
55.033700000000003
 21
123.47499999999999
 31
0.0
  0
LINE
  5
67D
  8
0
 62
     7
 10
54.706400000000002
 20
123.81699999999999
 30
0.0
 11
54.812800000000003
 21
123.71299999999999
 31
0.0
  0
LINE
  5
67E
  8
0
 62
     7
 10
54.4527
 20
124.038
 30
0.0
 11
54.546199999999999
 21
123.95999999999999
 31
0.0
  0
LINE
  5
67F
  8
0
 62
     7
 10
54.191000000000003
 20
124.23399999999999
 30
0.0
 11
54.225999999999999
 21
124.209
 31
0.0
  0
LINE
  5
680
  8
0
 62
     7
 10
54.225999999999999
 20
124.209
 30
0.0
 11
54.3018
 21
124.154
 31
0.0
  0
LINE
  5
681
  8
0
 62
     7
 10
53.9056
 20
124.416
 30
0.0
 11
54.0289
 21
124.34099999999999
 31
0.0
  0
LINE
  5
682
  8
0
 62
     7
 10
53.601199999999999
 20
124.58
 30
0.0
 11
53.734200000000001
 21
124.512
 31
0.0
  0
LINE
  5
683
  8
0
 62
     7
 10
53.3078
 20
124.70999999999999
 30
0.0
 11
53.4358
 21
124.65600000000001
 31
0.0
  0
LINE
  5
684
  8
0
 62
     7
 10
52.997399999999992
 20
124.822
 30
0.0
 11
53.1265
 21
124.779
 31
0.0
  0
LINE
  5
685
  8
0
 62
     7
 10
52.668799999999997
 20
124.914
 30
0.0
 11
52.722499999999989
 21
124.901
 31
0.0
  0
LINE
  5
686
  8
0
 62
     7
 10
52.722499999999989
 20
124.901
 30
0.0
 11
52.796100000000003
 21
124.88200000000001
 31
0.0
  0
LINE
  5
687
  8
0
 62
     7
 10
52.350799999999992
 20
124.97799999999999
 30
0.0
 11
52.491399999999999
 21
124.952
 31
0.0
  0
LINE
  5
688
  8
0
 62
     7
 10
52.021599999999999
 20
125.01900000000001
 30
0.0
 11
52.151299999999999
 21
125.006
 31
0.0
  0
LINE
  5
689
  8
0
 62
     7
 10
51.677300000000002
 20
125.036
 30
0.0
 11
51.83209999999999
 21
125.032
 31
0.0
  0
ARC
  5
68A
  8
0
 62
     7
 10
-36.676333
 20
119.720443
 30
0.0
 40
83.538712999999987
 50
359.99938600000002
 51
0.16455
  0
ARC
  5
68B
  8
0
 62
     7
 10
343.40315199999998
 20
121.00599800000001
 30
0.0
 40
296.54296099999999
 50
180.11884499999999
 51
180.20205000000001
  0
ARC
  5
68C
  8
0
 62
     7
 10
334.722399
 20
120.392816
 30
0.0
 40
287.86156999999997
 50
179.91133600000001
 51
180.00038099999989
  0
ARC
  5
68D
  8
0
 62
     7
 10
-832.00242700000013
 20
123.612173
 30
0.0
 40
878.86797899999988
 50
359.81915500000002
 51
359.84606200000002
  0
ARC
  5
68E
  8
0
 62
     7
 10
18.003471999999999
 20
121.357319
 30
0.0
 40
28.859103999999999
 50
359.788724
 51
0.448771
  0
ARC
  5
68F
  8
0
 62
     7
 10
41.772905000000002
 20
121.534308
 30
0.0
 40
5.089021999999999
 50
0.552222
 51
2.9583559999999989
  0
ARC
  5
690
  8
0
 62
     7
 10
46.576995999999987
 20
121.77782000000001
 30
0.0
 40
0.278806
 50
3.9349970000000001
 51
18.630582
  0
ARC
  5
691
  8
0
 62
     7
 10
156.44626299999999
 20
119.638777
 30
0.0
 40
100.059856
 50
179.81583599999999
 51
180.00071999999989
  0
ARC
  5
692
  8
0
 62
     7
 10
-261.70119599999998
 20
121.066329
 30
0.0
 40
318.09004199999998
 50
359.80078800000001
 51
359.87835699999999
  0
ARC
  5
693
  8
0
 62
     7
 10
-26.244747
 20
120.519097
 30
0.0
 40
82.632975000000002
 50
359.911181
 51
0.221243
  0
ARC
  5
694
  8
0
 62
     7
 10
974.33225700000003
 20
123.72635
 30
0.0
 40
917.94918900000005
 50
180.15452999999999
 51
180.18029199999989
  0
ARC
  5
695
  8
0
 62
     7
 10
162.361952
 20
121.25240100000001
 30
0.0
 40
105.97554599999999
 50
179.82104899999999
 51
180.00083000000001
  0
ARC
  5
696
  8
0
 62
     7
 10
61.916485999999999
 20
121.516347
 30
0.0
 40
5.5299690000000004
 50
177.09137699999999
 51
179.30568199999999
  0
ARC
  5
697
  8
0
 62
     7
 10
56.696533000000002
 20
121.772172
 30
0.0
 40
0.303904
 50
161.84027599999999
 51
175.32279299999999
  0
LINE
  5
698
  8
0
 62
     7
 10
46.305999999999997
 20
122.02200000000001
 30
0.0
 11
46.305999999999997
 21
122.702
 31
0.0
  0
LINE
  5
699
  8
0
 62
     7
 10
70.793000000000006
 20
121.61799999999999
 30
0.0
 11
70.793000000000006
 21
122.702
 31
0.0
  0
LINE
  5
69A
  8
0
 62
     7
 10
56.9786
 20
122.702
 30
0.0
 11
56.9786
 21
122.02200000000001
 31
0.0
  0
LINE
  5
69B
  8
0
 62
     7
 10
46.305999999999997
 20
121.76300000000001
 30
0.0
 11
46.305999999999997
 21
122.02200000000001
 31
0.0
  0
LINE
  5
69C
  8
0
 62
     7
 10
46.305999999999997
 20
122.02200000000001
 30
0.0
 11
46.299300000000002
 21
121.61799999999999
 31
0.0
  0
LINE
  5
69D
  8
0
 62
     7
 10
56.9786
 20
122.02200000000001
 30
0.0
 11
56.985900000000001
 21
121.61799999999999
 31
0.0
  0
LINE
  5
69E
  8
0
 62
     7
 10
56.9786
 20
122.02200000000001
 30
0.0
 11
56.9786
 21
121.76300000000001
 31
0.0
  0
LINE
  5
69F
  8
0
 62
     7
 10
32.459699999999998
 20
122.702
 30
0.0
 11
32.459699999999998
 21
106.31
 31
0.0
  0
LINE
  5
6A0
  8
0
 62
     7
 10
70.793000000000006
 20
106.31
 30
0.0
 11
70.793000000000006
 21
121.61799999999999
 31
0.0
  0
LINE
  5
6A1
  8
0
 62
     7
 10
56.985900000000001
 20
186.52099999999999
 30
0.0
 11
56.930700000000002
 21
185.947
 31
0.0
  0
LINE
  5
6A2
  8
0
 62
     7
 10
56.930700000000002
 20
185.947
 30
0.0
 11
56.807600000000001
 21
185.38300000000001
 31
0.0
  0
LINE
  5
6A3
  8
0
 62
     7
 10
56.807600000000001
 20
185.38300000000001
 30
0.0
 11
56.61719999999999
 21
184.83500000000001
 31
0.0
  0
LINE
  5
6A4
  8
0
 62
     7
 10
56.61719999999999
 20
184.83500000000001
 30
0.0
 11
56.3628
 21
184.31200000000001
 31
0.0
  0
LINE
  5
6A5
  8
0
 62
     7
 10
56.3628
 20
184.31200000000001
 30
0.0
 11
56.046900000000001
 21
183.81899999999999
 31
0.0
  0
LINE
  5
6A6
  8
0
 62
     7
 10
56.046900000000001
 20
183.81899999999999
 30
0.0
 11
55.673999999999999
 21
183.363
 31
0.0
  0
LINE
  5
6A7
  8
0
 62
     7
 10
55.673999999999999
 20
183.363
 30
0.0
 11
55.248800000000003
 21
182.95099999999999
 31
0.0
  0
LINE
  5
6A8
  8
0
 62
     7
 10
55.248800000000003
 20
182.95099999999999
 30
0.0
 11
54.777000000000001
 21
182.58699999999999
 31
0.0
  0
LINE
  5
6A9
  8
0
 62
     7
 10
54.777000000000001
 20
182.58699999999999
 30
0.0
 11
54.264000000000003
 21
182.27600000000001
 31
0.0
  0
LINE
  5
6AA
  8
0
 62
     7
 10
54.264000000000003
 20
182.27600000000001
 30
0.0
 11
53.717599999999997
 21
182.02199999999999
 31
0.0
  0
LINE
  5
6AB
  8
0
 62
     7
 10
53.717599999999997
 20
182.02199999999999
 30
0.0
 11
53.143999999999998
 21
181.82900000000001
 31
0.0
  0
LINE
  5
6AC
  8
0
 62
     7
 10
53.143999999999998
 20
181.82900000000001
 30
0.0
 11
52.551099999999998
 21
181.69800000000001
 31
0.0
  0
LINE
  5
6AD
  8
0
 62
     7
 10
52.551099999999998
 20
181.69800000000001
 30
0.0
 11
51.9467
 21
181.6329999999999
 31
0.0
  0
LINE
  5
6AE
  8
0
 62
     7
 10
51.9467
 20
181.6329999999999
 30
0.0
 11
51.338099999999997
 21
181.6329999999999
 31
0.0
  0
LINE
  5
6AF
  8
0
 62
     7
 10
51.338099999999997
 20
181.6329999999999
 30
0.0
 11
50.733499999999999
 21
181.69800000000001
 31
0.0
  0
LINE
  5
6B0
  8
0
 62
     7
 10
50.733499999999999
 20
181.69800000000001
 30
0.0
 11
50.140599999999999
 21
181.82900000000001
 31
0.0
  0
LINE
  5
6B1
  8
0
 62
     7
 10
50.140599999999999
 20
181.82900000000001
 30
0.0
 11
49.566800000000001
 21
182.02199999999999
 31
0.0
  0
LINE
  5
6B2
  8
0
 62
     7
 10
49.566800000000001
 20
182.02199999999999
 30
0.0
 11
49.020400000000002
 21
182.27600000000001
 31
0.0
  0
LINE
  5
6B3
  8
0
 62
     7
 10
49.020400000000002
 20
182.27600000000001
 30
0.0
 11
48.507899999999992
 21
182.58699999999999
 31
0.0
  0
LINE
  5
6B4
  8
0
 62
     7
 10
48.507899999999992
 20
182.58699999999999
 30
0.0
 11
48.035800000000002
 21
182.95099999999999
 31
0.0
  0
LINE
  5
6B5
  8
0
 62
     7
 10
48.035800000000002
 20
182.95099999999999
 30
0.0
 11
47.610999999999997
 21
183.363
 31
0.0
  0
LINE
  5
6B6
  8
0
 62
     7
 10
47.610999999999997
 20
183.363
 30
0.0
 11
47.237699999999997
 21
183.81899999999999
 31
0.0
  0
LINE
  5
6B7
  8
0
 62
     7
 10
47.237699999999997
 20
183.81899999999999
 30
0.0
 11
46.92179999999999
 21
184.31200000000001
 31
0.0
  0
LINE
  5
6B8
  8
0
 62
     7
 10
46.92179999999999
 20
184.31200000000001
 30
0.0
 11
46.667399999999986
 21
184.83500000000001
 31
0.0
  0
LINE
  5
6B9
  8
0
 62
     7
 10
46.667399999999986
 20
184.83500000000001
 30
0.0
 11
46.47699999999999
 21
185.38300000000001
 31
0.0
  0
LINE
  5
6BA
  8
0
 62
     7
 10
46.47699999999999
 20
185.38300000000001
 30
0.0
 11
46.354199999999992
 21
185.947
 31
0.0
  0
LINE
  5
6BB
  8
0
 62
     7
 10
46.354199999999992
 20
185.947
 30
0.0
 11
46.299300000000002
 21
186.52099999999999
 31
0.0
  0
LINE
  5
6BC
  8
0
 62
     7
 10
56.985900000000001
 20
121.61799999999999
 30
0.0
 11
56.930700000000002
 21
121.093
 31
0.0
  0
LINE
  5
6BD
  8
0
 62
     7
 10
56.930700000000002
 20
121.093
 30
0.0
 11
56.807600000000001
 21
120.577
 31
0.0
  0
LINE
  5
6BE
  8
0
 62
     7
 10
56.807600000000001
 20
120.577
 30
0.0
 11
56.61719999999999
 21
120.07599999999999
 31
0.0
  0
LINE
  5
6BF
  8
0
 62
     7
 10
56.61719999999999
 20
120.07599999999999
 30
0.0
 11
56.3628
 21
119.598
 31
0.0
  0
LINE
  5
6C0
  8
0
 62
     7
 10
56.3628
 20
119.598
 30
0.0
 11
56.046900000000001
 21
119.14700000000001
 31
0.0
  0
LINE
  5
6C1
  8
0
 62
     7
 10
56.046900000000001
 20
119.14700000000001
 30
0.0
 11
55.673999999999999
 21
118.73
 31
0.0
  0
LINE
  5
6C2
  8
0
 62
     7
 10
55.673999999999999
 20
118.73
 30
0.0
 11
55.248800000000003
 21
118.354
 31
0.0
  0
LINE
  5
6C3
  8
0
 62
     7
 10
55.248800000000003
 20
118.354
 30
0.0
 11
54.777000000000001
 21
118.021
 31
0.0
  0
LINE
  5
6C4
  8
0
 62
     7
 10
54.777000000000001
 20
118.021
 30
0.0
 11
54.264000000000003
 21
117.736
 31
0.0
  0
LINE
  5
6C5
  8
0
 62
     7
 10
54.264000000000003
 20
117.736
 30
0.0
 11
53.717599999999997
 21
117.504
 31
0.0
  0
LINE
  5
6C6
  8
0
 62
     7
 10
53.717599999999997
 20
117.504
 30
0.0
 11
53.143999999999998
 21
117.328
 31
0.0
  0
LINE
  5
6C7
  8
0
 62
     7
 10
53.143999999999998
 20
117.328
 30
0.0
 11
52.551099999999998
 21
117.208
 31
0.0
  0
LINE
  5
6C8
  8
0
 62
     7
 10
52.551099999999998
 20
117.208
 30
0.0
 11
51.9467
 21
117.148
 31
0.0
  0
LINE
  5
6C9
  8
0
 62
     7
 10
51.9467
 20
117.148
 30
0.0
 11
51.338099999999997
 21
117.148
 31
0.0
  0
LINE
  5
6CA
  8
0
 62
     7
 10
51.338099999999997
 20
117.148
 30
0.0
 11
50.733499999999999
 21
117.208
 31
0.0
  0
LINE
  5
6CB
  8
0
 62
     7
 10
50.733499999999999
 20
117.208
 30
0.0
 11
50.140599999999999
 21
117.328
 31
0.0
  0
LINE
  5
6CC
  8
0
 62
     7
 10
50.140599999999999
 20
117.328
 30
0.0
 11
49.566800000000001
 21
117.504
 31
0.0
  0
LINE
  5
6CD
  8
0
 62
     7
 10
49.566800000000001
 20
117.504
 30
0.0
 11
49.020400000000002
 21
117.736
 31
0.0
  0
LINE
  5
6CE
  8
0
 62
     7
 10
49.020400000000002
 20
117.736
 30
0.0
 11
48.507899999999992
 21
118.021
 31
0.0
  0
LINE
  5
6CF
  8
0
 62
     7
 10
48.507899999999992
 20
118.021
 30
0.0
 11
48.035800000000002
 21
118.354
 31
0.0
  0
LINE
  5
6D0
  8
0
 62
     7
 10
48.035800000000002
 20
118.354
 30
0.0
 11
47.610999999999997
 21
118.73
 31
0.0
  0
LINE
  5
6D1
  8
0
 62
     7
 10
47.610999999999997
 20
118.73
 30
0.0
 11
47.237699999999997
 21
119.14700000000001
 31
0.0
  0
LINE
  5
6D2
  8
0
 62
     7
 10
47.237699999999997
 20
119.14700000000001
 30
0.0
 11
46.92179999999999
 21
119.598
 31
0.0
  0
LINE
  5
6D3
  8
0
 62
     7
 10
46.92179999999999
 20
119.598
 30
0.0
 11
46.667399999999986
 21
120.07599999999999
 31
0.0
  0
LINE
  5
6D4
  8
0
 62
     7
 10
46.667399999999986
 20
120.07599999999999
 30
0.0
 11
46.47699999999999
 21
120.577
 31
0.0
  0
LINE
  5
6D5
  8
0
 62
     7
 10
46.47699999999999
 20
120.577
 30
0.0
 11
46.354199999999992
 21
121.093
 31
0.0
  0
LINE
  5
6D6
  8
0
 62
     7
 10
46.354199999999992
 20
121.093
 30
0.0
 11
46.299300000000002
 21
121.61799999999999
 31
0.0
  0
LINE
  5
6D7
  8
0
 62
     7
 10
32.459699999999998
 20
93.533600000000007
 30
0.0
 11
32.459699999999998
 21
106.31
 31
0.0
  0
LINE
  5
6D8
  8
0
 62
     7
 10
70.793000000000006
 20
106.31
 30
0.0
 11
70.793000000000006
 21
93.533600000000007
 31
0.0
  0
ARC
  5
6D9
  8
0
 62
     7
 10
38.045999999999999
 20
94.242734999999996
 30
0.0
 40
5.631113
 50
187.235028
 51
189.236738
  0
ARC
  5
6DA
  8
0
 62
     7
 10
33.678647999999988
 20
93.544167999999999
 30
0.0
 40
1.208315
 50
189.78258099999999
 51
202.122275
  0
ARC
  5
6DB
  8
0
 62
     7
 10
33.432850999999999
 20
93.470283999999992
 30
0.0
 40
0.953095
 50
203.57230999999999
 51
222.69531699999999
  0
ARC
  5
6DC
  8
0
 62
     7
 10
33.721879999999999
 20
93.704892999999998
 30
0.0
 40
1.3248200000000001
 50
221.676366
 51
229.02493700000011
  0
ARC
  5
6DD
  8
0
 62
     7
 10
33.895353
 20
93.905968000000001
 30
0.0
 40
1.5903819999999991
 50
229.05663899999999
 51
247.828102
  0
ARC
  5
6DE
  8
0
 62
     7
 10
34.059896999999999
 20
94.247822999999997
 30
0.0
 40
1.969195
 50
247.14823999999999
 51
262.99831499999999
  0
ARC
  5
6DF
  8
0
 62
     7
 10
34.094782000000009
 20
94.619979999999984
 30
0.0
 40
2.3428539999999991
 50
263.260989
 51
266.43327699999998
  0
ARC
  5
6E0
  8
0
 62
     7
 10
34.459197000000003
 20
100.597736
 30
0.0
 40
8.3317049999999995
 50
266.489486
 51
267.71722499999998
  0
LINE
  5
6E1
  8
0
 62
     7
 10
34.127299999999998
 20
92.272599999999997
 30
0.0
 11
69.125399999999985
 21
92.272599999999997
 31
0.0
  0
ARC
  5
6E2
  8
0
 62
     7
 10
68.375748000000002
 20
102.972663
 30
0.0
 40
10.72625
 50
274.00774000000001
 51
275.54097899999999
  0
ARC
  5
6E3
  8
0
 62
     7
 10
69.159913000000003
 20
94.673703000000003
 30
0.0
 40
2.390441
 50
276.04015699999991
 51
282.17943300000002
  0
ARC
  5
6E4
  8
0
 62
     7
 10
69.275603000000004
 20
94.041154000000006
 30
0.0
 40
1.747841
 50
282.84703100000002
 51
299.711815
  0
ARC
  5
6E5
  8
0
 62
     7
 10
69.351562999999999
 20
93.900435000000002
 30
0.0
 40
1.5879779999999999
 50
299.847894
 51
316.90898900000002
  0
ARC
  5
6E6
  8
0
 62
     7
 10
69.636347999999998
 20
93.603646999999995
 30
0.0
 40
1.177463999999999
 50
317.98842100000002
 51
334.24611400000009
  0
ARC
  5
6E7
  8
0
 62
     7
 10
69.907909000000004
 20
93.455543999999989
 30
0.0
 40
0.8686629999999999
 50
335.26172700000001
 51
342.61075199999999
  0
ARC
  5
6E8
  8
0
 62
     7
 10
69.755379000000005
 20
93.504480000000001
 30
0.0
 40
1.028846999999999
 50
342.54873500000002
 51
354.1681319999999
  0
ARC
  5
6E9
  8
0
 62
     7
 10
66.036793000000003
 20
93.968795
 30
0.0
 40
4.7761050000000003
 50
353.15957500000002
 51
354.77147100000002
  0
ARC
  5
6EA
  8
0
 62
     7
 10
51.432822999999999
 20
120.540796
 30
0.0
 40
4.3107759999999997
 50
178.18550099999999
 51
180.37918999999999
  0
LINE
  5
6EB
  8
0
 62
     7
 10
47.122100000000003
 20
120.512
 30
0.0
 11
47.2072
 21
120.431
 31
0.0
  0
LINE
  5
6EC
  8
0
 62
     7
 10
47.2072
 20
120.431
 30
0.0
 11
47.125799999999991
 21
120.346
 31
0.0
  0
ARC
  5
6ED
  8
0
 62
     7
 10
51.986727999999999
 20
120.557796
 30
0.0
 40
4.8656019999999991
 50
182.500449
 51
184.443287
  0
LINE
  5
6EE
  8
0
 62
     7
 10
47.136299999999999
 20
120.181
 30
0.0
 11
47.226900000000001
 21
120.10599999999999
 31
0.0
  0
LINE
  5
6EF
  8
0
 62
     7
 10
47.226900000000001
 20
120.10599999999999
 30
0.0
 11
47.152299999999997
 21
120.015
 31
0.0
  0
ARC
  5
6F0
  8
0
 62
     7
 10
53.180236999999998
 20
120.754463
 30
0.0
 40
6.0735039999999989
 50
186.99521799999999
 51
188.55663699999999
  0
LINE
  5
6F1
  8
0
 62
     7
 10
47.174300000000002
 20
119.851
 30
0.0
 11
47.270600000000002
 21
119.783
 31
0.0
  0
LINE
  5
6F2
  8
0
 62
     7
 10
47.270600000000002
 20
119.783
 30
0.0
 11
47.202800000000003
 21
119.68600000000001
 31
0.0
  0
ARC
  5
6F3
  8
0
 62
     7
 10
52.791472999999989
 20
120.779537
 30
0.0
 40
5.6948769999999991
 50
191.06238099999999
 51
192.727259
  0
LINE
  5
6F4
  8
0
 62
     7
 10
47.236899999999999
 20
119.52500000000001
 30
0.0
 11
47.338200000000001
 21
119.465
 31
0.0
  0
LINE
  5
6F5
  8
0
 62
     7
 10
47.338200000000001
 20
119.465
 30
0.0
 11
47.277500000000003
 21
119.363
 31
0.0
  0
ARC
  5
6F6
  8
0
 62
     7
 10
51.531211999999996
 20
120.51731700000001
 30
0.0
 40
4.4082829999999991
 50
195.17564899999999
 51
197.33529300000001
  0
LINE
  5
6F7
  8
0
 62
     7
 10
47.323700000000002
 20
119.205
 30
0.0
 11
47.428800000000003
 21
119.152
 31
0.0
  0
LINE
  5
6F8
  8
0
 62
     7
 10
47.428800000000003
 20
119.152
 30
0.0
 11
47.375899999999987
 21
119.04600000000001
 31
0.0
  0
ARC
  5
6F9
  8
0
 62
     7
 10
51.007066999999992
 20
120.319671
 30
0.0
 40
3.8489909999999998
 50
199.31276099999999
 51
201.0448310000001
  0
LINE
  5
6FA
  8
0
 62
     7
 10
55.746099999999991
 20
118.78
 30
0.0
 11
55.700000000000003
 21
118.88800000000001
 31
0.0
  0
LINE
  5
6FB
  8
0
 62
     7
 10
55.700000000000003
 20
118.88800000000001
 30
0.0
 11
55.808500000000002
 21
118.934
 31
0.0
  0
LINE
  5
6FC
  8
0
 62
     7
 10
55.808500000000002
 20
118.934
 30
0.0
 11
55.823599999999999
 21
118.90900000000001
 31
0.0
  0
ARC
  5
6FD
  8
0
 62
     7
 10
51.704925000000003
 20
120.49990200000001
 30
0.0
 40
4.4153279999999988
 50
338.87932000000001
 51
341.51194500000003
  0
LINE
  5
6FE
  8
0
 62
     7
 10
55.892400000000002
 20
119.09999999999999
 30
0.0
 11
55.864600000000003
 21
119.09
 31
0.0
  0
LINE
  5
6FF
  8
0
 62
     7
 10
55.864600000000003
 20
119.09
 30
0.0
 11
55.810400000000001
 21
119.19499999999999
 31
0.0
  0
LINE
  5
700
  8
0
 62
     7
 10
55.810400000000001
 20
119.19499999999999
 30
0.0
 11
55.915100000000002
 21
119.249
 31
0.0
  0
LINE
  5
701
  8
0
 62
     7
 10
55.915100000000002
 20
119.249
 30
0.0
 11
55.932499999999997
 21
119.224
 31
0.0
  0
ARC
  5
702
  8
0
 62
     7
 10
49.510260999999993
 20
121.11636799999999
 30
0.0
 40
6.6951130000000001
 50
343.58594599999998
 51
345.32421799999997
  0
LINE
  5
703
  8
0
 62
     7
 10
55.986899999999999
 20
119.42
 30
0.0
 11
55.959699999999998
 21
119.408
 31
0.0
  0
LINE
  5
704
  8
0
 62
     7
 10
55.959699999999998
 20
119.408
 30
0.0
 11
55.8979
 21
119.508
 31
0.0
  0
LINE
  5
705
  8
0
 62
     7
 10
55.8979
 20
119.508
 30
0.0
 11
55.998699999999999
 21
119.56999999999999
 31
0.0
  0
ARC
  5
706
  8
0
 62
     7
 10
51.941701999999999
 20
120.46140200000001
 30
0.0
 40
4.1772269999999994
 50
347.35472399999998
 51
350.139814
  0
LINE
  5
707
  8
0
 62
     7
 10
56.057200000000002
 20
119.746
 30
0.0
 11
56.031199999999998
 21
119.732
 31
0.0
  0
LINE
  5
708
  8
0
 62
     7
 10
56.031199999999998
 20
119.732
 30
0.0
 11
55.9621
 21
119.827
 31
0.0
  0
LINE
  5
709
  8
0
 62
     7
 10
55.9621
 20
119.827
 30
0.0
 11
56.058100000000003
 21
119.896
 31
0.0
  0
ARC
  5
70A
  8
0
 62
     7
 10
51.970605999999997
 20
120.49054599999999
 30
0.0
 40
4.1535109999999991
 50
351.47635100000002
 51
354.273618
  0
LINE
  5
70B
  8
0
 62
     7
 10
56.103400000000001
 20
120.07599999999999
 30
0.0
 11
56.078200000000002
 21
120.06
 31
0.0
  0
LINE
  5
70C
  8
0
 62
     7
 10
56.078200000000002
 20
120.06
 30
0.0
 11
56.002800000000001
 21
120.151
 31
0.0
  0
LINE
  5
70D
  8
0
 62
     7
 10
56.002800000000001
 20
120.151
 30
0.0
 11
56.0931
 21
120.226
 31
0.0
  0
ARC
  5
70E
  8
0
 62
     7
 10
51.612916999999989
 20
120.52951299999999
 30
0.0
 40
4.5137710000000002
 50
355.89430700000003
 51
358.477756
  0
LINE
  5
70F
  8
0
 62
     7
 10
56.101500000000001
 20
120.392
 30
0.0
 11
56.019199999999991
 21
120.476
 31
0.0
  0
LINE
  5
710
  8
0
 62
     7
 10
56.019199999999991
 20
120.476
 30
0.0
 11
56.103400000000001
 21
120.55800000000001
 31
0.0
  0
ARC
  5
711
  8
0
 62
     7
 10
51.583696999999987
 20
120.541408
 30
0.0
 40
4.5431210000000002
 50
359.98010299999999
 51
2.5443869999999991
  0
LINE
  5
712
  8
0
 62
     7
 10
56.099400000000003
 20
120.723
 30
0.0
 11
56.011099999999999
 21
120.801
 31
0.0
  0
LINE
  5
713
  8
0
 62
     7
 10
56.011099999999999
 20
120.801
 30
0.0
 11
56.089399999999998
 21
120.89
 31
0.0
  0
LINE
  5
714
  8
0
 62
     7
 10
56.089399999999998
 20
120.89
 30
0.0
 11
56.11419999999999
 21
120.873
 31
0.0
  0
ARC
  5
715
  8
0
 62
     7
 10
51.602189000000003
 20
120.529594
 30
0.0
 40
4.5251260000000002
 50
4.3563159999999996
 51
6.9295549999999997
  0
LINE
  5
716
  8
0
 62
     7
 10
56.0732
 20
121.054
 30
0.0
 11
55.979399999999998
 21
121.125
 31
0.0
  0
LINE
  5
717
  8
0
 62
     7
 10
55.979399999999998
 20
121.125
 30
0.0
 11
56.050899999999999
 21
121.22
 31
0.0
  0
LINE
  5
718
  8
0
 62
     7
 10
56.050899999999999
 20
121.22
 30
0.0
 11
56.076500000000003
 21
121.205
 31
0.0
  0
ARC
  5
719
  8
0
 62
     7
 10
52.469954000000001
 20
120.685794
 30
0.0
 40
3.6437080000000002
 50
8.1880030000000001
 51
11.376809
  0
LINE
  5
71A
  8
0
 62
     7
 10
56.022799999999997
 20
121.38200000000001
 30
0.0
 11
55.924100000000003
 21
121.447
 31
0.0
  0
LINE
  5
71B
  8
0
 62
     7
 10
55.924100000000003
 20
121.447
 30
0.0
 11
55.988199999999992
 21
121.54600000000001
 31
0.0
  0
LINE
  5
71C
  8
0
 62
     7
 10
55.988199999999992
 20
121.54600000000001
 30
0.0
 11
56.014699999999991
 21
121.533
 31
0.0
  0
ARC
  5
71D
  8
0
 62
     7
 10
51.883768000000003
 20
120.602704
 30
0.0
 40
4.2343049999999991
 50
12.6877
 51
15.431998999999999
  0
LINE
  5
71E
  8
0
 62
     7
 10
55.948
 20
121.705
 30
0.0
 11
55.844799999999999
 21
121.762
 31
0.0
  0
LINE
  5
71F
  8
0
 62
     7
 10
55.844799999999999
 20
121.762
 30
0.0
 11
55.901899999999991
 21
121.866
 31
0.0
  0
LINE
  5
720
  8
0
 62
     7
 10
55.901899999999991
 20
121.866
 30
0.0
 11
55.928899999999999
 21
121.855
 31
0.0
  0
ARC
  5
721
  8
0
 62
     7
 10
51.839891999999999
 20
120.60258
 30
0.0
 40
4.2765570000000004
 50
17.031542999999999
 51
19.745913999999999
  0
LINE
  5
722
  8
0
 62
     7
 10
55.865000000000002
 20
122.047
 30
0.0
 11
55.849800000000002
 21
122.023
 31
0.0
  0
LINE
  5
723
  8
0
 62
     7
 10
55.849800000000002
 20
122.023
 30
0.0
 11
55.7425
 21
122.072
 31
0.0
  0
LINE
  5
724
  8
0
 62
     7
 10
55.7425
 20
122.072
 30
0.0
 11
55.792000000000002
 21
122.179
 31
0.0
  0
LINE
  5
725
  8
0
 62
     7
 10
55.792000000000002
 20
122.179
 30
0.0
 11
55.819200000000002
 21
122.17100000000001
 31
0.0
  0
ARC
  5
726
  8
0
 62
     7
 10
50.77509899999999
 20
120.18281899999999
 30
0.0
 40
5.4216689999999996
 50
21.510006000000011
 51
23.639281
  0
LINE
  5
727
  8
0
 62
     7
 10
55.741799999999998
 20
122.357
 30
0.0
 11
55.7286
 21
122.33199999999999
 31
0.0
  0
LINE
  5
728
  8
0
 62
     7
 10
55.7286
 20
122.33199999999999
 30
0.0
 11
55.617600000000003
 21
122.373
 31
0.0
  0
LINE
  5
729
  8
0
 62
     7
 10
55.617600000000003
 20
122.373
 30
0.0
 11
55.6586
 21
122.483
 31
0.0
  0
LINE
  5
72A
  8
0
 62
     7
 10
55.6586
 20
122.483
 30
0.0
 11
55.686399999999999
 21
122.477
 31
0.0
  0
ARC
  5
72B
  8
0
 62
     7
 10
51.923904999999998
 20
120.682697
 30
0.0
 40
4.1682629999999987
 50
25.492298000000009
 51
28.253167000000001
  0
LINE
  5
72C
  8
0
 62
     7
 10
55.595599999999997
 20
122.65600000000001
 30
0.0
 11
55.584699999999991
 21
122.63
 31
0.0
  0
LINE
  5
72D
  8
0
 62
     7
 10
55.584699999999991
 20
122.63
 30
0.0
 11
55.471200000000003
 21
122.663
 31
0.0
  0
LINE
  5
72E
  8
0
 62
     7
 10
55.471200000000003
 20
122.663
 30
0.0
 11
55.504100000000001
 21
122.776
 31
0.0
  0
LINE
  5
72F
  8
0
 62
     7
 10
55.504100000000001
 20
122.776
 30
0.0
 11
55.531300000000002
 21
122.77200000000001
 31
0.0
  0
ARC
  5
730
  8
0
 62
     7
 10
51.418894000000002
 20
120.40778400000001
 30
0.0
 40
4.743720999999999
 50
29.897134000000001
 51
32.317568999999999
  0
LINE
  5
731
  8
0
 62
     7
 10
55.427799999999998
 20
122.944
 30
0.0
 11
55.418500000000002
 21
122.91800000000001
 31
0.0
  0
LINE
  5
732
  8
0
 62
     7
 10
55.418500000000002
 20
122.91800000000001
 30
0.0
 11
55.303800000000003
 21
122.94199999999999
 31
0.0
  0
LINE
  5
733
  8
0
 62
     7
 10
55.303800000000003
 20
122.94199999999999
 30
0.0
 11
55.3279
 21
123.05800000000001
 31
0.0
  0
LINE
  5
734
  8
0
 62
     7
 10
55.3279
 20
123.05800000000001
 30
0.0
 11
55.35479999999999
 21
123.056
 31
0.0
  0
ARC
  5
735
  8
0
 62
     7
 10
50.707622999999998
 20
119.87497
 30
0.0
 40
5.6314839999999986
 50
34.390461000000002
 51
36.420347999999997
  0
LINE
  5
736
  8
0
 62
     7
 10
55.239199999999997
 20
123.218
 30
0.0
 11
55.232300000000002
 21
123.193
 31
0.0
  0
LINE
  5
737
  8
0
 62
     7
 10
55.232300000000002
 20
123.193
 30
0.0
 11
55.11549999999999
 21
123.208
 31
0.0
  0
LINE
  5
738
  8
0
 62
     7
 10
55.11549999999999
 20
123.208
 30
0.0
 11
55.131500000000003
 21
123.325
 31
0.0
  0
LINE
  5
739
  8
0
 62
     7
 10
55.131500000000003
 20
123.325
 30
0.0
 11
55.157699999999991
 21
123.325
 31
0.0
  0
ARC
  5
73A
  8
0
 62
     7
 10
51.344359999999988
 20
120.30192099999999
 30
0.0
 40
4.8664009999999998
 50
38.407983000000002
 51
40.744684999999997
  0
LINE
  5
73B
  8
0
 62
     7
 10
55.031300000000002
 20
123.47799999999999
 30
0.0
 11
55.026400000000002
 21
123.453
 31
0.0
  0
LINE
  5
73C
  8
0
 62
     7
 10
55.026400000000002
 20
123.453
 30
0.0
 11
54.908799999999999
 21
123.45999999999999
 31
0.0
  0
LINE
  5
73D
  8
0
 62
     7
 10
54.908799999999999
 20
123.45999999999999
 30
0.0
 11
54.915500000000002
 21
123.578
 31
0.0
  0
LINE
  5
73E
  8
0
 62
     7
 10
54.915500000000002
 20
123.578
 30
0.0
 11
54.941400000000002
 21
123.57899999999999
 31
0.0
  0
ARC
  5
73F
  8
0
 62
     7
 10
52.069781999999996
 20
120.959045
 30
0.0
 40
3.8872439999999999
 50
42.377822999999999
 51
45.292529999999999
  0
LINE
  5
740
  8
0
 62
     7
 10
54.804400000000001
 20
123.72199999999999
 30
0.0
 11
54.801699999999997
 21
123.697
 31
0.0
  0
LINE
  5
741
  8
0
 62
     7
 10
54.801699999999997
 20
123.697
 30
0.0
 11
54.683500000000002
 21
123.69499999999999
 31
0.0
  0
LINE
  5
742
  8
0
 62
     7
 10
54.683500000000002
 20
123.69499999999999
 30
0.0
 11
54.681899999999992
 21
123.813
 31
0.0
  0
LINE
  5
743
  8
0
 62
     7
 10
54.681899999999992
 20
123.813
 30
0.0
 11
54.706400000000002
 21
123.81699999999999
 31
0.0
  0
ARC
  5
744
  8
0
 62
     7
 10
51.760435999999991
 20
120.676706
 30
0.0
 40
4.3056960000000002
 50
46.827247
 51
49.437671999999999
  0
LINE
  5
745
  8
0
 62
     7
 10
54.560299999999998
 20
123.94799999999999
 30
0.0
 11
54.559100000000001
 21
123.92400000000001
 31
0.0
  0
LINE
  5
746
  8
0
 62
     7
 10
54.559100000000001
 20
123.92400000000001
 30
0.0
 11
54.441800000000001
 21
123.913
 31
0.0
  0
LINE
  5
747
  8
0
 62
     7
 10
54.441800000000001
 20
123.913
 30
0.0
 11
54.4315
 21
124.03100000000001
 31
0.0
  0
ARC
  5
748
  8
0
 62
     7
 10
51.717663000000002
 20
120.647777
 30
0.0
 40
4.355588
 50
51.067571000000001
 51
53.634888000000011
  0
LINE
  5
749
  8
0
 62
     7
 10
54.301099999999991
 20
124.13200000000001
 30
0.0
 11
54.184600000000003
 21
124.113
 31
0.0
  0
LINE
  5
74A
  8
0
 62
     7
 10
54.184600000000003
 20
124.113
 30
0.0
 11
54.165700000000001
 21
124.23
 31
0.0
  0
ARC
  5
74B
  8
0
 62
     7
 10
51.996656000000002
 20
121.114565
 30
0.0
 40
3.813280999999999
 50
54.935332000000002
 51
57.853658999999993
  0
LINE
  5
74C
  8
0
 62
     7
 10
54.028100000000002
 20
124.321
 30
0.0
 11
53.913200000000003
 21
124.294
 31
0.0
  0
LINE
  5
74D
  8
0
 62
     7
 10
53.913200000000003
 20
124.294
 30
0.0
 11
53.885899999999999
 21
124.408
 31
0.0
  0
ARC
  5
74E
  8
0
 62
     7
 10
51.592497999999999
 20
120.49224
 30
0.0
 40
4.5546220000000002
 50
59.474020000000003
 51
61.899687999999998
  0
LINE
  5
74F
  8
0
 62
     7
 10
53.741799999999991
 20
124.489
 30
0.0
 11
53.6295
 21
124.453
 31
0.0
  0
LINE
  5
750
  8
0
 62
     7
 10
53.6295
 20
124.453
 30
0.0
 11
53.593600000000002
 21
124.565
 31
0.0
  0
ARC
  5
751
  8
0
 62
     7
 10
51.583544000000003
 20
120.445177
 30
0.0
 40
4.6005050000000001
 50
63.829469000000003
 51
66.217581999999993
  0
LINE
  5
752
  8
0
 62
     7
 10
53.443899999999999
 20
124.63500000000001
 30
0.0
 11
53.334699999999998
 21
124.59099999999999
 31
0.0
  0
LINE
  5
753
  8
0
 62
     7
 10
53.334699999999998
 20
124.59099999999999
 30
0.0
 11
53.290599999999998
 21
124.7
 31
0.0
  0
ARC
  5
754
  8
0
 62
     7
 10
51.97379699999999
 20
121.448825
 30
0.0
 40
3.5236199999999989
 50
67.752818000000005
 51
70.843310000000002
  0
LINE
  5
755
  8
0
 62
     7
 10
53.135899999999999
 20
124.759
 30
0.0
 11
53.03029999999999
 21
124.70699999999999
 31
0.0
  0
LINE
  5
756
  8
0
 62
     7
 10
53.03029999999999
 20
124.70699999999999
 30
0.0
 11
52.978299999999997
 21
124.813
 31
0.0
  0
ARC
  5
757
  8
0
 62
     7
 10
51.758246
 20
120.996499
 30
0.0
 40
4.0215059999999987
 50
72.106801000000004
 51
74.795300999999995
  0
LINE
  5
758
  8
0
 62
     7
 10
52.819699999999997
 20
124.86
 30
0.0
 11
52.718200000000003
 21
124.8
 31
0.0
  0
LINE
  5
759
  8
0
 62
     7
 10
52.718200000000003
 20
124.8
 30
0.0
 11
52.658299999999997
 21
124.902
 31
0.0
  0
ARC
  5
75A
  8
0
 62
     7
 10
51.56567299999999
 20
120.28163499999999
 30
0.0
 40
4.7618220000000004
 50
76.560622999999993
 51
78.81584500000001
  0
LINE
  5
75B
  8
0
 62
     7
 10
52.497399999999999
 20
124.938
 30
0.0
 11
52.400199999999998
 21
124.871
 31
0.0
  0
LINE
  5
75C
  8
0
 62
     7
 10
52.400199999999998
 20
124.871
 30
0.0
 11
52.333199999999991
 21
124.967
 31
0.0
  0
ARC
  5
75D
  8
0
 62
     7
 10
51.755203999999992
 20
121.484066
 30
0.0
 40
3.5439809999999992
 50
80.409835999999999
 51
83.419910999999985
  0
LINE
  5
75E
  8
0
 62
     7
 10
52.169800000000002
 20
124.991
 30
0.0
 11
52.0779
 21
124.917
 31
0.0
  0
LINE
  5
75F
  8
0
 62
     7
 10
52.0779
 20
124.917
 30
0.0
 11
52.003999999999998
 21
125.008
 31
0.0
  0
ARC
  5
760
  8
0
 62
     7
 10
51.648420999999999
 20
120.964625
 30
0.0
 40
4.0717150000000002
 50
84.843369999999993
 51
87.435800999999998
  0
LINE
  5
761
  8
0
 62
     7
 10
51.838999999999999
 20
125.02
 30
0.0
 11
51.753100000000003
 21
124.93899999999999
 31
0.0
  0
LINE
  5
762
  8
0
 62
     7
 10
51.753100000000003
 20
124.93899999999999
 30
0.0
 11
51.672499999999999
 21
125.02500000000001
 31
0.0
  0
ARC
  5
763
  8
0
 62
     7
 10
51.626170000000002
 20
120.208262
 30
0.0
 40
4.8284549999999991
 50
89.340401999999997
 51
91.519536000000002
  0
LINE
  5
764
  8
0
 62
     7
 10
51.50739999999999
 20
125.024
 30
0.0
 11
51.427500000000002
 21
124.938
 31
0.0
  0
LINE
  5
765
  8
0
 62
     7
 10
51.427500000000002
 20
124.938
 30
0.0
 11
51.340899999999998
 21
125.017
 31
0.0
  0
ARC
  5
766
  8
0
 62
     7
 10
51.79489199999999
 20
118.454542
 30
0.0
 40
6.5890969999999989
 50
93.888118999999975
 51
95.467680000000016
  0
LINE
  5
767
  8
0
 62
     7
 10
51.175800000000002
 20
125.004
 30
0.0
 11
51.102800000000002
 21
124.91200000000001
 31
0.0
  0
LINE
  5
768
  8
0
 62
     7
 10
51.102800000000002
 20
124.91200000000001
 30
0.0
 11
51.010100000000001
 21
124.985
 31
0.0
  0
ARC
  5
769
  8
0
 62
     7
 10
51.728149999999992
 20
119.86563
 30
0.0
 40
5.1792400000000001
 50
97.897643000000016
 51
99.894048999999995
  0
LINE
  5
76A
  8
0
 62
     7
 10
50.847000000000001
 20
124.95999999999999
 30
0.0
 11
50.780900000000003
 21
124.86199999999999
 31
0.0
  0
LINE
  5
76B
  8
0
 62
     7
 10
50.780900000000003
 20
124.86199999999999
 30
0.0
 11
50.683199999999992
 21
124.928
 31
0.0
  0
ARC
  5
76C
  8
0
 62
     7
 10
51.565545
 20
120.820492
 30
0.0
 40
4.2105249999999987
 50
102.029445
 51
104.464207
  0
LINE
  5
76D
  8
0
 62
     7
 10
50.522300000000001
 20
124.89100000000001
 30
0.0
 11
50.463700000000003
 21
124.789
 31
0.0
  0
LINE
  5
76E
  8
0
 62
     7
 10
50.463700000000003
 20
124.789
 30
0.0
 11
50.361400000000003
 21
124.848
 31
0.0
  0
ARC
  5
76F
  8
0
 62
     7
 10
51.661288999999996
 20
120.422881
 30
0.0
 40
4.6199959999999987
 50
106.296772
 51
108.497522
  0
LINE
  5
770
  8
0
 62
     7
 10
50.203600000000002
 20
124.79900000000001
 30
0.0
 11
50.152500000000003
 21
124.693
 31
0.0
  0
LINE
  5
771
  8
0
 62
     7
 10
50.152500000000003
 20
124.693
 30
0.0
 11
50.046199999999999
 21
124.744
 31
0.0
  0
ARC
  5
772
  8
0
 62
     7
 10
53.122979000000001
 20
116.762529
 30
0.0
 40
8.5606170000000006
 50
111.04434999999999
 51
112.226356
  0
LINE
  5
773
  8
0
 62
     7
 10
49.892400000000002
 20
124.68300000000001
 30
0.0
 11
49.849499999999999
 21
124.57299999999999
 31
0.0
  0
LINE
  5
774
  8
0
 62
     7
 10
49.849499999999999
 20
124.57299999999999
 30
0.0
 11
49.739899999999999
 21
124.617
 31
0.0
  0
ARC
  5
775
  8
0
 62
     7
 10
52.424455000000002
 20
118.90737300000001
 30
0.0
 40
6.3152509999999991
 50
115.140717
 51
116.727389
  0
LINE
  5
776
  8
0
 62
     7
 10
49.590899999999991
 20
124.545
 30
0.0
 11
49.556100000000001
 21
124.432
 31
0.0
  0
LINE
  5
777
  8
0
 62
     7
 10
49.556100000000001
 20
124.432
 30
0.0
 11
49.443300000000001
 21
124.467
 31
0.0
  0
ARC
  5
778
  8
0
 62
     7
 10
51.898612999999997
 20
120.071916
 30
0.0
 40
5.0400790000000004
 50
119.13835899999999
 51
121.112678
  0
LINE
  5
779
  8
0
 62
     7
 10
49.29999999999999
 20
124.38500000000001
 30
0.0
 11
49.273800000000001
 21
124.27
 31
0.0
  0
LINE
  5
77A
  8
0
 62
     7
 10
49.273800000000001
 20
124.27
 30
0.0
 11
49.1586
 21
124.29600000000001
 31
0.0
  0
ARC
  5
77B
  8
0
 62
     7
 10
51.891752000000011
 20
120.141876
 30
0.0
 40
4.9773819999999986
 50
123.295081
 51
125.28721299999999
  0
LINE
  5
77C
  8
0
 62
     7
 10
49.022100000000002
 20
124.203
 30
0.0
 11
49.00439999999999
 21
124.087
 31
0.0
  0
LINE
  5
77D
  8
0
 62
     7
 10
49.00439999999999
 20
124.087
 30
0.0
 11
48.888100000000001
 21
124.104
 31
0.0
  0
ARC
  5
77E
  8
0
 62
     7
 10
50.820720000000001
 20
121.53706099999999
 30
0.0
 40
3.217646999999999
 50
126.914923
 51
129.973939
  0
LINE
  5
77F
  8
0
 62
     7
 10
48.758400000000002
 20
124.001
 30
0.0
 11
48.749099999999991
 21
123.884
 31
0.0
  0
LINE
  5
780
  8
0
 62
     7
 10
48.749099999999991
 20
123.884
 30
0.0
 11
48.631399999999999
 21
123.893
 31
0.0
  0
ARC
  5
781
  8
0
 62
     7
 10
51.761006000000002
 20
120.387232
 30
0.0
 40
4.7032480000000003
 50
131.71328
 51
133.79680500000001
  0
LINE
  5
782
  8
0
 62
     7
 10
48.510399999999997
 20
123.782
 30
0.0
 11
48.509799999999991
 21
123.664
 31
0.0
  0
LINE
  5
783
  8
0
 62
     7
 10
48.509799999999991
 20
123.664
 30
0.0
 11
48.391500000000001
 21
123.664
 31
0.0
  0
ARC
  5
784
  8
0
 62
     7
 10
53.598927000000003
 20
118.676908
 30
0.0
 40
7.2130660000000004
 50
136.21523099999999
 51
137.56472400000001
  0
LINE
  5
785
  8
0
 62
     7
 10
48.278700000000001
 20
123.54300000000001
 30
0.0
 11
48.287100000000002
 21
123.426
 31
0.0
  0
LINE
  5
786
  8
0
 62
     7
 10
48.287100000000002
 20
123.426
 30
0.0
 11
48.169499999999999
 21
123.41800000000001
 31
0.0
  0
ARC
  5
787
  8
0
 62
     7
 10
54.166656999999987
 20
118.499893
 30
0.0
 40
7.7582509999999987
 50
140.634905
 51
141.88101399999999
  0
LINE
  5
788
  8
0
 62
     7
 10
48.065399999999997
 20
123.289
 30
0.0
 11
48.082799999999992
 21
123.173
 31
0.0
  0
LINE
  5
789
  8
0
 62
     7
 10
48.082799999999992
 20
123.173
 30
0.0
 11
47.966000000000001
 21
123.155
 31
0.0
  0
ARC
  5
78A
  8
0
 62
     7
 10
50.793008999999998
 20
121.10371000000001
 30
0.0
 40
3.494845999999999
 50
144.003117
 51
146.76232899999999
  0
LINE
  5
78B
  8
0
 62
     7
 10
47.872
 20
123.02
 30
0.0
 11
47.897300000000001
 21
122.905
 31
0.0
  0
LINE
  5
78C
  8
0
 62
     7
 10
47.897300000000001
 20
122.905
 30
0.0
 11
47.7821
 21
122.879
 31
0.0
  0
ARC
  5
78D
  8
0
 62
     7
 10
53.843313000000002
 20
119.224892
 30
0.0
 40
7.0787429999999993
 50
148.90482
 51
150.25971999999999
  0
LINE
  5
78E
  8
0
 62
     7
 10
47.698500000000003
 20
122.736
 30
0.0
 11
47.732599999999991
 21
122.624
 31
0.0
  0
LINE
  5
78F
  8
0
 62
     7
 10
47.732599999999991
 20
122.624
 30
0.0
 11
47.61999999999999
 21
122.59
 31
0.0
  0
ARC
  5
790
  8
0
 62
     7
 10
52.283213000000011
 20
120.214349
 30
0.0
 40
5.2347559999999991
 50
152.99784
 51
154.824286
  0
LINE
  5
791
  8
0
 62
     7
 10
47.546900000000001
 20
122.44199999999999
 30
0.0
 11
47.588999999999992
 21
122.331
 31
0.0
  0
LINE
  5
792
  8
0
 62
     7
 10
47.588999999999992
 20
122.331
 30
0.0
 11
47.47849999999999
 21
122.289
 31
0.0
  0
ARC
  5
793
  8
0
 62
     7
 10
51.928581999999992
 20
120.41151499999999
 30
0.0
 40
4.830392999999999
 50
157.110828
 51
159.08844300000001
  0
LINE
  5
794
  8
0
 62
     7
 10
47.417199999999987
 20
122.136
 30
0.0
 11
47.467300000000002
 21
122.029
 31
0.0
  0
LINE
  5
795
  8
0
 62
     7
 10
47.467300000000002
 20
122.029
 30
0.0
 11
47.360500000000002
 21
121.979
 31
0.0
  0
ARC
  5
796
  8
0
 62
     7
 10
51.547767999999998
 20
120.557732
 30
0.0
 40
4.4223610000000004
 50
161.24600699999999
 51
163.39175599999999
  0
LINE
  5
797
  8
0
 62
     7
 10
47.310400000000001
 20
121.822
 30
0.0
 11
47.368099999999998
 21
121.71899999999999
 31
0.0
  0
LINE
  5
798
  8
0
 62
     7
 10
47.368099999999998
 20
121.71899999999999
 30
0.0
 11
47.265500000000003
 21
121.661
 31
0.0
  0
ARC
  5
799
  8
0
 62
     7
 10
50.80581699999999
 20
120.72540600000001
 30
0.0
 40
3.661948999999999
 50
165.19382999999999
 51
167.777467
  0
LINE
  5
79A
  8
0
 62
     7
 10
47.226900000000001
 20
121.501
 30
0.0
 11
47.292299999999997
 21
121.402
 31
0.0
  0
LINE
  5
79B
  8
0
 62
     7
 10
47.292299999999997
 20
121.402
 30
0.0
 11
47.194299999999998
 21
121.337
 31
0.0
  0
ARC
  5
79C
  8
0
 62
     7
 10
52.035927000000001
 20
120.46666399999999
 30
0.0
 40
4.9195589999999987
 50
169.80959799999999
 51
171.73648
  0
LINE
  5
79D
  8
0
 62
     7
 10
47.167400000000001
 20
121.17400000000001
 30
0.0
 11
47.240099999999991
 21
121.081
 31
0.0
  0
LINE
  5
79E
  8
0
 62
     7
 10
47.240099999999991
 20
121.081
 30
0.0
 11
47.147100000000002
 21
121.008
 31
0.0
  0
ARC
  5
79F
  8
0
 62
     7
 10
52.414057
 20
120.46260599999999
 30
0.0
 40
5.2951389999999989
 50
174.084113
 51
175.87292600000001
  0
LINE
  5
7A0
  8
0
 62
     7
 10
47.132599999999996
 20
120.84399999999999
 30
0.0
 11
47.211699999999993
 21
120.75700000000001
 31
0.0
  0
LINE
  5
7A1
  8
0
 62
     7
 10
47.211699999999993
 20
120.75700000000001
 30
0.0
 11
47.124200000000002
 21
120.67700000000001
 31
0.0
  0
ARC
  5
7A2
  8
0
 62
     7
 10
51.721288000000001
 20
120.595989
 30
0.0
 40
3.596187
 50
178.18291099999999
 51
246.99043699999999
  0
ARC
  5
7A3
  8
0
 62
     7
 10
51.624479000000001
 20
120.53406
 30
0.0
 40
3.5019989999999992
 50
291.19879300000002
 51
21.198763
  0
ARC
  5
7A4
  8
0
 62
     7
 10
51.548037999999991
 20
120.360846
 30
0.0
 40
3.6383649999999998
 50
23.307088
 51
109.083584
  0
ARC
  5
7A5
  8
0
 62
     7
 10
51.705016999999991
 20
120.47592899999999
 30
0.0
 40
3.5857559999999991
 50
112.056603
 51
176.25686200000001
  0
ARC
  5
7A6
  8
0
 62
     7
 10
51.697002000000012
 20
120.570049
 30
0.0
 40
3.7396159999999998
 50
177.72291000000001
 51
234.83434500000001
  0
ARC
  5
7A7
  8
0
 62
     7
 10
51.624510999999998
 20
120.534122
 30
0.0
 40
3.668625
 50
303.7954410000001
 51
33.798088
  0
ARC
  5
7A8
  8
0
 62
     7
 10
51.624479000000001
 20
120.534575
 30
0.0
 40
3.6684000000000001
 50
33.791928000000013
 51
123.791899
  0
ARC
  5
7A9
  8
0
 62
     7
 10
51.684699999999999
 20
120.499976
 30
0.0
 40
3.7307739999999989
 50
124.264984
 51
176.64003400000001
  0
ARC
  5
7AA
  8
0
 62
     7
 10
51.633524999999999
 20
120.520006
 30
0.0
 40
5.1040650000000003
 50
110.473392
 51
129.52644799999999
  0
ARC
  5
7AB
  8
0
 62
     7
 10
51.618574000000002
 20
120.52450399999999
 30
0.0
 40
5.0983479999999997
 50
50.453721999999999
 51
69.53200600000001
  0
ARC
  5
7AC
  8
0
 62
     7
 10
51.624468
 20
120.534278
 30
0.0
 40
4.9704759999999997
 50
15.568042
 51
105.57051
  0
ARC
  5
7AD
  8
0
 62
     7
 10
51.702779
 20
120.456002
 30
0.0
 40
5.0671919999999986
 50
106.185928
 51
163.8169
  0
LINE
  5
7AE
  8
0
 62
     7
 10
71.593500000000006
 20
187.49299999999999
 30
0.0
 11
71.593500000000006
 21
183.297
 31
0.0
  0
LINE
  5
7AF
  8
0
 62
     7
 10
74.260199999999998
 20
183.297
 30
0.0
 11
74.260199999999998
 21
188.827
 31
0.0
  0
LINE
  5
7B0
  8
0
 62
     7
 10
71.593500000000006
 20
117.41
 30
0.0
 11
71.593500000000006
 21
111.52800000000001
 31
0.0
  0
LINE
  5
7B1
  8
0
 62
     7
 10
74.260199999999998
 20
111.52800000000001
 30
0.0
 11
74.260199999999998
 21
117.41
 31
0.0
  0
ARC
  5
7B2
  8
0
 62
     7
 10
69.628633999999991
 20
117.393666
 30
0.0
 40
1.964934999999999
 50
0.484625
 51
53.659308000000003
  0
ARC
  5
7B3
  8
0
 62
     7
 10
69.523553000000007
 20
117.30367
 30
0.0
 40
4.7378379999999991
 50
1.289437999999999
 51
74.458068999999995
  0
LINE
  5
7B4
  8
0
 62
     7
 10
74.260199999999998
 20
105.19499999999999
 30
0.0
 11
74.260199999999998
 21
111.52800000000001
 31
0.0
  0
LINE
  5
7B5
  8
0
 62
     7
 10
71.593500000000006
 20
111.52800000000001
 30
0.0
 11
71.593500000000006
 21
105.19499999999999
 31
0.0
  0
LINE
  5
7B6
  8
0
 62
     7
 10
71.593500000000006
 20
105.19499999999999
 30
0.0
 11
71.593500000000006
 21
101.11499999999999
 31
0.0
  0
LINE
  5
7B7
  8
0
 62
     7
 10
74.260199999999998
 20
101.11499999999999
 30
0.0
 11
74.260199999999998
 21
105.19499999999999
 31
0.0
  0
ARC
  5
7B8
  8
0
 62
     7
 10
70.862331999999995
 20
101.185278
 30
0.0
 40
0.734515
 50
346.01248799999991
 51
354.52726000000001
  0
ARC
  5
7B9
  8
0
 62
     7
 10
71.214182999999991
 20
101.118838
 30
0.0
 40
0.377599
 50
334.8269029999999
 51
342.88868400000001
  0
ARC
  5
7BA
  8
0
 62
     7
 10
70.970178000000004
 20
101.231646
 30
0.0
 40
0.646415
 50
327.68874799999998
 51
334.97710799999999
  0
ARC
  5
7BB
  8
0
 62
     7
 10
70.804191000000003
 20
101.336753
 30
0.0
 40
0.8428819999999999
 50
316.309528
 51
327.68137400000001
  0
ARC
  5
7BC
  8
0
 62
     7
 10
70.524136999999996
 20
101.580083
 30
0.0
 40
1.213592999999999
 50
307.82958200000002
 51
317.13589899999999
  0
ARC
  5
7BD
  8
0
 62
     7
 10
70.162580000000005
 20
102.038234
 30
0.0
 40
1.7972129999999999
 50
300.94457
 51
307.97562699999997
  0
ARC
  5
7BE
  8
0
 62
     7
 10
70.121558999999991
 20
102.075712
 30
0.0
 40
1.8505189999999989
 50
292.76561800000002
 51
301.437185
  0
ARC
  5
7BF
  8
0
 62
     7
 10
63.534816000000014
 20
119.602283
 30
0.0
 40
20.572717000000001
 50
290.65914199999997
 51
290.791991
  0
ARC
  5
7C0
  8
0
 62
     7
 10
68.642612999999983
 20
107.954429
 30
0.0
 40
10.592069
 50
281.71368200000001
 51
283.54619600000001
  0
ARC
  5
7C1
  8
0
 62
     7
 10
70.164509999999993
 20
101.524102
 30
0.0
 40
3.9842409999999999
 50
283.92886900000002
 51
288.52232600000002
  0
ARC
  5
7C2
  8
0
 62
     7
 10
69.682921999999991
 20
103.09457399999999
 30
0.0
 40
5.6265089999999987
 50
288.09202099999999
 51
292.75781599999999
  0
ARC
  5
7C3
  8
0
 62
     7
 10
69.895498000000003
 20
102.523499
 30
0.0
 40
5.017722
 50
293.04198600000001
 51
298.69726500000007
  0
ARC
  5
7C4
  8
0
 62
     7
 10
70.144765000000007
 20
102.066479
 30
0.0
 40
4.4971449999999988
 50
298.70749499999999
 51
304.66791400000011
  0
ARC
  5
7C5
  8
0
 62
     7
 10
70.177664000000007
 20
102.014971
 30
0.0
 40
4.4360699999999991
 50
304.69685199999998
 51
308.55370299999998
  0
ARC
  5
7C6
  8
0
 62
     7
 10
70.457948999999999
 20
101.65304500000001
 30
0.0
 40
3.9783519999999988
 50
308.64558499999998
 51
312.32214599999998
  0
ARC
  5
7C7
  8
0
 62
     7
 10
70.429128000000006
 20
101.67413999999999
 30
0.0
 40
4.0133599999999987
 50
312.42359800000003
 51
315.677955
  0
ARC
  5
7C8
  8
0
 62
     7
 10
70.861382999999989
 20
101.272341
 30
0.0
 40
3.4234119999999999
 50
315.43434100000002
 51
320.5721200000001
  0
ARC
  5
7C9
  8
0
 62
     7
 10
70.839573000000001
 20
101.31604400000001
 30
0.0
 40
3.468073
 50
320.24326100000002
 51
326.950943
  0
ARC
  5
7CA
  8
0
 62
     7
 10
70.915044999999992
 20
101.259601
 30
0.0
 40
3.3740349999999988
 50
327.05540100000002
 51
335.59831300000002
  0
ARC
  5
7CB
  8
0
 62
     7
 10
71.193765999999997
 20
101.13192600000001
 30
0.0
 40
3.067466
 50
335.61926899999997
 51
346.778299
  0
ARC
  5
7CC
  8
0
 62
     7
 10
71.417667000000009
 20
101.033411
 30
0.0
 40
2.8273209999999991
 50
347.684031
 51
354.673992
  0
ARC
  5
7CD
  8
0
 62
     7
 10
65.833607999999998
 20
101.612951
 30
0.0
 40
8.4412699999999994
 50
354.27548500000012
 51
356.61968999999999
  0
LINE
  5
7CE
  8
0
 62
     7
 10
46.841500000000003
 20
121.86799999999999
 30
0.0
 11
46.305999999999997
 21
121.86799999999999
 31
0.0
  0
LINE
  5
7CF
  8
0
 62
     7
 10
56.9786
 20
121.86799999999999
 30
0.0
 11
56.407800000000002
 21
121.86799999999999
 31
0.0
  0
ARC
  5
7D0
  8
0
 62
     7
 10
33.168014999999997
 20
188.68920399999999
 30
0.0
 40
1.533620999999999
 50
117.513353
 51
203.287139
  0
ARC
  5
7D1
  8
0
 62
     7
 10
33.104588
 20
188.728273
 30
0.0
 40
1.492051999999999
 50
205.62873500000001
 51
244.385391
  0
ARC
  5
7D2
  8
0
 62
     7
 10
33.168014999999997
 20
120.395094
 30
0.0
 40
1.533620999999999
 50
117.513353
 51
203.287139
  0
ARC
  5
7D3
  8
0
 62
     7
 10
33.104588
 20
120.434163
 30
0.0
 40
1.492051999999999
 50
205.62873500000001
 51
244.385391
  0
LINE
  5
7D4
  8
0
 62
     7
 10
46.305999999999997
 20
122.702
 30
0.0
 11
32.459699999999998
 21
122.702
 31
0.0
  0
LINE
  5
7D5
  8
0
 62
     7
 10
70.793000000000006
 20
122.702
 30
0.0
 11
56.9786
 21
122.702
 31
0.0
  0
ARC
  5
7D6
  8
0
 62
     7
 10
51.624749000000001
 20
120.53436600000001
 30
0.0
 40
4.2549010000000003
 50
329.866647
 51
59.870249000000008
  0
ARC
  5
7D7
  8
0
 62
     7
 10
51.624557000000003
 20
120.533939
 30
0.0
 40
4.2553669999999988
 50
59.870902000000001
 51
149.86513199999999
  0
ARC
  5
7D8
  8
0
 62
     7
 10
51.721232999999998
 20
120.53341399999999
 30
0.0
 40
4.3395070000000002
 50
150.499965
 51
208.62448599999999
  0
LINE
  5
7D9
  8
_________2
 62
     7
 10
134.93899999999999
 20
258.911
 30
0.0
 11
134.93899999999999
 21
230.911
 31
0.0
  0
LINE
  5
7DA
  8
_________2
 62
     7
 10
159.30500000000001
 20
258.911
 30
0.0
 11
159.30500000000001
 21
230.911
 31
0.0
  0
TEXT
  5
7DB
  8
_________2
 62
     7
 10
168.55433466666659
 20
233.06100000000001
 30
0.0
 40
3.3734599999999988
  1
クロム
 41
0.5
 72
     1
 11
171.47800000000001
 21
233.06100000000001
 31
0.0
  0
TEXT
  5
7DC
  8
_________2
 62
     7
 10
139.24959333333331
 20
233.06200000000001
 30
0.0
 40
3.3734599999999988
  1
HR63617-CH
 41
0.5
 72
     1
 11
147.12100000000001
 21
233.06200000000001
 31
0.0
  0
LINE
  5
7DD
  8
_________2
 62
     7
 10
134.93899999999999
 20
230.911
 30
0.0
 11
183.55099999999999
 21
230.911
 31
0.0
  0
TEXT
  5
7DE
  8
_________2
 62
     7
 10
168.66678333333331
 20
240.06100000000001
 30
0.0
 40
3.3734599999999988
  1
ブラス
 41
0.5
 72
     1
 11
171.47800000000001
 21
240.06100000000001
 31
0.0
  0
TEXT
  5
7DF
  8
_________2
 62
     7
 10
162.59455533333329
 20
247.06200000000001
 30
0.0
 40
3.3734599999999988
  1
アンティークブラス
 41
0.5
 72
     1
 11
171.47800000000001
 21
247.06200000000001
 31
0.0
  0
TEXT
  5
7E0
  8
_________2
 62
     7
 10
169.6788213333333
 20
254.06200000000001
 30
0.0
 40
3.3734599999999988
  1
仕上
 41
0.5
 72
     1
 11
171.47800000000001
 21
254.06200000000001
 31
0.0
  0
TEXT
  5
7E1
  8
_________2
 62
     7
 10
139.24959333333331
 20
240.06200000000001
 30
0.0
 40
3.3734599999999988
  1
HR63617-PB
 41
0.5
 72
     1
 11
147.12100000000001
 21
240.06200000000001
 31
0.0
  0
TEXT
  5
7E2
  8
_________2
 62
     7
 10
139.24959333333331
 20
247.06200000000001
 30
0.0
 40
3.3734599999999988
  1
HR63617-AB
 41
0.5
 72
     1
 11
147.12100000000001
 21
247.06200000000001
 31
0.0
  0
TEXT
  5
7E3
  8
_________2
 62
     7
 10
145.3218213333333
 20
254.06200000000001
 30
0.0
 40
3.3734599999999988
  1
品番
 41
0.5
 72
     1
 11
147.12100000000001
 21
254.06200000000001
 31
0.0
  0
LINE
  5
7E4
  8
_________2
 62
     7
 10
134.93899999999999
 20
237.911
 30
0.0
 11
183.55099999999999
 21
237.911
 31
0.0
  0
LINE
  5
7E5
  8
_________2
 62
     7
 10
134.93899999999999
 20
244.911
 30
0.0
 11
183.55099999999999
 21
244.911
 31
0.0
  0
LINE
  5
7E6
  8
_________2
 62
     7
 10
134.93899999999999
 20
251.911
 30
0.0
 11
183.55099999999999
 21
251.911
 31
0.0
  0
TEXT
  5
7E7
  8
_________2
 62
     7
 10
136.66252499999999
 20
9.1082000000000001
 30
0.0
 40
3.9357000000000002
  1
図中の表参照
 41
0.5
 72
     1
 11
143.55000000000001
 21
9.1082000000000001
 31
0.0
  0
TEXT
  5
7E8
  8
_________2
 62
     7
 10
137.31847500000001
 20
-0.8926299999999999
 30
0.0
 40
3.9357000000000002
  1
HR63617
 41
0.5
 72
     1
 11
143.55000000000001
 21
-0.8926299999999999
 31
0.0
  0
LINE
  5
7E9
  8
_________2
 62
     7
 10
205.30099999999999
 20
127.411
 30
0.0
 11
183.55099999999999
 21
127.411
 31
0.0
  0
LINE
  5
7EA
  8
_________2
 62
     7
 10
100.3
 20
-4.0910799999999998
 30
0.0
 11
100.3
 21
-21.071000000000002
 31
0.0
  0
LINE
  5
7EB
  8
_________2
 62
     7
 10
100.3
 20
275.93099999999998
 30
0.0
 11
100.3
 21
258.911
 31
0.0
  0
LINE
  5
7EC
  8
_________2
 62
     7
 10
17.049399999999999
 20
127.411
 30
0.0
 11
-4.7010300000000003
 21
127.411
 31
0.0
  0
LINE
  5
7ED
  8
_________2
 62
     7
 10
76.740799999999993
 20
29.8047
 30
0.0
 11
74.554599999999994
 21
29.8047
 31
0.0
  0
LINE
  5
7EE
  8
_________2
 62
     7
 10
77.233500000000006
 20
29.8047
 30
0.0
 11
76.981300000000005
 21
29.8047
 31
0.0
  0
LINE
  5
7EF
  8
_________2
 62
     7
 10
77.726200000000006
 20
29.8047
 30
0.0
 11
80.6511
 21
29.8047
 31
0.0
  0
LINE
  5
7F0
  8
_________2
 62
     7
 10
77.233500000000006
 20
29.8047
 30
0.0
 11
77.485699999999994
 21
29.8047
 31
0.0
  0
LINE
  5
7F1
  8
_________2
 62
     7
 10
70.837299999999999
 20
29.8047
 30
0.0
 11
68.650300000000001
 21
29.8047
 31
0.0
  0
LINE
  5
7F2
  8
_________2
 62
     7
 10
71.329300000000003
 20
29.8047
 30
0.0
 11
71.077799999999996
 21
29.8047
 31
0.0
  0
LINE
  5
7F3
  8
_________2
 62
     7
 10
71.329300000000003
 20
30.2974
 30
0.0
 11
71.329300000000003
 21
32.484400000000001
 31
0.0
  0
LINE
  5
7F4
  8
_________2
 62
     7
 10
71.329300000000003
 20
29.8047
 30
0.0
 11
71.329300000000003
 21
30.057300000000001
 31
0.0
  0
LINE
  5
7F5
  8
_________2
 62
     7
 10
71.821899999999999
 20
29.8047
 30
0.0
 11
74.008899999999997
 21
29.8047
 31
0.0
  0
LINE
  5
7F6
  8
_________2
 62
     7
 10
71.329300000000003
 20
29.8047
 30
0.0
 11
71.581400000000002
 21
29.8047
 31
0.0
  0
LINE
  5
7F7
  8
_________2
 62
     7
 10
71.329300000000003
 20
29.312799999999999
 30
0.0
 11
71.329300000000003
 21
27.126200000000001
 31
0.0
  0
LINE
  5
7F8
  8
_________2
 62
     7
 10
71.329300000000003
 20
29.8047
 30
0.0
 11
71.329300000000003
 21
29.5532
 31
0.0
  0
LINE
  5
7F9
  8
_________2
 62
     7
 10
75.040300000000002
 20
28.5852
 30
0.0
 11
80.218299999999985
 21
27.720400000000001
 31
0.0
  0
LINE
  5
7FA
  8
_________2
 62
     7
 10
75.040300000000002
 20
31.024699999999999
 30
0.0
 11
80.218299999999985
 21
31.8901
 31
0.0
  0
LINE
  5
7FB
  8
_________2
 62
     7
 10
80.218299999999985
 20
27.720400000000001
 30
0.0
 11
80.218299999999985
 21
31.8901
 31
0.0
  0
LINE
  5
7FC
  8
_________2
 62
     7
 10
75.040300000000002
 20
28.5852
 30
0.0
 11
75.040300000000002
 21
31.024699999999999
 31
0.0
  0
ARC
  5
7FD
  8
_________2
 62
     7
 10
71.282674
 20
29.757801000000001
 30
0.0
 40
1.267714
 50
2.1220840000000001
 51
87.894083999999992
  0
ARC
  5
7FE
  8
_________2
 62
     7
 10
71.375812999999994
 20
29.758545999999999
 30
0.0
 40
1.2669680000000001
 50
92.105782999999988
 51
177.91037
  0
ARC
  5
7FF
  8
_________2
 62
     7
 10
71.376186000000004
 20
29.851671
 30
0.0
 40
1.2673680000000001
 50
182.12203600000001
 51
267.877993
  0
ARC
  5
800
  8
_________2
 62
     7
 10
71.282368999999989
 20
29.852347999999999
 30
0.0
 40
1.2680439999999991
 50
272.11916400000001
 51
357.84848499999998
  0
ARC
  5
801
  8
_________2
 62
     7
 10
71.248890000000003
 20
29.724731999999999
 30
0.0
 40
2.1668310000000002
 50
2.1161439999999989
 51
87.874379000000005
  0
ARC
  5
802
  8
_________2
 62
     7
 10
71.408928000000003
 20
29.726146
 30
0.0
 40
2.165392999999999
 50
92.108508999999998
 51
177.91986499999999
  0
ARC
  5
803
  8
_________2
 62
     7
 10
71.409267
 20
29.884751999999999
 30
0.0
 40
2.1657829999999998
 50
182.117133
 51
267.88289700000001
  0
ARC
  5
804
  8
_________2
 62
     7
 10
71.249286999999995
 20
29.885429999999999
 30
0.0
 40
2.1664590000000001
 50
272.11546800000002
 51
357.86560400000002
  0
TEXT
  5
805
  8
_________2
 62
     7
 10
104.605
 20
1.6794899999999999
 30
0.0
 40
3.0923400000000001
  1
図番
 41
0.5
  0
LINE
  5
806
  8
_________2
 62
     7
 10
103.55
 20
5.9087199999999989
 30
0.0
 11
183.55099999999999
 21
5.9087199999999989
 31
0.0
  0
TEXT
  5
807
  8
_________2
 62
     7
 10
104.605
 20
11.6793
 30
0.0
 40
3.0923400000000001
  1
品番
 41
0.5
  0
TEXT
  5
808
  8
_________2
 62
     7
 10
104.605
 20
31.8184
 30
0.0
 40
3.0923400000000001
  1
名称
 41
0.5
  0
TEXT
  5
809
  8
_________2
 62
     7
 10
91.844958333333338
 20
26.822299999999998
 30
0.0
 40
3.6545800000000002
  1
mm
 41
0.5
 72
     1
 11
93.367699999999985
 21
26.822299999999998
 31
0.0
  0
TEXT
  5
80A
  8
_________2
 62
     7
 10
85.642999999999986
 20
31.8184
 30
0.0
 40
3.0923400000000001
  1
単位
 41
0.5
  0
TEXT
  5
80B
  8
_________2
 62
     7
 10
85.642999999999986
 20
19.410799999999998
 30
0.0
 40
3.0923400000000001
  1
尺度
 41
0.5
  0
TEXT
  5
80C
  8
_________2
 62
     7
 10
90.548558666666679
 20
13.2182
 30
0.0
 40
3.6545800000000002
  1
1 ： 3
 41
0.5
 72
     1
 11
93.959500000000006
 21
13.2182
 31
0.0
  0
TEXT
  5
80D
  8
_________2
 62
     7
 10
109.179
 20
24.226099999999999
 30
0.0
 40
3.9357000000000002
  1
ニューレトロ ペーパーホルダー
 41
0.5
  0
TEXT
  5
80E
  8
_________2
 62
     7
 10
39.425100333333333
 20
13.603400000000001
 30
0.0
 40
3.6545800000000002
  1
早川
 41
0.5
 72
     1
 11
41.313299999999998
 21
13.603400000000001
 31
0.0
  0
TEXT
  5
80F
  8
_________2
 62
     7
 10
20.790190666666671
 20
13.603400000000001
 30
0.0
 40
3.6545800000000002
  1
石原
 41
0.5
 72
     1
 11
22.7393
 21
13.603400000000001
 31
0.0
  0
TEXT
  5
810
  8
_________2
 62
     7
 10
67.785600000000002
 20
13.2182
 30
0.0
 40
3.6545800000000002
  1
15.12.08
 41
0.5
  0
TEXT
  5
811
  8
_________2
 62
     7
 10
66.5929
 20
19.410799999999998
 30
0.0
 40
3.0923400000000001
  1
日付
 41
0.5
  0
TEXT
  5
812
  8
_________2
 62
     7
 10
29.639199999999999
 20
19.410799999999998
 30
0.0
 40
3.0923400000000001
  1
検図
 41
0.5
  0
TEXT
  5
813
  8
_________2
 62
     7
 10
18.020900000000001
 20
5.21143
 30
0.0
 40
3.0923400000000001
  1
備考
 41
0.5
  0
TEXT
  5
814
  8
_________2
 62
     7
 10
18.020900000000001
 20
19.410799999999998
 30
0.0
 40
3.0923400000000001
  1
製図
 41
0.5
  0
TEXT
  5
815
  8
_________2
 62
     7
 10
23.788265333333339
 20
27.936800000000002
 30
0.0
 40
4.4979399999999989
  1
セラトレーディング株式会社
 41
0.5
 72
     1
 11
41.180300000000003
 21
27.936800000000002
 31
0.0
  0
LINE
  5
816
  8
_________2
 62
     7
 10
183.55099999999999
 20
-4.0910799999999998
 30
0.0
 11
17.049399999999999
 21
-4.0910799999999998
 31
0.0
  0
LINE
  5
817
  8
_________2
 62
     7
 10
17.049399999999999
 20
-4.0910799999999998
 30
0.0
 11
17.049399999999999
 21
258.911
 31
0.0
  0
LINE
  5
818
  8
_________2
 62
     7
 10
17.049399999999999
 20
258.911
 30
0.0
 11
183.55099999999999
 21
258.911
 31
0.0
  0
LINE
  5
819
  8
_________2
 62
     7
 10
183.55099999999999
 20
258.911
 30
0.0
 11
183.55099999999999
 21
-4.0910799999999998
 31
0.0
  0
LINE
  5
81A
  8
_________2
 62
     7
 10
65.549700000000001
 20
9.4092999999999982
 30
0.0
 11
65.549700000000001
 21
35.909100000000002
 31
0.0
  0
LINE
  5
81B
  8
_________2
 62
     7
 10
84.549599999999984
 20
9.4092999999999982
 30
0.0
 11
84.549599999999984
 21
35.909100000000002
 31
0.0
  0
LINE
  5
81C
  8
_________2
 62
     7
 10
103.55
 20
-4.0910799999999998
 30
0.0
 11
103.55
 21
35.909100000000002
 31
0.0
  0
LINE
  5
81D
  8
_________2
 62
     7
 10
28.549199999999999
 20
9.4092999999999982
 30
0.0
 11
28.549199999999999
 21
23.409199999999998
 31
0.0
  0
LINE
  5
81E
  8
_________2
 62
     7
 10
17.049399999999999
 20
9.4092999999999982
 30
0.0
 11
103.55
 21
9.4092999999999982
 31
0.0
  0
LINE
  5
81F
  8
_________2
 62
     7
 10
17.049399999999999
 20
23.409199999999998
 30
0.0
 11
103.55
 21
23.409199999999998
 31
0.0
  0
LINE
  5
820
  8
_________2
 62
     7
 10
103.55
 20
15.9085
 30
0.0
 11
183.55099999999999
 21
15.9085
 31
0.0
  0
LINE
  5
821
  8
_________2
 62
     7
 10
17.049399999999999
 20
35.909100000000002
 30
0.0
 11
183.55099999999999
 21
35.909100000000002
 31
0.0
  0
ENDSEC
  0
EOF
