  0
SECTION
  2
HEADER
  9
$ACADVER
  1
AC1009
  9
$INSBASE
 10
0.0
 20
0.0
 30
0.0
  9
$EXTMIN
 10
-4.7010300000000003
 20
-21.071000000000002
 30
0.0
  9
$EXTMAX
 10
205.30099999999999
 20
275.93099999999998
 30
0.0
  9
$LIMMIN
 10
0.0
 20
0.0
  9
$LIMMAX
 10
12.0
 20
9.0
  9
$ORTHOMODE
 70
     0
  9
$REGENMODE
 70
     1
  9
$FILLMODE
 70
     1
  9
$QTEXTMODE
 70
     0
  9
$MIRRTEXT
 70
     1
  9
$DRAGMODE
 70
     2
  9
$LTSCALE
 40
1.0
  9
$OSMODE
 70
    37
  9
$ATTMODE
 70
     1
  9
$TEXTSIZE
 40
0.0
  9
$TRACEWID
 40
0.05
  9
$TEXTSTYLE
  7
STANDARD
  9
$CLAYER
  8
0
  9
$CELTYPE
  6
CONTINUOUS
  9
$CECOLOR
 62
   256
  9
$DIMSCALE
 40
1.0
  9
$DIMASZ
 40
0.18
  9
$DIMEXO
 40
0.0625
  9
$DIMDLI
 40
0.38
  9
$DIMRND
 40
0.0
  9
$DIMDLE
 40
0.0
  9
$DIMEXE
 40
0.18
  9
$DIMTP
 40
0.0
  9
$DIMTM
 40
0.0
  9
$DIMTXT
 40
0.18
  9
$DIMCEN
 40
0.09
  9
$DIMTSZ
 40
0.0
  9
$DIMTOL
 70
     0
  9
$DIMLIM
 70
     0
  9
$DIMTIH
 70
     1
  9
$DIMTOH
 70
     1
  9
$DIMSE1
 70
     0
  9
$DIMSE2
 70
     0
  9
$DIMTAD
 70
     0
  9
$DIMZIN
 70
     0
  9
$DIMBLK
  1

  9
$DIMASO
 70
     1
  9
$DIMSHO
 70
     1
  9
$DIMPOST
  1

  9
$DIMAPOST
  1

  9
$DIMALT
 70
     0
  9
$DIMALTD
 70
     2
  9
$DIMALTF
 40
25.399999999999999
  9
$DIMLFAC
 40
1.0
  9
$DIMTOFL
 70
     0
  9
$DIMTVP
 40
0.0
  9
$DIMTIX
 70
     0
  9
$DIMSOXD
 70
     0
  9
$DIMSAH
 70
     0
  9
$DIMBLK1
  1

  9
$DIMBLK2
  1

  9
$DIMSTYLE
  2
STANDARD
  9
$DIMCLRD
 70
     0
  9
$DIMCLRE
 70
     0
  9
$DIMCLRT
 70
     0
  9
$DIMTFAC
 40
1.0
  9
$DIMGAP
 40
0.09
  9
$LUNITS
 70
     2
  9
$LUPREC
 70
     4
  9
$SKETCHINC
 40
0.1
  9
$FILLETRAD
 40
0.0
  9
$AUNITS
 70
     0
  9
$AUPREC
 70
     0
  9
$MENU
  1
.
  9
$ELEVATION
 40
0.0
  9
$PELEVATION
 40
0.0
  9
$THICKNESS
 40
0.0
  9
$LIMCHECK
 70
     0
  9
$BLIPMODE
 70
     0
  9
$CHAMFERA
 40
0.0
  9
$CHAMFERB
 40
0.0
  9
$SKPOLY
 70
     0
  9
$TDCREATE
 40
2444972.375
  9
$TDUPDATE
 40
2457367.2569093751
  9
$TDINDWG
 40
0.0000326157
  9
$TDUSRTIMER
 40
0.0000326157
  9
$USRTIMER
 70
     1
  9
$ANGBASE
 50
0.0
  9
$ANGDIR
 70
     0
  9
$PDMODE
 70
     0
  9
$PDSIZE
 40
0.0
  9
$PLINEWID
 40
0.0
  9
$COORDS
 70
     1
  9
$SPLFRAME
 70
     0
  9
$SPLINETYPE
 70
     6
  9
$SPLINESEGS
 70
     8
  9
$ATTDIA
 70
     1
  9
$ATTREQ
 70
     1
  9
$HANDLING
 70
     1
  9
$HANDSEED
  5
8B1
  9
$SURFTAB1
 70
     6
  9
$SURFTAB2
 70
     6
  9
$SURFTYPE
 70
     6
  9
$SURFU
 70
     6
  9
$SURFV
 70
     6
  9
$UCSNAME
  2

  9
$UCSORG
 10
0.0
 20
0.0
 30
0.0
  9
$UCSXDIR
 10
1.0
 20
0.0
 30
0.0
  9
$UCSYDIR
 10
0.0
 20
1.0
 30
0.0
  9
$PUCSNAME
  2

  9
$PUCSORG
 10
0.0
 20
0.0
 30
0.0
  9
$PUCSXDIR
 10
1.0
 20
0.0
 30
0.0
  9
$PUCSYDIR
 10
0.0
 20
1.0
 30
0.0
  9
$USERI1
 70
     0
  9
$USERI2
 70
     0
  9
$USERI3
 70
     0
  9
$USERI4
 70
     0
  9
$USERI5
 70
     0
  9
$USERR1
 40
0.0
  9
$USERR2
 40
0.0
  9
$USERR3
 40
0.0
  9
$USERR4
 40
0.0
  9
$USERR5
 40
0.0
  9
$WORLDVIEW
 70
     1
  9
$SHADEDGE
 70
     3
  9
$SHADEDIF
 70
    70
  9
$TILEMODE
 70
     1
  9
$MAXACTVP
 70
    48
  9
$PLIMCHECK
 70
     0
  9
$PEXTMIN
 10
1.0000000000000000E+020
 20
1.0000000000000000E+020
 30
1.0000000000000000E+020
  9
$PEXTMAX
 10
-1.0000000000000000E+020
 20
-1.0000000000000000E+020
 30
-1.0000000000000000E+020
  9
$PLIMMIN
 10
0.0
 20
0.0
  9
$PLIMMAX
 10
12.0
 20
9.0
  9
$UNITMODE
 70
     0
  9
$VISRETAIN
 70
     1
  9
$PLINEGEN
 70
     0
  9
$PSLTSCALE
 70
     1
  0
ENDSEC
  0
SECTION
  2
TABLES
  0
TABLE
  2
VPORT
 70
     1
  0
VPORT
  2
*ACTIVE
 70
     0
 10
0.0
 20
0.0
 11
1.0
 21
1.0
 12
165.7277138025147
 22
127.42999999999989
 13
0.0
 23
0.0
 14
1.0
 24
1.0
 15
0.0
 25
0.0
 16
0.0
 26
0.0
 36
1.0
 17
0.0
 27
0.0
 37
0.0
 40
283.528435666853
 41
2.1001926782273599
 42
50.0
 43
0.0
 44
0.0
 50
0.0
 51
0.0
 71
     0
 72
   100
 73
     1
 74
     1
 75
     0
 76
     0
 77
     0
 78
     0
  0
ENDTAB
  0
TABLE
  2
LTYPE
 70
     3
  0
LTYPE
  2
CONTINUOUS
 70
     0
  3
Solid line
 72
    65
 73
     0
 40
0.0
  0
LTYPE
  2
AIGENLINE001
 70
     0
  3
generate AI->DXF Converter
 72
    65
 73
     4
 40
5.8561449999999988
 49
3.5278
 49
-0.776115
 49
0.776115
 49
-0.776115
  0
LTYPE
  2
AIGENLINE002
 70
     0
  3
generate AI->DXF Converter
 72
    65
 73
     2
 40
1.5522299999999991
 49
0.776115
 49
-0.776115
  0
ENDTAB
  0
TABLE
  2
LAYER
 70
     2
  0
LAYER
  2
0
 70
     0
 62
     7
  6
CONTINUOUS
  0
LAYER
  2
_________2
 70
     0
 62
     7
  6
CONTINUOUS
  0
ENDTAB
  0
TABLE
  2
STYLE
 70
     1
  0
STYLE
  2
STANDARD
 70
     0
 40
0.0
 41
0.0
 50
0.0
 71
     0
 42
0.0
  3
TXT
  4
EXTFONT.SHX
  0
ENDTAB
  0
TABLE
  2
VIEW
 70
     0
  0
ENDTAB
  0
TABLE
  2
UCS
 70
     0
  0
ENDTAB
  0
TABLE
  2
APPID
 70
     3
  0
APPID
  2
ACAD
 70
     0
  0
APPID
  2
ACAD_NAV_VCDISPLAY
 70
     0
  0
APPID
  2
ACAD_MLEADERVER
 70
     0
  0
ENDTAB
  0
TABLE
  2
DIMSTYLE
 70
     1
  0
DIMSTYLE
  2
STANDARD
 70
     0
  3

  4

  5

  6

  7

 40
1.0
 41
0.18
 42
0.0625
 43
0.38
 44
0.18
 45
0.0
 46
0.0
 47
0.0
 48
0.0
140
0.18
141
0.09
142
0.0
143
25.399999999999999
144
1.0
145
0.0
146
1.0
147
0.09
 71
     0
 72
     0
 73
     1
 74
     1
 75
     0
 76
     0
 77
     0
 78
     0
170
     0
171
     2
172
     0
173
     0
174
     0
175
     0
176
     0
177
     0
178
     0
  0
ENDTAB
  0
ENDSEC
  0
SECTION
  2
BLOCKS
  0
BLOCK
  8
0
  2
$MODEL_SPACE
 70
     0
 10
0.0
 20
0.0
 30
0.0
  3
$MODEL_SPACE
  1

  0
ENDBLK
  5
1A
  8
0
  0
BLOCK
 67
     1
  8
0
  2
$PAPER_SPACE
 70
     0
 10
0.0
 20
0.0
 30
0.0
  3
$PAPER_SPACE
  1

  0
ENDBLK
  5
17
 67
     1
  8
0
  0
ENDSEC
  0
SECTION
  2
ENTITIES
  0
TEXT
  5
23
  8
0
 62
     7
 10
111.217
 20
56.819600000000001
 30
0.0
 40
3.0923400000000001
  1
%%c4.5\U+00D749SUS 十字穴付皿頭タッピングネジ
 41
0.5
  0
TEXT
  5
24
  8
0
 62
     7
 10
111.217
 20
51.315399999999997
 30
0.0
 40
3.0923400000000001
  1
（%%c6\U+00D730樹脂プラグ付）
 41
0.5
  0
TEXT
  5
25
  8
0
 62
     7
 10
94.890235000000004
 20
172.262
 30
0.0
 40
3.0923400000000001
  1
%%c16
 41
0.5
 72
     1
 11
96.694100000000006
 21
172.262
 31
0.0
  0
TEXT
  5
26
  8
0
 62
     7
 10
103.54904999999999
 20
138.09200000000001
 30
0.0
 40
3.0923400000000001
  1
%%c8
 41
0.5
 72
     2
 11
106.126
 21
138.09200000000001
 31
0.0
  0
TEXT
  5
27
  8
0
 62
     7
 10
161.346
 20
90.322724999999991
 30
0.0
 40
3.0923400000000001
  1
32
 50
90.0
 41
0.5
 72
     1
 11
161.346
 21
91.611199999999997
 31
0.0
  0
TEXT
  5
28
  8
0
 62
     7
 10
169.33099999999999
 20
89.549940000000007
 30
0.0
 40
3.0923400000000001
  1
%%c57
 50
90.0
 41
0.5
 72
     1
 11
169.33099999999999
 21
91.611500000000007
 31
0.0
  0
TEXT
  5
29
  8
0
 62
     7
 10
107.676525
 20
67.461299999999994
 30
0.0
 40
3.0923400000000001
  1
88
 41
0.5
 72
     1
 11
108.965
 21
67.461299999999994
 31
0.0
  0
TEXT
  5
2A
  8
0
 62
     7
 10
34.813299999999998
 20
120.05813499999999
 30
0.0
 40
3.0923400000000001
  1
178
 50
90.0
 41
0.5
 72
     1
 11
34.813299999999998
 21
121.86199999999999
 31
0.0
  0
ARC
  5
2B
  8
0
 62
     7
 10
96.694535999999999
 20
201.607316
 30
0.0
 40
4.0000400000000003
 50
269.998786
 51
359.99875600000001
  0
ARC
  5
2C
  8
0
 62
     7
 10
96.694450000000003
 20
201.60722799999999
 30
0.0
 40
3.9999530000000001
 50
179.99996999999999
 51
270.00002000000001
  0
ARC
  5
2D
  8
0
 62
     7
 10
96.694451000000001
 20
201.60722799999999
 30
0.0
 40
3.9999539999999998
 50
90.0
 51
179.99996999999999
  0
ARC
  5
2E
  8
0
 62
     7
 10
96.694535999999999
 20
201.60714200000001
 30
0.0
 40
4.0000400000000003
 50
0.001244
 51
90.001214000000004
  0
ARC
  5
2F
  8
0
 62
     7
 10
98.376874000000001
 20
201.59687
 30
0.0
 40
11.4123
 50
179.95143400000001
 51
204.14469099999999
  0
ARC
  5
30
  8
0
 62
     7
 10
98.452473999999995
 20
201.59828200000001
 30
0.0
 40
11.487899000000001
 50
155.915031
 51
179.958797
  0
LINE
  5
31
  8
0
 62
     7
 10
90.964399999999983
 20
208.37799999999999
 30
0.0
 11
90.964399999999983
 21
194.83699999999999
 31
0.0
  0
LINE
  5
32
  8
0
 62
     7
 10
90.026600000000002
 20
194.83699999999999
 30
0.0
 11
90.814499999999995
 21
194.83699999999999
 31
0.0
  0
LINE
  5
33
  8
0
 62
     7
 10
90.814499999999995
 20
208.37700000000001
 30
0.0
 11
90.026600000000002
 21
208.37700000000001
 31
0.0
  0
LINE
  5
34
  8
0
 62
     7
 10
90.026600000000002
 20
208.37700000000001
 30
0.0
 11
90.814499999999995
 21
208.37700000000001
 31
0.0
  0
LINE
  5
35
  8
0
 62
     7
 10
90.026600000000002
 20
194.85499999999999
 30
0.0
 11
90.814499999999995
 21
194.85499999999999
 31
0.0
  0
LINE
  5
36
  8
0
 62
     7
 10
90.814499999999995
 20
194.839
 30
0.0
 11
90.026600000000002
 21
194.839
 31
0.0
  0
LINE
  5
37
  8
0
 62
     7
 10
90.026600000000002
 20
208.37100000000001
 30
0.0
 11
90.814499999999995
 21
208.37100000000001
 31
0.0
  0
LINE
  5
38
  8
0
 62
     7
 10
90.814499999999995
 20
208.35599999999999
 30
0.0
 11
90.026600000000002
 21
208.35599999999999
 31
0.0
  0
LINE
  5
39
  8
0
 62
     7
 10
90.964399999999983
 20
194.988
 30
0.0
 11
90.849299999999985
 21
194.875
 31
0.0
  0
LINE
  5
3A
  8
0
 62
     7
 10
90.849299999999985
 20
194.88800000000001
 30
0.0
 11
90.964399999999983
 21
195.011
 31
0.0
  0
LINE
  5
3B
  8
0
 62
     7
 10
90.026600000000002
 20
208.35599999999999
 30
0.0
 11
90.814499999999995
 21
208.35599999999999
 31
0.0
  0
LINE
  5
3C
  8
0
 62
     7
 10
90.026600000000002
 20
194.91
 30
0.0
 11
90.814499999999995
 21
194.91
 31
0.0
  0
LINE
  5
3D
  8
0
 62
     7
 10
90.814499999999995
 20
194.87100000000001
 30
0.0
 11
90.026600000000002
 21
194.87100000000001
 31
0.0
  0
LINE
  5
3E
  8
0
 62
     7
 10
90.026600000000002
 20
208.33199999999999
 30
0.0
 11
90.814499999999995
 21
208.33199999999999
 31
0.0
  0
LINE
  5
3F
  8
0
 62
     7
 10
90.814499999999995
 20
208.30000000000001
 30
0.0
 11
90.026600000000002
 21
208.30000000000001
 31
0.0
  0
LINE
  5
40
  8
0
 62
     7
 10
90.964399999999983
 20
195.01300000000001
 30
0.0
 11
90.849299999999985
 21
194.91
 31
0.0
  0
LINE
  5
41
  8
0
 62
     7
 10
90.849299999999985
 20
194.94
 30
0.0
 11
90.964399999999983
 21
195.071
 31
0.0
  0
LINE
  5
42
  8
0
 62
     7
 10
90.016300000000001
 20
194.94
 30
0.0
 11
90.849299999999985
 21
194.94
 31
0.0
  0
LINE
  5
43
  8
0
 62
     7
 10
90.026600000000002
 20
208.298
 30
0.0
 11
90.814499999999995
 21
208.298
 31
0.0
  0
LINE
  5
44
  8
0
 62
     7
 10
90.026600000000002
 20
195.00200000000001
 30
0.0
 11
90.814499999999995
 21
195.00200000000001
 31
0.0
  0
LINE
  5
45
  8
0
 62
     7
 10
90.814499999999995
 20
194.941
 30
0.0
 11
90.026600000000002
 21
194.941
 31
0.0
  0
LINE
  5
46
  8
0
 62
     7
 10
90.026600000000002
 20
208.256
 30
0.0
 11
90.814499999999995
 21
208.256
 31
0.0
  0
LINE
  5
47
  8
0
 62
     7
 10
90.814499999999995
 20
208.20500000000001
 30
0.0
 11
90.026600000000002
 21
208.20500000000001
 31
0.0
  0
LINE
  5
48
  8
0
 62
     7
 10
90.964399999999983
 20
195.07599999999999
 30
0.0
 11
90.849299999999985
 21
194.98099999999999
 31
0.0
  0
LINE
  5
49
  8
0
 62
     7
 10
90.814499999999995
 20
195.00200000000001
 30
0.0
 11
90.814499999999995
 21
194.941
 31
0.0
  0
LINE
  5
4A
  8
0
 62
     7
 10
90.849299999999985
 20
195.03
 30
0.0
 11
90.964399999999983
 21
195.167
 31
0.0
  0
LINE
  5
4B
  8
0
 62
     7
 10
90.016300000000001
 20
195.03
 30
0.0
 11
90.849299999999985
 21
195.03
 31
0.0
  0
LINE
  5
4C
  8
0
 62
     7
 10
90.026600000000002
 20
208.20500000000001
 30
0.0
 11
90.814499999999995
 21
208.20500000000001
 31
0.0
  0
LINE
  5
4D
  8
0
 62
     7
 10
90.026600000000002
 20
195.13
 30
0.0
 11
90.814499999999995
 21
195.13
 31
0.0
  0
LINE
  5
4E
  8
0
 62
     7
 10
90.814499999999995
 20
195.047
 30
0.0
 11
90.026600000000002
 21
195.047
 31
0.0
  0
LINE
  5
4F
  8
0
 62
     7
 10
90.026600000000002
 20
208.14500000000001
 30
0.0
 11
90.814499999999995
 21
208.14500000000001
 31
0.0
  0
LINE
  5
50
  8
0
 62
     7
 10
90.814499999999995
 20
208.07499999999999
 30
0.0
 11
90.026600000000002
 21
208.07499999999999
 31
0.0
  0
LINE
  5
51
  8
0
 62
     7
 10
90.964399999999983
 20
195.173
 30
0.0
 11
90.849299999999985
 21
195.08799999999999
 31
0.0
  0
LINE
  5
52
  8
0
 62
     7
 10
90.814499999999995
 20
195.13
 30
0.0
 11
90.814499999999995
 21
195.047
 31
0.0
  0
LINE
  5
53
  8
0
 62
     7
 10
90.849299999999985
 20
195.155
 30
0.0
 11
90.964399999999983
 21
195.29900000000001
 31
0.0
  0
LINE
  5
54
  8
0
 62
     7
 10
90.016300000000001
 20
195.155
 30
0.0
 11
90.849299999999985
 21
195.155
 31
0.0
  0
LINE
  5
55
  8
0
 62
     7
 10
90.024500000000003
 20
208.07400000000001
 30
0.0
 11
90.816599999999994
 21
208.07400000000001
 31
0.0
  0
LINE
  5
56
  8
0
 62
     7
 10
90.026600000000002
 20
195.29300000000001
 30
0.0
 11
90.814499999999995
 21
195.29300000000001
 31
0.0
  0
LINE
  5
57
  8
0
 62
     7
 10
90.814499999999995
 20
195.19
 30
0.0
 11
90.026600000000002
 21
195.19
 31
0.0
  0
LINE
  5
58
  8
0
 62
     7
 10
90.026600000000002
 20
207.99700000000001
 30
0.0
 11
90.814499999999995
 21
207.99700000000001
 31
0.0
  0
LINE
  5
59
  8
0
 62
     7
 10
90.814499999999995
 20
207.91
 30
0.0
 11
90.026600000000002
 21
207.91
 31
0.0
  0
LINE
  5
5A
  8
0
 62
     7
 10
90.964399999999983
 20
195.30500000000001
 30
0.0
 11
90.849299999999985
 21
195.23099999999999
 31
0.0
  0
LINE
  5
5B
  8
0
 62
     7
 10
90.814499999999995
 20
195.29300000000001
 30
0.0
 11
90.814499999999995
 21
195.19
 31
0.0
  0
LINE
  5
5C
  8
0
 62
     7
 10
90.849299999999985
 20
195.315
 30
0.0
 11
90.964399999999983
 21
195.465
 31
0.0
  0
LINE
  5
5D
  8
0
 62
     7
 10
90.016300000000001
 20
195.315
 30
0.0
 11
90.849299999999985
 21
195.315
 31
0.0
  0
LINE
  5
5E
  8
0
 62
     7
 10
90.024500000000003
 20
207.90899999999999
 30
0.0
 11
90.816599999999994
 21
207.90899999999999
 31
0.0
  0
LINE
  5
5F
  8
0
 62
     7
 10
90.026600000000002
 20
195.49100000000001
 30
0.0
 11
90.814499999999995
 21
195.49100000000001
 31
0.0
  0
LINE
  5
60
  8
0
 62
     7
 10
90.814499999999995
 20
195.36699999999999
 30
0.0
 11
90.026600000000002
 21
195.36699999999999
 31
0.0
  0
LINE
  5
61
  8
0
 62
     7
 10
90.026600000000002
 20
207.816
 30
0.0
 11
90.814499999999995
 21
207.816
 31
0.0
  0
LINE
  5
62
  8
0
 62
     7
 10
90.814499999999995
 20
207.71100000000001
 30
0.0
 11
90.026600000000002
 21
207.71100000000001
 31
0.0
  0
LINE
  5
63
  8
0
 62
     7
 10
90.016300000000001
 20
195.50999999999999
 30
0.0
 11
90.849299999999985
 21
195.50999999999999
 31
0.0
  0
LINE
  5
64
  8
0
 62
     7
 10
90.849299999999985
 20
195.50999999999999
 30
0.0
 11
90.964399999999983
 21
195.66399999999999
 31
0.0
  0
LINE
  5
65
  8
0
 62
     7
 10
90.964399999999983
 20
195.4729999999999
 30
0.0
 11
90.849299999999985
 21
195.40899999999999
 31
0.0
  0
LINE
  5
66
  8
0
 62
     7
 10
90.814499999999995
 20
195.49100000000001
 30
0.0
 11
90.814499999999995
 21
195.36699999999999
 31
0.0
  0
LINE
  5
67
  8
0
 62
     7
 10
90.024500000000003
 20
207.709
 30
0.0
 11
90.816599999999994
 21
207.709
 31
0.0
  0
LINE
  5
68
  8
0
 62
     7
 10
90.026600000000002
 20
195.72200000000001
 30
0.0
 11
90.814499999999995
 21
195.72200000000001
 31
0.0
  0
LINE
  5
69
  8
0
 62
     7
 10
90.814499999999995
 20
195.578
 30
0.0
 11
90.026600000000002
 21
195.578
 31
0.0
  0
LINE
  5
6A
  8
0
 62
     7
 10
90.016300000000001
 20
195.738
 30
0.0
 11
90.847600000000014
 21
195.738
 31
0.0
  0
LINE
  5
6B
  8
0
 62
     7
 10
90.847600000000014
 20
195.738
 30
0.0
 11
90.964399999999983
 21
195.89699999999999
 31
0.0
  0
LINE
  5
6C
  8
0
 62
     7
 10
90.964399999999983
 20
195.67400000000001
 30
0.0
 11
90.849299999999985
 21
195.62200000000001
 31
0.0
  0
LINE
  5
6D
  8
0
 62
     7
 10
90.814499999999995
 20
195.72200000000001
 30
0.0
 11
90.814499999999995
 21
195.578
 31
0.0
  0
LINE
  5
6E
  8
0
 62
     7
 10
90.026600000000002
 20
207.59899999999999
 30
0.0
 11
90.814499999999995
 21
207.59899999999999
 31
0.0
  0
LINE
  5
6F
  8
0
 62
     7
 10
90.814499999999995
 20
207.47800000000001
 30
0.0
 11
90.026600000000002
 21
207.47800000000001
 31
0.0
  0
LINE
  5
70
  8
0
 62
     7
 10
90.024500000000003
 20
207.477
 30
0.0
 11
90.818299999999994
 21
207.477
 31
0.0
  0
LINE
  5
71
  8
0
 62
     7
 10
90.016300000000001
 20
195.999
 30
0.0
 11
90.847600000000014
 21
195.999
 31
0.0
  0
LINE
  5
72
  8
0
 62
     7
 10
90.847600000000014
 20
195.999
 30
0.0
 11
90.964399999999983
 21
196.161
 31
0.0
  0
LINE
  5
73
  8
0
 62
     7
 10
90.964399999999983
 20
195.90700000000001
 30
0.0
 11
90.847600000000014
 21
195.86600000000001
 31
0.0
  0
LINE
  5
74
  8
0
 62
     7
 10
90.026600000000002
 20
195.98599999999999
 30
0.0
 11
90.814499999999995
 21
195.98599999999999
 31
0.0
  0
LINE
  5
75
  8
0
 62
     7
 10
90.814499999999995
 20
195.98599999999999
 30
0.0
 11
90.814499999999995
 21
195.82400000000001
 31
0.0
  0
LINE
  5
76
  8
0
 62
     7
 10
90.814499999999995
 20
195.82400000000001
 30
0.0
 11
90.026600000000002
 21
195.82400000000001
 31
0.0
  0
LINE
  5
77
  8
0
 62
     7
 10
90.026600000000002
 20
207.352
 30
0.0
 11
90.814499999999995
 21
207.352
 31
0.0
  0
LINE
  5
78
  8
0
 62
     7
 10
90.814499999999995
 20
207.21299999999999
 30
0.0
 11
90.026600000000002
 21
207.21299999999999
 31
0.0
  0
LINE
  5
79
  8
0
 62
     7
 10
90.024500000000003
 20
207.21199999999999
 30
0.0
 11
90.818299999999994
 21
207.21199999999999
 31
0.0
  0
LINE
  5
7A
  8
0
 62
     7
 10
90.026600000000002
 20
196.28099999999989
 30
0.0
 11
90.814499999999995
 21
196.28099999999989
 31
0.0
  0
LINE
  5
7B
  8
0
 62
     7
 10
90.814499999999995
 20
196.09999999999999
 30
0.0
 11
90.026600000000002
 21
196.09999999999999
 31
0.0
  0
LINE
  5
7C
  8
0
 62
     7
 10
90.964399999999983
 20
196.172
 30
0.0
 11
90.847600000000014
 21
196.14099999999999
 31
0.0
  0
LINE
  5
7D
  8
0
 62
     7
 10
90.814499999999995
 20
196.28099999999989
 30
0.0
 11
90.814499999999995
 21
196.09999999999999
 31
0.0
  0
LINE
  5
7E
  8
0
 62
     7
 10
90.847600000000014
 20
196.28999999999999
 30
0.0
 11
90.964399999999983
 21
196.45500000000001
 31
0.0
  0
LINE
  5
7F
  8
0
 62
     7
 10
90.016300000000001
 20
196.28999999999999
 30
0.0
 11
90.847600000000014
 21
196.28999999999999
 31
0.0
  0
LINE
  5
80
  8
0
 62
     7
 10
90.026600000000002
 20
207.07300000000001
 30
0.0
 11
90.814499999999995
 21
207.07300000000001
 31
0.0
  0
LINE
  5
81
  8
0
 62
     7
 10
90.814499999999995
 20
206.91800000000001
 30
0.0
 11
90.026600000000002
 21
206.91800000000001
 31
0.0
  0
LINE
  5
82
  8
0
 62
     7
 10
90.024500000000003
 20
206.916
 30
0.0
 11
90.818299999999994
 21
206.916
 31
0.0
  0
LINE
  5
83
  8
0
 62
     7
 10
90.016300000000001
 20
196.61000000000001
 30
0.0
 11
90.845500000000001
 21
196.61000000000001
 31
0.0
  0
LINE
  5
84
  8
0
 62
     7
 10
90.845500000000001
 20
196.61000000000001
 30
0.0
 11
90.964399999999983
 21
196.77799999999999
 31
0.0
  0
LINE
  5
85
  8
0
 62
     7
 10
90.964399999999983
 20
196.46600000000001
 30
0.0
 11
90.845500000000001
 21
196.447
 31
0.0
  0
LINE
  5
86
  8
0
 62
     7
 10
90.026600000000002
 20
196.60400000000001
 30
0.0
 11
90.814499999999995
 21
196.60400000000001
 31
0.0
  0
LINE
  5
87
  8
0
 62
     7
 10
90.814499999999995
 20
196.60400000000001
 30
0.0
 11
90.814499999999995
 21
196.40700000000001
 31
0.0
  0
LINE
  5
88
  8
0
 62
     7
 10
90.814499999999995
 20
196.40700000000001
 30
0.0
 11
90.026600000000002
 21
196.40700000000001
 31
0.0
  0
LINE
  5
89
  8
0
 62
     7
 10
90.026600000000002
 20
206.76400000000001
 30
0.0
 11
90.814499999999995
 21
206.76400000000001
 31
0.0
  0
LINE
  5
8A
  8
0
 62
     7
 10
90.814499999999995
 20
206.59299999999999
 30
0.0
 11
90.026600000000002
 21
206.59299999999999
 31
0.0
  0
LINE
  5
8B
  8
0
 62
     7
 10
90.024500000000003
 20
206.59200000000001
 30
0.0
 11
90.819699999999997
 21
206.59200000000001
 31
0.0
  0
LINE
  5
8C
  8
0
 62
     7
 10
90.016300000000001
 20
196.959
 30
0.0
 11
90.845500000000001
 21
196.959
 31
0.0
  0
LINE
  5
8D
  8
0
 62
     7
 10
90.845500000000001
 20
196.959
 30
0.0
 11
90.964399999999983
 21
197.126
 31
0.0
  0
LINE
  5
8E
  8
0
 62
     7
 10
90.964399999999983
 20
196.78800000000001
 30
0.0
 11
90.845500000000001
 21
196.78200000000001
 31
0.0
  0
LINE
  5
8F
  8
0
 62
     7
 10
90.026600000000002
 20
196.95400000000001
 30
0.0
 11
90.814499999999995
 21
196.95400000000001
 31
0.0
  0
LINE
  5
90
  8
0
 62
     7
 10
90.814499999999995
 20
196.95400000000001
 30
0.0
 11
90.814499999999995
 21
196.74299999999999
 31
0.0
  0
LINE
  5
91
  8
0
 62
     7
 10
90.814499999999995
 20
196.74299999999999
 30
0.0
 11
90.026600000000002
 21
196.74299999999999
 31
0.0
  0
LINE
  5
92
  8
0
 62
     7
 10
90.026600000000002
 20
206.42599999999999
 30
0.0
 11
90.814499999999995
 21
206.42599999999999
 31
0.0
  0
LINE
  5
93
  8
0
 62
     7
 10
90.814499999999995
 20
206.24199999999999
 30
0.0
 11
90.026600000000002
 21
206.24199999999999
 31
0.0
  0
LINE
  5
94
  8
0
 62
     7
 10
90.024500000000003
 20
206.24000000000001
 30
0.0
 11
90.819699999999997
 21
206.24000000000001
 31
0.0
  0
LINE
  5
95
  8
0
 62
     7
 10
90.838999999999984
 20
197.13499999999999
 30
0.0
 11
90.964399999999983
 21
197.13499999999999
 31
0.0
  0
LINE
  5
96
  8
0
 62
     7
 10
89.955600000000004
 20
197.13499999999999
 30
0.0
 11
90.017600000000002
 21
197.13499999999999
 31
0.0
  0
LINE
  5
97
  8
0
 62
     7
 10
89.971100000000007
 20
206.06399999999999
 30
0.0
 11
90.947500000000005
 21
206.06399999999999
 31
0.0
  0
LINE
  5
98
  8
0
 62
     7
 10
90.017600000000002
 20
197.33099999999999
 30
0.0
 11
90.844099999999997
 21
197.33099999999999
 31
0.0
  0
LINE
  5
99
  8
0
 62
     7
 10
90.844099999999997
 20
197.33099999999999
 30
0.0
 11
90.964399999999983
 21
197.50099999999989
 31
0.0
  0
LINE
  5
9A
  8
0
 62
     7
 10
90.964399999999983
 20
197.13499999999999
 30
0.0
 11
90.844099999999997
 21
197.142
 31
0.0
  0
LINE
  5
9B
  8
0
 62
     7
 10
90.026600000000002
 20
197.33099999999999
 30
0.0
 11
90.814499999999995
 21
197.33099999999999
 31
0.0
  0
LINE
  5
9C
  8
0
 62
     7
 10
90.814499999999995
 20
197.33099999999999
 30
0.0
 11
90.814499999999995
 21
197.10499999999999
 31
0.0
  0
LINE
  5
9D
  8
0
 62
     7
 10
90.814499999999995
 20
197.10499999999999
 30
0.0
 11
90.026600000000002
 21
197.10499999999999
 31
0.0
  0
LINE
  5
9E
  8
0
 62
     7
 10
90.026600000000002
 20
206.06399999999999
 30
0.0
 11
90.814499999999995
 21
206.06399999999999
 31
0.0
  0
LINE
  5
9F
  8
0
 62
     7
 10
90.814499999999995
 20
205.86500000000001
 30
0.0
 11
90.026600000000002
 21
205.86500000000001
 31
0.0
  0
LINE
  5
A0
  8
0
 62
     7
 10
90.022800000000004
 20
205.86500000000001
 30
0.0
 11
90.821700000000007
 21
205.86500000000001
 31
0.0
  0
LINE
  5
A1
  8
0
 62
     7
 10
90.826599999999999
 20
197.50800000000001
 30
0.0
 11
90.964399999999983
 21
197.50800000000001
 31
0.0
  0
LINE
  5
A2
  8
0
 62
     7
 10
89.955600000000004
 20
197.50800000000001
 30
0.0
 11
90.0214
 21
197.50800000000001
 31
0.0
  0
LINE
  5
A3
  8
0
 62
     7
 10
89.969099999999983
 20
205.68799999999999
 30
0.0
 11
90.948899999999995
 21
205.68799999999999
 31
0.0
  0
LINE
  5
A4
  8
0
 62
     7
 10
90.842399999999984
 20
197.72900000000001
 30
0.0
 11
90.964399999999983
 21
197.89599999999999
 31
0.0
  0
LINE
  5
A5
  8
0
 62
     7
 10
90.964399999999983
 20
197.50800000000001
 30
0.0
 11
90.844099999999997
 21
197.52799999999999
 31
0.0
  0
LINE
  5
A6
  8
0
 62
     7
 10
90.026600000000002
 20
197.73099999999999
 30
0.0
 11
90.814499999999995
 21
197.73099999999999
 31
0.0
  0
LINE
  5
A7
  8
0
 62
     7
 10
90.814499999999995
 20
197.73099999999999
 30
0.0
 11
90.814499999999995
 21
197.49199999999999
 31
0.0
  0
LINE
  5
A8
  8
0
 62
     7
 10
90.814499999999995
 20
197.49199999999999
 30
0.0
 11
90.026600000000002
 21
197.49199999999999
 31
0.0
  0
LINE
  5
A9
  8
0
 62
     7
 10
90.814499999999995
 20
205.464
 30
0.0
 11
90.026600000000002
 21
205.464
 31
0.0
  0
LINE
  5
AA
  8
0
 62
     7
 10
90.026600000000002
 20
205.67699999999999
 30
0.0
 11
90.814499999999995
 21
205.67699999999999
 31
0.0
  0
LINE
  5
AB
  8
0
 62
     7
 10
90.814499999999995
 20
197.90199999999999
 30
0.0
 11
90.964399999999983
 21
197.90199999999999
 31
0.0
  0
LINE
  5
AC
  8
0
 62
     7
 10
89.957400000000007
 20
197.90199999999999
 30
0.0
 11
90.026600000000002
 21
197.90199999999999
 31
0.0
  0
LINE
  5
AD
  8
0
 62
     7
 10
89.969099999999983
 20
205.291
 30
0.0
 11
90.948899999999995
 21
205.291
 31
0.0
  0
LINE
  5
AE
  8
0
 62
     7
 10
90.842399999999984
 20
198.14599999999999
 30
0.0
 11
90.964399999999983
 21
198.31399999999999
 31
0.0
  0
LINE
  5
AF
  8
0
 62
     7
 10
90.964399999999983
 20
197.904
 30
0.0
 11
90.842399999999984
 21
197.935
 31
0.0
  0
LINE
  5
B0
  8
0
 62
     7
 10
90.026600000000002
 20
198.15000000000001
 30
0.0
 11
90.814499999999995
 21
198.15000000000001
 31
0.0
  0
LINE
  5
B1
  8
0
 62
     7
 10
90.814499999999995
 20
198.15000000000001
 30
0.0
 11
90.814499999999995
 21
197.90199999999999
 31
0.0
  0
LINE
  5
B2
  8
0
 62
     7
 10
90.814499999999995
 20
197.90199999999999
 30
0.0
 11
90.026600000000002
 21
197.90199999999999
 31
0.0
  0
LINE
  5
B3
  8
0
 62
     7
 10
90.814499999999995
 20
205.042
 30
0.0
 11
90.026600000000002
 21
205.042
 31
0.0
  0
LINE
  5
B4
  8
0
 62
     7
 10
90.026600000000002
 20
205.267
 30
0.0
 11
90.814499999999995
 21
205.267
 31
0.0
  0
LINE
  5
B5
  8
0
 62
     7
 10
89.957400000000007
 20
198.31800000000001
 30
0.0
 11
90.964399999999983
 21
198.31800000000001
 31
0.0
  0
LINE
  5
B6
  8
0
 62
     7
 10
89.967699999999994
 20
204.87299999999999
 30
0.0
 11
90.950900000000004
 21
204.87299999999999
 31
0.0
  0
LINE
  5
B7
  8
0
 62
     7
 10
90.026600000000002
 20
204.83699999999999
 30
0.0
 11
90.814499999999995
 21
204.83699999999999
 31
0.0
  0
LINE
  5
B8
  8
0
 62
     7
 10
90.814499999999995
 20
204.602
 30
0.0
 11
90.026600000000002
 21
204.602
 31
0.0
  0
LINE
  5
B9
  8
0
 62
     7
 10
90.026600000000002
 20
198.59100000000001
 30
0.0
 11
90.814499999999995
 21
198.59100000000001
 31
0.0
  0
LINE
  5
BA
  8
0
 62
     7
 10
90.814499999999995
 20
198.33199999999999
 30
0.0
 11
90.026600000000002
 21
198.33199999999999
 31
0.0
  0
LINE
  5
BB
  8
0
 62
     7
 10
90.840299999999999
 20
198.583
 30
0.0
 11
90.964399999999983
 21
198.74700000000001
 31
0.0
  0
LINE
  5
BC
  8
0
 62
     7
 10
90.964399999999983
 20
198.31899999999999
 30
0.0
 11
90.842399999999984
 21
198.363
 31
0.0
  0
LINE
  5
BD
  8
0
 62
     7
 10
90.814499999999995
 20
198.59100000000001
 30
0.0
 11
90.814499999999995
 21
198.33199999999999
 31
0.0
  0
LINE
  5
BE
  8
0
 62
     7
 10
89.957400000000007
 20
198.751
 30
0.0
 11
90.964399999999983
 21
198.751
 31
0.0
  0
LINE
  5
BF
  8
0
 62
     7
 10
89.967699999999994
 20
204.43799999999999
 30
0.0
 11
90.952600000000004
 21
204.43799999999999
 31
0.0
  0
LINE
  5
C0
  8
0
 62
     7
 10
90.026600000000002
 20
204.38999999999999
 30
0.0
 11
90.814499999999995
 21
204.38999999999999
 31
0.0
  0
LINE
  5
C1
  8
0
 62
     7
 10
90.814499999999995
 20
204.14400000000001
 30
0.0
 11
90.026600000000002
 21
204.14400000000001
 31
0.0
  0
LINE
  5
C2
  8
0
 62
     7
 10
90.026600000000002
 20
199.04499999999999
 30
0.0
 11
90.814499999999995
 21
199.04499999999999
 31
0.0
  0
LINE
  5
C3
  8
0
 62
     7
 10
90.814499999999995
 20
198.779
 30
0.0
 11
90.026600000000002
 21
198.779
 31
0.0
  0
LINE
  5
C4
  8
0
 62
     7
 10
90.840299999999999
 20
199.03700000000001
 30
0.0
 11
90.964399999999983
 21
199.19800000000001
 31
0.0
  0
LINE
  5
C5
  8
0
 62
     7
 10
90.964399999999983
 20
198.751
 30
0.0
 11
90.840299999999999
 21
198.809
 31
0.0
  0
LINE
  5
C6
  8
0
 62
     7
 10
90.814499999999995
 20
199.04499999999999
 30
0.0
 11
90.814499999999995
 21
198.779
 31
0.0
  0
LINE
  5
C7
  8
0
 62
     7
 10
89.959400000000002
 20
199.19800000000001
 30
0.0
 11
90.964399999999983
 21
199.19800000000001
 31
0.0
  0
LINE
  5
C8
  8
0
 62
     7
 10
89.967699999999994
 20
203.98599999999999
 30
0.0
 11
90.952600000000004
 21
203.98599999999999
 31
0.0
  0
LINE
  5
C9
  8
0
 62
     7
 10
90.026600000000002
 20
203.928
 30
0.0
 11
90.814499999999995
 21
203.928
 31
0.0
  0
LINE
  5
CA
  8
0
 62
     7
 10
90.814499999999995
 20
203.67400000000001
 30
0.0
 11
90.026600000000002
 21
203.67400000000001
 31
0.0
  0
LINE
  5
CB
  8
0
 62
     7
 10
90.026600000000002
 20
199.51499999999999
 30
0.0
 11
90.814499999999995
 21
199.51499999999999
 31
0.0
  0
LINE
  5
CC
  8
0
 62
     7
 10
90.814499999999995
 20
199.24299999999999
 30
0.0
 11
90.026600000000002
 21
199.24299999999999
 31
0.0
  0
LINE
  5
CD
  8
0
 62
     7
 10
89.959400000000002
 20
199.661
 30
0.0
 11
90.964399999999983
 21
199.661
 31
0.0
  0
LINE
  5
CE
  8
0
 62
     7
 10
89.965999999999994
 20
203.523
 30
0.0
 11
90.953999999999994
 21
203.523
 31
0.0
  0
LINE
  5
CF
  8
0
 62
     7
 10
90.814499999999995
 20
203.191
 30
0.0
 11
90.026600000000002
 21
203.191
 31
0.0
  0
LINE
  5
D0
  8
0
 62
     7
 10
90.026600000000002
 20
203.453
 30
0.0
 11
90.814499999999995
 21
203.453
 31
0.0
  0
LINE
  5
D1
  8
0
 62
     7
 10
90.026600000000002
 20
199.99600000000001
 30
0.0
 11
90.814499999999995
 21
199.99600000000001
 31
0.0
  0
LINE
  5
D2
  8
0
 62
     7
 10
90.814499999999995
 20
199.71899999999999
 30
0.0
 11
90.026600000000002
 21
199.71899999999999
 31
0.0
  0
LINE
  5
D3
  8
0
 62
     7
 10
89.960800000000006
 20
200.13399999999999
 30
0.0
 11
90.962999999999994
 21
200.13399999999999
 31
0.0
  0
LINE
  5
D4
  8
0
 62
     7
 10
89.965999999999994
 20
203.04900000000001
 30
0.0
 11
90.956100000000006
 21
203.04900000000001
 31
0.0
  0
LINE
  5
D5
  8
0
 62
     7
 10
90.026600000000002
 20
202.96700000000001
 30
0.0
 11
90.814499999999995
 21
202.96700000000001
 31
0.0
  0
LINE
  5
D6
  8
0
 62
     7
 10
90.814499999999995
 20
202.69999999999999
 30
0.0
 11
90.026600000000002
 21
202.69999999999999
 31
0.0
  0
LINE
  5
D7
  8
0
 62
     7
 10
90.026600000000002
 20
200.48400000000001
 30
0.0
 11
90.814499999999995
 21
200.48400000000001
 31
0.0
  0
LINE
  5
D8
  8
0
 62
     7
 10
90.814499999999995
 20
200.20599999999999
 30
0.0
 11
90.026600000000002
 21
200.20599999999999
 31
0.0
  0
LINE
  5
D9
  8
0
 62
     7
 10
89.960800000000006
 20
200.614
 30
0.0
 11
90.962999999999994
 21
200.614
 31
0.0
  0
LINE
  5
DA
  8
0
 62
     7
 10
89.964600000000004
 20
202.56800000000001
 30
0.0
 11
90.957800000000006
 21
202.56800000000001
 31
0.0
  0
LINE
  5
DB
  8
0
 62
     7
 10
87.964699999999993
 20
196.09
 30
0.0
 11
87.964699999999993
 21
207.124
 31
0.0
  0
LINE
  5
DC
  8
0
 62
     7
 10
89.964600000000004
 20
202.08000000000001
 30
0.0
 11
90.957800000000006
 21
202.08000000000001
 31
0.0
  0
LINE
  5
DD
  8
0
 62
     7
 10
90.026600000000002
 20
202.477
 30
0.0
 11
90.814499999999995
 21
202.477
 31
0.0
  0
LINE
  5
DE
  8
0
 62
     7
 10
90.814499999999995
 20
202.202
 30
0.0
 11
90.026600000000002
 21
202.202
 31
0.0
  0
LINE
  5
DF
  8
0
 62
     7
 10
89.962500000000006
 20
201.101
 30
0.0
 11
90.961299999999994
 21
201.101
 31
0.0
  0
LINE
  5
E0
  8
0
 62
     7
 10
90.026600000000002
 20
200.97999999999999
 30
0.0
 11
90.814499999999995
 21
200.97999999999999
 31
0.0
  0
LINE
  5
E1
  8
0
 62
     7
 10
90.814499999999995
 20
200.69999999999999
 30
0.0
 11
90.026600000000002
 21
200.69999999999999
 31
0.0
  0
LINE
  5
E2
  8
0
 62
     7
 10
89.962500000000006
 20
201.59
 30
0.0
 11
90.959199999999996
 21
201.59
 31
0.0
  0
LINE
  5
E3
  8
0
 62
     7
 10
90.026600000000002
 20
201.97800000000001
 30
0.0
 11
90.814499999999995
 21
201.97800000000001
 31
0.0
  0
LINE
  5
E4
  8
0
 62
     7
 10
90.814499999999995
 20
201.69999999999999
 30
0.0
 11
90.026600000000002
 21
201.69999999999999
 31
0.0
  0
LINE
  5
E5
  8
0
 62
     7
 10
90.026600000000002
 20
201.47800000000001
 30
0.0
 11
90.814499999999995
 21
201.47800000000001
 31
0.0
  0
LINE
  5
E6
  8
0
 62
     7
 10
90.814499999999995
 20
201.19900000000001
 30
0.0
 11
90.026600000000002
 21
201.19900000000001
 31
0.0
  0
LINE
  5
E7
  8
0
 62
     7
 10
90.814499999999995
 20
208.37100000000001
 30
0.0
 11
90.940600000000003
 21
208.249
 31
0.0
  0
LINE
  5
E8
  8
0
 62
     7
 10
90.940600000000003
 20
208.249
 30
0.0
 11
90.814499999999995
 21
208.37700000000001
 31
0.0
  0
LINE
  5
E9
  8
0
 62
     7
 10
90.964399999999983
 20
199.19999999999999
 30
0.0
 11
90.838999999999984
 21
199.27099999999999
 31
0.0
  0
LINE
  5
EA
  8
0
 62
     7
 10
90.814499999999995
 20
199.51499999999999
 30
0.0
 11
90.814499999999995
 21
199.24299999999999
 31
0.0
  0
LINE
  5
EB
  8
0
 62
     7
 10
90.838999999999984
 20
199.50399999999999
 30
0.0
 11
90.964399999999983
 21
199.661
 31
0.0
  0
LINE
  5
EC
  8
0
 62
     7
 10
90.964399999999983
 20
199.661
 30
0.0
 11
90.837199999999996
 21
199.744
 31
0.0
  0
LINE
  5
ED
  8
0
 62
     7
 10
90.814499999999995
 20
199.99600000000001
 30
0.0
 11
90.814499999999995
 21
199.71899999999999
 31
0.0
  0
LINE
  5
EE
  8
0
 62
     7
 10
90.837199999999996
 20
199.98400000000001
 30
0.0
 11
90.962999999999994
 21
200.13399999999999
 31
0.0
  0
LINE
  5
EF
  8
0
 62
     7
 10
90.962999999999994
 20
200.13399999999999
 30
0.0
 11
90.837199999999996
 21
200.22800000000001
 31
0.0
  0
LINE
  5
F0
  8
0
 62
     7
 10
90.814499999999995
 20
200.48400000000001
 30
0.0
 11
90.814499999999995
 21
200.20599999999999
 31
0.0
  0
LINE
  5
F1
  8
0
 62
     7
 10
90.8352
 20
200.47200000000001
 30
0.0
 11
90.962999999999994
 21
200.614
 31
0.0
  0
LINE
  5
F2
  8
0
 62
     7
 10
90.962999999999994
 20
200.614
 30
0.0
 11
90.8352
 21
200.71899999999999
 31
0.0
  0
LINE
  5
F3
  8
0
 62
     7
 10
90.814499999999995
 20
200.97999999999999
 30
0.0
 11
90.814499999999995
 21
200.69999999999999
 31
0.0
  0
LINE
  5
F4
  8
0
 62
     7
 10
90.8352
 20
200.96600000000001
 30
0.0
 11
90.961299999999994
 21
201.101
 31
0.0
  0
LINE
  5
F5
  8
0
 62
     7
 10
90.961299999999994
 20
201.101
 30
0.0
 11
90.833799999999997
 21
201.21600000000001
 31
0.0
  0
LINE
  5
F6
  8
0
 62
     7
 10
90.814499999999995
 20
201.47800000000001
 30
0.0
 11
90.814499999999995
 21
201.19900000000001
 31
0.0
  0
LINE
  5
F7
  8
0
 62
     7
 10
90.833799999999997
 20
201.464
 30
0.0
 11
90.959199999999996
 21
201.59
 31
0.0
  0
LINE
  5
F8
  8
0
 62
     7
 10
90.959199999999996
 20
201.59
 30
0.0
 11
90.832099999999997
 21
201.715
 31
0.0
  0
LINE
  5
F9
  8
0
 62
     7
 10
90.814499999999995
 20
201.97800000000001
 30
0.0
 11
90.814499999999995
 21
201.69999999999999
 31
0.0
  0
LINE
  5
FA
  8
0
 62
     7
 10
90.832099999999997
 20
201.96299999999999
 30
0.0
 11
90.957800000000006
 21
202.08000000000001
 31
0.0
  0
LINE
  5
FB
  8
0
 62
     7
 10
90.957800000000006
 20
202.08000000000001
 30
0.0
 11
90.832099999999997
 21
202.214
 31
0.0
  0
LINE
  5
FC
  8
0
 62
     7
 10
90.814499999999995
 20
202.477
 30
0.0
 11
90.814499999999995
 21
202.202
 31
0.0
  0
LINE
  5
FD
  8
0
 62
     7
 10
90.829999999999998
 20
202.46100000000001
 30
0.0
 11
90.957800000000006
 21
202.56800000000001
 31
0.0
  0
LINE
  5
FE
  8
0
 62
     7
 10
90.957800000000006
 20
202.56800000000001
 30
0.0
 11
90.829999999999998
 21
202.709
 31
0.0
  0
LINE
  5
FF
  8
0
 62
     7
 10
90.814499999999995
 20
202.96700000000001
 30
0.0
 11
90.814499999999995
 21
202.69999999999999
 31
0.0
  0
LINE
  5
100
  8
0
 62
     7
 10
90.829999999999998
 20
202.95400000000001
 30
0.0
 11
90.956100000000006
 21
203.04900000000001
 31
0.0
  0
LINE
  5
101
  8
0
 62
     7
 10
90.956100000000006
 20
203.04900000000001
 30
0.0
 11
90.828599999999994
 21
203.19800000000001
 31
0.0
  0
LINE
  5
102
  8
0
 62
     7
 10
90.814499999999995
 20
203.453
 30
0.0
 11
90.814499999999995
 21
203.191
 31
0.0
  0
LINE
  5
103
  8
0
 62
     7
 10
90.828599999999994
 20
203.43899999999999
 30
0.0
 11
90.953999999999994
 21
203.523
 31
0.0
  0
LINE
  5
104
  8
0
 62
     7
 10
90.953999999999994
 20
203.523
 30
0.0
 11
90.828599999999994
 21
203.679
 31
0.0
  0
LINE
  5
105
  8
0
 62
     7
 10
90.814499999999995
 20
203.928
 30
0.0
 11
90.814499999999995
 21
203.67400000000001
 31
0.0
  0
LINE
  5
106
  8
0
 62
     7
 10
90.826599999999999
 20
203.91399999999999
 30
0.0
 11
90.952600000000004
 21
203.98599999999999
 31
0.0
  0
LINE
  5
107
  8
0
 62
     7
 10
90.952600000000004
 20
203.98599999999999
 30
0.0
 11
90.826599999999999
 21
204.149
 31
0.0
  0
LINE
  5
108
  8
0
 62
     7
 10
90.814499999999995
 20
204.38999999999999
 30
0.0
 11
90.814499999999995
 21
204.14400000000001
 31
0.0
  0
LINE
  5
109
  8
0
 62
     7
 10
90.824799999999996
 20
204.37700000000001
 30
0.0
 11
90.952600000000004
 21
204.43799999999999
 31
0.0
  0
LINE
  5
10A
  8
0
 62
     7
 10
90.952600000000004
 20
204.43799999999999
 30
0.0
 11
90.824799999999996
 21
204.60400000000001
 31
0.0
  0
LINE
  5
10B
  8
0
 62
     7
 10
90.814499999999995
 20
204.83699999999999
 30
0.0
 11
90.814499999999995
 21
204.602
 31
0.0
  0
LINE
  5
10C
  8
0
 62
     7
 10
90.824799999999996
 20
204.82499999999999
 30
0.0
 11
90.950900000000004
 21
204.87299999999999
 31
0.0
  0
LINE
  5
10D
  8
0
 62
     7
 10
90.950900000000004
 20
204.87299999999999
 30
0.0
 11
90.823499999999996
 21
205.04300000000001
 31
0.0
  0
LINE
  5
10E
  8
0
 62
     7
 10
90.814499999999995
 20
205.267
 30
0.0
 11
90.814499999999995
 21
205.042
 31
0.0
  0
LINE
  5
10F
  8
0
 62
     7
 10
90.823499999999996
 20
205.256
 30
0.0
 11
90.948899999999995
 21
205.291
 31
0.0
  0
LINE
  5
110
  8
0
 62
     7
 10
90.948899999999995
 20
205.291
 30
0.0
 11
90.823499999999996
 21
205.464
 31
0.0
  0
LINE
  5
111
  8
0
 62
     7
 10
90.814499999999995
 20
205.67699999999999
 30
0.0
 11
90.814499999999995
 21
205.464
 31
0.0
  0
LINE
  5
112
  8
0
 62
     7
 10
90.821700000000007
 20
205.666
 30
0.0
 11
90.948899999999995
 21
205.68799999999999
 31
0.0
  0
LINE
  5
113
  8
0
 62
     7
 10
90.948899999999995
 20
205.68799999999999
 30
0.0
 11
90.821700000000007
 21
205.86500000000001
 31
0.0
  0
LINE
  5
114
  8
0
 62
     7
 10
90.814499999999995
 20
206.06399999999999
 30
0.0
 11
90.814499999999995
 21
205.86500000000001
 31
0.0
  0
LINE
  5
115
  8
0
 62
     7
 10
90.821700000000007
 20
206.05500000000001
 30
0.0
 11
90.947500000000005
 21
206.06399999999999
 31
0.0
  0
LINE
  5
116
  8
0
 62
     7
 10
90.947500000000005
 20
206.06399999999999
 30
0.0
 11
90.819699999999997
 21
206.24000000000001
 31
0.0
  0
LINE
  5
117
  8
0
 62
     7
 10
90.814499999999995
 20
206.42599999999999
 30
0.0
 11
90.814499999999995
 21
206.24199999999999
 31
0.0
  0
LINE
  5
118
  8
0
 62
     7
 10
90.819699999999997
 20
206.41900000000001
 30
0.0
 11
90.945800000000006
 21
206.41499999999999
 31
0.0
  0
LINE
  5
119
  8
0
 62
     7
 10
90.945800000000006
 20
206.41499999999999
 30
0.0
 11
90.819699999999997
 21
206.59200000000001
 31
0.0
  0
LINE
  5
11A
  8
0
 62
     7
 10
90.814499999999995
 20
206.76400000000001
 30
0.0
 11
90.814499999999995
 21
206.59299999999999
 31
0.0
  0
LINE
  5
11B
  8
0
 62
     7
 10
90.819699999999997
 20
206.756
 30
0.0
 11
90.945800000000006
 21
206.74000000000001
 31
0.0
  0
LINE
  5
11C
  8
0
 62
     7
 10
90.945800000000006
 20
206.74000000000001
 30
0.0
 11
90.818299999999994
 21
206.916
 31
0.0
  0
LINE
  5
11D
  8
0
 62
     7
 10
90.814499999999995
 20
207.07300000000001
 30
0.0
 11
90.814499999999995
 21
206.91800000000001
 31
0.0
  0
LINE
  5
11E
  8
0
 62
     7
 10
90.818299999999994
 20
207.06700000000001
 30
0.0
 11
90.945800000000006
 21
207.03700000000001
 31
0.0
  0
LINE
  5
11F
  8
0
 62
     7
 10
90.945800000000006
 20
207.03700000000001
 30
0.0
 11
90.818299999999994
 21
207.21199999999999
 31
0.0
  0
LINE
  5
120
  8
0
 62
     7
 10
90.814499999999995
 20
207.352
 30
0.0
 11
90.814499999999995
 21
207.21299999999999
 31
0.0
  0
LINE
  5
121
  8
0
 62
     7
 10
90.818299999999994
 20
207.34700000000001
 30
0.0
 11
90.943700000000007
 21
207.304
 31
0.0
  0
LINE
  5
122
  8
0
 62
     7
 10
90.943700000000007
 20
207.304
 30
0.0
 11
90.818299999999994
 21
207.477
 31
0.0
  0
LINE
  5
123
  8
0
 62
     7
 10
90.814499999999995
 20
207.59899999999999
 30
0.0
 11
90.814499999999995
 21
207.47800000000001
 31
0.0
  0
LINE
  5
124
  8
0
 62
     7
 10
90.816599999999994
 20
207.59700000000001
 30
0.0
 11
90.943700000000007
 21
207.53999999999999
 31
0.0
  0
LINE
  5
125
  8
0
 62
     7
 10
90.943700000000007
 20
207.53999999999999
 30
0.0
 11
90.816599999999994
 21
207.709
 31
0.0
  0
LINE
  5
126
  8
0
 62
     7
 10
90.814499999999995
 20
207.816
 30
0.0
 11
90.814499999999995
 21
207.71100000000001
 31
0.0
  0
LINE
  5
127
  8
0
 62
     7
 10
90.816599999999994
 20
207.81299999999999
 30
0.0
 11
90.942300000000003
 21
207.744
 31
0.0
  0
LINE
  5
128
  8
0
 62
     7
 10
90.942300000000003
 20
207.744
 30
0.0
 11
90.816599999999994
 21
207.90899999999999
 31
0.0
  0
LINE
  5
129
  8
0
 62
     7
 10
90.814499999999995
 20
207.99700000000001
 30
0.0
 11
90.814499999999995
 21
207.91
 31
0.0
  0
LINE
  5
12A
  8
0
 62
     7
 10
90.816599999999994
 20
207.994
 30
0.0
 11
90.942300000000003
 21
207.916
 31
0.0
  0
LINE
  5
12B
  8
0
 62
     7
 10
90.942300000000003
 20
207.916
 30
0.0
 11
90.816599999999994
 21
208.07400000000001
 31
0.0
  0
LINE
  5
12C
  8
0
 62
     7
 10
90.814499999999995
 20
208.14500000000001
 30
0.0
 11
90.814499999999995
 21
208.07499999999999
 31
0.0
  0
LINE
  5
12D
  8
0
 62
     7
 10
90.814499999999995
 20
208.143
 30
0.0
 11
90.942300000000003
 21
208.05199999999999
 31
0.0
  0
LINE
  5
12E
  8
0
 62
     7
 10
90.942300000000003
 20
208.05199999999999
 30
0.0
 11
90.814499999999995
 21
208.20500000000001
 31
0.0
  0
LINE
  5
12F
  8
0
 62
     7
 10
90.814499999999995
 20
208.255
 30
0.0
 11
90.942300000000003
 21
208.154
 31
0.0
  0
LINE
  5
130
  8
0
 62
     7
 10
90.942300000000003
 20
208.154
 30
0.0
 11
90.814499999999995
 21
208.298
 31
0.0
  0
LINE
  5
131
  8
0
 62
     7
 10
90.814499999999995
 20
208.33199999999999
 30
0.0
 11
90.940600000000003
 21
208.21899999999999
 31
0.0
  0
LINE
  5
132
  8
0
 62
     7
 10
90.940600000000003
 20
208.21899999999999
 30
0.0
 11
90.814499999999995
 21
208.35599999999999
 31
0.0
  0
LINE
  5
133
  8
0
 62
     7
 10
90.026600000000002
 20
208.298
 30
0.0
 11
89.974900000000005
 21
208.154
 31
0.0
  0
LINE
  5
134
  8
0
 62
     7
 10
89.974900000000005
 20
208.154
 30
0.0
 11
90.026600000000002
 21
208.255
 31
0.0
  0
LINE
  5
135
  8
0
 62
     7
 10
90.026600000000002
 20
208.20500000000001
 30
0.0
 11
89.972899999999996
 21
208.05199999999999
 31
0.0
  0
LINE
  5
136
  8
0
 62
     7
 10
89.972899999999996
 20
208.05199999999999
 30
0.0
 11
90.024500000000003
 21
208.143
 31
0.0
  0
LINE
  5
137
  8
0
 62
     7
 10
90.026600000000002
 20
208.07499999999999
 30
0.0
 11
90.026600000000002
 21
208.14500000000001
 31
0.0
  0
LINE
  5
138
  8
0
 62
     7
 10
90.024500000000003
 20
208.07400000000001
 30
0.0
 11
89.972899999999996
 21
207.916
 31
0.0
  0
LINE
  5
139
  8
0
 62
     7
 10
89.972899999999996
 20
207.916
 30
0.0
 11
90.024500000000003
 21
207.994
 31
0.0
  0
LINE
  5
13A
  8
0
 62
     7
 10
90.026600000000002
 20
207.91
 30
0.0
 11
90.026600000000002
 21
207.99700000000001
 31
0.0
  0
LINE
  5
13B
  8
0
 62
     7
 10
90.024500000000003
 20
207.90899999999999
 30
0.0
 11
89.972899999999996
 21
207.744
 31
0.0
  0
LINE
  5
13C
  8
0
 62
     7
 10
89.972899999999996
 20
207.744
 30
0.0
 11
90.024500000000003
 21
207.81299999999999
 31
0.0
  0
LINE
  5
13D
  8
0
 62
     7
 10
90.026600000000002
 20
207.71100000000001
 30
0.0
 11
90.026600000000002
 21
207.816
 31
0.0
  0
LINE
  5
13E
  8
0
 62
     7
 10
90.024500000000003
 20
207.709
 30
0.0
 11
89.972899999999996
 21
207.53999999999999
 31
0.0
  0
LINE
  5
13F
  8
0
 62
     7
 10
89.972899999999996
 20
207.53999999999999
 30
0.0
 11
90.024500000000003
 21
207.59700000000001
 31
0.0
  0
LINE
  5
140
  8
0
 62
     7
 10
90.026600000000002
 20
207.47800000000001
 30
0.0
 11
90.026600000000002
 21
207.59899999999999
 31
0.0
  0
LINE
  5
141
  8
0
 62
     7
 10
90.024500000000003
 20
207.477
 30
0.0
 11
89.972899999999996
 21
207.304
 31
0.0
  0
LINE
  5
142
  8
0
 62
     7
 10
89.972899999999996
 20
207.304
 30
0.0
 11
90.024500000000003
 21
207.34700000000001
 31
0.0
  0
LINE
  5
143
  8
0
 62
     7
 10
90.026600000000002
 20
207.21299999999999
 30
0.0
 11
90.026600000000002
 21
207.352
 31
0.0
  0
LINE
  5
144
  8
0
 62
     7
 10
90.024500000000003
 20
207.21199999999999
 30
0.0
 11
89.971100000000007
 21
207.03700000000001
 31
0.0
  0
LINE
  5
145
  8
0
 62
     7
 10
89.971100000000007
 20
207.03700000000001
 30
0.0
 11
90.024500000000003
 21
207.06700000000001
 31
0.0
  0
LINE
  5
146
  8
0
 62
     7
 10
90.026600000000002
 20
206.91800000000001
 30
0.0
 11
90.026600000000002
 21
207.07300000000001
 31
0.0
  0
LINE
  5
147
  8
0
 62
     7
 10
90.024500000000003
 20
206.916
 30
0.0
 11
89.971100000000007
 21
206.74000000000001
 31
0.0
  0
LINE
  5
148
  8
0
 62
     7
 10
89.971100000000007
 20
206.74000000000001
 30
0.0
 11
90.024500000000003
 21
206.756
 31
0.0
  0
LINE
  5
149
  8
0
 62
     7
 10
90.026600000000002
 20
206.59299999999999
 30
0.0
 11
90.026600000000002
 21
206.76400000000001
 31
0.0
  0
LINE
  5
14A
  8
0
 62
     7
 10
90.024500000000003
 20
206.59200000000001
 30
0.0
 11
89.971100000000007
 21
206.41499999999999
 31
0.0
  0
LINE
  5
14B
  8
0
 62
     7
 10
89.971100000000007
 20
206.41499999999999
 30
0.0
 11
90.024500000000003
 21
206.41900000000001
 31
0.0
  0
LINE
  5
14C
  8
0
 62
     7
 10
90.026600000000002
 20
206.24199999999999
 30
0.0
 11
90.026600000000002
 21
206.42599999999999
 31
0.0
  0
LINE
  5
14D
  8
0
 62
     7
 10
90.024500000000003
 20
206.24000000000001
 30
0.0
 11
89.971100000000007
 21
206.06399999999999
 31
0.0
  0
LINE
  5
14E
  8
0
 62
     7
 10
89.971100000000007
 20
206.06399999999999
 30
0.0
 11
90.024500000000003
 21
206.05500000000001
 31
0.0
  0
LINE
  5
14F
  8
0
 62
     7
 10
90.026600000000002
 20
205.86500000000001
 30
0.0
 11
90.026600000000002
 21
206.06399999999999
 31
0.0
  0
LINE
  5
150
  8
0
 62
     7
 10
90.022800000000004
 20
205.86500000000001
 30
0.0
 11
89.969099999999983
 21
205.68799999999999
 31
0.0
  0
LINE
  5
151
  8
0
 62
     7
 10
89.969099999999983
 20
205.68799999999999
 30
0.0
 11
90.022800000000004
 21
205.666
 31
0.0
  0
LINE
  5
152
  8
0
 62
     7
 10
90.026600000000002
 20
205.464
 30
0.0
 11
90.026600000000002
 21
205.67699999999999
 31
0.0
  0
LINE
  5
153
  8
0
 62
     7
 10
90.022800000000004
 20
205.464
 30
0.0
 11
89.969099999999983
 21
205.291
 31
0.0
  0
LINE
  5
154
  8
0
 62
     7
 10
89.969099999999983
 20
205.291
 30
0.0
 11
90.022800000000004
 21
205.256
 31
0.0
  0
LINE
  5
155
  8
0
 62
     7
 10
90.026600000000002
 20
205.042
 30
0.0
 11
90.026600000000002
 21
205.267
 31
0.0
  0
LINE
  5
156
  8
0
 62
     7
 10
90.022800000000004
 20
205.04300000000001
 30
0.0
 11
89.967699999999994
 21
204.87299999999999
 31
0.0
  0
LINE
  5
157
  8
0
 62
     7
 10
89.967699999999994
 20
204.87299999999999
 30
0.0
 11
90.022800000000004
 21
204.82499999999999
 31
0.0
  0
LINE
  5
158
  8
0
 62
     7
 10
90.026600000000002
 20
204.602
 30
0.0
 11
90.026600000000002
 21
204.83699999999999
 31
0.0
  0
LINE
  5
159
  8
0
 62
     7
 10
90.022800000000004
 20
204.60400000000001
 30
0.0
 11
89.967699999999994
 21
204.43799999999999
 31
0.0
  0
LINE
  5
15A
  8
0
 62
     7
 10
89.967699999999994
 20
204.43799999999999
 30
0.0
 11
90.022800000000004
 21
204.37700000000001
 31
0.0
  0
LINE
  5
15B
  8
0
 62
     7
 10
90.026600000000002
 20
204.14400000000001
 30
0.0
 11
90.026600000000002
 21
204.38999999999999
 31
0.0
  0
LINE
  5
15C
  8
0
 62
     7
 10
90.022800000000004
 20
204.149
 30
0.0
 11
89.967699999999994
 21
203.98599999999999
 31
0.0
  0
LINE
  5
15D
  8
0
 62
     7
 10
89.967699999999994
 20
203.98599999999999
 30
0.0
 11
90.022800000000004
 21
203.91399999999999
 31
0.0
  0
LINE
  5
15E
  8
0
 62
     7
 10
90.026600000000002
 20
203.67400000000001
 30
0.0
 11
90.026600000000002
 21
203.928
 31
0.0
  0
LINE
  5
15F
  8
0
 62
     7
 10
90.022800000000004
 20
203.679
 30
0.0
 11
89.965999999999994
 21
203.523
 31
0.0
  0
LINE
  5
160
  8
0
 62
     7
 10
89.965999999999994
 20
203.523
 30
0.0
 11
90.0214
 21
203.43899999999999
 31
0.0
  0
LINE
  5
161
  8
0
 62
     7
 10
90.026600000000002
 20
203.191
 30
0.0
 11
90.026600000000002
 21
203.453
 31
0.0
  0
LINE
  5
162
  8
0
 62
     7
 10
90.0214
 20
203.19800000000001
 30
0.0
 11
89.965999999999994
 21
203.04900000000001
 31
0.0
  0
LINE
  5
163
  8
0
 62
     7
 10
89.965999999999994
 20
203.04900000000001
 30
0.0
 11
90.0214
 21
202.95400000000001
 31
0.0
  0
LINE
  5
164
  8
0
 62
     7
 10
90.026600000000002
 20
202.69999999999999
 30
0.0
 11
90.026600000000002
 21
202.96700000000001
 31
0.0
  0
LINE
  5
165
  8
0
 62
     7
 10
90.0214
 20
202.709
 30
0.0
 11
89.964600000000004
 21
202.56800000000001
 31
0.0
  0
LINE
  5
166
  8
0
 62
     7
 10
89.964600000000004
 20
202.56800000000001
 30
0.0
 11
90.0214
 21
202.46100000000001
 31
0.0
  0
LINE
  5
167
  8
0
 62
     7
 10
90.026600000000002
 20
202.202
 30
0.0
 11
90.026600000000002
 21
202.477
 31
0.0
  0
LINE
  5
168
  8
0
 62
     7
 10
90.0214
 20
202.214
 30
0.0
 11
89.964600000000004
 21
202.08000000000001
 31
0.0
  0
LINE
  5
169
  8
0
 62
     7
 10
89.964600000000004
 20
202.08000000000001
 30
0.0
 11
90.0214
 21
201.96299999999999
 31
0.0
  0
LINE
  5
16A
  8
0
 62
     7
 10
90.026600000000002
 20
201.69999999999999
 30
0.0
 11
90.026600000000002
 21
201.97800000000001
 31
0.0
  0
LINE
  5
16B
  8
0
 62
     7
 10
90.0214
 20
201.715
 30
0.0
 11
89.962500000000006
 21
201.59
 31
0.0
  0
LINE
  5
16C
  8
0
 62
     7
 10
89.962500000000006
 20
201.59
 30
0.0
 11
90.0214
 21
201.464
 31
0.0
  0
LINE
  5
16D
  8
0
 62
     7
 10
90.026600000000002
 20
201.19900000000001
 30
0.0
 11
90.026600000000002
 21
201.47800000000001
 31
0.0
  0
LINE
  5
16E
  8
0
 62
     7
 10
90.019400000000005
 20
201.21600000000001
 30
0.0
 11
89.962500000000006
 21
201.101
 31
0.0
  0
LINE
  5
16F
  8
0
 62
     7
 10
89.962500000000006
 20
201.101
 30
0.0
 11
90.019400000000005
 21
200.96600000000001
 31
0.0
  0
LINE
  5
170
  8
0
 62
     7
 10
90.026600000000002
 20
200.69999999999999
 30
0.0
 11
90.026600000000002
 21
200.97999999999999
 31
0.0
  0
LINE
  5
171
  8
0
 62
     7
 10
90.019400000000005
 20
200.71899999999999
 30
0.0
 11
89.960800000000006
 21
200.614
 31
0.0
  0
LINE
  5
172
  8
0
 62
     7
 10
89.960800000000006
 20
200.614
 30
0.0
 11
90.019400000000005
 21
200.47200000000001
 31
0.0
  0
LINE
  5
173
  8
0
 62
     7
 10
90.026600000000002
 20
200.20599999999999
 30
0.0
 11
90.026600000000002
 21
200.48400000000001
 31
0.0
  0
LINE
  5
174
  8
0
 62
     7
 10
90.019400000000005
 20
200.22800000000001
 30
0.0
 11
89.960800000000006
 21
200.13399999999999
 31
0.0
  0
LINE
  5
175
  8
0
 62
     7
 10
89.960800000000006
 20
200.13399999999999
 30
0.0
 11
90.019400000000005
 21
199.98400000000001
 31
0.0
  0
LINE
  5
176
  8
0
 62
     7
 10
90.026600000000002
 20
199.71899999999999
 30
0.0
 11
90.026600000000002
 21
199.99600000000001
 31
0.0
  0
LINE
  5
177
  8
0
 62
     7
 10
90.019400000000005
 20
199.744
 30
0.0
 11
89.959400000000002
 21
199.661
 31
0.0
  0
LINE
  5
178
  8
0
 62
     7
 10
89.959400000000002
 20
199.661
 30
0.0
 11
90.019400000000005
 21
199.50399999999999
 31
0.0
  0
LINE
  5
179
  8
0
 62
     7
 10
90.026600000000002
 20
199.24299999999999
 30
0.0
 11
90.026600000000002
 21
199.51499999999999
 31
0.0
  0
LINE
  5
17A
  8
0
 62
     7
 10
90.017600000000002
 20
199.27099999999999
 30
0.0
 11
89.959400000000002
 21
199.19800000000001
 31
0.0
  0
LINE
  5
17B
  8
0
 62
     7
 10
89.959400000000002
 20
199.19800000000001
 30
0.0
 11
90.017600000000002
 21
199.03700000000001
 31
0.0
  0
LINE
  5
17C
  8
0
 62
     7
 10
90.026600000000002
 20
198.779
 30
0.0
 11
90.026600000000002
 21
199.04499999999999
 31
0.0
  0
LINE
  5
17D
  8
0
 62
     7
 10
90.017600000000002
 20
198.809
 30
0.0
 11
89.957400000000007
 21
198.751
 31
0.0
  0
LINE
  5
17E
  8
0
 62
     7
 10
89.957400000000007
 20
198.751
 30
0.0
 11
90.017600000000002
 21
198.583
 31
0.0
  0
LINE
  5
17F
  8
0
 62
     7
 10
90.026600000000002
 20
198.33199999999999
 30
0.0
 11
90.026600000000002
 21
198.59100000000001
 31
0.0
  0
LINE
  5
180
  8
0
 62
     7
 10
90.017600000000002
 20
198.363
 30
0.0
 11
89.957400000000007
 21
198.31800000000001
 31
0.0
  0
LINE
  5
181
  8
0
 62
     7
 10
89.957400000000007
 20
198.31800000000001
 30
0.0
 11
90.017600000000002
 21
198.14599999999999
 31
0.0
  0
LINE
  5
182
  8
0
 62
     7
 10
90.026600000000002
 20
197.90199999999999
 30
0.0
 11
90.026600000000002
 21
198.15000000000001
 31
0.0
  0
LINE
  5
183
  8
0
 62
     7
 10
90.017600000000002
 20
197.935
 30
0.0
 11
89.957400000000007
 21
197.90199999999999
 31
0.0
  0
LINE
  5
184
  8
0
 62
     7
 10
89.957400000000007
 20
197.90199999999999
 30
0.0
 11
90.017600000000002
 21
197.72900000000001
 31
0.0
  0
LINE
  5
185
  8
0
 62
     7
 10
90.026600000000002
 20
197.49199999999999
 30
0.0
 11
90.026600000000002
 21
197.73099999999999
 31
0.0
  0
LINE
  5
186
  8
0
 62
     7
 10
90.017600000000002
 20
197.52799999999999
 30
0.0
 11
89.955600000000004
 21
197.50800000000001
 31
0.0
  0
LINE
  5
187
  8
0
 62
     7
 10
89.955600000000004
 20
197.50800000000001
 30
0.0
 11
90.017600000000002
 21
197.33099999999999
 31
0.0
  0
LINE
  5
188
  8
0
 62
     7
 10
90.026600000000002
 20
197.10499999999999
 30
0.0
 11
90.026600000000002
 21
197.33099999999999
 31
0.0
  0
LINE
  5
189
  8
0
 62
     7
 10
90.016300000000001
 20
197.142
 30
0.0
 11
89.955600000000004
 21
197.13499999999999
 31
0.0
  0
LINE
  5
18A
  8
0
 62
     7
 10
89.955600000000004
 20
197.13499999999999
 30
0.0
 11
90.016300000000001
 21
196.959
 31
0.0
  0
LINE
  5
18B
  8
0
 62
     7
 10
90.026600000000002
 20
196.74299999999999
 30
0.0
 11
90.026600000000002
 21
196.95400000000001
 31
0.0
  0
LINE
  5
18C
  8
0
 62
     7
 10
90.016300000000001
 20
196.78200000000001
 30
0.0
 11
89.953599999999994
 21
196.78800000000001
 31
0.0
  0
LINE
  5
18D
  8
0
 62
     7
 10
89.953599999999994
 20
196.78800000000001
 30
0.0
 11
90.016300000000001
 21
196.61000000000001
 31
0.0
  0
LINE
  5
18E
  8
0
 62
     7
 10
90.026600000000002
 20
196.40700000000001
 30
0.0
 11
90.026600000000002
 21
196.60400000000001
 31
0.0
  0
LINE
  5
18F
  8
0
 62
     7
 10
90.016300000000001
 20
196.447
 30
0.0
 11
89.953599999999994
 21
196.46600000000001
 31
0.0
  0
LINE
  5
190
  8
0
 62
     7
 10
89.953599999999994
 20
196.46600000000001
 30
0.0
 11
90.016300000000001
 21
196.28999999999999
 31
0.0
  0
LINE
  5
191
  8
0
 62
     7
 10
90.026600000000002
 20
196.09999999999999
 30
0.0
 11
90.026600000000002
 21
196.28099999999989
 31
0.0
  0
LINE
  5
192
  8
0
 62
     7
 10
90.016300000000001
 20
196.14099999999999
 30
0.0
 11
89.953599999999994
 21
196.17400000000001
 31
0.0
  0
LINE
  5
193
  8
0
 62
     7
 10
89.953599999999994
 20
196.17400000000001
 30
0.0
 11
90.016300000000001
 21
195.999
 31
0.0
  0
LINE
  5
194
  8
0
 62
     7
 10
90.026600000000002
 20
195.82400000000001
 30
0.0
 11
90.026600000000002
 21
195.98599999999999
 31
0.0
  0
LINE
  5
195
  8
0
 62
     7
 10
90.016300000000001
 20
195.86600000000001
 30
0.0
 11
89.953599999999994
 21
195.91
 31
0.0
  0
LINE
  5
196
  8
0
 62
     7
 10
89.953599999999994
 20
195.91
 30
0.0
 11
90.016300000000001
 21
195.738
 31
0.0
  0
LINE
  5
197
  8
0
 62
     7
 10
90.026600000000002
 20
195.578
 30
0.0
 11
90.026600000000002
 21
195.72200000000001
 31
0.0
  0
LINE
  5
198
  8
0
 62
     7
 10
90.016300000000001
 20
195.62200000000001
 30
0.0
 11
89.952200000000005
 21
195.678
 31
0.0
  0
LINE
  5
199
  8
0
 62
     7
 10
89.952200000000005
 20
195.678
 30
0.0
 11
90.016300000000001
 21
195.50999999999999
 31
0.0
  0
LINE
  5
19A
  8
0
 62
     7
 10
90.026600000000002
 20
195.36699999999999
 30
0.0
 11
90.026600000000002
 21
195.49100000000001
 31
0.0
  0
LINE
  5
19B
  8
0
 62
     7
 10
90.016300000000001
 20
195.40899999999999
 30
0.0
 11
89.952200000000005
 21
195.47799999999989
 31
0.0
  0
LINE
  5
19C
  8
0
 62
     7
 10
89.952200000000005
 20
195.47799999999989
 30
0.0
 11
90.016300000000001
 21
195.315
 31
0.0
  0
LINE
  5
19D
  8
0
 62
     7
 10
90.026600000000002
 20
195.19
 30
0.0
 11
90.026600000000002
 21
195.29300000000001
 31
0.0
  0
LINE
  5
19E
  8
0
 62
     7
 10
90.016300000000001
 20
195.23099999999999
 30
0.0
 11
89.952200000000005
 21
195.31200000000001
 31
0.0
  0
LINE
  5
19F
  8
0
 62
     7
 10
89.952200000000005
 20
195.31200000000001
 30
0.0
 11
90.016300000000001
 21
195.155
 31
0.0
  0
LINE
  5
1A0
  8
0
 62
     7
 10
90.026600000000002
 20
195.047
 30
0.0
 11
90.026600000000002
 21
195.13
 31
0.0
  0
LINE
  5
1A1
  8
0
 62
     7
 10
90.016300000000001
 20
195.08799999999999
 30
0.0
 11
89.952200000000005
 21
195.18100000000001
 31
0.0
  0
LINE
  5
1A2
  8
0
 62
     7
 10
89.952200000000005
 20
195.18100000000001
 30
0.0
 11
90.016300000000001
 21
195.03
 31
0.0
  0
LINE
  5
1A3
  8
0
 62
     7
 10
90.026600000000002
 20
194.941
 30
0.0
 11
90.026600000000002
 21
195.00200000000001
 31
0.0
  0
LINE
  5
1A4
  8
0
 62
     7
 10
90.016300000000001
 20
194.98099999999999
 30
0.0
 11
89.952200000000005
 21
195.08500000000001
 31
0.0
  0
LINE
  5
1A5
  8
0
 62
     7
 10
89.952200000000005
 20
195.08500000000001
 30
0.0
 11
90.016300000000001
 21
194.94
 31
0.0
  0
LINE
  5
1A6
  8
0
 62
     7
 10
90.964399999999983
 20
194.98699999999999
 30
0.0
 11
90.886799999999994
 21
194.90899999999999
 31
0.0
  0
ARC
  5
1A7
  8
0
 62
     7
 10
89.285677000000007
 20
206.516593
 30
0.0
 40
1.4537500000000001
 50
117.200119
 51
155.322418
  0
ARC
  5
1A8
  8
0
 62
     7
 10
89.395235999999997
 20
206.367155
 30
0.0
 40
1.6370020000000001
 50
86.263814999999994
 51
118.21991
  0
ARC
  5
1A9
  8
0
 62
     7
 10
89.407754999999995
 20
196.83239699999999
 30
0.0
 40
1.6227290000000001
 50
207.21721199999999
 51
273.32624600000003
  0
LINE
  5
1AA
  8
0
 62
     7
 10
90.814499999999995
 20
208.37799999999999
 30
0.0
 11
90.964399999999983
 21
208.227
 31
0.0
  0
ARC
  5
1AB
  8
0
 62
     7
 10
89.531129000000007
 20
208.51754500000001
 30
0.0
 40
0.5176930000000001
 50
266.76417300000003
 51
330.83538300000009
  0
ARC
  5
1AC
  8
0
 62
     7
 10
89.532266000000007
 20
194.69890899999999
 30
0.0
 40
0.514389
 50
24.386907000000001
 51
93.383460999999983
  0
ARC
  5
1AD
  8
0
 62
     7
 10
97.799137000000016
 20
203.275316
 30
0.0
 40
5.6790409999999998
 50
71.950509999999994
 51
76.936014999999983
  0
ARC
  5
1AE
  8
0
 62
     7
 10
97.059025000000005
 20
200.20972499999999
 30
0.0
 40
8.8326270000000005
 50
76.754289999999997
 51
81.551901000000001
  0
ARC
  5
1AF
  8
0
 62
     7
 10
96.333909000000006
 20
195.59080499999999
 30
0.0
 40
13.508013999999999
 50
81.387892000000008
 51
86.668075000000002
  0
ARC
  5
1B0
  8
0
 62
     7
 10
95.904137000000006
 20
189.604297
 30
0.0
 40
19.509549
 50
86.429872999999986
 51
99.348657000000017
  0
ARC
  5
1B1
  8
0
 62
     7
 10
94.671649000000002
 20
197.666495
 30
0.0
 40
11.354609999999999
 50
99.820576000000003
 51
105.707703
  0
ARC
  5
1B2
  8
0
 62
     7
 10
93.366090000000014
 20
202.47173799999999
 30
0.0
 40
6.3755160000000002
 50
106.104204
 51
112.130123
  0
LINE
  5
1B3
  8
0
  6
AIGENLINE001
 62
     7
 10
84.514200000000002
 20
201.607
 30
0.0
 11
155.91800000000001
 21
201.607
 31
0.0
  0
LINE
  5
1B4
  8
0
 62
     7
 10
149.953
 20
200.483
 30
0.0
 11
148.92699999999999
 21
202.733
 31
0.0
  0
LINE
  5
1B5
  8
0
 62
     7
 10
148.58699999999999
 20
200.483
 30
0.0
 11
147.56100000000001
 21
202.733
 31
0.0
  0
LINE
  5
1B6
  8
0
 62
     7
 10
147.22200000000001
 20
200.483
 30
0.0
 11
146.196
 21
202.733
 31
0.0
  0
LINE
  5
1B7
  8
0
 62
     7
 10
145.857
 20
200.483
 30
0.0
 11
144.83099999999999
 21
202.733
 31
0.0
  0
LINE
  5
1B8
  8
0
 62
     7
 10
144.49100000000001
 20
200.483
 30
0.0
 11
143.465
 21
202.733
 31
0.0
  0
LINE
  5
1B9
  8
0
 62
     7
 10
143.126
 20
200.483
 30
0.0
 11
142.09999999999999
 21
202.733
 31
0.0
  0
LINE
  5
1BA
  8
0
 62
     7
 10
141.761
 20
200.483
 30
0.0
 11
140.73500000000001
 21
202.733
 31
0.0
  0
LINE
  5
1BB
  8
0
 62
     7
 10
140.39500000000001
 20
200.483
 30
0.0
 11
139.369
 21
202.733
 31
0.0
  0
LINE
  5
1BC
  8
0
 62
     7
 10
139.03
 20
200.483
 30
0.0
 11
138.00399999999999
 21
202.733
 31
0.0
  0
LINE
  5
1BD
  8
0
 62
     7
 10
137.66499999999999
 20
200.483
 30
0.0
 11
136.63900000000001
 21
202.733
 31
0.0
  0
LINE
  5
1BE
  8
0
 62
     7
 10
136.29900000000001
 20
200.483
 30
0.0
 11
135.273
 21
202.733
 31
0.0
  0
LINE
  5
1BF
  8
0
 62
     7
 10
134.934
 20
200.483
 30
0.0
 11
133.90799999999999
 21
202.733
 31
0.0
  0
LINE
  5
1C0
  8
0
 62
     7
 10
133.56899999999999
 20
200.483
 30
0.0
 11
132.54300000000001
 21
202.733
 31
0.0
  0
LINE
  5
1C1
  8
0
 62
     7
 10
132.203
 20
200.483
 30
0.0
 11
131.17699999999999
 21
202.733
 31
0.0
  0
LINE
  5
1C2
  8
0
 62
     7
 10
149.953
 20
200.90700000000001
 30
0.0
 11
153.453
 21
201.608
 31
0.0
  0
LINE
  5
1C3
  8
0
 62
     7
 10
149.953
 20
202.309
 30
0.0
 11
153.453
 21
201.608
 31
0.0
  0
LINE
  5
1C4
  8
0
 62
     7
 10
149.953
 20
200.90700000000001
 30
0.0
 11
130.953
 21
200.90700000000001
 31
0.0
  0
LINE
  5
1C5
  8
0
 62
     7
 10
149.953
 20
202.309
 30
0.0
 11
130.953
 21
202.309
 31
0.0
  0
LINE
  5
1C6
  8
0
  6
AIGENLINE001
 62
     7
 10
96.694500000000005
 20
191.40199999999999
 30
0.0
 11
96.694500000000005
 21
212.17500000000001
 31
0.0
  0
LINE
  5
1C7
  8
0
 62
     7
 10
123.932
 20
208.28399999999999
 30
0.0
 11
123.932
 21
208.22499999999999
 31
0.0
  0
LINE
  5
1C8
  8
0
 62
     7
 10
123.932
 20
208.22499999999999
 30
0.0
 11
123.932
 21
208.053
 31
0.0
  0
LINE
  5
1C9
  8
0
 62
     7
 10
123.932
 20
208.053
 30
0.0
 11
123.932
 21
207.77699999999999
 31
0.0
  0
LINE
  5
1CA
  8
0
 62
     7
 10
123.932
 20
207.77699999999999
 30
0.0
 11
123.932
 21
207.39099999999999
 31
0.0
  0
LINE
  5
1CB
  8
0
 62
     7
 10
123.932
 20
207.39099999999999
 30
0.0
 11
123.932
 21
207.02199999999999
 31
0.0
  0
LINE
  5
1CC
  8
0
 62
     7
 10
123.932
 20
207.02199999999999
 30
0.0
 11
123.932
 21
206.59700000000001
 31
0.0
  0
LINE
  5
1CD
  8
0
 62
     7
 10
123.932
 20
206.59700000000001
 30
0.0
 11
123.932
 21
205.577
 31
0.0
  0
LINE
  5
1CE
  8
0
 62
     7
 10
123.932
 20
205.577
 30
0.0
 11
123.932
 21
205.00200000000001
 31
0.0
  0
LINE
  5
1CF
  8
0
 62
     7
 10
123.932
 20
205.00200000000001
 30
0.0
 11
123.932
 21
204.38900000000001
 31
0.0
  0
LINE
  5
1D0
  8
0
 62
     7
 10
123.932
 20
204.38900000000001
 30
0.0
 11
123.932
 21
203.761
 31
0.0
  0
LINE
  5
1D1
  8
0
 62
     7
 10
123.932
 20
203.761
 30
0.0
 11
123.932
 21
203.11000000000001
 31
0.0
  0
LINE
  5
1D2
  8
0
 62
     7
 10
123.932
 20
203.11000000000001
 30
0.0
 11
123.932
 21
201.82499999999999
 31
0.0
  0
LINE
  5
1D3
  8
0
 62
     7
 10
123.932
 20
201.82499999999999
 30
0.0
 11
123.932
 21
200.60400000000001
 31
0.0
  0
LINE
  5
1D4
  8
0
 62
     7
 10
123.932
 20
200.60400000000001
 30
0.0
 11
123.932
 21
199.80699999999999
 31
0.0
  0
LINE
  5
1D5
  8
0
 62
     7
 10
123.932
 20
199.80699999999999
 30
0.0
 11
123.932
 21
199.01300000000001
 31
0.0
  0
LINE
  5
1D6
  8
0
 62
     7
 10
123.932
 20
199.01300000000001
 30
0.0
 11
123.932
 21
198.239
 31
0.0
  0
LINE
  5
1D7
  8
0
 62
     7
 10
123.932
 20
198.239
 30
0.0
 11
123.932
 21
197.673
 31
0.0
  0
LINE
  5
1D8
  8
0
 62
     7
 10
123.932
 20
197.673
 30
0.0
 11
123.932
 21
197.14699999999999
 31
0.0
  0
LINE
  5
1D9
  8
0
 62
     7
 10
123.932
 20
197.14699999999999
 30
0.0
 11
123.932
 21
196.21899999999999
 31
0.0
  0
LINE
  5
1DA
  8
0
 62
     7
 10
123.932
 20
196.21899999999999
 30
0.0
 11
123.932
 21
195.839
 31
0.0
  0
LINE
  5
1DB
  8
0
 62
     7
 10
123.932
 20
195.839
 30
0.0
 11
123.932
 21
195.52000000000001
 31
0.0
  0
LINE
  5
1DC
  8
0
 62
     7
 10
123.932
 20
195.52000000000001
 30
0.0
 11
123.932
 21
195.27099999999999
 31
0.0
  0
LINE
  5
1DD
  8
0
 62
     7
 10
123.932
 20
195.27099999999999
 30
0.0
 11
123.932
 21
195.08600000000001
 31
0.0
  0
LINE
  5
1DE
  8
0
 62
     7
 10
123.932
 20
195.08600000000001
 30
0.0
 11
123.932
 21
194.91900000000001
 31
0.0
  0
LINE
  5
1DF
  8
0
 62
     7
 10
123.932
 20
194.91900000000001
 30
0.0
 11
123.932
 21
194.93100000000001
 31
0.0
  0
LINE
  5
1E0
  8
0
 62
     7
 10
126.941
 20
212.97
 30
0.0
 11
126.941
 21
190.2459999999999
 31
0.0
  0
LINE
  5
1E1
  8
0
 62
     7
 10
130.965
 20
187.357
 30
0.0
 11
130.965
 21
215.857
 31
0.0
  0
LINE
  5
1E2
  8
0
 62
     7
 10
128.45699999999999
 20
188.72999999999999
 30
0.0
 11
128.45699999999999
 21
214.48500000000001
 31
0.0
  0
LINE
  5
1E3
  8
0
 62
     7
 10
106.983
 20
198.59399999999999
 30
0.0
 11
106.983
 21
198.59200000000001
 31
0.0
  0
LINE
  5
1E4
  8
0
 62
     7
 10
106.983
 20
198.59200000000001
 30
0.0
 11
106.983
 21
198.70099999999999
 31
0.0
  0
LINE
  5
1E5
  8
0
 62
     7
 10
106.983
 20
198.70099999999999
 30
0.0
 11
106.983
 21
198.923
 31
0.0
  0
LINE
  5
1E6
  8
0
 62
     7
 10
106.983
 20
198.923
 30
0.0
 11
106.983
 21
199.24799999999999
 31
0.0
  0
LINE
  5
1E7
  8
0
 62
     7
 10
106.983
 20
199.24799999999999
 30
0.0
 11
106.983
 21
199.66499999999999
 31
0.0
  0
LINE
  5
1E8
  8
0
 62
     7
 10
106.983
 20
199.66499999999999
 30
0.0
 11
106.983
 21
200.155
 31
0.0
  0
LINE
  5
1E9
  8
0
 62
     7
 10
106.983
 20
200.155
 30
0.0
 11
106.983
 21
200.702
 31
0.0
  0
LINE
  5
1EA
  8
0
 62
     7
 10
106.983
 20
200.702
 30
0.0
 11
106.983
 21
201.28299999999999
 31
0.0
  0
LINE
  5
1EB
  8
0
 62
     7
 10
106.983
 20
201.28299999999999
 30
0.0
 11
106.983
 21
201.87700000000001
 31
0.0
  0
LINE
  5
1EC
  8
0
 62
     7
 10
106.983
 20
201.87700000000001
 30
0.0
 11
106.983
 21
202.46100000000001
 31
0.0
  0
LINE
  5
1ED
  8
0
 62
     7
 10
106.983
 20
202.46100000000001
 30
0.0
 11
106.983
 21
203.011
 31
0.0
  0
LINE
  5
1EE
  8
0
 62
     7
 10
106.983
 20
203.011
 30
0.0
 11
106.983
 21
203.50899999999999
 31
0.0
  0
LINE
  5
1EF
  8
0
 62
     7
 10
106.983
 20
203.50899999999999
 30
0.0
 11
106.983
 21
203.93299999999999
 31
0.0
  0
LINE
  5
1F0
  8
0
 62
     7
 10
106.983
 20
203.93299999999999
 30
0.0
 11
106.983
 21
204.267
 31
0.0
  0
LINE
  5
1F1
  8
0
 62
     7
 10
106.983
 20
204.267
 30
0.0
 11
106.983
 21
204.5
 31
0.0
  0
LINE
  5
1F2
  8
0
 62
     7
 10
106.983
 20
204.5
 30
0.0
 11
106.983
 21
204.62100000000001
 31
0.0
  0
LINE
  5
1F3
  8
0
 62
     7
 10
106.983
 20
204.62100000000001
 30
0.0
 11
106.983
 21
204.625
 31
0.0
  0
LINE
  5
1F4
  8
0
 62
     7
 10
106.983
 20
198.27500000000001
 30
0.0
 11
106.983
 21
200.00899999999999
 31
0.0
  0
LINE
  5
1F5
  8
0
 62
     7
 10
106.983
 20
200.00899999999999
 30
0.0
 11
106.983
 21
204.94399999999999
 31
0.0
  0
LINE
  5
1F6
  8
0
 62
     7
 10
107.18300000000001
 20
198.07400000000001
 30
0.0
 11
107.18300000000001
 21
199.91200000000001
 31
0.0
  0
LINE
  5
1F7
  8
0
 62
     7
 10
107.18300000000001
 20
199.91200000000001
 30
0.0
 11
107.18300000000001
 21
205.14500000000001
 31
0.0
  0
LINE
  5
1F8
  8
0
 62
     7
 10
115.056
 20
195.04400000000001
 30
0.0
 11
115.056
 21
198.459
 31
0.0
  0
LINE
  5
1F9
  8
0
 62
     7
 10
115.056
 20
198.459
 30
0.0
 11
115.056
 21
208.17400000000001
 31
0.0
  0
LINE
  5
1FA
  8
0
 62
     7
 10
120.67
 20
208.17400000000001
 30
0.0
 11
120.67
 21
195.04400000000001
 31
0.0
  0
LINE
  5
1FB
  8
0
 62
     7
 10
121.425
 20
208.374
 30
0.0
 11
121.425
 21
194.84099999999989
 31
0.0
  0
LINE
  5
1FC
  8
0
 62
     7
 10
123.932
 20
208.62700000000001
 30
0.0
 11
123.932
 21
194.58799999999999
 31
0.0
  0
LINE
  5
1FD
  8
0
 62
     7
 10
119.758
 20
208.52699999999999
 30
0.0
 11
119.758
 21
194.69099999999989
 31
0.0
  0
LINE
  5
1FE
  8
0
 62
     7
 10
119.396
 20
194.39099999999999
 30
0.0
 11
119.407
 21
194.39500000000001
 31
0.0
  0
ARC
  5
1FF
  8
0
 62
     7
 10
119.40599400000001
 20
194.397784
 30
0.0
 40
0.003
 50
284.22232400000001
 51
66.647152000000006
  0
ARC
  5
200
  8
0
 62
     7
 10
119.368752
 20
194.318093
 30
0.0
 40
0.090963
 50
65.008040000000008
 51
83.819333999999984
  0
ARC
  5
201
  8
0
 62
     7
 10
119.29965900000001
 20
194.020242
 30
0.0
 40
0.396217
 50
78.515668999999988
 51
82.968170000000001
  0
ARC
  5
202
  8
0
 62
     7
 10
119.07389999999999
 20
192.402558
 30
0.0
 40
2.0295389999999989
 50
82.233496000000002
 51
87.878336000000004
  0
ARC
  5
203
  8
0
 62
     7
 10
118.767172
 20
189.04890499999999
 30
0.0
 40
5.3953300000000004
 50
85.941384999999997
 51
88.512911000000003
  0
ARC
  5
204
  8
0
 62
     7
 10
118.369478
 20
180.02246199999999
 30
0.0
 40
14.429978999999999
 50
87.864457999999999
 51
89.303988000000004
  0
ARC
  5
205
  8
0
 62
     7
 10
117.81242
 20
157.88776799999999
 30
0.0
 40
36.570940999999998
 50
88.852551000000005
 51
89.328668999999977
  0
ARC
  5
206
  8
0
 62
     7
 10
118.012511
 20
166.97778500000001
 30
0.0
 40
27.479362999999999
 50
89.523776999999995
 51
90.249290000000002
  0
ARC
  5
207
  8
0
 62
     7
 10
117.891747
 20
128.588607
 30
0.0
 40
65.86828100000001
 50
89.998945999999989
 51
90.262062
  0
ARC
  5
208
  8
0
 62
     7
 10
117.97431
 20
154.034547
 30
0.0
 40
40.423473999999992
 50
90.544054999999986
 51
90.924967000000009
  0
ARC
  5
209
  8
0
 62
     7
 10
117.54818899999999
 20
177.693164
 30
0.0
 40
16.761119999999998
 50
90.77408100000001
 51
91.959175000000002
  0
ARC
  5
20A
  8
0
 62
     7
 10
117.40778
 20
182.02626599999999
 30
0.0
 40
12.425753
 50
91.995193999999984
 51
93.617525999999998
  0
ARC
  5
20B
  8
0
 62
     7
 10
116.827162
 20
191.83011099999999
 30
0.0
 40
2.605100999999999
 50
94.47800500000001
 51
97.862324000000015
  0
ARC
  5
20C
  8
0
 62
     7
 10
116.518781
 20
194.0973699999999
 30
0.0
 40
0.317005
 50
98.705293999999995
 51
107.502606
  0
ARC
  5
20D
  8
0
 62
     7
 10
116.425864
 20
194.39741100000001
 30
0.0
 40
0.003332
 50
136.61600200000001
 51
284.617819
  0
LINE
  5
20E
  8
0
 62
     7
 10
116.42700000000001
 20
194.39400000000001
 30
0.0
 11
116.43600000000001
 21
194.39099999999999
 31
0.0
  0
ARC
  5
20F
  8
0
 62
     7
 10
104.985015
 20
197.548417
 30
0.0
 40
14.434116
 50
2.375181
 51
3.6481690000000002
  0
ARC
  5
210
  8
0
 62
     7
 10
115.384891
 20
198.19295600000001
 30
0.0
 40
4.0143459999999989
 50
3.9123070000000002
 51
9.2721739999999997
  0
ARC
  5
211
  8
0
 62
     7
 10
116.470618
 20
198.35695999999999
 30
0.0
 40
2.9164089999999989
 50
9.5290750000000006
 51
23.307320000000001
  0
ARC
  5
212
  8
0
 62
     7
 10
116.8408129999999
 20
198.49317500000001
 30
0.0
 40
2.5226189999999988
 50
23.792773
 51
35.001292999999997
  0
ARC
  5
213
  8
0
 62
     7
 10
117.589252
 20
198.98462599999999
 30
0.0
 40
1.627869
 50
35.942289000000002
 51
54.057700999999987
  0
ARC
  5
214
  8
0
 62
     7
 10
117.851499
 20
199.31398200000001
 30
0.0
 40
1.207438
 50
54.959104000000011
 51
71.185525999999996
  0
ARC
  5
215
  8
0
 62
     7
 10
117.911333
 20
199.46299300000001
 30
0.0
 40
1.0471269999999999
 50
71.655034999999984
 51
91.00611600000002
  0
ARC
  5
216
  8
0
 62
     7
 10
117.919797
 20
199.46807799999999
 30
0.0
 40
1.042227
 50
91.476268000000005
 51
108.42052099999999
  0
ARC
  5
217
  8
0
 62
     7
 10
117.942294
 20
199.39836199999999
 30
0.0
 40
1.1154790000000001
 50
108.385295
 51
123.800691
  0
ARC
  5
218
  8
0
 62
     7
 10
118.089691
 20
199.14695
 30
0.0
 40
1.4065030000000001
 50
123.092753
 51
142.41109700000001
  0
ARC
  5
219
  8
0
 62
     7
 10
118.57960199999999
 20
198.71660700000001
 30
0.0
 40
2.0576500000000002
 50
141.236898
 51
161.90072699999999
  0
ARC
  5
21A
  8
0
 62
     7
 10
119.57284
 20
198.292585
 30
0.0
 40
3.1348950000000002
 50
160.173721
 51
171.87362100000001
  0
ARC
  5
21B
  8
0
 62
     7
 10
120.169158
 20
198.16793100000001
 30
0.0
 40
3.7430500000000002
 50
171.27496199999999
 51
181.02256999999989
  0
ARC
  5
21C
  8
0
 62
     7
 10
120.49987400000001
 20
198.148143
 30
0.0
 40
4.0734409999999999
 50
180.661269
 51
190.25240600000001
  0
ARC
  5
21D
  8
0
 62
     7
 10
119.6506
 20
198.02527599999999
 30
0.0
 40
3.216000999999999
 50
190.79137900000001
 51
203.01572899999999
  0
ARC
  5
21E
  8
0
 62
     7
 10
118.82456000000001
 20
197.70048799999989
 30
0.0
 40
2.3288530000000001
 50
203.60704000000001
 51
215.66250299999999
  0
ARC
  5
21F
  8
0
 62
     7
 10
118.263701
 20
197.328048
 30
0.0
 40
1.6562179999999991
 50
216.50633500000001
 51
234.25835499999999
  0
ARC
  5
220
  8
0
 62
     7
 10
117.97748900000001
 20
196.97418200000001
 30
0.0
 40
1.2020869999999999
 50
235.47872899999999
 51
251.70343199999999
  0
ARC
  5
221
  8
0
 62
     7
 10
117.91902399999999
 20
196.811125
 30
0.0
 40
1.0289280000000001
 50
251.943983
 51
271.54076099999997
  0
ARC
  5
222
  8
0
 62
     7
 10
117.91035100000001
 20
196.831018
 30
0.0
 40
1.0490790000000001
 50
271.98505599999999
 51
288.76307800000001
  0
ARC
  5
223
  8
0
 62
     7
 10
117.905719
 20
196.86692300000001
 30
0.0
 40
1.084589
 50
288.38467300000002
 51
304.27436
  0
ARC
  5
224
  8
0
 62
     7
 10
117.741756
 20
197.14720399999999
 30
0.0
 40
1.4087139999999989
 50
303.365274
 51
322.74976900000001
  0
ARC
  5
225
  8
0
 62
     7
 10
117.32538700000001
 20
197.51327499999999
 30
0.0
 40
1.9621189999999991
 50
321.600188
 51
334.81815100000011
  0
ARC
  5
226
  8
0
 62
     7
 10
116.656865
 20
197.85515899999999
 30
0.0
 40
2.7126899999999998
 50
334.29136199999999
 51
340.53380600000003
  0
ARC
  5
227
  8
0
 62
     7
 10
116.348927
 20
197.97684899999999
 30
0.0
 40
3.0436030000000001
 50
340.30575399999998
 51
351.77912500000002
  0
ARC
  5
228
  8
0
 62
     7
 10
115.74850499999999
 20
198.074307
 30
0.0
 40
3.6518059999999992
 50
351.61277700000011
 51
357.78356700000001
  0
ARC
  5
229
  8
0
 62
     7
 10
102.25524799999999
 20
198.77468500000001
 30
0.0
 40
17.162979
 50
357.1893
 51
357.90280200000001
  0
ARC
  5
22A
  8
0
 62
     7
 10
105.73786699999999
 20
204.77921699999999
 30
0.0
 40
13.681196999999999
 50
2.4329830000000001
 51
3.7428910000000002
  0
ARC
  5
22B
  8
0
 62
     7
 10
115.57646099999999
 20
205.404697
 30
0.0
 40
3.8227999999999991
 50
4.0143370000000003
 51
9.5043439999999997
  0
ARC
  5
22C
  8
0
 62
     7
 10
116.60442999999999
 20
205.56223
 30
0.0
 40
2.7829669999999989
 50
9.800203999999999
 51
23.886393999999999
  0
ARC
  5
22D
  8
0
 62
     7
 10
116.88725700000001
 20
205.660282
 30
0.0
 40
2.484785
 50
24.459855000000001
 51
35.617752000000003
  0
ARC
  5
22E
  8
0
 62
     7
 10
117.62234599999999
 20
206.14994200000001
 30
0.0
 40
1.602331999999999
 50
36.692100000000003
 51
54.853347999999997
  0
ARC
  5
22F
  8
0
 62
     7
 10
117.85567500000001
 20
206.44860499999999
 30
0.0
 40
1.2239450000000001
 50
55.736081999999989
 51
71.654668999999998
  0
ARC
  5
230
  8
0
 62
     7
 10
117.91201
 20
206.59308899999999
 30
0.0
 40
1.0691040000000001
 50
72.083236999999997
 51
91.021690000000007
  0
ARC
  5
231
  8
0
 62
     7
 10
117.92061099999999
 20
206.58899
 30
0.0
 40
1.073388
 50
91.476859999999974
 51
107.91306400000001
  0
ARC
  5
232
  8
0
 62
     7
 10
117.96981100000001
 20
206.46914200000001
 30
0.0
 40
1.202601
 50
108.3872429999999
 51
122.60783499999999
  0
ARC
  5
233
  8
0
 62
     7
 10
118.08903100000001
 20
206.279766
 30
0.0
 40
1.426374
 50
122.542632
 51
141.34359699999999
  0
ARC
  5
234
  8
0
 62
     7
 10
118.52746399999999
 20
205.894488
 30
0.0
 40
2.009593999999999
 50
140.57378
 51
161.316979
  0
ARC
  5
235
  8
0
 62
     7
 10
119.422264
 20
205.501102
 30
0.0
 40
2.9844970000000002
 50
159.66528400000001
 51
171.647437
  0
ARC
  5
236
  8
0
 62
     7
 10
120.007766
 20
205.37949900000001
 30
0.0
 40
3.581626
 50
171.08335400000001
 51
181.017515
  0
ARC
  5
237
  8
0
 62
     7
 10
120.28823300000001
 20
205.36157499999999
 30
0.0
 40
3.8617989999999991
 50
180.67773399999999
 51
190.53027599999999
  0
ARC
  5
238
  8
0
 62
     7
 10
119.514094
 20
205.249067
 30
0.0
 40
3.080290999999999
 50
191.10438400000001
 51
203.561419
  0
ARC
  5
239
  8
0
 62
     7
 10
118.734534
 20
204.93381500000001
 30
0.0
 40
2.2398189999999989
 50
204.14068900000001
 51
216.43147500000001
  0
ARC
  5
23A
  8
0
 62
     7
 10
118.220826
 20
204.583935
 30
0.0
 40
1.6188979999999991
 50
217.265657
 51
235.172123
  0
ARC
  5
23B
  8
0
 62
     7
 10
117.982738
 20
204.28288900000001
 30
0.0
 40
1.2360260000000001
 50
236.261898
 51
251.96716799999999
  0
ARC
  5
23C
  8
0
 62
     7
 10
117.925214
 20
204.158638
 30
0.0
 40
1.100190999999999
 50
252.81270699999999
 51
271.11852099999999
  0
ARC
  5
23D
  8
0
 62
     7
 10
117.90924099999999
 20
204.13881799999999
 30
0.0
 40
1.08081
 50
271.985681
 51
288.25460399999997
  0
ARC
  5
23E
  8
0
 62
     7
 10
117.874346
 20
204.23588599999999
 30
0.0
 40
1.1839269999999991
 50
288.38683500000002
 51
302.847421
  0
ARC
  5
23F
  8
0
 62
     7
 10
117.751158
 20
204.42800099999999
 30
0.0
 40
1.4121440000000001
 50
302.818555
 51
321.94391200000001
  0
ARC
  5
240
  8
0
 62
     7
 10
117.384964
 20
204.76238000000001
 30
0.0
 40
1.906979999999999
 50
320.815404
 51
334.143235
  0
ARC
  5
241
  8
0
 62
     7
 10
116.79978300000001
 20
205.06877600000001
 30
0.0
 40
2.567285
 50
333.6854580000001
 51
340.14742999999999
  0
ARC
  5
242
  8
0
 62
     7
 10
116.50762899999999
 20
205.194309
 30
0.0
 40
2.8847680000000002
 50
339.77291200000008
 51
351.573418
  0
ARC
  5
243
  8
0
 62
     7
 10
115.93355
 20
205.29124200000001
 30
0.0
 40
3.466874999999999
 50
351.37906500000003
 51
357.78180600000002
  0
ARC
  5
244
  8
0
 62
     7
 10
101.92769699999999
 20
206.025182
 30
0.0
 40
17.491686999999999
 50
357.1551970000001
 51
357.82058699999999
  0
ARC
  5
245
  8
0
 62
     7
 10
116.51177
 20
208.666032
 30
0.0
 40
0.177615
 50
97.009478999999999
 51
114.881289
  0
ARC
  5
246
  8
0
 62
     7
 10
116.759106
 20
206.804394
 30
0.0
 40
2.0556040000000002
 50
91.909790000000015
 51
97.519697999999991
  0
ARC
  5
247
  8
0
 62
     7
 10
117.074477
 20
203.435498
 30
0.0
 40
5.436926999999999
 50
91.496908000000005
 51
94.048756000000026
  0
ARC
  5
248
  8
0
 62
     7
 10
117.48317
 20
193.895275
 30
0.0
 40
14.985417999999999
 50
90.714677000000023
 51
92.106116
  0
ARC
  5
249
  8
0
 62
     7
 10
118.042913
 20
171.413883
 30
0.0
 40
37.473083000000003
 50
90.677041999999986
 51
91.141698000000005
  0
ARC
  5
24A
  8
0
 62
     7
 10
117.827293
 20
181.77698599999999
 30
0.0
 40
27.108315999999999
 50
89.747632999999993
 51
90.480163000000005
  0
ARC
  5
24B
  8
0
 62
     7
 10
117.94789
 20
143.617988
 30
0.0
 40
65.267050999999995
 50
89.736714000000006
 51
90.001042999999996
  0
ARC
  5
24C
  8
0
 62
     7
 10
118.941906
 20
245.26622399999999
 30
0.0
 40
36.388494999999999
 50
268.90702399999998
 51
269.33018799999991
  0
ARC
  5
24D
  8
0
 62
     7
 10
118.290069
 20
192.12062599999999
 30
0.0
 40
16.761119999999998
 50
88.040805000000006
 51
89.225898999999998
  0
ARC
  5
24E
  8
0
 62
     7
 10
118.43047799999999
 20
196.45372800000001
 30
0.0
 40
12.425753
 50
86.382454000000024
 51
88.004785999999996
  0
ARC
  5
24F
  8
0
 62
     7
 10
119.05467899999999
 20
206.700524
 30
0.0
 40
2.1601180000000002
 50
81.859166000000002
 51
85.757147000000003
  0
ARC
  5
250
  8
0
 62
     7
 10
119.348114
 20
208.742952
 30
0.0
 40
0.096728
 50
60.526422000000011
 51
82.603663999999995
  0
LINE
  5
251
  8
0
 62
     7
 10
105.729
 20
204.386
 30
0.0
 11
105.729
 21
201.60900000000001
 31
0.0
  0
LINE
  5
252
  8
0
 62
     7
 10
105.729
 20
201.60900000000001
 30
0.0
 11
105.729
 21
198.83199999999999
 31
0.0
  0
LINE
  5
253
  8
0
 62
     7
 10
105.227
 20
204.89099999999999
 30
0.0
 11
105.227
 21
201.60900000000001
 31
0.0
  0
LINE
  5
254
  8
0
 62
     7
 10
105.227
 20
201.60900000000001
 30
0.0
 11
105.227
 21
198.327
 31
0.0
  0
LINE
  5
255
  8
0
 62
     7
 10
103.22199999999999
 20
204.89099999999999
 30
0.0
 11
103.22199999999999
 21
198.327
 31
0.0
  0
LINE
  5
256
  8
0
 62
     7
 10
100.611
 20
207.417
 30
0.0
 11
100.611
 21
202.42400000000001
 31
0.0
  0
LINE
  5
257
  8
0
 62
     7
 10
100.611
 20
200.791
 30
0.0
 11
100.611
 21
195.80199999999999
 31
0.0
  0
LINE
  5
258
  8
0
 62
     7
 10
99.562899999999999
 20
208.679
 30
0.0
 11
99.562899999999999
 21
204.39500000000001
 31
0.0
  0
LINE
  5
259
  8
0
 62
     7
 10
99.558700000000002
 20
198.81599999999989
 30
0.0
 11
99.558700000000002
 21
194.53999999999999
 31
0.0
  0
ARC
  5
25A
  8
0
 62
     7
 10
124.967541
 20
194.93106900000001
 30
0.0
 40
1.0354270000000001
 50
180.8843479999999
 51
245.02192700000001
  0
ARC
  5
25B
  8
0
 62
     7
 10
124.966989
 20
208.284435
 30
0.0
 40
1.03487
 50
114.95873899999999
 51
179.134987
  0
ARC
  5
25C
  8
0
 62
     7
 10
122.77460000000001
 20
190.21372
 30
0.0
 40
4.1667239999999994
 50
0.4380609999999999
 51
65.079233000000002
  0
ARC
  5
25D
  8
0
 62
     7
 10
122.727204
 20
213.03192300000001
 30
0.0
 40
4.214459999999999
 50
295.3304280000001
 51
359.15227700000003
  0
ARC
  5
25E
  8
0
 62
     7
 10
128.45670899999999
 20
190.24592100000001
 30
0.0
 40
1.515506999999999
 50
180.013035
 51
270.01304499999998
  0
ARC
  5
25F
  8
0
 62
     7
 10
128.51483999999999
 20
212.911069
 30
0.0
 40
1.5747239999999989
 50
92.102978000000007
 51
177.87094300000001
  0
ARC
  5
260
  8
0
 62
     7
 10
130.966205
 20
190.807838
 30
0.0
 40
3.4506480000000002
 50
250.15810300000001
 51
269.98165299999999
  0
ARC
  5
261
  8
0
 62
     7
 10
130.72064700000001
 20
189.97226699999999
 30
0.0
 40
2.581869999999999
 50
208.75007099999999
 51
248.98996500000001
  0
ARC
  5
262
  8
0
 62
     7
 10
130.68994900000001
 20
213.27973
 30
0.0
 40
2.537291999999999
 50
106.993246
 51
151.64605700000001
  0
ARC
  5
263
  8
0
 62
     7
 10
130.92764099999999
 20
212.61174099999999
 30
0.0
 40
3.245741999999999
 50
89.33873100000001
 51
107.559687
  0
LINE
  5
264
  8
0
 62
     7
 10
106.983
 20
204.625
 30
0.0
 11
106.983
 21
204.94399999999999
 31
0.0
  0
LINE
  5
265
  8
0
 62
     7
 10
106.983
 20
198.27500000000001
 30
0.0
 11
106.983
 21
198.59399999999999
 31
0.0
  0
LINE
  5
266
  8
0
 62
     7
 10
106.983
 20
204.94399999999999
 30
0.0
 11
107.18300000000001
 21
205.14500000000001
 31
0.0
  0
LINE
  5
267
  8
0
 62
     7
 10
107.18300000000001
 20
198.07400000000001
 30
0.0
 11
106.983
 21
198.27500000000001
 31
0.0
  0
LINE
  5
268
  8
0
 62
     7
 10
111.37
 20
198.07499999999999
 30
0.0
 11
107.18300000000001
 21
198.07400000000001
 31
0.0
  0
LINE
  5
269
  8
0
 62
     7
 10
107.18300000000001
 20
205.14500000000001
 30
0.0
 11
111.37
 21
205.14400000000001
 31
0.0
  0
ARC
  5
26A
  8
0
 62
     7
 10
110.287459
 20
219.823588
 30
0.0
 40
14.719117000000001
 50
274.21757700000001
 51
275.33854300000002
  0
ARC
  5
26B
  8
0
 62
     7
 10
111.361968
 20
208.07354699999999
 30
0.0
 40
2.9201639999999989
 50
275.7972529999999
 51
282.58732400000002
  0
ARC
  5
26C
  8
0
 62
     7
 10
111.478756
 20
207.421132
 30
0.0
 40
2.258154999999999
 50
283.30278599999991
 51
303.35808100000003
  0
ARC
  5
26D
  8
0
 62
     7
 10
111.253192
 20
207.82135199999999
 30
0.0
 40
2.7166549999999989
 50
302.690201
 51
312.29888899999997
  0
ARC
  5
26E
  8
0
 62
     7
 10
111.33188800000001
 20
207.69322
 30
0.0
 40
2.5690729999999991
 50
312.923948
 51
323.968119
  0
ARC
  5
26F
  8
0
 62
     7
 10
111.441141
 20
207.63192799999999
 30
0.0
 40
2.4447119999999991
 50
323.62358
 51
336.01434500000011
  0
ARC
  5
270
  8
0
 62
     7
 10
111.567049
 20
207.55108000000001
 30
0.0
 40
2.296921999999999
 50
336.58020499999998
 51
344.430926
  0
ARC
  5
271
  8
0
 62
     7
 10
104.084287
 20
209.75877199999999
 30
0.0
 40
10.098361000000001
 50
343.75962800000002
 51
345.11002200000007
  0
ARC
  5
272
  8
0
 62
     7
 10
102.166298
 20
192.89688799999999
 30
0.0
 40
12.096707
 50
15.13237
 51
16.503827999999999
  0
ARC
  5
273
  8
0
 62
     7
 10
111.285551
 20
195.57160099999999
 30
0.0
 40
2.593461
 50
17.079912
 51
22.892308
  0
ARC
  5
274
  8
0
 62
     7
 10
111.61549599999999
 20
195.688063
 30
0.0
 40
2.2442980000000001
 50
23.429946999999999
 51
36.932128000000013
  0
ARC
  5
275
  8
0
 62
     7
 10
111.31983200000001
 20
195.511157
 30
0.0
 40
2.5871879999999998
 50
36.129415999999999
 51
47.084552000000002
  0
ARC
  5
276
  8
0
 62
     7
 10
111.35856800000001
 20
195.53923900000001
 30
0.0
 40
2.5402619999999989
 50
47.293115
 51
57.580257999999994
  0
ARC
  5
277
  8
0
 62
     7
 10
111.380244
 20
195.563672
 30
0.0
 40
2.5080230000000001
 50
57.699024000000009
 51
75.732334999999992
  0
ARC
  5
278
  8
0
 62
     7
 10
111.44447700000001
 20
195.669118
 30
0.0
 40
2.3902730000000001
 50
76.601655000000008
 51
84.307633999999993
  0
ARC
  5
279
  8
0
 62
     7
 10
110.855656
 20
190.42551
 30
0.0
 40
7.666710000000001
 50
83.815736999999999
 51
86.153536000000017
  0
ARC
  5
27A
  8
0
 62
     7
 10
115.114086
 20
196.34614199999999
 30
0.0
 40
1.303520999999999
 50
192.91794400000001
 51
267.42610300000001
  0
ARC
  5
27B
  8
0
 62
     7
 10
115.11206900000001
 20
206.87398200000001
 30
0.0
 40
1.3012129999999991
 50
92.489565000000013
 51
167.12795700000001
  0
LINE
  5
27C
  8
0
 62
     7
 10
115.73999999999999
 20
195.04400000000001
 30
0.0
 11
115.056
 21
195.04400000000001
 31
0.0
  0
LINE
  5
27D
  8
0
 62
     7
 10
115.056
 20
208.17400000000001
 30
0.0
 11
115.73999999999999
 21
208.17400000000001
 31
0.0
  0
LINE
  5
27E
  8
0
 62
     7
 10
115.73999999999999
 20
208.17400000000001
 30
0.0
 11
115.76300000000001
 21
208.17599999999999
 31
0.0
  0
ARC
  5
27F
  8
0
 62
     7
 10
115.73168699999999
 20
208.32616999999999
 30
0.0
 40
0.153403
 50
281.84487200000001
 51
292.36060199999997
  0
ARC
  5
280
  8
0
 62
     7
 10
115.738072
 20
208.30549199999999
 30
0.0
 40
0.131865
 50
293.21332699999999
 51
307.473184
  0
ARC
  5
281
  8
0
 62
     7
 10
115.695953
 20
208.33957799999999
 30
0.0
 40
0.184978
 50
311.40665300000001
 51
323.05570599999999
  0
ARC
  5
282
  8
0
 62
     7
 10
112.78252500000001
 20
192.18409299999999
 30
0.0
 40
4.1527750000000001
 50
42.509824000000002
 51
43.027817999999989
  0
ARC
  5
283
  8
0
 62
     7
 10
115.723134
 20
194.88121799999999
 30
0.0
 40
0.166426
 50
55.124077
 51
66.293184999999994
  0
ARC
  5
284
  8
0
 62
     7
 10
115.754245
 20
194.97098199999999
 30
0.0
 40
0.072131
 50
60.241576000000002
 51
82.888509999999997
  0
ARC
  5
285
  8
0
 62
     7
 10
115.74619800000001
 20
194.95071899999999
 30
0.0
 40
0.093395
 50
79.526935999999992
 51
93.536586000000014
  0
ARC
  5
286
  8
0
 62
     7
 10
120.59884599999999
 20
212.68283299999999
 30
0.0
 40
4.509390999999999
 50
270.87417900000003
 51
273.35705000000002
  0
ARC
  5
287
  8
0
 62
     7
 10
120.781986
 20
209.32185100000001
 30
0.0
 40
1.1435379999999991
 50
274.05782599999998
 51
282.07027699999998
  0
ARC
  5
288
  8
0
 62
     7
 10
120.793631
 20
209.19022200000001
 30
0.0
 40
1.0125120000000001
 50
282.98349400000001
 51
294.55347599999999
  0
ARC
  5
289
  8
0
 62
     7
 10
120.059184
 20
210.84391600000001
 30
0.0
 40
2.8219279999999989
 50
294.16474399999998
 51
298.94427200000001
  0
ARC
  5
28A
  8
0
 62
     7
 10
117.831138
 20
188.035225
 30
0.0
 40
7.6960459999999999
 50
62.162870999999988
 51
63.869326999999991
  0
ARC
  5
28B
  8
0
 62
     7
 10
120.761681
 20
193.96077600000001
 30
0.0
 40
1.085674
 50
64.992918000000003
 51
76.174874000000003
  0
ARC
  5
28C
  8
0
 62
     7
 10
120.837991
 20
194.21665300000001
 30
0.0
 40
0.8190770000000001
 50
77.081126999999995
 51
82.634531999999979
  0
ARC
  5
28D
  8
0
 62
     7
 10
120.752182
 20
193.601496
 30
0.0
 40
1.440172
 50
82.386293000000009
 51
87.704596999999993
  0
ARC
  5
28E
  8
0
 62
     7
 10
120.630673
 20
190.552483
 30
0.0
 40
4.491604999999999
 50
87.713608999999991
 51
89.528379999999984
  0
ARC
  5
28F
  8
0
 62
     7
 10
124.35897199999999
 20
214.12736899999999
 30
0.0
 40
7.2554289999999986
 50
230.518214
 51
232.05101999999999
  0
ARC
  5
290
  8
0
 62
     7
 10
120.702831
 20
209.482741
 30
0.0
 40
1.344755999999999
 50
233.193927
 51
237.797877
  0
ARC
  5
291
  8
0
 62
     7
 10
120.506682
 20
209.21243799999999
 30
0.0
 40
1.011741
 50
239.039818
 51
254.82422399999999
  0
ARC
  5
292
  8
0
 62
     7
 10
120.578171
 20
209.35154499999999
 30
0.0
 40
1.1651670000000001
 50
253.2219200000001
 51
264.12106799999998
  0
ARC
  5
293
  8
0
 62
     7
 10
120.904082
 20
212.02241699999999
 30
0.0
 40
3.8557059999999992
 50
263.368719
 51
266.48433
  0
ARC
  5
294
  8
0
 62
     7
 10
121.043363
 20
189.63997800000001
 30
0.0
 40
5.4170030000000002
 50
93.977179000000007
 51
96.230221
  0
ARC
  5
295
  8
0
 62
     7
 10
120.618866
 20
193.6628179999999
 30
0.0
 40
1.371931999999999
 50
96.839315000000013
 51
105.951477
  0
ARC
  5
296
  8
0
 62
     7
 10
120.617138
 20
193.738923
 30
0.0
 40
1.2984260000000001
 50
106.801118
 51
119.073134
  0
ARC
  5
297
  8
0
 62
     7
 10
120.685975
 20
193.761573
 30
0.0
 40
1.3140080000000001
 50
122.17791200000001
 51
126.273454
  0
ARC
  5
298
  8
0
 62
     7
 10
121.673502
 20
192.43943899999999
 30
0.0
 40
2.9642080000000002
 50
126.542512
 51
130.567948
  0
ARC
  5
299
  8
0
 62
     7
 10
122.186633
 20
195.86503200000001
 30
0.0
 40
1.276548999999999
 50
233.36408299999999
 51
269.797327
  0
ARC
  5
29A
  8
0
 62
     7
 10
122.182164
 20
207.36353500000001
 30
0.0
 40
1.26312
 50
90.002096000000009
 51
126.836494
  0
LINE
  5
29B
  8
0
 62
     7
 10
123.932
 20
194.58799999999999
 30
0.0
 11
122.182
 21
194.58799999999999
 31
0.0
  0
LINE
  5
29C
  8
0
 62
     7
 10
122.182
 20
208.62700000000001
 30
0.0
 11
123.932
 21
208.62700000000001
 31
0.0
  0
ARC
  5
29D
  8
0
 62
     7
 10
117.915054
 20
196.436352
 30
0.0
 40
2.5292460000000001
 50
305.889927
 51
316.36938500000008
  0
ARC
  5
29E
  8
0
 62
     7
 10
117.90212200000001
 20
196.41684100000001
 30
0.0
 40
2.5044080000000002
 50
214.72620800000001
 51
234.08020300000001
  0
ARC
  5
29F
  8
0
 62
     7
 10
117.9188
 20
206.787756
 30
0.0
 40
2.5260869999999991
 50
126.03076299999999
 51
145.22840500000001
  0
ARC
  5
2A0
  8
0
 62
     7
 10
117.844397
 20
206.70837599999999
 30
0.0
 40
2.6313580000000001
 50
43.733142999999991
 51
53.782193000000007
  0
LINE
  5
2A1
  8
0
 62
     7
 10
106.983
 20
198.83199999999999
 30
0.0
 11
105.729
 21
198.83199999999999
 31
0.0
  0
LINE
  5
2A2
  8
0
 62
     7
 10
105.729
 20
204.386
 30
0.0
 11
106.983
 21
204.386
 31
0.0
  0
LINE
  5
2A3
  8
0
 62
     7
 10
105.227
 20
198.327
 30
0.0
 11
103.22199999999999
 21
198.327
 31
0.0
  0
LINE
  5
2A4
  8
0
 62
     7
 10
103.22199999999999
 20
204.89099999999999
 30
0.0
 11
105.227
 21
204.89099999999999
 31
0.0
  0
LINE
  5
2A5
  8
0
 62
     7
 10
105.729
 20
198.83199999999999
 30
0.0
 11
105.227
 21
198.327
 31
0.0
  0
LINE
  5
2A6
  8
0
 62
     7
 10
105.227
 20
204.89099999999999
 30
0.0
 11
105.729
 21
204.386
 31
0.0
  0
ARC
  5
2A7
  8
0
 62
     7
 10
114.91848
 20
212.06437600000001
 30
0.0
 40
15.176809
 50
200.415077
 51
201.637271
  0
ARC
  5
2A8
  8
0
 62
     7
 10
103.79066899999999
 20
207.66307
 30
0.0
 40
3.2102309999999998
 50
201.85091700000001
 51
211.37240399999999
  0
ARC
  5
2A9
  8
0
 62
     7
 10
103.036372
 20
207.27618000000001
 30
0.0
 40
2.3656179999999991
 50
212.88289900000001
 51
234.612796
  0
ARC
  5
2AA
  8
0
 62
     7
 10
103.16643500000001
 20
207.489983
 30
0.0
 40
2.615302999999999
 50
235.002286
 51
250.13665499999999
  0
ARC
  5
2AB
  8
0
 62
     7
 10
102.952853
 20
206.97973400000001
 30
0.0
 40
2.0630239999999991
 50
250.90053
 51
255.96730099999999
  0
ARC
  5
2AC
  8
0
 62
     7
 10
103.006958
 20
207.23365200000001
 30
0.0
 40
2.322500999999999
 50
256.19127700000001
 51
263.75312100000002
  0
ARC
  5
2AD
  8
0
 62
     7
 10
103.26581
 20
209.33013399999999
 30
0.0
 40
4.4347969999999997
 50
263.37598200000002
 51
266.43343299999998
  0
ARC
  5
2AE
  8
0
 62
     7
 10
103.94469700000001
 20
220.48560900000001
 30
0.0
 40
15.610906999999999
 50
266.49359199999998
 51
267.34500800000001
  0
ARC
  5
2AF
  8
0
 62
     7
 10
103.798259
 20
184.630708
 30
0.0
 40
13.70856
 50
92.411010000000005
 51
93.709119999999984
  0
ARC
  5
2B0
  8
0
 62
     7
 10
103.108841
 20
195.487337
 30
0.0
 40
2.8301090000000002
 50
93.99976199999999
 51
103.407265
  0
ARC
  5
2B1
  8
0
 62
     7
 10
102.98426600000001
 20
196.20096100000001
 30
0.0
 40
2.1075140000000001
 50
104.611405
 51
117.287902
  0
ARC
  5
2B2
  8
0
 62
     7
 10
103.480768
 20
195.14287400000001
 30
0.0
 40
3.275771999999999
 50
116.521001
 51
123.632319
  0
ARC
  5
2B3
  8
0
 62
     7
 10
102.94715600000001
 20
195.91380699999999
 30
0.0
 40
2.338403
 50
123.20845300000001
 51
130.56912199999999
  0
ARC
  5
2B4
  8
0
 62
     7
 10
102.604168
 20
196.349467
 30
0.0
 40
1.784543999999999
 50
131.301052
 51
150.579092
  0
ARC
  5
2B5
  8
0
 62
     7
 10
103.218451
 20
195.94155699999999
 30
0.0
 40
2.5205489999999999
 50
149.36161299999989
 51
152.49524099999999
  0
ARC
  5
2B6
  8
0
 62
     7
 10
104.62218300000001
 20
195.20528300000001
 30
0.0
 40
4.1056509999999991
 50
152.42853500000001
 51
155.558348
  0
ARC
  5
2B7
  8
0
 62
     7
 10
107.960742
 20
193.69464099999999
 30
0.0
 40
7.7700740000000001
 50
155.60346799999999
 51
159.244799
  0
ARC
  5
2B8
  8
0
 62
     7
 10
100.68100800000001
 20
196.452493
 30
0.0
 40
0.014571
 50
296.42617799999999
 51
342.72167400000001
  0
ARC
  5
2B9
  8
0
 62
     7
 10
103.55886099999999
 20
195.75166899999999
 30
0.0
 40
2.9525909999999991
 50
166.31441799999999
 51
166.52977100000001
  0
ARC
  5
2BA
  8
0
 62
     7
 10
99.072151000000005
 20
196.01476700000001
 30
0.0
 40
1.5533689999999989
 50
288.254347
 51
352.12221600000009
  0
ARC
  5
2BB
  8
0
 62
     7
 10
99.086202999999998
 20
207.21553700000001
 30
0.0
 40
1.5378750000000001
 50
7.5172869999999978
 51
72.10615
  0
ARC
  5
2BC
  8
0
 62
     7
 10
97.799137000000016
 20
199.939142
 30
0.0
 40
5.6790409999999998
 50
283.063985
 51
288.04948999999999
  0
ARC
  5
2BD
  8
0
 62
     7
 10
97.059025000000005
 20
203.00473199999999
 30
0.0
 40
8.8326270000000005
 50
278.44809900000001
 51
283.24570999999997
  0
ARC
  5
2BE
  8
0
 62
     7
 10
96.333909000000006
 20
207.62365299999999
 30
0.0
 40
13.508013999999999
 50
273.33192500000001
 51
278.61210800000009
  0
ARC
  5
2BF
  8
0
 62
     7
 10
95.904137000000006
 20
213.61016100000001
 30
0.0
 40
19.509549
 50
260.651343
 51
273.57012700000001
  0
ARC
  5
2C0
  8
0
 62
     7
 10
94.671649000000002
 20
205.54796300000001
 30
0.0
 40
11.354609999999999
 50
254.29229699999999
 51
260.17942399999998
  0
ARC
  5
2C1
  8
0
 62
     7
 10
93.366090000000014
 20
200.74271999999999
 30
0.0
 40
6.3755160000000002
 50
247.869877
 51
253.89579599999999
  0
ARC
  5
2C2
  8
0
 62
     7
 10
98.380043000000015
 20
91.601843000000002
 30
0.0
 40
11.415468000000001
 50
179.9548419999999
 51
204.14128299999999
  0
ARC
  5
2C3
  8
0
 62
     7
 10
98.452473999999995
 20
91.602578000000008
 30
0.0
 40
11.487899000000001
 50
155.915031
 51
179.958797
  0
LINE
  5
2C4
  8
0
 62
     7
 10
90.964399999999983
 20
98.231700000000004
 30
0.0
 11
90.964399999999983
 21
84.841200000000001
 31
0.0
  0
LINE
  5
2C5
  8
0
 62
     7
 10
90.026600000000002
 20
84.841200000000001
 30
0.0
 11
90.814499999999995
 21
84.841200000000001
 31
0.0
  0
LINE
  5
2C6
  8
0
 62
     7
 10
90.814499999999995
 20
98.381200000000007
 30
0.0
 11
90.026600000000002
 21
98.381200000000007
 31
0.0
  0
LINE
  5
2C7
  8
0
 62
     7
 10
90.026600000000002
 20
98.381200000000007
 30
0.0
 11
90.814499999999995
 21
98.381200000000007
 31
0.0
  0
LINE
  5
2C8
  8
0
 62
     7
 10
90.026600000000002
 20
84.859099999999998
 30
0.0
 11
90.814499999999995
 21
84.859099999999998
 31
0.0
  0
LINE
  5
2C9
  8
0
 62
     7
 10
90.814499999999995
 20
84.843199999999996
 30
0.0
 11
90.026600000000002
 21
84.843199999999996
 31
0.0
  0
LINE
  5
2CA
  8
0
 62
     7
 10
90.026600000000002
 20
98.375
 30
0.0
 11
90.814499999999995
 21
98.375
 31
0.0
  0
LINE
  5
2CB
  8
0
 62
     7
 10
90.814499999999995
 20
98.360500000000002
 30
0.0
 11
90.026600000000002
 21
98.360500000000002
 31
0.0
  0
LINE
  5
2CC
  8
0
 62
     7
 10
90.964399999999983
 20
84.992099999999994
 30
0.0
 11
90.849299999999985
 21
84.879800000000003
 31
0.0
  0
LINE
  5
2CD
  8
0
 62
     7
 10
90.849299999999985
 20
84.892200000000017
 30
0.0
 11
90.964399999999983
 21
85.014799999999994
 31
0.0
  0
LINE
  5
2CE
  8
0
 62
     7
 10
90.026600000000002
 20
98.360500000000002
 30
0.0
 11
90.814499999999995
 21
98.360500000000002
 31
0.0
  0
LINE
  5
2CF
  8
0
 62
     7
 10
90.026600000000002
 20
84.914199999999994
 30
0.0
 11
90.814499999999995
 21
84.914199999999994
 31
0.0
  0
LINE
  5
2D0
  8
0
 62
     7
 10
90.814499999999995
 20
84.875600000000006
 30
0.0
 11
90.026600000000002
 21
84.875600000000006
 31
0.0
  0
LINE
  5
2D1
  8
0
 62
     7
 10
90.026600000000002
 20
98.336399999999998
 30
0.0
 11
90.814499999999995
 21
98.336399999999998
 31
0.0
  0
LINE
  5
2D2
  8
0
 62
     7
 10
90.814499999999995
 20
98.304000000000002
 30
0.0
 11
90.026600000000002
 21
98.304000000000002
 31
0.0
  0
LINE
  5
2D3
  8
0
 62
     7
 10
90.964399999999983
 20
85.017600000000002
 30
0.0
 11
90.849299999999985
 21
84.914199999999994
 31
0.0
  0
LINE
  5
2D4
  8
0
 62
     7
 10
90.849299999999985
 20
84.944500000000005
 30
0.0
 11
90.964399999999983
 21
85.075400000000002
 31
0.0
  0
LINE
  5
2D5
  8
0
 62
     7
 10
90.016300000000001
 20
84.944500000000005
 30
0.0
 11
90.849299999999985
 21
84.944500000000005
 31
0.0
  0
LINE
  5
2D6
  8
0
 62
     7
 10
90.026600000000002
 20
98.302599999999998
 30
0.0
 11
90.814499999999995
 21
98.302599999999998
 31
0.0
  0
LINE
  5
2D7
  8
0
 62
     7
 10
90.026600000000002
 20
85.005899999999997
 30
0.0
 11
90.814499999999995
 21
85.005899999999997
 31
0.0
  0
LINE
  5
2D8
  8
0
 62
     7
 10
90.814499999999995
 20
84.945199999999986
 30
0.0
 11
90.026600000000002
 21
84.945199999999986
 31
0.0
  0
LINE
  5
2D9
  8
0
 62
     7
 10
90.026600000000002
 20
98.260599999999997
 30
0.0
 11
90.814499999999995
 21
98.260599999999997
 31
0.0
  0
LINE
  5
2DA
  8
0
 62
     7
 10
90.814499999999995
 20
98.2089
 30
0.0
 11
90.026600000000002
 21
98.2089
 31
0.0
  0
LINE
  5
2DB
  8
0
 62
     7
 10
90.964399999999983
 20
85.080299999999994
 30
0.0
 11
90.849299999999985
 21
84.985200000000006
 31
0.0
  0
LINE
  5
2DC
  8
0
 62
     7
 10
90.814499999999995
 20
85.005899999999997
 30
0.0
 11
90.814499999999995
 21
84.945199999999986
 31
0.0
  0
LINE
  5
2DD
  8
0
 62
     7
 10
90.849299999999985
 20
85.034099999999995
 30
0.0
 11
90.964399999999983
 21
85.171199999999999
 31
0.0
  0
LINE
  5
2DE
  8
0
 62
     7
 10
90.016300000000001
 20
85.034099999999995
 30
0.0
 11
90.849299999999985
 21
85.034099999999995
 31
0.0
  0
LINE
  5
2DF
  8
0
 62
     7
 10
90.026600000000002
 20
98.2089
 30
0.0
 11
90.814499999999995
 21
98.2089
 31
0.0
  0
LINE
  5
2E0
  8
0
 62
     7
 10
90.026600000000002
 20
85.134
 30
0.0
 11
90.814499999999995
 21
85.134
 31
0.0
  0
LINE
  5
2E1
  8
0
 62
     7
 10
90.814499999999995
 20
85.051299999999983
 30
0.0
 11
90.026600000000002
 21
85.051299999999983
 31
0.0
  0
LINE
  5
2E2
  8
0
 62
     7
 10
90.026600000000002
 20
98.149699999999996
 30
0.0
 11
90.814499999999995
 21
98.149699999999996
 31
0.0
  0
LINE
  5
2E3
  8
0
 62
     7
 10
90.814499999999995
 20
98.079400000000021
 30
0.0
 11
90.026600000000002
 21
98.079400000000021
 31
0.0
  0
LINE
  5
2E4
  8
0
 62
     7
 10
90.964399999999983
 20
85.177400000000006
 30
0.0
 11
90.849299999999985
 21
85.092000000000013
 31
0.0
  0
LINE
  5
2E5
  8
0
 62
     7
 10
90.814499999999995
 20
85.134
 30
0.0
 11
90.814499999999995
 21
85.051299999999983
 31
0.0
  0
LINE
  5
2E6
  8
0
 62
     7
 10
90.849299999999985
 20
85.159499999999994
 30
0.0
 11
90.964399999999983
 21
85.3035
 31
0.0
  0
LINE
  5
2E7
  8
0
 62
     7
 10
90.016300000000001
 20
85.159499999999994
 30
0.0
 11
90.849299999999985
 21
85.159499999999994
 31
0.0
  0
LINE
  5
2E8
  8
0
 62
     7
 10
90.024500000000003
 20
98.078700000000012
 30
0.0
 11
90.816599999999994
 21
98.078700000000012
 31
0.0
  0
LINE
  5
2E9
  8
0
 62
     7
 10
90.026600000000002
 20
85.297300000000007
 30
0.0
 11
90.814499999999995
 21
85.297300000000007
 31
0.0
  0
LINE
  5
2EA
  8
0
 62
     7
 10
90.814499999999995
 20
85.194000000000003
 30
0.0
 11
90.026600000000002
 21
85.194000000000003
 31
0.0
  0
LINE
  5
2EB
  8
0
 62
     7
 10
90.026600000000002
 20
98.000800000000012
 30
0.0
 11
90.814499999999995
 21
98.000800000000012
 31
0.0
  0
LINE
  5
2EC
  8
0
 62
     7
 10
90.814499999999995
 20
97.914699999999996
 30
0.0
 11
90.026600000000002
 21
97.914699999999996
 31
0.0
  0
LINE
  5
2ED
  8
0
 62
     7
 10
90.964399999999983
 20
85.308999999999997
 30
0.0
 11
90.849299999999985
 21
85.235299999999995
 31
0.0
  0
LINE
  5
2EE
  8
0
 62
     7
 10
90.814499999999995
 20
85.297300000000007
 30
0.0
 11
90.814499999999995
 21
85.194000000000003
 31
0.0
  0
LINE
  5
2EF
  8
0
 62
     7
 10
90.849299999999985
 20
85.319400000000002
 30
0.0
 11
90.964399999999983
 21
85.4696
 31
0.0
  0
LINE
  5
2F0
  8
0
 62
     7
 10
90.016300000000001
 20
85.319400000000002
 30
0.0
 11
90.849299999999985
 21
85.319400000000002
 31
0.0
  0
LINE
  5
2F1
  8
0
 62
     7
 10
90.024500000000003
 20
97.913300000000021
 30
0.0
 11
90.816599999999994
 21
97.913300000000021
 31
0.0
  0
LINE
  5
2F2
  8
0
 62
     7
 10
90.026600000000002
 20
85.495800000000003
 30
0.0
 11
90.814499999999995
 21
85.495800000000003
 31
0.0
  0
LINE
  5
2F3
  8
0
 62
     7
 10
90.814499999999995
 20
85.370999999999995
 30
0.0
 11
90.026600000000002
 21
85.370999999999995
 31
0.0
  0
LINE
  5
2F4
  8
0
 62
     7
 10
90.026600000000002
 20
97.820300000000003
 30
0.0
 11
90.814499999999995
 21
97.820300000000003
 31
0.0
  0
LINE
  5
2F5
  8
0
 62
     7
 10
90.814499999999995
 20
97.7149
 30
0.0
 11
90.026600000000002
 21
97.7149
 31
0.0
  0
LINE
  5
2F6
  8
0
 62
     7
 10
90.016300000000001
 20
85.514399999999995
 30
0.0
 11
90.849299999999985
 21
85.514399999999995
 31
0.0
  0
LINE
  5
2F7
  8
0
 62
     7
 10
90.849299999999985
 20
85.514399999999995
 30
0.0
 11
90.964399999999983
 21
85.668699999999987
 31
0.0
  0
LINE
  5
2F8
  8
0
 62
     7
 10
90.964399999999983
 20
85.477099999999993
 30
0.0
 11
90.849299999999985
 21
85.413799999999995
 31
0.0
  0
LINE
  5
2F9
  8
0
 62
     7
 10
90.814499999999995
 20
85.495800000000003
 30
0.0
 11
90.814499999999995
 21
85.370999999999995
 31
0.0
  0
LINE
  5
2FA
  8
0
 62
     7
 10
90.024500000000003
 20
97.713499999999996
 30
0.0
 11
90.816599999999994
 21
97.713499999999996
 31
0.0
  0
LINE
  5
2FB
  8
0
 62
     7
 10
90.026600000000002
 20
85.726600000000005
 30
0.0
 11
90.814499999999995
 21
85.726600000000005
 31
0.0
  0
LINE
  5
2FC
  8
0
 62
     7
 10
90.814499999999995
 20
85.582599999999999
 30
0.0
 11
90.026600000000002
 21
85.582599999999999
 31
0.0
  0
LINE
  5
2FD
  8
0
 62
     7
 10
90.016300000000001
 20
85.742400000000004
 30
0.0
 11
90.847600000000014
 21
85.742400000000004
 31
0.0
  0
LINE
  5
2FE
  8
0
 62
     7
 10
90.847600000000014
 20
85.742400000000004
 30
0.0
 11
90.964399999999983
 21
85.901600000000002
 31
0.0
  0
LINE
  5
2FF
  8
0
 62
     7
 10
90.964399999999983
 20
85.678299999999979
 30
0.0
 11
90.849299999999985
 21
85.626000000000005
 31
0.0
  0
LINE
  5
300
  8
0
 62
     7
 10
90.814499999999995
 20
85.726600000000005
 30
0.0
 11
90.814499999999995
 21
85.582599999999999
 31
0.0
  0
LINE
  5
301
  8
0
 62
     7
 10
90.026600000000002
 20
97.603300000000004
 30
0.0
 11
90.814499999999995
 21
97.603300000000004
 31
0.0
  0
LINE
  5
302
  8
0
 62
     7
 10
90.814499999999995
 20
97.482000000000014
 30
0.0
 11
90.026600000000002
 21
97.482000000000014
 31
0.0
  0
LINE
  5
303
  8
0
 62
     7
 10
90.024500000000003
 20
97.481300000000005
 30
0.0
 11
90.818299999999994
 21
97.481300000000005
 31
0.0
  0
LINE
  5
304
  8
0
 62
     7
 10
90.016300000000001
 20
86.002899999999997
 30
0.0
 11
90.847600000000014
 21
86.002899999999997
 31
0.0
  0
LINE
  5
305
  8
0
 62
     7
 10
90.847600000000014
 20
86.002899999999997
 30
0.0
 11
90.964399999999983
 21
86.165499999999994
 31
0.0
  0
LINE
  5
306
  8
0
 62
     7
 10
90.964399999999983
 20
85.911199999999994
 30
0.0
 11
90.847600000000014
 21
85.869900000000001
 31
0.0
  0
LINE
  5
307
  8
0
 62
     7
 10
90.026600000000002
 20
85.990499999999997
 30
0.0
 11
90.814499999999995
 21
85.990499999999997
 31
0.0
  0
LINE
  5
308
  8
0
 62
     7
 10
90.814499999999995
 20
85.990499999999997
 30
0.0
 11
90.814499999999995
 21
85.828599999999994
 31
0.0
  0
LINE
  5
309
  8
0
 62
     7
 10
90.814499999999995
 20
85.828599999999994
 30
0.0
 11
90.026600000000002
 21
85.828599999999994
 31
0.0
  0
LINE
  5
30A
  8
0
 62
     7
 10
90.026600000000002
 20
97.355900000000005
 30
0.0
 11
90.814499999999995
 21
97.355900000000005
 31
0.0
  0
LINE
  5
30B
  8
0
 62
     7
 10
90.814499999999995
 20
97.217399999999998
 30
0.0
 11
90.026600000000002
 21
97.217399999999998
 31
0.0
  0
LINE
  5
30C
  8
0
 62
     7
 10
90.024500000000003
 20
97.216700000000003
 30
0.0
 11
90.818299999999994
 21
97.216700000000003
 31
0.0
  0
LINE
  5
30D
  8
0
 62
     7
 10
90.026600000000002
 20
86.285399999999996
 30
0.0
 11
90.814499999999995
 21
86.285399999999996
 31
0.0
  0
LINE
  5
30E
  8
0
 62
     7
 10
90.814499999999995
 20
86.104200000000006
 30
0.0
 11
90.026600000000002
 21
86.104200000000006
 31
0.0
  0
LINE
  5
30F
  8
0
 62
     7
 10
90.964399999999983
 20
86.175799999999995
 30
0.0
 11
90.847600000000014
 21
86.145499999999984
 31
0.0
  0
LINE
  5
310
  8
0
 62
     7
 10
90.814499999999995
 20
86.285399999999996
 30
0.0
 11
90.814499999999995
 21
86.104200000000006
 31
0.0
  0
LINE
  5
311
  8
0
 62
     7
 10
90.847600000000014
 20
86.294300000000007
 30
0.0
 11
90.964399999999983
 21
86.459699999999998
 31
0.0
  0
LINE
  5
312
  8
0
 62
     7
 10
90.016300000000001
 20
86.294300000000007
 30
0.0
 11
90.847600000000014
 21
86.294300000000007
 31
0.0
  0
LINE
  5
313
  8
0
 62
     7
 10
90.026600000000002
 20
97.076899999999995
 30
0.0
 11
90.814499999999995
 21
97.076899999999995
 31
0.0
  0
LINE
  5
314
  8
0
 62
     7
 10
90.814499999999995
 20
96.921800000000005
 30
0.0
 11
90.026600000000002
 21
96.921800000000005
 31
0.0
  0
LINE
  5
315
  8
0
 62
     7
 10
90.024500000000003
 20
96.920500000000004
 30
0.0
 11
90.818299999999994
 21
96.920500000000004
 31
0.0
  0
LINE
  5
316
  8
0
 62
     7
 10
90.016300000000001
 20
86.614699999999985
 30
0.0
 11
90.845500000000001
 21
86.614699999999985
 31
0.0
  0
LINE
  5
317
  8
0
 62
     7
 10
90.845500000000001
 20
86.614699999999985
 30
0.0
 11
90.964399999999983
 21
86.782200000000003
 31
0.0
  0
LINE
  5
318
  8
0
 62
     7
 10
90.964399999999983
 20
86.469999999999999
 30
0.0
 11
90.845500000000001
 21
86.451400000000007
 31
0.0
  0
LINE
  5
319
  8
0
 62
     7
 10
90.026600000000002
 20
86.608500000000006
 30
0.0
 11
90.814499999999995
 21
86.608500000000006
 31
0.0
  0
LINE
  5
31A
  8
0
 62
     7
 10
90.814499999999995
 20
86.608500000000006
 30
0.0
 11
90.814499999999995
 21
86.411500000000004
 31
0.0
  0
LINE
  5
31B
  8
0
 62
     7
 10
90.814499999999995
 20
86.411500000000004
 30
0.0
 11
90.026600000000002
 21
86.411500000000004
 31
0.0
  0
LINE
  5
31C
  8
0
 62
     7
 10
90.026600000000002
 20
96.768199999999993
 30
0.0
 11
90.814499999999995
 21
96.768199999999993
 31
0.0
  0
LINE
  5
31D
  8
0
 62
     7
 10
90.814499999999995
 20
96.597300000000004
 30
0.0
 11
90.026600000000002
 21
96.597300000000004
 31
0.0
  0
LINE
  5
31E
  8
0
 62
     7
 10
90.024500000000003
 20
96.596599999999995
 30
0.0
 11
90.819699999999997
 21
96.596599999999995
 31
0.0
  0
LINE
  5
31F
  8
0
 62
     7
 10
90.016300000000001
 20
86.963399999999993
 30
0.0
 11
90.845500000000001
 21
86.963399999999993
 31
0.0
  0
LINE
  5
320
  8
0
 62
     7
 10
90.845500000000001
 20
86.963399999999993
 30
0.0
 11
90.964399999999983
 21
87.130099999999999
 31
0.0
  0
LINE
  5
321
  8
0
 62
     7
 10
90.964399999999983
 20
86.791799999999995
 30
0.0
 11
90.845500000000001
 21
86.786299999999997
 31
0.0
  0
LINE
  5
322
  8
0
 62
     7
 10
90.026600000000002
 20
86.958500000000001
 30
0.0
 11
90.814499999999995
 21
86.958500000000001
 31
0.0
  0
LINE
  5
323
  8
0
 62
     7
 10
90.814499999999995
 20
86.958500000000001
 30
0.0
 11
90.814499999999995
 21
86.747000000000014
 31
0.0
  0
LINE
  5
324
  8
0
 62
     7
 10
90.814499999999995
 20
86.747000000000014
 30
0.0
 11
90.026600000000002
 21
86.747000000000014
 31
0.0
  0
LINE
  5
325
  8
0
 62
     7
 10
90.026600000000002
 20
96.430599999999998
 30
0.0
 11
90.814499999999995
 21
96.430599999999998
 31
0.0
  0
LINE
  5
326
  8
0
 62
     7
 10
90.814499999999995
 20
96.245900000000006
 30
0.0
 11
90.026600000000002
 21
96.245900000000006
 31
0.0
  0
LINE
  5
327
  8
0
 62
     7
 10
90.024500000000003
 20
96.244500000000016
 30
0.0
 11
90.819699999999997
 21
96.244500000000016
 31
0.0
  0
LINE
  5
328
  8
0
 62
     7
 10
90.838999999999984
 20
87.139799999999994
 30
0.0
 11
90.964399999999983
 21
87.139799999999994
 31
0.0
  0
LINE
  5
329
  8
0
 62
     7
 10
89.955600000000004
 20
87.139799999999994
 30
0.0
 11
90.017600000000002
 21
87.139799999999994
 31
0.0
  0
LINE
  5
32A
  8
0
 62
     7
 10
89.971100000000007
 20
96.068100000000015
 30
0.0
 11
90.947500000000005
 21
96.068100000000015
 31
0.0
  0
LINE
  5
32B
  8
0
 62
     7
 10
90.017600000000002
 20
87.335400000000007
 30
0.0
 11
90.844099999999997
 21
87.335400000000007
 31
0.0
  0
LINE
  5
32C
  8
0
 62
     7
 10
90.844099999999997
 20
87.335400000000007
 30
0.0
 11
90.964399999999983
 21
87.504900000000006
 31
0.0
  0
LINE
  5
32D
  8
0
 62
     7
 10
90.964399999999983
 20
87.139799999999994
 30
0.0
 11
90.844099999999997
 21
87.146699999999996
 31
0.0
  0
LINE
  5
32E
  8
0
 62
     7
 10
90.026600000000002
 20
87.335400000000007
 30
0.0
 11
90.814499999999995
 21
87.335400000000007
 31
0.0
  0
LINE
  5
32F
  8
0
 62
     7
 10
90.814499999999995
 20
87.335400000000007
 30
0.0
 11
90.814499999999995
 21
87.109399999999994
 31
0.0
  0
LINE
  5
330
  8
0
 62
     7
 10
90.814499999999995
 20
87.109399999999994
 30
0.0
 11
90.026600000000002
 21
87.109399999999994
 31
0.0
  0
LINE
  5
331
  8
0
 62
     7
 10
90.026600000000002
 20
96.068100000000015
 30
0.0
 11
90.814499999999995
 21
96.068100000000015
 31
0.0
  0
LINE
  5
332
  8
0
 62
     7
 10
90.814499999999995
 20
95.868999999999986
 30
0.0
 11
90.026600000000002
 21
95.868999999999986
 31
0.0
  0
LINE
  5
333
  8
0
 62
     7
 10
90.022800000000004
 20
95.868999999999986
 30
0.0
 11
90.821700000000007
 21
95.868999999999986
 31
0.0
  0
LINE
  5
334
  8
0
 62
     7
 10
90.826599999999999
 20
87.511799999999994
 30
0.0
 11
90.964399999999983
 21
87.511799999999994
 31
0.0
  0
LINE
  5
335
  8
0
 62
     7
 10
89.955600000000004
 20
87.511799999999994
 30
0.0
 11
90.0214
 21
87.511799999999994
 31
0.0
  0
LINE
  5
336
  8
0
 62
     7
 10
89.969099999999983
 20
95.692599999999985
 30
0.0
 11
90.948899999999995
 21
95.692599999999985
 31
0.0
  0
LINE
  5
337
  8
0
 62
     7
 10
90.842399999999984
 20
87.732999999999976
 30
0.0
 11
90.964399999999983
 21
87.900400000000005
 31
0.0
  0
LINE
  5
338
  8
0
 62
     7
 10
90.964399999999983
 20
87.511799999999994
 30
0.0
 11
90.844099999999997
 21
87.532499999999985
 31
0.0
  0
LINE
  5
339
  8
0
 62
     7
 10
90.026600000000002
 20
87.735099999999989
 30
0.0
 11
90.814499999999995
 21
87.735099999999989
 31
0.0
  0
LINE
  5
33A
  8
0
 62
     7
 10
90.814499999999995
 20
87.735099999999989
 30
0.0
 11
90.814499999999995
 21
87.495999999999995
 31
0.0
  0
LINE
  5
33B
  8
0
 62
     7
 10
90.814499999999995
 20
87.495999999999995
 30
0.0
 11
90.026600000000002
 21
87.495999999999995
 31
0.0
  0
LINE
  5
33C
  8
0
 62
     7
 10
90.814499999999995
 20
95.468699999999998
 30
0.0
 11
90.026600000000002
 21
95.468699999999998
 31
0.0
  0
LINE
  5
33D
  8
0
 62
     7
 10
90.026600000000002
 20
95.680899999999994
 30
0.0
 11
90.814499999999995
 21
95.680899999999994
 31
0.0
  0
LINE
  5
33E
  8
0
 62
     7
 10
90.814499999999995
 20
87.906599999999997
 30
0.0
 11
90.964399999999983
 21
87.906599999999997
 31
0.0
  0
LINE
  5
33F
  8
0
 62
     7
 10
89.957400000000007
 20
87.906599999999997
 30
0.0
 11
90.026600000000002
 21
87.906599999999997
 31
0.0
  0
LINE
  5
340
  8
0
 62
     7
 10
89.969099999999983
 20
95.295000000000002
 30
0.0
 11
90.948899999999995
 21
95.295000000000002
 31
0.0
  0
LINE
  5
341
  8
0
 62
     7
 10
90.842399999999984
 20
88.150599999999997
 30
0.0
 11
90.964399999999983
 21
88.317999999999984
 31
0.0
  0
LINE
  5
342
  8
0
 62
     7
 10
90.964399999999983
 20
87.907999999999987
 30
0.0
 11
90.842399999999984
 21
87.939699999999988
 31
0.0
  0
LINE
  5
343
  8
0
 62
     7
 10
90.026600000000002
 20
88.154700000000005
 30
0.0
 11
90.814499999999995
 21
88.154700000000005
 31
0.0
  0
LINE
  5
344
  8
0
 62
     7
 10
90.814499999999995
 20
88.154700000000005
 30
0.0
 11
90.814499999999995
 21
87.906599999999997
 31
0.0
  0
LINE
  5
345
  8
0
 62
     7
 10
90.814499999999995
 20
87.906599999999997
 30
0.0
 11
90.026600000000002
 21
87.906599999999997
 31
0.0
  0
LINE
  5
346
  8
0
 62
     7
 10
90.814499999999995
 20
95.046300000000002
 30
0.0
 11
90.026600000000002
 21
95.046300000000002
 31
0.0
  0
LINE
  5
347
  8
0
 62
     7
 10
90.026600000000002
 20
95.270899999999983
 30
0.0
 11
90.814499999999995
 21
95.270899999999983
 31
0.0
  0
LINE
  5
348
  8
0
 62
     7
 10
89.957400000000007
 20
88.322100000000006
 30
0.0
 11
90.964399999999983
 21
88.322100000000006
 31
0.0
  0
LINE
  5
349
  8
0
 62
     7
 10
89.967699999999994
 20
94.877499999999998
 30
0.0
 11
90.950900000000004
 21
94.877499999999998
 31
0.0
  0
LINE
  5
34A
  8
0
 62
     7
 10
90.026600000000002
 20
94.841700000000003
 30
0.0
 11
90.814499999999995
 21
94.841700000000003
 31
0.0
  0
LINE
  5
34B
  8
0
 62
     7
 10
90.814499999999995
 20
94.606000000000009
 30
0.0
 11
90.026600000000002
 21
94.606000000000009
 31
0.0
  0
LINE
  5
34C
  8
0
 62
     7
 10
90.026600000000002
 20
88.594999999999999
 30
0.0
 11
90.814499999999995
 21
88.594999999999999
 31
0.0
  0
LINE
  5
34D
  8
0
 62
     7
 10
90.814499999999995
 20
88.335899999999995
 30
0.0
 11
90.026600000000002
 21
88.335899999999995
 31
0.0
  0
LINE
  5
34E
  8
0
 62
     7
 10
90.840299999999999
 20
88.587400000000002
 30
0.0
 11
90.964399999999983
 21
88.751400000000004
 31
0.0
  0
LINE
  5
34F
  8
0
 62
     7
 10
90.964399999999983
 20
88.322800000000001
 30
0.0
 11
90.842399999999984
 21
88.367599999999996
 31
0.0
  0
LINE
  5
350
  8
0
 62
     7
 10
90.814499999999995
 20
88.594999999999999
 30
0.0
 11
90.814499999999995
 21
88.335899999999995
 31
0.0
  0
LINE
  5
351
  8
0
 62
     7
 10
89.957400000000007
 20
88.754800000000003
 30
0.0
 11
90.964399999999983
 21
88.754800000000003
 31
0.0
  0
LINE
  5
352
  8
0
 62
     7
 10
89.967699999999994
 20
94.442700000000016
 30
0.0
 11
90.952600000000004
 21
94.442700000000016
 31
0.0
  0
LINE
  5
353
  8
0
 62
     7
 10
90.026600000000002
 20
94.393799999999985
 30
0.0
 11
90.814499999999995
 21
94.393799999999985
 31
0.0
  0
LINE
  5
354
  8
0
 62
     7
 10
90.814499999999995
 20
94.147800000000004
 30
0.0
 11
90.026600000000002
 21
94.147800000000004
 31
0.0
  0
LINE
  5
355
  8
0
 62
     7
 10
90.026600000000002
 20
89.049700000000001
 30
0.0
 11
90.814499999999995
 21
89.049700000000001
 31
0.0
  0
LINE
  5
356
  8
0
 62
     7
 10
90.814499999999995
 20
88.783100000000005
 30
0.0
 11
90.026600000000002
 21
88.783100000000005
 31
0.0
  0
LINE
  5
357
  8
0
 62
     7
 10
90.840299999999999
 20
89.041499999999985
 30
0.0
 11
90.964399999999983
 21
89.202699999999993
 31
0.0
  0
LINE
  5
358
  8
0
 62
     7
 10
90.964399999999983
 20
88.755499999999998
 30
0.0
 11
90.840299999999999
 21
88.813399999999987
 31
0.0
  0
LINE
  5
359
  8
0
 62
     7
 10
90.814499999999995
 20
89.049700000000001
 30
0.0
 11
90.814499999999995
 21
88.783100000000005
 31
0.0
  0
LINE
  5
35A
  8
0
 62
     7
 10
89.959400000000002
 20
89.202699999999993
 30
0.0
 11
90.964399999999983
 21
89.202699999999993
 31
0.0
  0
LINE
  5
35B
  8
0
 62
     7
 10
89.967699999999994
 20
93.990700000000004
 30
0.0
 11
90.952600000000004
 21
93.990700000000004
 31
0.0
  0
LINE
  5
35C
  8
0
 62
     7
 10
90.026600000000002
 20
93.932199999999995
 30
0.0
 11
90.814499999999995
 21
93.932199999999995
 31
0.0
  0
LINE
  5
35D
  8
0
 62
     7
 10
90.814499999999995
 20
93.677899999999994
 30
0.0
 11
90.026600000000002
 21
93.677899999999994
 31
0.0
  0
LINE
  5
35E
  8
0
 62
     7
 10
90.026600000000002
 20
89.519000000000005
 30
0.0
 11
90.814499999999995
 21
89.519000000000005
 31
0.0
  0
LINE
  5
35F
  8
0
 62
     7
 10
90.814499999999995
 20
89.247500000000016
 30
0.0
 11
90.026600000000002
 21
89.247500000000016
 31
0.0
  0
LINE
  5
360
  8
0
 62
     7
 10
89.959400000000002
 20
89.665700000000001
 30
0.0
 11
90.964399999999983
 21
89.665700000000001
 31
0.0
  0
LINE
  5
361
  8
0
 62
     7
 10
89.965999999999994
 20
93.527699999999996
 30
0.0
 11
90.953999999999994
 21
93.527699999999996
 31
0.0
  0
LINE
  5
362
  8
0
 62
     7
 10
90.814499999999995
 20
93.194900000000004
 30
0.0
 11
90.026600000000002
 21
93.194900000000004
 31
0.0
  0
LINE
  5
363
  8
0
 62
     7
 10
90.026600000000002
 20
93.457400000000007
 30
0.0
 11
90.814499999999995
 21
93.457400000000007
 31
0.0
  0
LINE
  5
364
  8
0
 62
     7
 10
90.026600000000002
 20
89.999899999999997
 30
0.0
 11
90.814499999999995
 21
89.999899999999997
 31
0.0
  0
LINE
  5
365
  8
0
 62
     7
 10
90.814499999999995
 20
89.723600000000005
 30
0.0
 11
90.026600000000002
 21
89.723600000000005
 31
0.0
  0
LINE
  5
366
  8
0
 62
     7
 10
89.960800000000006
 20
90.138400000000004
 30
0.0
 11
90.962999999999994
 21
90.138400000000004
 31
0.0
  0
LINE
  5
367
  8
0
 62
     7
 10
89.965999999999994
 20
93.053700000000006
 30
0.0
 11
90.956100000000006
 21
93.053700000000006
 31
0.0
  0
LINE
  5
368
  8
0
 62
     7
 10
90.026600000000002
 20
92.971699999999984
 30
0.0
 11
90.814499999999995
 21
92.971699999999984
 31
0.0
  0
LINE
  5
369
  8
0
 62
     7
 10
90.814499999999995
 20
92.704300000000003
 30
0.0
 11
90.026600000000002
 21
92.704300000000003
 31
0.0
  0
LINE
  5
36A
  8
0
 62
     7
 10
90.026600000000002
 20
90.488399999999999
 30
0.0
 11
90.814499999999995
 21
90.488399999999999
 31
0.0
  0
LINE
  5
36B
  8
0
 62
     7
 10
90.814499999999995
 20
90.210699999999989
 30
0.0
 11
90.026600000000002
 21
90.210699999999989
 31
0.0
  0
LINE
  5
36C
  8
0
 62
     7
 10
89.960800000000006
 20
90.618600000000015
 30
0.0
 11
90.962999999999994
 21
90.618600000000015
 31
0.0
  0
LINE
  5
36D
  8
0
 62
     7
 10
89.964600000000004
 20
92.572000000000003
 30
0.0
 11
90.957800000000006
 21
92.572000000000003
 31
0.0
  0
LINE
  5
36E
  8
0
 62
     7
 10
87.964699999999993
 20
86.094499999999996
 30
0.0
 11
87.964699999999993
 21
97.127799999999993
 31
0.0
  0
LINE
  5
36F
  8
0
 62
     7
 10
89.964600000000004
 20
92.084199999999996
 30
0.0
 11
90.957800000000006
 21
92.084199999999996
 31
0.0
  0
LINE
  5
370
  8
0
 62
     7
 10
90.026600000000002
 20
92.481099999999998
 30
0.0
 11
90.814499999999995
 21
92.481099999999998
 31
0.0
  0
LINE
  5
371
  8
0
 62
     7
 10
90.814499999999995
 20
92.206199999999995
 30
0.0
 11
90.026600000000002
 21
92.206199999999995
 31
0.0
  0
LINE
  5
372
  8
0
 62
     7
 10
89.962500000000006
 20
91.105800000000002
 30
0.0
 11
90.961299999999994
 21
91.105800000000002
 31
0.0
  0
LINE
  5
373
  8
0
 62
     7
 10
90.026600000000002
 20
90.984499999999997
 30
0.0
 11
90.814499999999995
 21
90.984499999999997
 31
0.0
  0
LINE
  5
374
  8
0
 62
     7
 10
90.814499999999995
 20
90.704800000000006
 30
0.0
 11
90.026600000000002
 21
90.704800000000006
 31
0.0
  0
LINE
  5
375
  8
0
 62
     7
 10
89.962500000000006
 20
91.594300000000004
 30
0.0
 11
90.959199999999996
 21
91.594300000000004
 31
0.0
  0
LINE
  5
376
  8
0
 62
     7
 10
90.026600000000002
 20
91.982200000000006
 30
0.0
 11
90.814499999999995
 21
91.982200000000006
 31
0.0
  0
LINE
  5
377
  8
0
 62
     7
 10
90.814499999999995
 20
91.704499999999996
 30
0.0
 11
90.026600000000002
 21
91.704499999999996
 31
0.0
  0
LINE
  5
378
  8
0
 62
     7
 10
90.026600000000002
 20
91.482699999999994
 30
0.0
 11
90.814499999999995
 21
91.482699999999994
 31
0.0
  0
LINE
  5
379
  8
0
 62
     7
 10
90.814499999999995
 20
91.203599999999994
 30
0.0
 11
90.026600000000002
 21
91.203599999999994
 31
0.0
  0
LINE
  5
37A
  8
0
 62
     7
 10
90.814499999999995
 20
98.375
 30
0.0
 11
90.940600000000003
 21
98.252999999999986
 31
0.0
  0
LINE
  5
37B
  8
0
 62
     7
 10
90.940600000000003
 20
98.252999999999986
 30
0.0
 11
90.814499999999995
 21
98.381200000000007
 31
0.0
  0
LINE
  5
37C
  8
0
 62
     7
 10
90.964399999999983
 20
89.204099999999997
 30
0.0
 11
90.838999999999984
 21
89.275000000000006
 31
0.0
  0
LINE
  5
37D
  8
0
 62
     7
 10
90.814499999999995
 20
89.519000000000005
 30
0.0
 11
90.814499999999995
 21
89.247500000000016
 31
0.0
  0
LINE
  5
37E
  8
0
 62
     7
 10
90.838999999999984
 20
89.508600000000001
 30
0.0
 11
90.964399999999983
 21
89.665700000000001
 31
0.0
  0
LINE
  5
37F
  8
0
 62
     7
 10
90.964399999999983
 20
89.665700000000001
 30
0.0
 11
90.837199999999996
 21
89.748400000000004
 31
0.0
  0
LINE
  5
380
  8
0
 62
     7
 10
90.814499999999995
 20
89.999899999999997
 30
0.0
 11
90.814499999999995
 21
89.723600000000005
 31
0.0
  0
LINE
  5
381
  8
0
 62
     7
 10
90.837199999999996
 20
89.988200000000006
 30
0.0
 11
90.962999999999994
 21
90.138400000000004
 31
0.0
  0
LINE
  5
382
  8
0
 62
     7
 10
90.962999999999994
 20
90.138400000000004
 30
0.0
 11
90.837199999999996
 21
90.232100000000003
 31
0.0
  0
LINE
  5
383
  8
0
 62
     7
 10
90.814499999999995
 20
90.488399999999999
 30
0.0
 11
90.814499999999995
 21
90.210699999999989
 31
0.0
  0
LINE
  5
384
  8
0
 62
     7
 10
90.8352
 20
90.475999999999999
 30
0.0
 11
90.962999999999994
 21
90.618600000000015
 31
0.0
  0
LINE
  5
385
  8
0
 62
     7
 10
90.962999999999994
 20
90.618600000000015
 30
0.0
 11
90.8352
 21
90.723399999999998
 31
0.0
  0
LINE
  5
386
  8
0
 62
     7
 10
90.814499999999995
 20
90.984499999999997
 30
0.0
 11
90.814499999999995
 21
90.704800000000006
 31
0.0
  0
LINE
  5
387
  8
0
 62
     7
 10
90.8352
 20
90.970699999999994
 30
0.0
 11
90.961299999999994
 21
91.105800000000002
 31
0.0
  0
LINE
  5
388
  8
0
 62
     7
 10
90.961299999999994
 20
91.105800000000002
 30
0.0
 11
90.833799999999997
 21
91.220200000000006
 31
0.0
  0
LINE
  5
389
  8
0
 62
     7
 10
90.814499999999995
 20
91.482699999999994
 30
0.0
 11
90.814499999999995
 21
91.203599999999994
 31
0.0
  0
LINE
  5
38A
  8
0
 62
     7
 10
90.833799999999997
 20
91.468199999999996
 30
0.0
 11
90.959199999999996
 21
91.594300000000004
 31
0.0
  0
LINE
  5
38B
  8
0
 62
     7
 10
90.959199999999996
 20
91.594300000000004
 30
0.0
 11
90.832099999999997
 21
91.719699999999989
 31
0.0
  0
LINE
  5
38C
  8
0
 62
     7
 10
90.814499999999995
 20
91.982200000000006
 30
0.0
 11
90.814499999999995
 21
91.704499999999996
 31
0.0
  0
LINE
  5
38D
  8
0
 62
     7
 10
90.832099999999997
 20
91.967699999999994
 30
0.0
 11
90.957800000000006
 21
92.084199999999996
 31
0.0
  0
LINE
  5
38E
  8
0
 62
     7
 10
90.957800000000006
 20
92.084199999999996
 30
0.0
 11
90.832099999999997
 21
92.2179
 31
0.0
  0
LINE
  5
38F
  8
0
 62
     7
 10
90.814499999999995
 20
92.481099999999998
 30
0.0
 11
90.814499999999995
 21
92.206199999999995
 31
0.0
  0
LINE
  5
390
  8
0
 62
     7
 10
90.829999999999998
 20
92.465199999999996
 30
0.0
 11
90.957800000000006
 21
92.572000000000003
 31
0.0
  0
LINE
  5
391
  8
0
 62
     7
 10
90.957800000000006
 20
92.572000000000003
 30
0.0
 11
90.829999999999998
 21
92.713300000000004
 31
0.0
  0
LINE
  5
392
  8
0
 62
     7
 10
90.814499999999995
 20
92.971699999999984
 30
0.0
 11
90.814499999999995
 21
92.704300000000003
 31
0.0
  0
LINE
  5
393
  8
0
 62
     7
 10
90.829999999999998
 20
92.958600000000004
 30
0.0
 11
90.956100000000006
 21
93.053700000000006
 31
0.0
  0
LINE
  5
394
  8
0
 62
     7
 10
90.956100000000006
 20
93.053700000000006
 30
0.0
 11
90.828599999999994
 21
93.202499999999986
 31
0.0
  0
LINE
  5
395
  8
0
 62
     7
 10
90.814499999999995
 20
93.457400000000007
 30
0.0
 11
90.814499999999995
 21
93.194900000000004
 31
0.0
  0
LINE
  5
396
  8
0
 62
     7
 10
90.828599999999994
 20
93.442899999999995
 30
0.0
 11
90.953999999999994
 21
93.527699999999996
 31
0.0
  0
LINE
  5
397
  8
0
 62
     7
 10
90.953999999999994
 20
93.527699999999996
 30
0.0
 11
90.828599999999994
 21
93.683400000000006
 31
0.0
  0
LINE
  5
398
  8
0
 62
     7
 10
90.814499999999995
 20
93.932199999999995
 30
0.0
 11
90.814499999999995
 21
93.677899999999994
 31
0.0
  0
LINE
  5
399
  8
0
 62
     7
 10
90.826599999999999
 20
93.918400000000005
 30
0.0
 11
90.952600000000004
 21
93.990700000000004
 31
0.0
  0
LINE
  5
39A
  8
0
 62
     7
 10
90.952600000000004
 20
93.990700000000004
 30
0.0
 11
90.826599999999999
 21
94.153300000000002
 31
0.0
  0
LINE
  5
39B
  8
0
 62
     7
 10
90.814499999999995
 20
94.393799999999985
 30
0.0
 11
90.814499999999995
 21
94.147800000000004
 31
0.0
  0
LINE
  5
39C
  8
0
 62
     7
 10
90.824799999999996
 20
94.381399999999999
 30
0.0
 11
90.952600000000004
 21
94.442700000000016
 31
0.0
  0
LINE
  5
39D
  8
0
 62
     7
 10
90.952600000000004
 20
94.442700000000016
 30
0.0
 11
90.824799999999996
 21
94.608800000000016
 31
0.0
  0
LINE
  5
39E
  8
0
 62
     7
 10
90.814499999999995
 20
94.841700000000003
 30
0.0
 11
90.814499999999995
 21
94.606000000000009
 31
0.0
  0
LINE
  5
39F
  8
0
 62
     7
 10
90.824799999999996
 20
94.829300000000003
 30
0.0
 11
90.950900000000004
 21
94.877499999999998
 31
0.0
  0
LINE
  5
3A0
  8
0
 62
     7
 10
90.950900000000004
 20
94.877499999999998
 30
0.0
 11
90.823499999999996
 21
95.047700000000006
 31
0.0
  0
LINE
  5
3A1
  8
0
 62
     7
 10
90.814499999999995
 20
95.270899999999983
 30
0.0
 11
90.814499999999995
 21
95.046300000000002
 31
0.0
  0
LINE
  5
3A2
  8
0
 62
     7
 10
90.823499999999996
 20
95.259900000000002
 30
0.0
 11
90.948899999999995
 21
95.295000000000002
 31
0.0
  0
LINE
  5
3A3
  8
0
 62
     7
 10
90.948899999999995
 20
95.295000000000002
 30
0.0
 11
90.823499999999996
 21
95.468699999999998
 31
0.0
  0
LINE
  5
3A4
  8
0
 62
     7
 10
90.814499999999995
 20
95.680899999999994
 30
0.0
 11
90.814499999999995
 21
95.468699999999998
 31
0.0
  0
LINE
  5
3A5
  8
0
 62
     7
 10
90.821700000000007
 20
95.670599999999993
 30
0.0
 11
90.948899999999995
 21
95.692599999999985
 31
0.0
  0
LINE
  5
3A6
  8
0
 62
     7
 10
90.948899999999995
 20
95.692599999999985
 30
0.0
 11
90.821700000000007
 21
95.868999999999986
 31
0.0
  0
LINE
  5
3A7
  8
0
 62
     7
 10
90.814499999999995
 20
96.068100000000015
 30
0.0
 11
90.814499999999995
 21
95.868999999999986
 31
0.0
  0
LINE
  5
3A8
  8
0
 62
     7
 10
90.821700000000007
 20
96.059200000000004
 30
0.0
 11
90.947500000000005
 21
96.068100000000015
 31
0.0
  0
LINE
  5
3A9
  8
0
 62
     7
 10
90.947500000000005
 20
96.068100000000015
 30
0.0
 11
90.819699999999997
 21
96.244500000000016
 31
0.0
  0
LINE
  5
3AA
  8
0
 62
     7
 10
90.814499999999995
 20
96.430599999999998
 30
0.0
 11
90.814499999999995
 21
96.245900000000006
 31
0.0
  0
LINE
  5
3AB
  8
0
 62
     7
 10
90.819699999999997
 20
96.422999999999973
 30
0.0
 11
90.945800000000006
 21
96.419500000000014
 31
0.0
  0
LINE
  5
3AC
  8
0
 62
     7
 10
90.945800000000006
 20
96.419500000000014
 30
0.0
 11
90.819699999999997
 21
96.596599999999995
 31
0.0
  0
LINE
  5
3AD
  8
0
 62
     7
 10
90.814499999999995
 20
96.768199999999993
 30
0.0
 11
90.814499999999995
 21
96.597300000000004
 31
0.0
  0
LINE
  5
3AE
  8
0
 62
     7
 10
90.819699999999997
 20
96.760599999999997
 30
0.0
 11
90.945800000000006
 21
96.744100000000003
 31
0.0
  0
LINE
  5
3AF
  8
0
 62
     7
 10
90.945800000000006
 20
96.744100000000003
 30
0.0
 11
90.818299999999994
 21
96.920500000000004
 31
0.0
  0
LINE
  5
3B0
  8
0
 62
     7
 10
90.814499999999995
 20
97.076899999999995
 30
0.0
 11
90.814499999999995
 21
96.921800000000005
 31
0.0
  0
LINE
  5
3B1
  8
0
 62
     7
 10
90.818299999999994
 20
97.071299999999994
 30
0.0
 11
90.945800000000006
 21
97.040999999999997
 31
0.0
  0
LINE
  5
3B2
  8
0
 62
     7
 10
90.945800000000006
 20
97.040999999999997
 30
0.0
 11
90.818299999999994
 21
97.216700000000003
 31
0.0
  0
LINE
  5
3B3
  8
0
 62
     7
 10
90.814499999999995
 20
97.355900000000005
 30
0.0
 11
90.814499999999995
 21
97.217399999999998
 31
0.0
  0
LINE
  5
3B4
  8
0
 62
     7
 10
90.818299999999994
 20
97.351799999999983
 30
0.0
 11
90.943700000000007
 21
97.308400000000006
 31
0.0
  0
LINE
  5
3B5
  8
0
 62
     7
 10
90.943700000000007
 20
97.308400000000006
 30
0.0
 11
90.818299999999994
 21
97.481300000000005
 31
0.0
  0
LINE
  5
3B6
  8
0
 62
     7
 10
90.814499999999995
 20
97.603300000000004
 30
0.0
 11
90.814499999999995
 21
97.482000000000014
 31
0.0
  0
LINE
  5
3B7
  8
0
 62
     7
 10
90.816599999999994
 20
97.601200000000006
 30
0.0
 11
90.943700000000007
 21
97.544700000000006
 31
0.0
  0
LINE
  5
3B8
  8
0
 62
     7
 10
90.943700000000007
 20
97.544700000000006
 30
0.0
 11
90.816599999999994
 21
97.713499999999996
 31
0.0
  0
LINE
  5
3B9
  8
0
 62
     7
 10
90.814499999999995
 20
97.820300000000003
 30
0.0
 11
90.814499999999995
 21
97.7149
 31
0.0
  0
LINE
  5
3BA
  8
0
 62
     7
 10
90.816599999999994
 20
97.816900000000004
 30
0.0
 11
90.942300000000003
 21
97.748699999999985
 31
0.0
  0
LINE
  5
3BB
  8
0
 62
     7
 10
90.942300000000003
 20
97.748699999999985
 30
0.0
 11
90.816599999999994
 21
97.913300000000021
 31
0.0
  0
LINE
  5
3BC
  8
0
 62
     7
 10
90.814499999999995
 20
98.000800000000012
 30
0.0
 11
90.814499999999995
 21
97.914699999999996
 31
0.0
  0
LINE
  5
3BD
  8
0
 62
     7
 10
90.816599999999994
 20
97.998800000000017
 30
0.0
 11
90.942300000000003
 21
97.920199999999994
 31
0.0
  0
LINE
  5
3BE
  8
0
 62
     7
 10
90.942300000000003
 20
97.920199999999994
 30
0.0
 11
90.816599999999994
 21
98.078700000000012
 31
0.0
  0
LINE
  5
3BF
  8
0
 62
     7
 10
90.814499999999995
 20
98.149699999999996
 30
0.0
 11
90.814499999999995
 21
98.079400000000021
 31
0.0
  0
LINE
  5
3C0
  8
0
 62
     7
 10
90.814499999999995
 20
98.147599999999997
 30
0.0
 11
90.942300000000003
 21
98.055999999999997
 31
0.0
  0
LINE
  5
3C1
  8
0
 62
     7
 10
90.942300000000003
 20
98.055999999999997
 30
0.0
 11
90.814499999999995
 21
98.2089
 31
0.0
  0
LINE
  5
3C2
  8
0
 62
     7
 10
90.814499999999995
 20
98.259200000000007
 30
0.0
 11
90.942300000000003
 21
98.157899999999984
 31
0.0
  0
LINE
  5
3C3
  8
0
 62
     7
 10
90.942300000000003
 20
98.157899999999984
 30
0.0
 11
90.814499999999995
 21
98.302599999999998
 31
0.0
  0
LINE
  5
3C4
  8
0
 62
     7
 10
90.814499999999995
 20
98.336399999999998
 30
0.0
 11
90.940600000000003
 21
98.223399999999998
 31
0.0
  0
LINE
  5
3C5
  8
0
 62
     7
 10
90.940600000000003
 20
98.223399999999998
 30
0.0
 11
90.814499999999995
 21
98.360500000000002
 31
0.0
  0
LINE
  5
3C6
  8
0
 62
     7
 10
90.026600000000002
 20
98.302599999999998
 30
0.0
 11
89.974900000000005
 21
98.157899999999984
 31
0.0
  0
LINE
  5
3C7
  8
0
 62
     7
 10
89.974900000000005
 20
98.157899999999984
 30
0.0
 11
90.026600000000002
 21
98.259200000000007
 31
0.0
  0
LINE
  5
3C8
  8
0
 62
     7
 10
90.026600000000002
 20
98.2089
 30
0.0
 11
89.972899999999996
 21
98.055999999999997
 31
0.0
  0
LINE
  5
3C9
  8
0
 62
     7
 10
89.972899999999996
 20
98.055999999999997
 30
0.0
 11
90.024500000000003
 21
98.147599999999997
 31
0.0
  0
LINE
  5
3CA
  8
0
 62
     7
 10
90.026600000000002
 20
98.079400000000021
 30
0.0
 11
90.026600000000002
 21
98.149699999999996
 31
0.0
  0
LINE
  5
3CB
  8
0
 62
     7
 10
90.024500000000003
 20
98.078700000000012
 30
0.0
 11
89.972899999999996
 21
97.920199999999994
 31
0.0
  0
LINE
  5
3CC
  8
0
 62
     7
 10
89.972899999999996
 20
97.920199999999994
 30
0.0
 11
90.024500000000003
 21
97.998800000000017
 31
0.0
  0
LINE
  5
3CD
  8
0
 62
     7
 10
90.026600000000002
 20
97.914699999999996
 30
0.0
 11
90.026600000000002
 21
98.000800000000012
 31
0.0
  0
LINE
  5
3CE
  8
0
 62
     7
 10
90.024500000000003
 20
97.913300000000021
 30
0.0
 11
89.972899999999996
 21
97.748699999999985
 31
0.0
  0
LINE
  5
3CF
  8
0
 62
     7
 10
89.972899999999996
 20
97.748699999999985
 30
0.0
 11
90.024500000000003
 21
97.816900000000004
 31
0.0
  0
LINE
  5
3D0
  8
0
 62
     7
 10
90.026600000000002
 20
97.7149
 30
0.0
 11
90.026600000000002
 21
97.820300000000003
 31
0.0
  0
LINE
  5
3D1
  8
0
 62
     7
 10
90.024500000000003
 20
97.713499999999996
 30
0.0
 11
89.972899999999996
 21
97.544700000000006
 31
0.0
  0
LINE
  5
3D2
  8
0
 62
     7
 10
89.972899999999996
 20
97.544700000000006
 30
0.0
 11
90.024500000000003
 21
97.601200000000006
 31
0.0
  0
LINE
  5
3D3
  8
0
 62
     7
 10
90.026600000000002
 20
97.482000000000014
 30
0.0
 11
90.026600000000002
 21
97.603300000000004
 31
0.0
  0
LINE
  5
3D4
  8
0
 62
     7
 10
90.024500000000003
 20
97.481300000000005
 30
0.0
 11
89.972899999999996
 21
97.308400000000006
 31
0.0
  0
LINE
  5
3D5
  8
0
 62
     7
 10
89.972899999999996
 20
97.308400000000006
 30
0.0
 11
90.024500000000003
 21
97.351799999999983
 31
0.0
  0
LINE
  5
3D6
  8
0
 62
     7
 10
90.026600000000002
 20
97.217399999999998
 30
0.0
 11
90.026600000000002
 21
97.355900000000005
 31
0.0
  0
LINE
  5
3D7
  8
0
 62
     7
 10
90.024500000000003
 20
97.216700000000003
 30
0.0
 11
89.971100000000007
 21
97.040999999999997
 31
0.0
  0
LINE
  5
3D8
  8
0
 62
     7
 10
89.971100000000007
 20
97.040999999999997
 30
0.0
 11
90.024500000000003
 21
97.071299999999994
 31
0.0
  0
LINE
  5
3D9
  8
0
 62
     7
 10
90.026600000000002
 20
96.921800000000005
 30
0.0
 11
90.026600000000002
 21
97.076899999999995
 31
0.0
  0
LINE
  5
3DA
  8
0
 62
     7
 10
90.024500000000003
 20
96.920500000000004
 30
0.0
 11
89.971100000000007
 21
96.744100000000003
 31
0.0
  0
LINE
  5
3DB
  8
0
 62
     7
 10
89.971100000000007
 20
96.744100000000003
 30
0.0
 11
90.024500000000003
 21
96.760599999999997
 31
0.0
  0
LINE
  5
3DC
  8
0
 62
     7
 10
90.026600000000002
 20
96.597300000000004
 30
0.0
 11
90.026600000000002
 21
96.768199999999993
 31
0.0
  0
LINE
  5
3DD
  8
0
 62
     7
 10
90.024500000000003
 20
96.596599999999995
 30
0.0
 11
89.971100000000007
 21
96.419500000000014
 31
0.0
  0
LINE
  5
3DE
  8
0
 62
     7
 10
89.971100000000007
 20
96.419500000000014
 30
0.0
 11
90.024500000000003
 21
96.422999999999973
 31
0.0
  0
LINE
  5
3DF
  8
0
 62
     7
 10
90.026600000000002
 20
96.245900000000006
 30
0.0
 11
90.026600000000002
 21
96.430599999999998
 31
0.0
  0
LINE
  5
3E0
  8
0
 62
     7
 10
90.024500000000003
 20
96.244500000000016
 30
0.0
 11
89.971100000000007
 21
96.068100000000015
 31
0.0
  0
LINE
  5
3E1
  8
0
 62
     7
 10
89.971100000000007
 20
96.068100000000015
 30
0.0
 11
90.024500000000003
 21
96.059200000000004
 31
0.0
  0
LINE
  5
3E2
  8
0
 62
     7
 10
90.026600000000002
 20
95.868999999999986
 30
0.0
 11
90.026600000000002
 21
96.068100000000015
 31
0.0
  0
LINE
  5
3E3
  8
0
 62
     7
 10
90.022800000000004
 20
95.868999999999986
 30
0.0
 11
89.969099999999983
 21
95.692599999999985
 31
0.0
  0
LINE
  5
3E4
  8
0
 62
     7
 10
89.969099999999983
 20
95.692599999999985
 30
0.0
 11
90.022800000000004
 21
95.670599999999993
 31
0.0
  0
LINE
  5
3E5
  8
0
 62
     7
 10
90.026600000000002
 20
95.468699999999998
 30
0.0
 11
90.026600000000002
 21
95.680899999999994
 31
0.0
  0
LINE
  5
3E6
  8
0
 62
     7
 10
90.022800000000004
 20
95.468699999999998
 30
0.0
 11
89.969099999999983
 21
95.295000000000002
 31
0.0
  0
LINE
  5
3E7
  8
0
 62
     7
 10
89.969099999999983
 20
95.295000000000002
 30
0.0
 11
90.022800000000004
 21
95.259900000000002
 31
0.0
  0
LINE
  5
3E8
  8
0
 62
     7
 10
90.026600000000002
 20
95.046300000000002
 30
0.0
 11
90.026600000000002
 21
95.270899999999983
 31
0.0
  0
LINE
  5
3E9
  8
0
 62
     7
 10
90.022800000000004
 20
95.047700000000006
 30
0.0
 11
89.967699999999994
 21
94.877499999999998
 31
0.0
  0
LINE
  5
3EA
  8
0
 62
     7
 10
89.967699999999994
 20
94.877499999999998
 30
0.0
 11
90.022800000000004
 21
94.829300000000003
 31
0.0
  0
LINE
  5
3EB
  8
0
 62
     7
 10
90.026600000000002
 20
94.606000000000009
 30
0.0
 11
90.026600000000002
 21
94.841700000000003
 31
0.0
  0
LINE
  5
3EC
  8
0
 62
     7
 10
90.022800000000004
 20
94.608800000000016
 30
0.0
 11
89.967699999999994
 21
94.442700000000016
 31
0.0
  0
LINE
  5
3ED
  8
0
 62
     7
 10
89.967699999999994
 20
94.442700000000016
 30
0.0
 11
90.022800000000004
 21
94.381399999999999
 31
0.0
  0
LINE
  5
3EE
  8
0
 62
     7
 10
90.026600000000002
 20
94.147800000000004
 30
0.0
 11
90.026600000000002
 21
94.393799999999985
 31
0.0
  0
LINE
  5
3EF
  8
0
 62
     7
 10
90.022800000000004
 20
94.153300000000002
 30
0.0
 11
89.967699999999994
 21
93.990700000000004
 31
0.0
  0
LINE
  5
3F0
  8
0
 62
     7
 10
89.967699999999994
 20
93.990700000000004
 30
0.0
 11
90.022800000000004
 21
93.918400000000005
 31
0.0
  0
LINE
  5
3F1
  8
0
 62
     7
 10
90.026600000000002
 20
93.677899999999994
 30
0.0
 11
90.026600000000002
 21
93.932199999999995
 31
0.0
  0
LINE
  5
3F2
  8
0
 62
     7
 10
90.022800000000004
 20
93.683400000000006
 30
0.0
 11
89.965999999999994
 21
93.527699999999996
 31
0.0
  0
LINE
  5
3F3
  8
0
 62
     7
 10
89.965999999999994
 20
93.527699999999996
 30
0.0
 11
90.0214
 21
93.442899999999995
 31
0.0
  0
LINE
  5
3F4
  8
0
 62
     7
 10
90.026600000000002
 20
93.194900000000004
 30
0.0
 11
90.026600000000002
 21
93.457400000000007
 31
0.0
  0
LINE
  5
3F5
  8
0
 62
     7
 10
90.0214
 20
93.202499999999986
 30
0.0
 11
89.965999999999994
 21
93.053700000000006
 31
0.0
  0
LINE
  5
3F6
  8
0
 62
     7
 10
89.965999999999994
 20
93.053700000000006
 30
0.0
 11
90.0214
 21
92.958600000000004
 31
0.0
  0
LINE
  5
3F7
  8
0
 62
     7
 10
90.026600000000002
 20
92.704300000000003
 30
0.0
 11
90.026600000000002
 21
92.971699999999984
 31
0.0
  0
LINE
  5
3F8
  8
0
 62
     7
 10
90.0214
 20
92.713300000000004
 30
0.0
 11
89.964600000000004
 21
92.572000000000003
 31
0.0
  0
LINE
  5
3F9
  8
0
 62
     7
 10
89.964600000000004
 20
92.572000000000003
 30
0.0
 11
90.0214
 21
92.465199999999996
 31
0.0
  0
LINE
  5
3FA
  8
0
 62
     7
 10
90.026600000000002
 20
92.206199999999995
 30
0.0
 11
90.026600000000002
 21
92.481099999999998
 31
0.0
  0
LINE
  5
3FB
  8
0
 62
     7
 10
90.0214
 20
92.2179
 30
0.0
 11
89.964600000000004
 21
92.084199999999996
 31
0.0
  0
LINE
  5
3FC
  8
0
 62
     7
 10
89.964600000000004
 20
92.084199999999996
 30
0.0
 11
90.0214
 21
91.967699999999994
 31
0.0
  0
LINE
  5
3FD
  8
0
 62
     7
 10
90.026600000000002
 20
91.704499999999996
 30
0.0
 11
90.026600000000002
 21
91.982200000000006
 31
0.0
  0
LINE
  5
3FE
  8
0
 62
     7
 10
90.0214
 20
91.719699999999989
 30
0.0
 11
89.962500000000006
 21
91.594300000000004
 31
0.0
  0
LINE
  5
3FF
  8
0
 62
     7
 10
89.962500000000006
 20
91.594300000000004
 30
0.0
 11
90.0214
 21
91.468199999999996
 31
0.0
  0
LINE
  5
400
  8
0
 62
     7
 10
90.026600000000002
 20
91.203599999999994
 30
0.0
 11
90.026600000000002
 21
91.482699999999994
 31
0.0
  0
LINE
  5
401
  8
0
 62
     7
 10
90.019400000000005
 20
91.220200000000006
 30
0.0
 11
89.962500000000006
 21
91.105800000000002
 31
0.0
  0
LINE
  5
402
  8
0
 62
     7
 10
89.962500000000006
 20
91.105800000000002
 30
0.0
 11
90.019400000000005
 21
90.970699999999994
 31
0.0
  0
LINE
  5
403
  8
0
 62
     7
 10
90.026600000000002
 20
90.704800000000006
 30
0.0
 11
90.026600000000002
 21
90.984499999999997
 31
0.0
  0
LINE
  5
404
  8
0
 62
     7
 10
90.019400000000005
 20
90.723399999999998
 30
0.0
 11
89.960800000000006
 21
90.618600000000015
 31
0.0
  0
LINE
  5
405
  8
0
 62
     7
 10
89.960800000000006
 20
90.618600000000015
 30
0.0
 11
90.019400000000005
 21
90.475999999999999
 31
0.0
  0
LINE
  5
406
  8
0
 62
     7
 10
90.026600000000002
 20
90.210699999999989
 30
0.0
 11
90.026600000000002
 21
90.488399999999999
 31
0.0
  0
LINE
  5
407
  8
0
 62
     7
 10
90.019400000000005
 20
90.232100000000003
 30
0.0
 11
89.960800000000006
 21
90.138400000000004
 31
0.0
  0
LINE
  5
408
  8
0
 62
     7
 10
89.960800000000006
 20
90.138400000000004
 30
0.0
 11
90.019400000000005
 21
89.988200000000006
 31
0.0
  0
LINE
  5
409
  8
0
 62
     7
 10
90.026600000000002
 20
89.723600000000005
 30
0.0
 11
90.026600000000002
 21
89.999899999999997
 31
0.0
  0
LINE
  5
40A
  8
0
 62
     7
 10
90.019400000000005
 20
89.748400000000004
 30
0.0
 11
89.959400000000002
 21
89.665700000000001
 31
0.0
  0
LINE
  5
40B
  8
0
 62
     7
 10
89.959400000000002
 20
89.665700000000001
 30
0.0
 11
90.019400000000005
 21
89.508600000000001
 31
0.0
  0
LINE
  5
40C
  8
0
 62
     7
 10
90.026600000000002
 20
89.247500000000016
 30
0.0
 11
90.026600000000002
 21
89.519000000000005
 31
0.0
  0
LINE
  5
40D
  8
0
 62
     7
 10
90.017600000000002
 20
89.275000000000006
 30
0.0
 11
89.959400000000002
 21
89.202699999999993
 31
0.0
  0
LINE
  5
40E
  8
0
 62
     7
 10
89.959400000000002
 20
89.202699999999993
 30
0.0
 11
90.017600000000002
 21
89.041499999999985
 31
0.0
  0
LINE
  5
40F
  8
0
 62
     7
 10
90.026600000000002
 20
88.783100000000005
 30
0.0
 11
90.026600000000002
 21
89.049700000000001
 31
0.0
  0
LINE
  5
410
  8
0
 62
     7
 10
90.017600000000002
 20
88.813399999999987
 30
0.0
 11
89.957400000000007
 21
88.754800000000003
 31
0.0
  0
LINE
  5
411
  8
0
 62
     7
 10
89.957400000000007
 20
88.754800000000003
 30
0.0
 11
90.017600000000002
 21
88.587400000000002
 31
0.0
  0
LINE
  5
412
  8
0
 62
     7
 10
90.026600000000002
 20
88.335899999999995
 30
0.0
 11
90.026600000000002
 21
88.594999999999999
 31
0.0
  0
LINE
  5
413
  8
0
 62
     7
 10
90.017600000000002
 20
88.367599999999996
 30
0.0
 11
89.957400000000007
 21
88.322100000000006
 31
0.0
  0
LINE
  5
414
  8
0
 62
     7
 10
89.957400000000007
 20
88.322100000000006
 30
0.0
 11
90.017600000000002
 21
88.150599999999997
 31
0.0
  0
LINE
  5
415
  8
0
 62
     7
 10
90.026600000000002
 20
87.906599999999997
 30
0.0
 11
90.026600000000002
 21
88.154700000000005
 31
0.0
  0
LINE
  5
416
  8
0
 62
     7
 10
90.017600000000002
 20
87.939699999999988
 30
0.0
 11
89.957400000000007
 21
87.906599999999997
 31
0.0
  0
LINE
  5
417
  8
0
 62
     7
 10
89.957400000000007
 20
87.906599999999997
 30
0.0
 11
90.017600000000002
 21
87.732999999999976
 31
0.0
  0
LINE
  5
418
  8
0
 62
     7
 10
90.026600000000002
 20
87.495999999999995
 30
0.0
 11
90.026600000000002
 21
87.735099999999989
 31
0.0
  0
LINE
  5
419
  8
0
 62
     7
 10
90.017600000000002
 20
87.532499999999985
 30
0.0
 11
89.955600000000004
 21
87.511799999999994
 31
0.0
  0
LINE
  5
41A
  8
0
 62
     7
 10
89.955600000000004
 20
87.511799999999994
 30
0.0
 11
90.017600000000002
 21
87.335400000000007
 31
0.0
  0
LINE
  5
41B
  8
0
 62
     7
 10
90.026600000000002
 20
87.109399999999994
 30
0.0
 11
90.026600000000002
 21
87.335400000000007
 31
0.0
  0
LINE
  5
41C
  8
0
 62
     7
 10
90.016300000000001
 20
87.146699999999996
 30
0.0
 11
89.955600000000004
 21
87.139799999999994
 31
0.0
  0
LINE
  5
41D
  8
0
 62
     7
 10
89.955600000000004
 20
87.139799999999994
 30
0.0
 11
90.016300000000001
 21
86.963399999999993
 31
0.0
  0
LINE
  5
41E
  8
0
 62
     7
 10
90.026600000000002
 20
86.747000000000014
 30
0.0
 11
90.026600000000002
 21
86.958500000000001
 31
0.0
  0
LINE
  5
41F
  8
0
 62
     7
 10
90.016300000000001
 20
86.786299999999997
 30
0.0
 11
89.953599999999994
 21
86.792500000000004
 31
0.0
  0
LINE
  5
420
  8
0
 62
     7
 10
89.953599999999994
 20
86.792500000000004
 30
0.0
 11
90.016300000000001
 21
86.614699999999985
 31
0.0
  0
LINE
  5
421
  8
0
 62
     7
 10
90.026600000000002
 20
86.411500000000004
 30
0.0
 11
90.026600000000002
 21
86.608500000000006
 31
0.0
  0
LINE
  5
422
  8
0
 62
     7
 10
90.016300000000001
 20
86.451400000000007
 30
0.0
 11
89.953599999999994
 21
86.470699999999994
 31
0.0
  0
LINE
  5
423
  8
0
 62
     7
 10
89.953599999999994
 20
86.470699999999994
 30
0.0
 11
90.016300000000001
 21
86.294300000000007
 31
0.0
  0
LINE
  5
424
  8
0
 62
     7
 10
90.026600000000002
 20
86.104200000000006
 30
0.0
 11
90.026600000000002
 21
86.285399999999996
 31
0.0
  0
LINE
  5
425
  8
0
 62
     7
 10
90.016300000000001
 20
86.145499999999984
 30
0.0
 11
89.953599999999994
 21
86.178600000000003
 31
0.0
  0
LINE
  5
426
  8
0
 62
     7
 10
89.953599999999994
 20
86.178600000000003
 30
0.0
 11
90.016300000000001
 21
86.002899999999997
 31
0.0
  0
LINE
  5
427
  8
0
 62
     7
 10
90.026600000000002
 20
85.828599999999994
 30
0.0
 11
90.026600000000002
 21
85.990499999999997
 31
0.0
  0
LINE
  5
428
  8
0
 62
     7
 10
90.016300000000001
 20
85.869900000000001
 30
0.0
 11
89.953599999999994
 21
85.914000000000001
 31
0.0
  0
LINE
  5
429
  8
0
 62
     7
 10
89.953599999999994
 20
85.914000000000001
 30
0.0
 11
90.016300000000001
 21
85.742400000000004
 31
0.0
  0
LINE
  5
42A
  8
0
 62
     7
 10
90.026600000000002
 20
85.582599999999999
 30
0.0
 11
90.026600000000002
 21
85.726600000000005
 31
0.0
  0
LINE
  5
42B
  8
0
 62
     7
 10
90.016300000000001
 20
85.626000000000005
 30
0.0
 11
89.952200000000005
 21
85.682500000000005
 31
0.0
  0
LINE
  5
42C
  8
0
 62
     7
 10
89.952200000000005
 20
85.682500000000005
 30
0.0
 11
90.016300000000001
 21
85.514399999999995
 31
0.0
  0
LINE
  5
42D
  8
0
 62
     7
 10
90.026600000000002
 20
85.370999999999995
 30
0.0
 11
90.026600000000002
 21
85.495800000000003
 31
0.0
  0
LINE
  5
42E
  8
0
 62
     7
 10
90.016300000000001
 20
85.413799999999995
 30
0.0
 11
89.952200000000005
 21
85.482000000000014
 31
0.0
  0
LINE
  5
42F
  8
0
 62
     7
 10
89.952200000000005
 20
85.482000000000014
 30
0.0
 11
90.016300000000001
 21
85.319400000000002
 31
0.0
  0
LINE
  5
430
  8
0
 62
     7
 10
90.026600000000002
 20
85.194000000000003
 30
0.0
 11
90.026600000000002
 21
85.297300000000007
 31
0.0
  0
LINE
  5
431
  8
0
 62
     7
 10
90.016300000000001
 20
85.235299999999995
 30
0.0
 11
89.952200000000005
 21
85.316599999999994
 31
0.0
  0
LINE
  5
432
  8
0
 62
     7
 10
89.952200000000005
 20
85.316599999999994
 30
0.0
 11
90.016300000000001
 21
85.159499999999994
 31
0.0
  0
LINE
  5
433
  8
0
 62
     7
 10
90.026600000000002
 20
85.051299999999983
 30
0.0
 11
90.026600000000002
 21
85.134
 31
0.0
  0
LINE
  5
434
  8
0
 62
     7
 10
90.016300000000001
 20
85.092000000000013
 30
0.0
 11
89.952200000000005
 21
85.185000000000016
 31
0.0
  0
LINE
  5
435
  8
0
 62
     7
 10
89.952200000000005
 20
85.185000000000016
 30
0.0
 11
90.016300000000001
 21
85.034099999999995
 31
0.0
  0
LINE
  5
436
  8
0
 62
     7
 10
90.026600000000002
 20
84.945199999999986
 30
0.0
 11
90.026600000000002
 21
85.005899999999997
 31
0.0
  0
LINE
  5
437
  8
0
 62
     7
 10
90.016300000000001
 20
84.985200000000006
 30
0.0
 11
89.952200000000005
 21
85.089200000000005
 31
0.0
  0
LINE
  5
438
  8
0
 62
     7
 10
89.952200000000005
 20
85.089200000000005
 30
0.0
 11
90.016300000000001
 21
84.944500000000005
 31
0.0
  0
LINE
  5
439
  8
0
 62
     7
 10
90.964399999999983
 20
84.991399999999999
 30
0.0
 11
90.886799999999994
 21
84.913499999999999
 31
0.0
  0
ARC
  5
43A
  8
0
 62
     7
 10
89.286698999999999
 20
96.519931999999983
 30
0.0
 40
1.4550780000000001
 50
117.21847
 51
155.30496500000001
  0
ARC
  5
43B
  8
0
 62
     7
 10
89.395556999999997
 20
96.369893999999988
 30
0.0
 40
1.638534999999999
 50
86.278538999999995
 51
118.20384900000001
  0
ARC
  5
43C
  8
0
 62
     7
 10
89.408251000000007
 20
86.837562000000005
 30
0.0
 40
1.6235669999999991
 50
207.23647099999999
 51
273.30698699999999
  0
LINE
  5
43D
  8
0
 62
     7
 10
90.814499999999995
 20
98.382599999999996
 30
0.0
 11
90.964399999999983
 21
98.231700000000004
 31
0.0
  0
ARC
  5
43E
  8
0
 62
     7
 10
89.530642
 20
98.522726000000006
 30
0.0
 40
0.51855
 50
266.82341500000001
 51
330.77614199999999
  0
ARC
  5
43F
  8
0
 62
     7
 10
89.531803999999994
 20
84.702440999999993
 30
0.0
 40
0.515126
 50
24.443168
 51
93.327200000000005
  0
LINE
  5
440
  8
0
 62
     7
 10
149.90100000000001
 20
80.613299999999995
 30
0.0
 11
148.58699999999999
 21
82.487099999999998
 31
0.0
  0
LINE
  5
441
  8
0
 62
     7
 10
148.58699999999999
 20
82.487099999999998
 30
0.0
 11
148.78800000000001
 21
80.207499999999996
 31
0.0
  0
LINE
  5
442
  8
0
 62
     7
 10
148.78800000000001
 20
80.207499999999996
 30
0.0
 11
149.90100000000001
 21
80.613299999999995
 31
0.0
  0
LINE
  5
443
  8
0
 62
     7
 10
148.58699999999999
 20
82.487099999999998
 30
0.0
 11
157.89500000000001
 21
55.484999999999999
 31
0.0
  0
LINE
  5
444
  8
0
 62
     7
 10
157.89500000000001
 20
55.484999999999999
 30
0.0
 11
111.217
 21
55.484999999999999
 31
0.0
  0
LINE
  5
445
  8
0
 62
     7
 10
98.483800000000002
 20
170.977
 30
0.0
 11
100.694
 21
171.56899999999999
 31
0.0
  0
LINE
  5
446
  8
0
 62
     7
 10
100.694
 20
171.56899999999999
 30
0.0
 11
98.483800000000002
 21
172.16200000000001
 31
0.0
  0
LINE
  5
447
  8
0
 62
     7
 10
98.483800000000002
 20
172.16200000000001
 30
0.0
 11
98.483800000000002
 21
170.977
 31
0.0
  0
LINE
  5
448
  8
0
 62
     7
 10
94.905100000000004
 20
172.14599999999999
 30
0.0
 11
92.694000000000003
 21
171.55500000000001
 31
0.0
  0
LINE
  5
449
  8
0
 62
     7
 10
92.694000000000003
 20
171.55500000000001
 30
0.0
 11
94.905100000000004
 21
170.96199999999999
 31
0.0
  0
LINE
  5
44A
  8
0
 62
     7
 10
94.905100000000004
 20
170.96199999999999
 30
0.0
 11
94.905100000000004
 21
172.14599999999999
 31
0.0
  0
LINE
  5
44B
  8
0
 62
     7
 10
100.694
 20
171.56100000000001
 30
0.0
 11
92.694000000000003
 21
171.56100000000001
 31
0.0
  0
LINE
  5
44C
  8
0
 62
     7
 10
100.694
 20
172.26900000000001
 30
0.0
 11
100.694
 21
164.46199999999999
 31
0.0
  0
LINE
  5
44D
  8
0
 62
     7
 10
92.694000000000003
 20
172.26900000000001
 30
0.0
 11
92.694000000000003
 21
164.46199999999999
 31
0.0
  0
LINE
  5
44E
  8
0
 62
     7
 10
92.483099999999993
 20
136.80699999999999
 30
0.0
 11
94.694199999999995
 21
137.40000000000001
 31
0.0
  0
LINE
  5
44F
  8
0
 62
     7
 10
94.694199999999995
 20
137.40000000000001
 30
0.0
 11
92.483099999999993
 21
137.99199999999999
 31
0.0
  0
LINE
  5
450
  8
0
 62
     7
 10
92.483099999999993
 20
137.99199999999999
 30
0.0
 11
92.483099999999993
 21
136.80699999999999
 31
0.0
  0
LINE
  5
451
  8
0
 62
     7
 10
100.905
 20
136.80699999999999
 30
0.0
 11
98.694000000000003
 21
137.40000000000001
 31
0.0
  0
LINE
  5
452
  8
0
 62
     7
 10
98.694000000000003
 20
137.40000000000001
 30
0.0
 11
100.905
 21
137.99199999999999
 31
0.0
  0
LINE
  5
453
  8
0
 62
     7
 10
100.905
 20
137.99199999999999
 30
0.0
 11
100.905
 21
136.80699999999999
 31
0.0
  0
LINE
  5
454
  8
0
 62
     7
 10
106.126
 20
137.392
 30
0.0
 11
91.430699999999987
 21
137.392
 31
0.0
  0
LINE
  5
455
  8
0
 62
     7
 10
162.631
 20
97.40100000000001
 30
0.0
 11
162.03899999999999
 21
99.611400000000003
 31
0.0
  0
LINE
  5
456
  8
0
 62
     7
 10
162.03899999999999
 20
99.611400000000003
 30
0.0
 11
161.446
 21
97.40100000000001
 31
0.0
  0
LINE
  5
457
  8
0
 62
     7
 10
161.446
 20
97.40100000000001
 30
0.0
 11
162.631
 21
97.40100000000001
 31
0.0
  0
LINE
  5
458
  8
0
 62
     7
 10
161.46100000000001
 20
85.822299999999998
 30
0.0
 11
162.053
 21
83.611300000000014
 31
0.0
  0
LINE
  5
459
  8
0
 62
     7
 10
162.053
 20
83.611300000000014
 30
0.0
 11
162.64599999999999
 21
85.822299999999998
 31
0.0
  0
LINE
  5
45A
  8
0
 62
     7
 10
162.64599999999999
 20
85.822299999999998
 30
0.0
 11
161.46100000000001
 21
85.822299999999998
 31
0.0
  0
LINE
  5
45B
  8
0
 62
     7
 10
162.04599999999999
 20
99.611400000000003
 30
0.0
 11
162.04599999999999
 21
83.611300000000014
 31
0.0
  0
LINE
  5
45C
  8
0
 62
     7
 10
170.61600000000001
 20
103.651
 30
0.0
 11
170.023
 21
105.86199999999999
 31
0.0
  0
LINE
  5
45D
  8
0
 62
     7
 10
170.023
 20
105.86199999999999
 30
0.0
 11
169.4309999999999
 21
103.651
 31
0.0
  0
LINE
  5
45E
  8
0
 62
     7
 10
169.4309999999999
 20
103.651
 30
0.0
 11
170.61600000000001
 21
103.651
 31
0.0
  0
LINE
  5
45F
  8
0
 62
     7
 10
169.446
 20
79.572599999999994
 30
0.0
 11
170.03800000000001
 21
77.361500000000007
 31
0.0
  0
LINE
  5
460
  8
0
 62
     7
 10
170.03800000000001
 20
77.361500000000007
 30
0.0
 11
170.63
 21
79.572599999999994
 31
0.0
  0
LINE
  5
461
  8
0
 62
     7
 10
170.63
 20
79.572599999999994
 30
0.0
 11
169.446
 21
79.572599999999994
 31
0.0
  0
LINE
  5
462
  8
0
 62
     7
 10
170.03099999999989
 20
105.86199999999999
 30
0.0
 11
170.03099999999989
 21
77.361500000000007
 31
0.0
  0
LINE
  5
463
  8
0
 62
     7
 10
154.93899999999999
 20
83.611300000000014
 30
0.0
 11
162.74600000000001
 21
83.611300000000014
 31
0.0
  0
LINE
  5
464
  8
0
 62
     7
 10
154.93899999999999
 20
99.611400000000003
 30
0.0
 11
162.74600000000001
 21
99.611400000000003
 31
0.0
  0
LINE
  5
465
  8
0
  6
AIGENLINE001
 62
     7
 10
40.361600000000003
 20
91.611500000000007
 30
0.0
 11
75.2042
 21
91.611500000000007
 31
0.0
  0
LINE
  5
466
  8
0
  6
AIGENLINE001
 62
     7
 10
84.514200000000002
 20
91.611500000000007
 30
0.0
 11
133.46299999999999
 21
91.611500000000007
 31
0.0
  0
LINE
  5
467
  8
0
 62
     7
 10
131.66499999999999
 20
77.361500000000007
 30
0.0
 11
170.72300000000001
 21
77.361500000000007
 31
0.0
  0
LINE
  5
468
  8
0
 62
     7
 10
131.66499999999999
 20
105.86199999999999
 30
0.0
 11
170.72300000000001
 21
105.86199999999999
 31
0.0
  0
LINE
  5
469
  8
0
 62
     7
 10
149.953
 20
82.487099999999998
 30
0.0
 11
148.92699999999999
 21
84.736799999999988
 31
0.0
  0
LINE
  5
46A
  8
0
 62
     7
 10
148.58699999999999
 20
82.487099999999998
 30
0.0
 11
147.56100000000001
 21
84.736799999999988
 31
0.0
  0
LINE
  5
46B
  8
0
 62
     7
 10
147.22200000000001
 20
82.487099999999998
 30
0.0
 11
146.196
 21
84.736799999999988
 31
0.0
  0
LINE
  5
46C
  8
0
 62
     7
 10
145.857
 20
82.487099999999998
 30
0.0
 11
144.83099999999999
 21
84.736799999999988
 31
0.0
  0
LINE
  5
46D
  8
0
 62
     7
 10
144.49100000000001
 20
82.487099999999998
 30
0.0
 11
143.465
 21
84.736799999999988
 31
0.0
  0
LINE
  5
46E
  8
0
 62
     7
 10
143.126
 20
82.487099999999998
 30
0.0
 11
142.09999999999999
 21
84.736799999999988
 31
0.0
  0
LINE
  5
46F
  8
0
 62
     7
 10
141.761
 20
82.487099999999998
 30
0.0
 11
140.73500000000001
 21
84.736799999999988
 31
0.0
  0
LINE
  5
470
  8
0
 62
     7
 10
140.39500000000001
 20
82.487099999999998
 30
0.0
 11
139.369
 21
84.736799999999988
 31
0.0
  0
LINE
  5
471
  8
0
 62
     7
 10
139.03
 20
82.487099999999998
 30
0.0
 11
138.00399999999999
 21
84.736799999999988
 31
0.0
  0
LINE
  5
472
  8
0
 62
     7
 10
137.66499999999999
 20
82.487099999999998
 30
0.0
 11
136.63900000000001
 21
84.736799999999988
 31
0.0
  0
LINE
  5
473
  8
0
 62
     7
 10
136.29900000000001
 20
82.487099999999998
 30
0.0
 11
135.273
 21
84.736799999999988
 31
0.0
  0
LINE
  5
474
  8
0
 62
     7
 10
134.934
 20
82.487099999999998
 30
0.0
 11
133.90799999999999
 21
84.736799999999988
 31
0.0
  0
LINE
  5
475
  8
0
 62
     7
 10
133.56899999999999
 20
82.487099999999998
 30
0.0
 11
132.54300000000001
 21
84.736799999999988
 31
0.0
  0
LINE
  5
476
  8
0
 62
     7
 10
132.203
 20
82.487099999999998
 30
0.0
 11
131.17699999999999
 21
84.736799999999988
 31
0.0
  0
LINE
  5
477
  8
0
 62
     7
 10
149.953
 20
82.911199999999994
 30
0.0
 11
153.453
 21
83.612300000000005
 31
0.0
  0
LINE
  5
478
  8
0
 62
     7
 10
149.953
 20
84.312700000000007
 30
0.0
 11
153.453
 21
83.612300000000005
 31
0.0
  0
LINE
  5
479
  8
0
 62
     7
 10
149.953
 20
82.911199999999994
 30
0.0
 11
130.953
 21
82.911199999999994
 31
0.0
  0
LINE
  5
47A
  8
0
 62
     7
 10
149.953
 20
84.312700000000007
 30
0.0
 11
130.953
 21
84.312700000000007
 31
0.0
  0
LINE
  5
47B
  8
0
  6
AIGENLINE001
 62
     7
 10
154.239
 20
83.611599999999996
 30
0.0
 11
129.75999999999999
 21
83.611599999999996
 31
0.0
  0
LINE
  5
47C
  8
0
 62
     7
 10
149.953
 20
98.486900000000006
 30
0.0
 11
148.92699999999999
 21
100.73699999999999
 31
0.0
  0
LINE
  5
47D
  8
0
 62
     7
 10
148.58699999999999
 20
98.486900000000006
 30
0.0
 11
147.56100000000001
 21
100.73699999999999
 31
0.0
  0
LINE
  5
47E
  8
0
 62
     7
 10
147.22200000000001
 20
98.486900000000006
 30
0.0
 11
146.196
 21
100.73699999999999
 31
0.0
  0
LINE
  5
47F
  8
0
 62
     7
 10
145.857
 20
98.486900000000006
 30
0.0
 11
144.83099999999999
 21
100.73699999999999
 31
0.0
  0
LINE
  5
480
  8
0
 62
     7
 10
144.49100000000001
 20
98.486900000000006
 30
0.0
 11
143.465
 21
100.73699999999999
 31
0.0
  0
LINE
  5
481
  8
0
 62
     7
 10
143.126
 20
98.486900000000006
 30
0.0
 11
142.09999999999999
 21
100.73699999999999
 31
0.0
  0
LINE
  5
482
  8
0
 62
     7
 10
141.761
 20
98.486900000000006
 30
0.0
 11
140.73500000000001
 21
100.73699999999999
 31
0.0
  0
LINE
  5
483
  8
0
 62
     7
 10
140.39500000000001
 20
98.486900000000006
 30
0.0
 11
139.369
 21
100.73699999999999
 31
0.0
  0
LINE
  5
484
  8
0
 62
     7
 10
139.03
 20
98.486900000000006
 30
0.0
 11
138.00399999999999
 21
100.73699999999999
 31
0.0
  0
LINE
  5
485
  8
0
 62
     7
 10
137.66499999999999
 20
98.486900000000006
 30
0.0
 11
136.63900000000001
 21
100.73699999999999
 31
0.0
  0
LINE
  5
486
  8
0
 62
     7
 10
136.29900000000001
 20
98.486900000000006
 30
0.0
 11
135.273
 21
100.73699999999999
 31
0.0
  0
LINE
  5
487
  8
0
 62
     7
 10
134.934
 20
98.486900000000006
 30
0.0
 11
133.90799999999999
 21
100.73699999999999
 31
0.0
  0
LINE
  5
488
  8
0
 62
     7
 10
133.56899999999999
 20
98.486900000000006
 30
0.0
 11
132.54300000000001
 21
100.73699999999999
 31
0.0
  0
LINE
  5
489
  8
0
 62
     7
 10
132.203
 20
98.486900000000006
 30
0.0
 11
131.17699999999999
 21
100.73699999999999
 31
0.0
  0
LINE
  5
48A
  8
0
 62
     7
 10
149.953
 20
98.9114
 30
0.0
 11
153.453
 21
99.612499999999983
 31
0.0
  0
LINE
  5
48B
  8
0
 62
     7
 10
149.953
 20
100.313
 30
0.0
 11
153.453
 21
99.612499999999983
 31
0.0
  0
LINE
  5
48C
  8
0
 62
     7
 10
149.953
 20
98.9114
 30
0.0
 11
130.953
 21
98.9114
 31
0.0
  0
LINE
  5
48D
  8
0
 62
     7
 10
149.953
 20
100.313
 30
0.0
 11
130.953
 21
100.313
 31
0.0
  0
LINE
  5
48E
  8
0
  6
AIGENLINE001
 62
     7
 10
154.239
 20
99.611400000000003
 30
0.0
 11
129.75999999999999
 21
99.611400000000003
 31
0.0
  0
LINE
  5
48F
  8
0
 62
     7
 10
128.755
 20
66.176199999999994
 30
0.0
 11
130.965
 21
66.768799999999999
 31
0.0
  0
LINE
  5
490
  8
0
 62
     7
 10
130.965
 20
66.768799999999999
 30
0.0
 11
128.755
 21
67.3613
 31
0.0
  0
LINE
  5
491
  8
0
 62
     7
 10
128.755
 20
67.3613
 30
0.0
 11
128.755
 21
66.176199999999994
 31
0.0
  0
LINE
  5
492
  8
0
 62
     7
 10
89.175700000000006
 20
67.346199999999996
 30
0.0
 11
86.964600000000004
 21
66.754300000000001
 31
0.0
  0
LINE
  5
493
  8
0
 62
     7
 10
86.964600000000004
 20
66.754300000000001
 30
0.0
 11
89.175700000000006
 21
66.161799999999985
 31
0.0
  0
LINE
  5
494
  8
0
 62
     7
 10
89.175700000000006
 20
66.161799999999985
 30
0.0
 11
89.175700000000006
 21
67.346199999999996
 31
0.0
  0
LINE
  5
495
  8
0
 62
     7
 10
130.965
 20
66.761200000000002
 30
0.0
 11
86.964600000000004
 21
66.761200000000002
 31
0.0
  0
LINE
  5
496
  8
0
 62
     7
 10
36.098300000000002
 20
164.15199999999999
 30
0.0
 11
35.505699999999997
 21
166.36199999999999
 31
0.0
  0
LINE
  5
497
  8
0
 62
     7
 10
35.505699999999997
 20
166.36199999999999
 30
0.0
 11
34.913200000000003
 21
164.15199999999999
 31
0.0
  0
LINE
  5
498
  8
0
 62
     7
 10
34.913200000000003
 20
164.15199999999999
 30
0.0
 11
36.098300000000002
 21
164.15199999999999
 31
0.0
  0
LINE
  5
499
  8
0
 62
     7
 10
34.9283
 20
79.572599999999994
 30
0.0
 11
35.52020000000001
 21
77.361500000000007
 31
0.0
  0
LINE
  5
49A
  8
0
 62
     7
 10
35.52020000000001
 20
77.361500000000007
 30
0.0
 11
36.1128
 21
79.572599999999994
 31
0.0
  0
LINE
  5
49B
  8
0
 62
     7
 10
36.1128
 20
79.572599999999994
 30
0.0
 11
34.9283
 21
79.572599999999994
 31
0.0
  0
LINE
  5
49C
  8
0
 62
     7
 10
35.513300000000001
 20
166.36199999999999
 30
0.0
 11
35.513300000000001
 21
77.361500000000007
 31
0.0
  0
LINE
  5
49D
  8
0
 62
     7
 10
130.965
 20
76.6614
 30
0.0
 11
130.965
 21
66.054299999999998
 31
0.0
  0
LINE
  5
49E
  8
0
 62
     7
 10
86.964600000000004
 20
87.625900000000016
 30
0.0
 11
86.964600000000004
 21
66.054299999999998
 31
0.0
  0
LINE
  5
49F
  8
0
 62
     7
 10
34.820099999999996
 20
77.361500000000007
 30
0.0
 11
54.41729999999999
 21
77.361500000000007
 31
0.0
  0
LINE
  5
4A0
  8
0
 62
     7
 10
34.820099999999996
 20
166.36199999999999
 30
0.0
 11
55.817300000000003
 21
166.36199999999999
 31
0.0
  0
LINE
  5
4A1
  8
0
  6
AIGENLINE001
 62
     7
 10
96.694500000000005
 20
80.376000000000005
 30
0.0
 11
96.694500000000005
 21
168.44099999999989
 31
0.0
  0
LINE
  5
4A2
  8
0
  6
AIGENLINE001
 62
     7
 10
57.9176
 20
75.139399999999995
 30
0.0
 11
57.9176
 21
168.44099999999989
 31
0.0
  0
LINE
  5
4A3
  8
0
  6
AIGENLINE001
 62
     7
 10
55.417499999999997
 20
83.611300000000014
 30
0.0
 11
60.417400000000001
 21
83.611300000000014
 31
0.0
  0
ARC
  5
4A4
  8
0
  6
AIGENLINE002
 62
     7
 10
57.917589
 20
83.611273999999995
 30
0.0
 40
1.124830999999999
 50
270.00002000000001
 51
359.99999000000003
  0
ARC
  5
4A5
  8
0
  6
AIGENLINE002
 62
     7
 10
57.917416000000003
 20
83.611446000000015
 30
0.0
 40
1.1250029999999991
 50
180.00878299999999
 51
270.00879300000003
  0
ARC
  5
4A6
  8
0
  6
AIGENLINE002
 62
     7
 10
57.917589
 20
83.611272999999997
 30
0.0
 40
1.125175
 50
90.0
 51
179.99996999999999
  0
ARC
  5
4A7
  8
0
  6
AIGENLINE002
 62
     7
 10
57.917416000000003
 20
83.611446000000015
 30
0.0
 40
1.1250029999999991
 50
359.99123700000001
 51
89.991206999999974
  0
LINE
  5
4A8
  8
0
  6
AIGENLINE001
 62
     7
 10
55.417499999999997
 20
99.611400000000003
 30
0.0
 11
60.417400000000001
 21
99.611400000000003
 31
0.0
  0
ARC
  5
4A9
  8
0
  6
AIGENLINE002
 62
     7
 10
57.917416000000003
 20
99.611260000000001
 30
0.0
 40
1.1250029999999991
 50
270.00879300000003
 51
0.008763
  0
ARC
  5
4AA
  8
0
  6
AIGENLINE002
 62
     7
 10
57.917589
 20
99.61143100000001
 30
0.0
 40
1.125175
 50
179.99996999999999
 51
270.00002000000001
  0
ARC
  5
4AB
  8
0
  6
AIGENLINE002
 62
     7
 10
57.917589
 20
99.61143100000001
 30
0.0
 40
1.125175
 50
90.0
 51
179.99996999999999
  0
ARC
  5
4AC
  8
0
  6
AIGENLINE002
 62
     7
 10
57.917416000000003
 20
99.611604
 30
0.0
 40
1.1250029999999991
 50
359.99123700000001
 51
89.991206999999974
  0
ARC
  5
4AD
  8
0
 62
     7
 10
96.607655000000008
 20
162.410878
 30
0.0
 40
4.0868690000000001
 50
300.708304
 51
359.31477999999998
  0
ARC
  5
4AE
  8
0
 62
     7
 10
96.694364000000022
 20
162.362089
 30
0.0
 40
3.9998680000000002
 50
359.99877600000002
 51
89.998745999999997
  0
ARC
  5
4AF
  8
0
 62
     7
 10
96.694193000000013
 20
162.36174399999999
 30
0.0
 40
4.0002120000000003
 50
89.996298999999993
 51
179.99626900000001
  0
ARC
  5
4B0
  8
0
 62
     7
 10
96.776325000000014
 20
162.40896000000001
 30
0.0
 40
4.0826149999999997
 50
180.65902399999999
 51
239.32533100000001
  0
LINE
  5
4B1
  8
0
 62
     7
 10
94.674199999999999
 20
158.899
 30
0.0
 11
98.714000000000013
 21
158.899
 31
0.0
  0
LINE
  5
4B2
  8
0
 62
     7
 10
98.694000000000003
 20
158.899
 30
0.0
 11
98.694000000000003
 21
98.914800000000014
 31
0.0
  0
LINE
  5
4B3
  8
0
 62
     7
 10
94.694199999999995
 20
98.914800000000014
 30
0.0
 11
94.694199999999995
 21
158.899
 31
0.0
  0
ARC
  5
4B4
  8
0
 62
     7
 10
58.004381000000002
 20
162.411179
 30
0.0
 40
4.0872140000000003
 50
180.68939499999999
 51
239.29183399999999
  0
ARC
  5
4B5
  8
0
 62
     7
 10
57.917417000000007
 20
162.36200299999999
 30
0.0
 40
3.9999539999999998
 50
90.0
 51
179.99996999999999
  0
ARC
  5
4B6
  8
0
 62
     7
 10
57.917416000000003
 20
162.36200299999999
 30
0.0
 40
3.9999539999999998
 50
0.00001
 51
89.999980000000008
  0
ARC
  5
4B7
  8
0
 62
     7
 10
57.835580999999998
 20
162.40832800000001
 30
0.0
 40
4.082052
 50
300.67873900000001
 51
359.34976799999998
  0
ARC
  5
4B8
  8
0
 62
     7
 10
57.456981999999989
 20
91.213494999999995
 30
0.0
 40
14.716039
 50
1.5512279999999989
 51
80.375023999999996
  0
ARC
  5
4B9
  8
0
 62
     7
 10
57.917414000000001
 20
91.611699000000002
 30
0.0
 40
14.250213
 50
270.00071200000002
 51
0.000683
  0
ARC
  5
4BA
  8
0
 62
     7
 10
57.917673000000001
 20
91.611780999999993
 30
0.0
 40
14.250294
 50
179.99962400000001
 51
269.99967400000003
  0
ARC
  5
4BB
  8
0
 62
     7
 10
58.397930000000002
 20
91.196243999999993
 30
0.0
 40
14.736414999999999
 50
99.690708999999998
 51
178.38379599999999
  0
LINE
  5
4BC
  8
0
 62
     7
 10
123.932
 20
98.287800000000004
 30
0.0
 11
123.932
 21
98.229299999999995
 31
0.0
  0
LINE
  5
4BD
  8
0
 62
     7
 10
123.932
 20
98.229299999999995
 30
0.0
 11
123.932
 21
98.057699999999997
 31
0.0
  0
LINE
  5
4BE
  8
0
 62
     7
 10
123.932
 20
98.057699999999997
 30
0.0
 11
123.932
 21
97.781400000000005
 31
0.0
  0
LINE
  5
4BF
  8
0
 62
     7
 10
123.932
 20
97.781400000000005
 30
0.0
 11
123.932
 21
97.394800000000004
 31
0.0
  0
LINE
  5
4C0
  8
0
 62
     7
 10
123.932
 20
97.394800000000004
 30
0.0
 11
123.932
 21
97.026200000000017
 31
0.0
  0
LINE
  5
4C1
  8
0
 62
     7
 10
123.932
 20
97.026200000000017
 30
0.0
 11
123.932
 21
96.601100000000017
 31
0.0
  0
LINE
  5
4C2
  8
0
 62
     7
 10
123.932
 20
96.601100000000017
 30
0.0
 11
123.932
 21
95.581299999999999
 31
0.0
  0
LINE
  5
4C3
  8
0
 62
     7
 10
123.932
 20
95.581299999999999
 30
0.0
 11
123.932
 21
95.006
 31
0.0
  0
LINE
  5
4C4
  8
0
 62
     7
 10
123.932
 20
95.006
 30
0.0
 11
123.932
 21
94.393500000000003
 31
0.0
  0
LINE
  5
4C5
  8
0
 62
     7
 10
123.932
 20
94.393500000000003
 30
0.0
 11
123.932
 21
93.765100000000004
 31
0.0
  0
LINE
  5
4C6
  8
0
 62
     7
 10
123.932
 20
93.765100000000004
 30
0.0
 11
123.932
 21
93.114599999999996
 31
0.0
  0
LINE
  5
4C7
  8
0
 62
     7
 10
123.932
 20
93.114599999999996
 30
0.0
 11
123.932
 21
91.829599999999985
 31
0.0
  0
LINE
  5
4C8
  8
0
 62
     7
 10
123.932
 20
91.829599999999985
 30
0.0
 11
123.932
 21
90.608699999999985
 31
0.0
  0
LINE
  5
4C9
  8
0
 62
     7
 10
123.932
 20
90.608699999999985
 30
0.0
 11
123.932
 21
89.811499999999995
 31
0.0
  0
LINE
  5
4CA
  8
0
 62
     7
 10
123.932
 20
89.811499999999995
 30
0.0
 11
123.932
 21
89.01700000000001
 31
0.0
  0
LINE
  5
4CB
  8
0
 62
     7
 10
123.932
 20
89.01700000000001
 30
0.0
 11
123.932
 21
88.243200000000002
 31
0.0
  0
LINE
  5
4CC
  8
0
 62
     7
 10
123.932
 20
88.243200000000002
 30
0.0
 11
123.932
 21
87.677499999999995
 31
0.0
  0
LINE
  5
4CD
  8
0
 62
     7
 10
123.932
 20
87.677499999999995
 30
0.0
 11
123.932
 21
87.151100000000014
 31
0.0
  0
LINE
  5
4CE
  8
0
 62
     7
 10
123.932
 20
87.151100000000014
 30
0.0
 11
123.932
 21
86.223699999999994
 31
0.0
  0
LINE
  5
4CF
  8
0
 62
     7
 10
123.932
 20
86.223699999999994
 30
0.0
 11
123.932
 21
85.843400000000003
 31
0.0
  0
LINE
  5
4D0
  8
0
 62
     7
 10
123.932
 20
85.843400000000003
 30
0.0
 11
123.932
 21
85.524299999999997
 31
0.0
  0
LINE
  5
4D1
  8
0
 62
     7
 10
123.932
 20
85.524299999999997
 30
0.0
 11
123.932
 21
85.275599999999983
 31
0.0
  0
LINE
  5
4D2
  8
0
 62
     7
 10
123.932
 20
85.275599999999983
 30
0.0
 11
123.932
 21
85.090299999999999
 31
0.0
  0
LINE
  5
4D3
  8
0
 62
     7
 10
123.932
 20
85.090299999999999
 30
0.0
 11
123.932
 21
84.922799999999995
 31
0.0
  0
LINE
  5
4D4
  8
0
 62
     7
 10
123.932
 20
84.922799999999995
 30
0.0
 11
123.932
 21
84.935199999999995
 31
0.0
  0
LINE
  5
4D5
  8
0
 62
     7
 10
126.941
 20
102.974
 30
0.0
 11
126.941
 21
80.249899999999997
 31
0.0
  0
LINE
  5
4D6
  8
0
 62
     7
 10
130.965
 20
77.361500000000007
 30
0.0
 11
130.965
 21
105.86199999999999
 31
0.0
  0
LINE
  5
4D7
  8
0
 62
     7
 10
128.45699999999999
 20
78.734700000000004
 30
0.0
 11
128.45699999999999
 21
104.489
 31
0.0
  0
LINE
  5
4D8
  8
0
 62
     7
 10
106.983
 20
88.598100000000017
 30
0.0
 11
106.983
 21
88.596000000000004
 31
0.0
  0
LINE
  5
4D9
  8
0
 62
     7
 10
106.983
 20
88.596000000000004
 30
0.0
 11
106.983
 21
88.705600000000004
 31
0.0
  0
LINE
  5
4DA
  8
0
 62
     7
 10
106.983
 20
88.705600000000004
 30
0.0
 11
106.983
 21
88.927400000000006
 31
0.0
  0
LINE
  5
4DB
  8
0
 62
     7
 10
106.983
 20
88.927400000000006
 30
0.0
 11
106.983
 21
89.252700000000004
 31
0.0
  0
LINE
  5
4DC
  8
0
 62
     7
 10
106.983
 20
89.252700000000004
 30
0.0
 11
106.983
 21
89.668800000000005
 31
0.0
  0
LINE
  5
4DD
  8
0
 62
     7
 10
106.983
 20
89.668800000000005
 30
0.0
 11
106.983
 21
90.159400000000005
 31
0.0
  0
LINE
  5
4DE
  8
0
 62
     7
 10
106.983
 20
90.159400000000005
 30
0.0
 11
106.983
 21
90.705799999999996
 31
0.0
  0
LINE
  5
4DF
  8
0
 62
     7
 10
106.983
 20
90.705799999999996
 30
0.0
 11
106.983
 21
91.287300000000002
 31
0.0
  0
LINE
  5
4E0
  8
0
 62
     7
 10
106.983
 20
91.287300000000002
 30
0.0
 11
106.983
 21
91.881299999999996
 31
0.0
  0
LINE
  5
4E1
  8
0
 62
     7
 10
106.983
 20
91.881299999999996
 30
0.0
 11
106.983
 21
92.464899999999986
 31
0.0
  0
LINE
  5
4E2
  8
0
 62
     7
 10
106.983
 20
92.464899999999986
 30
0.0
 11
106.983
 21
93.015400000000014
 31
0.0
  0
LINE
  5
4E3
  8
0
 62
     7
 10
106.983
 20
93.015400000000014
 30
0.0
 11
106.983
 21
93.512900000000002
 31
0.0
  0
LINE
  5
4E4
  8
0
 62
     7
 10
106.983
 20
93.512900000000002
 30
0.0
 11
106.983
 21
93.937299999999993
 31
0.0
  0
LINE
  5
4E5
  8
0
 62
     7
 10
106.983
 20
93.937299999999993
 30
0.0
 11
106.983
 21
94.271500000000003
 31
0.0
  0
LINE
  5
4E6
  8
0
 62
     7
 10
106.983
 20
94.271500000000003
 30
0.0
 11
106.983
 21
94.504400000000004
 31
0.0
  0
LINE
  5
4E7
  8
0
 62
     7
 10
106.983
 20
94.504400000000004
 30
0.0
 11
106.983
 21
94.625699999999995
 31
0.0
  0
LINE
  5
4E8
  8
0
 62
     7
 10
106.983
 20
94.625699999999995
 30
0.0
 11
106.983
 21
94.629099999999994
 31
0.0
  0
LINE
  5
4E9
  8
0
 62
     7
 10
106.983
 20
88.279100000000014
 30
0.0
 11
106.983
 21
90.013300000000015
 31
0.0
  0
LINE
  5
4EA
  8
0
 62
     7
 10
106.983
 20
90.013300000000015
 30
0.0
 11
106.983
 21
94.948099999999997
 31
0.0
  0
LINE
  5
4EB
  8
0
 62
     7
 10
107.18300000000001
 20
88.0779
 30
0.0
 11
107.18300000000001
 21
89.916200000000003
 31
0.0
  0
LINE
  5
4EC
  8
0
 62
     7
 10
107.18300000000001
 20
89.916200000000003
 30
0.0
 11
107.18300000000001
 21
95.149299999999997
 31
0.0
  0
LINE
  5
4ED
  8
0
 62
     7
 10
115.056
 20
85.048199999999994
 30
0.0
 11
115.056
 21
88.462999999999994
 31
0.0
  0
LINE
  5
4EE
  8
0
 62
     7
 10
115.056
 20
88.462999999999994
 30
0.0
 11
115.056
 21
98.178299999999993
 31
0.0
  0
LINE
  5
4EF
  8
0
 62
     7
 10
120.67
 20
98.178299999999993
 30
0.0
 11
120.67
 21
85.048199999999994
 31
0.0
  0
LINE
  5
4F0
  8
0
 62
     7
 10
121.425
 20
98.378799999999998
 30
0.0
 11
121.425
 21
84.844999999999999
 31
0.0
  0
LINE
  5
4F1
  8
0
 62
     7
 10
123.932
 20
98.631000000000014
 30
0.0
 11
123.932
 21
84.592799999999997
 31
0.0
  0
LINE
  5
4F2
  8
0
 62
     7
 10
119.758
 20
98.531700000000001
 30
0.0
 11
119.758
 21
84.695499999999996
 31
0.0
  0
LINE
  5
4F3
  8
0
 62
     7
 10
119.396
 20
84.395700000000005
 30
0.0
 11
119.407
 21
84.399199999999979
 31
0.0
  0
ARC
  5
4F4
  8
0
 62
     7
 10
119.40599899999999
 20
84.402081999999979
 30
0.0
 40
0.003001
 50
284.12069500000001
 51
66.757416000000006
  0
ARC
  5
4F5
  8
0
 62
     7
 10
119.36975700000001
 20
84.325343000000004
 30
0.0
 40
0.087866
 50
64.789614999999998
 51
83.758488000000014
  0
ARC
  5
4F6
  8
0
 62
     7
 10
119.302419
 20
84.0398
 30
0.0
 40
0.380734
 50
78.348764000000017
 51
83.099322000000001
  0
ARC
  5
4F7
  8
0
 62
     7
 10
119.07970400000001
 20
82.473956000000001
 30
0.0
 40
1.96227
 50
82.136657999999997
 51
87.975174999999993
  0
ARC
  5
4F8
  8
0
 62
     7
 10
118.802909
 20
79.791065000000003
 30
0.0
 40
4.6568170000000002
 50
85.737436000000002
 51
88.716860000000025
  0
ARC
  5
4F9
  8
0
 62
     7
 10
118.28797400000001
 20
66.728980000000007
 30
0.0
 40
17.728552000000001
 50
87.99838299999999
 51
89.170062999999999
  0
ARC
  5
4FA
  8
0
 62
     7
 10
118.031369
 20
61.685844000000003
 30
0.0
 40
22.775614000000001
 50
88.708355000000012
 51
89.472864999999999
  0
ARC
  5
4FB
  8
0
 62
     7
 10
117.98585799999999
 20
43.522238999999999
 30
0.0
 40
40.939050000000002
 50
89.643043000000006
 51
90.130024000000034
  0
ARC
  5
4FC
  8
0
 62
     7
 10
117.891747
 20
18.592903
 30
0.0
 40
65.86828100000001
 50
89.998945999999989
 51
90.262062
  0
ARC
  5
4FD
  8
0
 62
     7
 10
117.75698300000001
 20
60.990320999999987
 30
0.0
 40
23.470765
 50
90.406490000000005
 51
91.06253199999999
  0
ARC
  5
4FE
  8
0
 62
     7
 10
117.627713
 20
64.364093999999994
 30
0.0
 40
20.095285000000001
 50
90.872398000000004
 51
91.860857999999993
  0
ARC
  5
4FF
  8
0
 62
     7
 10
117.40778
 20
72.030562000000003
 30
0.0
 40
12.425753
 50
91.995193999999984
 51
93.617525999999998
  0
ARC
  5
500
  8
0
 62
     7
 10
116.827162
 20
81.834406999999999
 30
0.0
 40
2.605100999999999
 50
94.47800500000001
 51
97.862324000000015
  0
ARC
  5
501
  8
0
 62
     7
 10
116.517859
 20
84.107494999999986
 30
0.0
 40
0.311103
 50
98.699780000000004
 51
107.706772
  0
ARC
  5
502
  8
0
 62
     7
 10
116.425895
 20
84.401767000000007
 30
0.0
 40
0.003383
 50
141.77407299999999
 51
283.84119100000009
  0
LINE
  5
503
  8
0
 62
     7
 10
116.42700000000001
 20
84.398499999999984
 30
0.0
 11
116.43600000000001
 21
84.395700000000005
 31
0.0
  0
ARC
  5
504
  8
0
 62
     7
 10
104.986425
 20
87.552772000000004
 30
0.0
 40
14.432705
 50
2.375179999999999
 51
3.6482709999999989
  0
ARC
  5
505
  8
0
 62
     7
 10
115.38628
 20
88.197416999999987
 30
0.0
 40
4.012948999999999
 50
3.911241
 51
9.2730509999999988
  0
ARC
  5
506
  8
0
 62
     7
 10
116.470618
 20
88.361255999999997
 30
0.0
 40
2.9164089999999989
 50
9.5290750000000006
 51
23.307320000000001
  0
ARC
  5
507
  8
0
 62
     7
 10
116.827872
 20
88.490179999999995
 30
0.0
 40
2.5374020000000002
 50
23.825526
 51
34.968540000000012
  0
ARC
  5
508
  8
0
 62
     7
 10
117.600889
 20
89.000558999999996
 30
0.0
 40
1.6116189999999999
 50
35.850178999999997
 51
54.149811
  0
ARC
  5
509
  8
0
 62
     7
 10
117.84488899999999
 20
89.305266000000003
 30
0.0
 40
1.221887999999999
 50
55.055683999999992
 51
71.088945999999993
  0
ARC
  5
50A
  8
0
 62
     7
 10
117.914755
 20
89.489733999999984
 30
0.0
 40
1.024753
 50
71.441680000000005
 51
91.219470999999984
  0
ARC
  5
50B
  8
0
 62
     7
 10
117.919797
 20
89.472374000000002
 30
0.0
 40
1.042227
 50
91.476268000000005
 51
108.42052099999999
  0
ARC
  5
50C
  8
0
 62
     7
 10
117.9585129999999
 20
89.369539000000003
 30
0.0
 40
1.152034
 50
108.631281
 51
123.554705
  0
ARC
  5
50D
  8
0
 62
     7
 10
118.089691
 20
89.151246
 30
0.0
 40
1.4065030000000001
 50
123.092753
 51
142.41109700000001
  0
ARC
  5
50E
  8
0
 62
     7
 10
118.57960199999999
 20
88.720903000000007
 30
0.0
 40
2.0576500000000002
 50
141.236898
 51
161.90072699999999
  0
ARC
  5
50F
  8
0
 62
     7
 10
119.55137499999999
 20
88.302222999999998
 30
0.0
 40
3.112890999999999
 50
160.13222500000001
 51
171.91511700000001
  0
ARC
  5
510
  8
0
 62
     7
 10
120.161986
 20
88.172709999999995
 30
0.0
 40
3.735887
 50
171.26559499999999
 51
181.031937
  0
ARC
  5
511
  8
0
 62
     7
 10
120.500507
 20
88.152500000000003
 30
0.0
 40
4.0740739999999986
 50
180.66201599999999
 51
190.25165899999999
  0
ARC
  5
512
  8
0
 62
     7
 10
119.6506
 20
88.029571999999987
 30
0.0
 40
3.216000999999999
 50
190.79137900000001
 51
203.01572899999999
  0
ARC
  5
513
  8
0
 62
     7
 10
118.81356100000001
 20
87.698526999999984
 30
0.0
 40
2.3162679999999991
 50
203.57417000000001
 51
215.69537299999999
  0
ARC
  5
514
  8
0
 62
     7
 10
118.263701
 20
87.332343999999978
 30
0.0
 40
1.6562179999999991
 50
216.50633500000001
 51
234.25835499999999
  0
ARC
  5
515
  8
0
 62
     7
 10
117.97748900000001
 20
86.97847800000001
 30
0.0
 40
1.2020869999999999
 50
235.47872899999999
 51
251.70343199999999
  0
ARC
  5
516
  8
0
 62
     7
 10
117.920681
 20
86.826836999999998
 30
0.0
 40
1.040297
 50
252.05210400000001
 51
271.43263999999999
  0
ARC
  5
517
  8
0
 62
     7
 10
117.91035100000001
 20
86.835313999999997
 30
0.0
 40
1.0490790000000001
 50
271.98505599999999
 51
288.76307800000001
  0
ARC
  5
518
  8
0
 62
     7
 10
117.898129
 20
86.886556999999996
 30
0.0
 40
1.101540999999999
 50
288.50770699999998
 51
304.15132699999998
  0
ARC
  5
519
  8
0
 62
     7
 10
117.741756
 20
87.151499999999984
 30
0.0
 40
1.4087139999999989
 50
303.365274
 51
322.74976900000001
  0
ARC
  5
51A
  8
0
 62
     7
 10
117.32531899999999
 20
87.517624999999995
 30
0.0
 40
1.962207
 50
321.600191
 51
334.817429
  0
ARC
  5
51B
  8
0
 62
     7
 10
116.657265
 20
87.859264999999994
 30
0.0
 40
2.71225
 50
334.291202
 51
340.5347680000001
  0
ARC
  5
51C
  8
0
 62
     7
 10
116.348927
 20
87.981144999999998
 30
0.0
 40
3.0436030000000001
 50
340.30575399999998
 51
351.77912500000002
  0
ARC
  5
51D
  8
0
 62
     7
 10
115.770838
 20
88.076531000000017
 30
0.0
 40
3.6294110000000002
 50
351.59372000000002
 51
357.80262499999998
  0
ARC
  5
51E
  8
0
 62
     7
 10
102.29583
 20
88.777242000000015
 30
0.0
 40
17.12236
 50
357.18845299999998
 51
357.90364899999997
  0
ARC
  5
51F
  8
0
 62
     7
 10
105.740599
 20
94.783629999999988
 30
0.0
 40
13.678462
 50
2.4329809999999998
 51
3.7431059999999992
  0
ARC
  5
520
  8
0
 62
     7
 10
115.575907
 20
95.408935000000014
 30
0.0
 40
3.823356
 50
4.0144580000000003
 51
9.5038260000000001
  0
ARC
  5
521
  8
0
 62
     7
 10
116.60442999999999
 20
95.566525999999996
 30
0.0
 40
2.7829669999999989
 50
9.800203999999999
 51
23.886393999999999
  0
ARC
  5
522
  8
0
 62
     7
 10
116.88725700000001
 20
95.664578000000006
 30
0.0
 40
2.484785
 50
24.459855000000001
 51
35.617752000000003
  0
ARC
  5
523
  8
0
 62
     7
 10
117.62234599999999
 20
96.154238000000021
 30
0.0
 40
1.602331999999999
 50
36.692100000000003
 51
54.853347999999997
  0
ARC
  5
524
  8
0
 62
     7
 10
117.85567500000001
 20
96.452900999999997
 30
0.0
 40
1.2239450000000001
 50
55.736081999999989
 51
71.654668999999998
  0
ARC
  5
525
  8
0
 62
     7
 10
117.91201
 20
96.597385000000017
 30
0.0
 40
1.0691040000000001
 50
72.083236999999997
 51
91.021690000000007
  0
ARC
  5
526
  8
0
 62
     7
 10
117.92061099999999
 20
96.593286000000006
 30
0.0
 40
1.073388
 50
91.476859999999974
 51
107.91306400000001
  0
ARC
  5
527
  8
0
 62
     7
 10
117.952397
 20
96.509951000000015
 30
0.0
 40
1.1624699999999999
 50
108.14044199999999
 51
122.854636
  0
ARC
  5
528
  8
0
 62
     7
 10
118.08903100000001
 20
96.284062000000006
 30
0.0
 40
1.426374
 50
122.542632
 51
141.34359699999999
  0
ARC
  5
529
  8
0
 62
     7
 10
118.538946
 20
95.892404999999997
 30
0.0
 40
2.0225159999999991
 50
140.64076900000001
 51
161.24999
  0
ARC
  5
52A
  8
0
 62
     7
 10
119.401354
 20
95.510745
 30
0.0
 40
2.9630329999999998
 50
159.621725
 51
171.69099600000001
  0
ARC
  5
52B
  8
0
 62
     7
 10
119.993718
 20
95.384764999999987
 30
0.0
 40
3.5675979999999998
 50
171.063773
 51
181.03709599999999
  0
ARC
  5
52C
  8
0
 62
     7
 10
120.289461
 20
95.365992000000006
 30
0.0
 40
3.863027999999999
 50
180.679305
 51
190.528704
  0
ARC
  5
52D
  8
0
 62
     7
 10
119.514094
 20
95.253363000000007
 30
0.0
 40
3.080290999999999
 50
191.10438400000001
 51
203.561419
  0
ARC
  5
52E
  8
0
 62
     7
 10
118.75648200000001
 20
94.950929000000016
 30
0.0
 40
2.2650919999999992
 50
204.20951700000001
 51
216.36264800000001
  0
ARC
  5
52F
  8
0
 62
     7
 10
118.220826
 20
94.588231000000007
 30
0.0
 40
1.6188979999999991
 50
217.265657
 51
235.172123
  0
ARC
  5
530
  8
0
 62
     7
 10
117.96944999999999
 20
94.259800999999996
 30
0.0
 40
1.2058809999999991
 50
236.06430399999999
 51
252.164762
  0
ARC
  5
531
  8
0
 62
     7
 10
117.92161900000001
 20
94.137468999999996
 30
0.0
 40
1.0748089999999999
 50
252.594629
 51
271.33659899999998
  0
ARC
  5
532
  8
0
 62
     7
 10
117.90924099999999
 20
94.143112999999985
 30
0.0
 40
1.08081
 50
271.985681
 51
288.25460399999997
  0
ARC
  5
533
  8
0
 62
     7
 10
117.891288
 20
94.204849999999993
 30
0.0
 40
1.1450649999999989
 50
288.14006999999998
 51
303.09418499999998
  0
ARC
  5
534
  8
0
 62
     7
 10
117.73723099999999
 20
94.447559999999996
 30
0.0
 40
1.4325229999999991
 50
302.95584200000002
 51
321.806624
  0
ARC
  5
535
  8
0
 62
     7
 10
117.384964
 20
94.766676000000004
 30
0.0
 40
1.906979999999999
 50
320.815404
 51
334.143235
  0
ARC
  5
536
  8
0
 62
     7
 10
116.80274900000001
 20
95.071807999999976
 30
0.0
 40
2.5640669999999992
 50
333.681399
 51
340.15148900000003
  0
ARC
  5
537
  8
0
 62
     7
 10
116.50762899999999
 20
95.198605000000001
 30
0.0
 40
2.8847680000000002
 50
339.77291200000008
 51
351.573418
  0
ARC
  5
538
  8
0
 62
     7
 10
115.911737
 20
95.297610999999989
 30
0.0
 40
3.488751999999999
 50
351.39909799999998
 51
357.76147200000008
  0
ARC
  5
539
  8
0
 62
     7
 10
101.91852299999999
 20
96.029835000000006
 30
0.0
 40
17.500867
 50
357.15548699999999
 51
357.82056299999999
  0
ARC
  5
53A
  8
0
 62
     7
 10
116.51177
 20
98.670327999999998
 30
0.0
 40
0.177615
 50
97.009478999999999
 51
114.881289
  0
ARC
  5
53B
  8
0
 62
     7
 10
116.759106
 20
96.808690000000013
 30
0.0
 40
2.0556040000000002
 50
91.909790000000015
 51
97.519697999999991
  0
ARC
  5
53C
  8
0
 62
     7
 10
117.07757700000001
 20
93.375806999999995
 30
0.0
 40
5.5009730000000001
 50
91.511765999999994
 51
94.033899000000005
  0
ARC
  5
53D
  8
0
 62
     7
 10
117.38167
 20
88.022018000000003
 30
0.0
 40
10.86214
 50
90.450560999999993
 51
92.370232000000016
  0
ARC
  5
53E
  8
0
 62
     7
 10
118.042913
 20
61.418179000000002
 30
0.0
 40
37.473083000000003
 50
90.677041999999986
 51
91.141698000000005
  0
ARC
  5
53F
  8
0
 62
     7
 10
117.93037
 20
19.933274999999998
 30
0.0
 40
78.956062000000003
 50
89.988146999999998
 51
90.239648999999986
  0
ARC
  5
540
  8
0
 62
     7
 10
117.94789
 20
33.622284000000001
 30
0.0
 40
65.267050999999995
 50
89.736714000000006
 51
90.001042999999996
  0
ARC
  5
541
  8
0
 62
     7
 10
116.516243
 20
-22.397576000000001
 30
0.0
 40
121.298582
 50
89.055113000000006
 51
89.182058999999995
  0
ARC
  5
542
  8
0
 62
     7
 10
118.091534
 20
73.802971999999997
 30
0.0
 40
25.085139999999999
 50
88.237434000000007
 51
89.029269999999997
  0
ARC
  5
543
  8
0
 62
     7
 10
118.43047799999999
 20
86.458023999999995
 30
0.0
 40
12.425753
 50
86.382454000000024
 51
88.004785999999996
  0
ARC
  5
544
  8
0
 62
     7
 10
119.052161
 20
96.681612000000001
 30
0.0
 40
2.1834479999999989
 50
81.879998999999984
 51
85.736314000000007
  0
ARC
  5
545
  8
0
 62
     7
 10
119.348097
 20
98.747194999999991
 30
0.0
 40
0.096782
 50
60.532677
 51
82.597408999999999
  0
LINE
  5
546
  8
0
 62
     7
 10
105.729
 20
94.390699999999995
 30
0.0
 11
105.729
 21
91.613200000000006
 31
0.0
  0
LINE
  5
547
  8
0
 62
     7
 10
105.729
 20
91.613200000000006
 30
0.0
 11
105.729
 21
88.836500000000015
 31
0.0
  0
LINE
  5
548
  8
0
 62
     7
 10
105.227
 20
94.895799999999994
 30
0.0
 11
105.227
 21
91.613200000000006
 31
0.0
  0
LINE
  5
549
  8
0
 62
     7
 10
105.227
 20
91.613200000000006
 30
0.0
 11
105.227
 21
88.331400000000002
 31
0.0
  0
LINE
  5
54A
  8
0
 62
     7
 10
103.22199999999999
 20
94.895799999999994
 30
0.0
 11
103.22199999999999
 21
88.331400000000002
 31
0.0
  0
LINE
  5
54B
  8
0
 62
     7
 10
100.611
 20
97.421000000000006
 30
0.0
 11
100.611
 21
85.806200000000004
 31
0.0
  0
ARC
  5
54C
  8
0
 62
     7
 10
98.716412000000005
 20
97.674904999999995
 30
0.0
 40
1.2399260000000001
 50
90.112443999999996
 51
95.405750999999995
  0
ARC
  5
54D
  8
0
 62
     7
 10
100.140337
 20
60.350643999999988
 30
0.0
 40
38.589443000000003
 50
92.288209999999992
 51
92.774625
  0
ARC
  5
54E
  8
0
 62
     7
 10
95.920288999999997
 20
160.59122500000001
 30
0.0
 40
61.741193999999993
 50
271.71297399999997
 51
272.18321600000002
  0
ARC
  5
54F
  8
0
 62
     7
 10
96.334490999999986
 20
158.75881699999999
 30
0.0
 40
59.898300999999996
 50
270.76880399999999
 51
271.36933900000002
  0
ARC
  5
550
  8
0
 62
     7
 10
96.690678000000005
 20
134.607653
 30
0.0
 40
35.744546
 50
269.63275099999998
 51
270.71734400000003
  0
ARC
  5
551
  8
0
 62
     7
 10
96.685788000000002
 20
135.91701800000001
 30
0.0
 40
37.053856000000003
 50
268.64740399999999
 51
269.65328899999997
  0
ARC
  5
552
  8
0
 62
     7
 10
96.453901000000002
 20
130.77341999999999
 30
0.0
 40
31.90640800000001
 50
267.85663399999999
 51
268.84566699999999
  0
ARC
  5
553
  8
0
 62
     7
 10
96.124065000000002
 20
123.911996
 30
0.0
 40
25.037555000000001
 50
267.12882400000001
 51
268.02365400000002
  0
ARC
  5
554
  8
0
 62
     7
 10
95.730444999999989
 20
118.553871
 30
0.0
 40
19.666834999999999
 50
266.95361300000002
 51
267.49221599999998
  0
LINE
  5
555
  8
0
 62
     7
 10
94.685299999999984
 20
98.914800000000014
 30
0.0
 11
94.698299999999989
 21
98.914800000000014
 31
0.0
  0
LINE
  5
556
  8
0
 62
     7
 10
99.562899999999999
 20
98.683300000000003
 30
0.0
 11
99.562899999999999
 21
91.613200000000006
 31
0.0
  0
LINE
  5
557
  8
0
 62
     7
 10
99.558700000000002
 20
91.613200000000006
 30
0.0
 11
99.558700000000002
 21
84.543899999999994
 31
0.0
  0
ARC
  5
558
  8
0
 62
     7
 10
124.96674299999999
 20
84.934848000000002
 30
0.0
 40
1.034621999999999
 50
180.85639399999999
 51
245.04988
  0
ARC
  5
559
  8
0
 62
     7
 10
124.966989
 20
98.288730999999999
 30
0.0
 40
1.03487
 50
114.95873899999999
 51
179.134987
  0
ARC
  5
55A
  8
0
 62
     7
 10
122.773814
 20
80.217510000000004
 30
0.0
 40
4.1675139999999988
 50
0.4449320000000001
 51
65.072361999999998
  0
ARC
  5
55B
  8
0
 62
     7
 10
122.727204
 20
103.036219
 30
0.0
 40
4.214459999999999
 50
295.3304280000001
 51
359.15227700000003
  0
ARC
  5
55C
  8
0
 62
     7
 10
128.45670899999999
 20
80.250217000000006
 30
0.0
 40
1.515506999999999
 50
180.013035
 51
270.01304499999998
  0
ARC
  5
55D
  8
0
 62
     7
 10
128.51483999999999
 20
102.91536499999999
 30
0.0
 40
1.5747239999999989
 50
92.102978000000007
 51
177.87094300000001
  0
ARC
  5
55E
  8
0
 62
     7
 10
130.96544299999999
 20
80.807698999999985
 30
0.0
 40
3.4462129999999989
 50
250.14495700000001
 51
269.99428799999998
  0
ARC
  5
55F
  8
0
 62
     7
 10
130.720922
 20
79.976888000000002
 30
0.0
 40
2.582266999999999
 50
208.753468
 51
248.98683
  0
ARC
  5
560
  8
0
 62
     7
 10
130.69081
 20
103.28297600000001
 30
0.0
 40
2.538548
 50
107.004891
 51
151.634412
  0
ARC
  5
561
  8
0
 62
     7
 10
130.92727600000001
 20
102.618488
 30
0.0
 40
3.2432959999999991
 50
89.331800999999984
 51
107.56661699999999
  0
LINE
  5
562
  8
0
 62
     7
 10
106.983
 20
94.629099999999994
 30
0.0
 11
106.983
 21
94.948099999999997
 31
0.0
  0
LINE
  5
563
  8
0
 62
     7
 10
106.983
 20
88.279100000000014
 30
0.0
 11
106.983
 21
88.598100000000017
 31
0.0
  0
LINE
  5
564
  8
0
 62
     7
 10
106.983
 20
94.948099999999997
 30
0.0
 11
107.18300000000001
 21
95.149299999999997
 31
0.0
  0
LINE
  5
565
  8
0
 62
     7
 10
107.18300000000001
 20
88.0779
 30
0.0
 11
106.983
 21
88.279100000000014
 31
0.0
  0
LINE
  5
566
  8
0
 62
     7
 10
111.37
 20
88.079200000000014
 30
0.0
 11
107.18300000000001
 21
88.0779
 31
0.0
  0
LINE
  5
567
  8
0
 62
     7
 10
107.18300000000001
 20
95.149299999999997
 30
0.0
 11
111.37
 21
95.148600000000002
 31
0.0
  0
ARC
  5
568
  8
0
 62
     7
 10
110.50986899999999
 20
107.172428
 30
0.0
 40
12.054524000000001
 50
274.09154699999999
 51
275.46030400000001
  0
ARC
  5
569
  8
0
 62
     7
 10
111.36221399999999
 20
98.075752000000023
 30
0.0
 40
2.9180700000000002
 50
275.796558
 51
282.59154100000001
  0
ARC
  5
56A
  8
0
 62
     7
 10
111.48741800000001
 20
97.405344999999997
 30
0.0
 40
2.2366209999999991
 50
283.20522799999998
 51
303.45563900000002
  0
ARC
  5
56B
  8
0
 62
     7
 10
111.200948
 20
97.893748000000002
 30
0.0
 40
2.8021940000000001
 50
302.83718599999997
 51
312.151903
  0
ARC
  5
56C
  8
0
 62
     7
 10
111.29004500000001
 20
97.734605999999985
 30
0.0
 40
2.6247340000000001
 50
313.041404
 51
323.850663
  0
ARC
  5
56D
  8
0
 62
     7
 10
111.47104
 20
97.618836000000002
 30
0.0
 40
2.4103289999999991
 50
323.534851
 51
336.10307399999999
  0
ARC
  5
56E
  8
0
 62
     7
 10
111.85776300000001
 20
97.429829000000012
 30
0.0
 40
1.9802580000000001
 50
336.57022699999999
 51
340.18462699999998
  0
ARC
  5
56F
  8
0
 62
     7
 10
110.768073
 20
97.823334000000003
 30
0.0
 40
3.1388219999999998
 50
340.16982200000001
 51
343.71226100000001
  0
ARC
  5
570
  8
0
 62
     7
 10
103.717665
 20
99.864031000000026
 30
0.0
 40
10.478617
 50
343.81381299999998
 51
345.09162300000003
  0
ARC
  5
571
  8
0
 62
     7
 10
102.478317
 20
82.989582999999996
 30
0.0
 40
11.772432
 50
15.113481
 51
16.522717
  0
ARC
  5
572
  8
0
 62
     7
 10
111.286973
 20
85.576413999999986
 30
0.0
 40
2.5919500000000002
 50
17.078216000000001
 51
22.894005
  0
ARC
  5
573
  8
0
 62
     7
 10
111.63264100000001
 20
85.702329999999989
 30
0.0
 40
2.2246029999999992
 50
23.369896000000001
 51
36.992179999999998
  0
ARC
  5
574
  8
0
 62
     7
 10
111.35270300000001
 20
85.544643999999977
 30
0.0
 40
2.543429999999999
 50
36.034883000000001
 51
47.179085999999998
  0
ARC
  5
575
  8
0
 62
     7
 10
111.338964
 20
85.518045999999998
 30
0.0
 40
2.572290999999999
 50
47.357329000000007
 51
57.516044999999991
  0
ARC
  5
576
  8
0
 62
     7
 10
111.375544
 20
85.557046
 30
0.0
 40
2.5197660000000002
 50
57.741394
 51
75.689965000000001
  0
ARC
  5
577
  8
0
 62
     7
 10
111.446189
 20
85.680643000000003
 30
0.0
 40
2.3828439999999991
 50
76.601416999999998
 51
84.212296999999992
  0
ARC
  5
578
  8
0
 62
     7
 10
110.86995400000001
 20
80.598829000000009
 30
0.0
 40
7.497109
 50
83.747367999999994
 51
86.175900999999996
  0
ARC
  5
579
  8
0
 62
     7
 10
115.114086
 20
86.350437999999997
 30
0.0
 40
1.303520999999999
 50
192.91794400000001
 51
267.42610300000001
  0
ARC
  5
57A
  8
0
 62
     7
 10
115.112272
 20
96.878033999999985
 30
0.0
 40
1.301466
 50
92.498032999999992
 51
167.11948799999999
  0
LINE
  5
57B
  8
0
 62
     7
 10
115.73999999999999
 20
85.048199999999994
 30
0.0
 11
115.056
 21
85.048199999999994
 31
0.0
  0
LINE
  5
57C
  8
0
 62
     7
 10
115.056
 20
98.178299999999993
 30
0.0
 11
115.73999999999999
 21
98.178299999999993
 31
0.0
  0
LINE
  5
57D
  8
0
 62
     7
 10
115.73999999999999
 20
98.178299999999993
 30
0.0
 11
115.76300000000001
 21
98.180300000000003
 31
0.0
  0
ARC
  5
57E
  8
0
 62
     7
 10
115.73168699999999
 20
98.330466000000015
 30
0.0
 40
0.153403
 50
281.84487200000001
 51
292.36060199999997
  0
ARC
  5
57F
  8
0
 62
     7
 10
115.738072
 20
98.309787999999998
 30
0.0
 40
0.131865
 50
293.21332699999999
 51
307.473184
  0
ARC
  5
580
  8
0
 62
     7
 10
115.695953
 20
98.343874
 30
0.0
 40
0.184978
 50
311.40665300000001
 51
323.05570599999999
  0
ARC
  5
581
  8
0
 62
     7
 10
113.832483
 20
83.159599999999998
 30
0.0
 40
2.722529999999999
 50
42.373761000000002
 51
43.163879999999992
  0
ARC
  5
582
  8
0
 62
     7
 10
115.721861
 20
84.883245000000002
 30
0.0
 40
0.169016
 50
55.209899999999998
 51
66.207362000000003
  0
ARC
  5
583
  8
0
 62
     7
 10
115.754057
 20
84.974712999999994
 30
0.0
 40
0.072714
 50
60.333615000000009
 51
82.796471999999994
  0
ARC
  5
584
  8
0
 62
     7
 10
115.74602400000001
 20
84.952138000000005
 30
0.0
 40
0.096256
 50
79.736194999999995
 51
93.327326999999997
  0
ARC
  5
585
  8
0
 62
     7
 10
120.558088
 20
103.880398
 30
0.0
 40
5.7031869999999998
 50
271.10070400000001
 51
273.00776300000001
  0
ARC
  5
586
  8
0
 62
     7
 10
120.780759
 20
99.333561000000003
 30
0.0
 40
1.1510439999999991
 50
273.81485500000002
 51
282.05286000000001
  0
ARC
  5
587
  8
0
 62
     7
 10
120.804169
 20
99.162386999999995
 30
0.0
 40
0.9788399999999999
 50
282.80499300000002
 51
294.57417800000002
  0
ARC
  5
588
  8
0
 62
     7
 10
120.085117
 20
100.797353
 30
0.0
 40
2.7648719999999991
 50
294.03513199999998
 51
298.984058
  0
ARC
  5
589
  8
0
 62
     7
 10
117.71486899999999
 20
77.796030000000002
 30
0.0
 40
7.9656599999999997
 50
62.241178000000012
 51
63.939247999999999
  0
ARC
  5
58A
  8
0
 62
     7
 10
120.766217
 20
83.978812999999988
 30
0.0
 40
1.0712479999999991
 50
65.269542999999985
 51
76.234820999999997
  0
ARC
  5
58B
  8
0
 62
     7
 10
120.82383
 20
84.143086999999994
 30
0.0
 40
0.898141
 50
77.311110999999997
 51
82.551506999999987
  0
ARC
  5
58C
  8
0
 62
     7
 10
120.749132
 20
83.571287999999996
 30
0.0
 40
1.4747980000000001
 50
82.553749999999994
 51
87.748800000000017
  0
ARC
  5
58D
  8
0
 62
     7
 10
120.627679
 20
80.389906999999994
 30
0.0
 40
4.6584959999999986
 50
87.793157999999991
 51
89.508447000000004
  0
ARC
  5
58E
  8
0
 62
     7
 10
123.409577
 20
102.947278
 30
0.0
 40
5.7376670000000001
 50
230.31546299999999
 51
232.253771
  0
ARC
  5
58F
  8
0
 62
     7
 10
120.702831
 20
99.487037000000015
 30
0.0
 40
1.344755999999999
 50
233.193927
 51
237.797877
  0
ARC
  5
590
  8
0
 62
     7
 10
120.506682
 20
99.216734000000017
 30
0.0
 40
1.011741
 50
239.039818
 51
254.82422399999999
  0
ARC
  5
591
  8
0
 62
     7
 10
120.5859
 20
99.394418999999999
 30
0.0
 40
1.2043399999999991
 50
253.39968300000001
 51
263.94330500000001
  0
ARC
  5
592
  8
0
 62
     7
 10
120.904082
 20
102.026713
 30
0.0
 40
3.8557059999999992
 50
263.368719
 51
266.48433
  0
ARC
  5
593
  8
0
 62
     7
 10
121.098838
 20
78.987707999999998
 30
0.0
 40
6.075844
 50
94.069608000000002
 51
96.014921999999984
  0
ARC
  5
594
  8
0
 62
     7
 10
120.621882
 20
83.653036
 30
0.0
 40
1.386298
 50
96.615828000000008
 51
105.911399
  0
ARC
  5
595
  8
0
 62
     7
 10
120.60562400000001
 20
83.770426999999998
 30
0.0
 40
1.2690549999999989
 50
106.658545
 51
119.21570699999999
  0
ARC
  5
596
  8
0
 62
     7
 10
120.64772600000001
 20
83.821993000000006
 30
0.0
 40
1.2461370000000001
 50
122.063683
 51
126.38225199999999
  0
ARC
  5
597
  8
0
 62
     7
 10
121.672011
 20
82.445704000000006
 30
0.0
 40
2.9617429999999998
 50
126.541962
 51
130.57081500000001
  0
ARC
  5
598
  8
0
 62
     7
 10
122.185571
 20
85.866138000000007
 30
0.0
 40
1.273355
 50
233.3167850000001
 51
269.84462500000001
  0
ARC
  5
599
  8
0
 62
     7
 10
122.182164
 20
97.367831000000024
 30
0.0
 40
1.26312
 50
90.002096000000009
 51
126.836494
  0
LINE
  5
59A
  8
0
 62
     7
 10
123.932
 20
84.592799999999997
 30
0.0
 11
122.182
 21
84.592799999999997
 31
0.0
  0
LINE
  5
59B
  8
0
 62
     7
 10
122.182
 20
98.631000000000014
 30
0.0
 11
123.932
 21
98.631000000000014
 31
0.0
  0
ARC
  5
59C
  8
0
 62
     7
 10
117.951978
 20
86.398364999999984
 30
0.0
 40
2.473349999999999
 50
305.77117099999998
 51
316.48814099999998
  0
ARC
  5
59D
  8
0
 62
     7
 10
117.909172
 20
86.428041000000007
 30
0.0
 40
2.514135
 50
214.76400799999999
 51
234.04240300000001
  0
ARC
  5
59E
  8
0
 62
     7
 10
117.928929
 20
96.782143999999988
 30
0.0
 40
2.5400599999999991
 50
126.084059
 51
145.17510799999999
  0
ARC
  5
59F
  8
0
 62
     7
 10
117.844397
 20
96.712671999999998
 30
0.0
 40
2.6313580000000001
 50
43.733142999999991
 51
53.782193000000007
  0
LINE
  5
5A0
  8
0
 62
     7
 10
106.983
 20
88.836500000000015
 30
0.0
 11
105.729
 21
88.836500000000015
 31
0.0
  0
LINE
  5
5A1
  8
0
 62
     7
 10
105.729
 20
94.390699999999995
 30
0.0
 11
106.983
 21
94.390699999999995
 31
0.0
  0
LINE
  5
5A2
  8
0
 62
     7
 10
105.227
 20
88.331400000000002
 30
0.0
 11
103.22199999999999
 21
88.331400000000002
 31
0.0
  0
LINE
  5
5A3
  8
0
 62
     7
 10
103.22199999999999
 20
94.895799999999994
 30
0.0
 11
105.227
 21
94.895799999999994
 31
0.0
  0
LINE
  5
5A4
  8
0
 62
     7
 10
105.729
 20
88.836500000000015
 30
0.0
 11
105.227
 21
88.331400000000002
 31
0.0
  0
LINE
  5
5A5
  8
0
 62
     7
 10
105.227
 20
94.895799999999994
 30
0.0
 11
105.729
 21
94.390699999999995
 31
0.0
  0
ARC
  5
5A6
  8
0
 62
     7
 10
114.935198
 20
102.074899
 30
0.0
 40
15.194649
 50
200.41509199999999
 51
201.63588899999999
  0
ARC
  5
5A7
  8
0
 62
     7
 10
103.79194699999999
 20
97.668032999999994
 30
0.0
 40
3.2116689999999992
 50
201.853658
 51
211.3707
  0
ARC
  5
5A8
  8
0
 62
     7
 10
103.036372
 20
97.280474999999996
 30
0.0
 40
2.3656179999999991
 50
212.88289900000001
 51
234.612796
  0
ARC
  5
5A9
  8
0
 62
     7
 10
103.11780899999999
 20
97.420017999999999
 30
0.0
 40
2.526583
 50
234.93973099999999
 51
254.735457
  0
ARC
  5
5AA
  8
0
 62
     7
 10
102.99632800000001
 20
97.177831999999995
 30
0.0
 40
2.261588999999999
 50
256.08929000000001
 51
263.85510799999997
  0
ARC
  5
5AB
  8
0
 62
     7
 10
103.26581
 20
99.334429000000014
 30
0.0
 40
4.4347969999999997
 50
263.37598200000002
 51
266.43343299999998
  0
ARC
  5
5AC
  8
0
 62
     7
 10
103.91856300000001
 20
110.004311
 30
0.0
 40
15.124624000000001
 50
266.47990399999998
 51
267.35869600000001
  0
ARC
  5
5AD
  8
0
 62
     7
 10
103.798259
 20
74.635003999999995
 30
0.0
 40
13.70856
 50
92.411010000000005
 51
93.709119999999984
  0
ARC
  5
5AE
  8
0
 62
     7
 10
103.10919
 20
85.489357999999996
 30
0.0
 40
2.8324029999999989
 50
94.003579999999985
 51
103.403446
  0
ARC
  5
5AF
  8
0
 62
     7
 10
102.98431600000001
 20
86.205065000000005
 30
0.0
 40
2.1077129999999991
 50
104.611412
 51
117.286658
  0
ARC
  5
5B0
  8
0
 62
     7
 10
103.48367399999999
 20
85.142229
 30
0.0
 40
3.2814949999999992
 50
116.527843
 51
123.626791
  0
ARC
  5
5B1
  8
0
 62
     7
 10
102.947435
 20
85.917679000000007
 30
0.0
 40
2.3389099999999989
 50
123.20847000000001
 51
130.56746100000001
  0
ARC
  5
5B2
  8
0
 62
     7
 10
102.605131
 20
86.352997000000002
 30
0.0
 40
1.7857590000000001
 50
131.307929
 51
150.57286500000001
  0
ARC
  5
5B3
  8
0
 62
     7
 10
103.219971
 20
85.944956000000005
 30
0.0
 40
2.5223139999999988
 50
149.36167599999999
 51
152.49300400000001
  0
ARC
  5
5B4
  8
0
 62
     7
 10
104.629588
 20
85.206063
 30
0.0
 40
4.1138459999999988
 50
152.43279100000001
 51
155.55650299999999
  0
ARC
  5
5B5
  8
0
 62
     7
 10
107.966849
 20
83.696359999999984
 30
0.0
 40
7.7766989999999998
 50
155.60479799999999
 51
159.24298999999999
  0
ARC
  5
5B6
  8
0
 62
     7
 10
100.681039
 20
86.456762999999995
 30
0.0
 40
0.014534
 50
296.36373500000002
 51
342.78411599999998
  0
ARC
  5
5B7
  8
0
 62
     7
 10
102.921216
 20
85.909967000000009
 30
0.0
 40
2.296613999999999
 50
166.28366199999999
 51
166.56052700000001
  0
ARC
  5
5B8
  8
0
 62
     7
 10
99.072151000000005
 20
86.019063000000017
 30
0.0
 40
1.5533689999999989
 50
288.254347
 51
352.12221600000009
  0
ARC
  5
5B9
  8
0
 62
     7
 10
99.086202999999998
 20
97.219832999999994
 30
0.0
 40
1.5378750000000001
 50
7.5172869999999978
 51
72.10615
  0
ARC
  5
5BA
  8
0
 62
     7
 10
97.803923999999995
 20
89.926691000000005
 30
0.0
 40
5.6616349999999986
 50
283.05512800000002
 51
288.05594100000002
  0
ARC
  5
5BB
  8
0
 62
     7
 10
97.060139000000021
 20
93.002884999999978
 30
0.0
 40
8.8263820000000006
 50
278.44680699999998
 51
283.24782099999999
  0
ARC
  5
5BC
  8
0
 62
     7
 10
96.334672999999995
 20
97.620090000000005
 30
0.0
 40
13.500124
 50
273.330626
 51
278.6139
  0
ARC
  5
5BD
  8
0
 62
     7
 10
95.904375000000002
 20
103.618694
 30
0.0
 40
19.513763000000001
 50
260.65267299999999
 51
273.56865699999997
  0
ARC
  5
5BE
  8
0
 62
     7
 10
94.667089000000004
 20
95.532134999999997
 30
0.0
 40
11.333997999999999
 50
254.28693899999999
 51
260.18478199999998
  0
ARC
  5
5BF
  8
0
 62
     7
 10
93.363320000000002
 20
90.739175000000003
 30
0.0
 40
6.367208999999999
 50
247.86638500000001
 51
253.90015700000001
  0
ARC
  5
5C0
  8
0
 62
     7
 10
91.327722999999992
 20
97.352210999999997
 30
0.0
 40
0.95156
 50
107.041704
 51
112.44896
  0
ARC
  5
5C1
  8
0
 62
     7
 10
91.909021999999993
 20
95.510625000000005
 30
0.0
 40
2.882690999999999
 50
103.74526400000001
 51
107.361026
  0
ARC
  5
5C2
  8
0
 62
     7
 10
93.120238999999984
 20
90.616210999999993
 30
0.0
 40
7.924741
 50
101.54640499999999
 51
103.84351100000001
  0
ARC
  5
5C3
  8
0
 62
     7
 10
95.437717000000006
 20
79.369524999999996
 30
0.0
 40
19.407706000000001
 50
100.161658
 51
101.603746
  0
ARC
  5
5C4
  8
0
 62
     7
 10
100.19838900000001
 20
52.923392
 30
0.0
 40
46.278913000000003
 50
99.269168999999977
 51
100.18666899999999
  0
ARC
  5
5C5
  8
0
 62
     7
 10
24.615593000000001
 20
522.39600099999996
 30
0.0
 40
429.23912300000001
 50
279.13257399999998
 51
279.38229799999999
  0
ARC
  5
5C6
  8
0
 62
     7
 10
94.014363000000003
 20
102.022667
 30
0.0
 40
3.1763880000000002
 50
280.45173599999998
 51
282.396997
  0
ARC
  5
5C7
  8
0
 62
     7
 10
96.656830000000014
 20
89.766765000000007
 30
0.0
 40
9.3768799999999999
 50
71.972518999999991
 51
77.335699000000005
  0
ARC
  5
5C8
  8
0
 62
     7
 10
57.917287999999999
 20
91.611401999999998
 30
0.0
 40
12.877145000000001
 50
278.62101100000001
 51
8.6186530000000001
  0
ARC
  5
5C9
  8
0
 62
     7
 10
57.603957999999999
 20
91.300384999999991
 30
0.0
 40
13.23611
 50
9.7465779999999995
 51
79.845771999999997
  0
ARC
  5
5CA
  8
0
 62
     7
 10
57.917701999999998
 20
91.611489999999989
 30
0.0
 40
12.87716
 50
99.026561999999984
 51
189.02437
  0
ARC
  5
5CB
  8
0
 62
     7
 10
58.326394999999991
 20
92.170330000000007
 30
0.0
 40
13.377348
 50
191.11418
 51
276.52928000000003
  0
LINE
  5
5CC
  8
0
 62
     7
 10
59.7971
 20
84.3506
 30
0.0
 11
59.806899999999999
 21
84.349900000000005
 31
0.0
  0
ARC
  5
5CD
  8
0
 62
     7
 10
66.759636
 20
391.92684600000001
 30
0.0
 40
307.65551199999999
 50
268.70506499999999
 51
268.781113
  0
ARC
  5
5CE
  8
0
 62
     7
 10
60.033150999999997
 20
74.040225000000007
 30
0.0
 40
10.302332
 50
88.030462
 51
88.987829000000005
  0
LINE
  5
5CF
  8
0
 62
     7
 10
60.3872
 20
84.336500000000001
 30
0.0
 11
60.439399999999999
 21
84.335400000000007
 31
0.0
  0
LINE
  5
5D0
  8
0
 62
     7
 10
55.0623
 20
84.459500000000006
 30
0.0
 11
55.058
 21
84.459500000000006
 31
0.0
  0
LINE
  5
5D1
  8
0
 62
     7
 10
55.058
 20
84.459500000000006
 30
0.0
 11
55.118099999999998
 21
84.458399999999997
 31
0.0
  0
LINE
  5
5D2
  8
0
 62
     7
 10
55.118099999999998
 20
84.458399999999997
 30
0.0
 11
55.268300000000004
 21
84.454999999999998
 31
0.0
  0
ARC
  5
5D3
  8
0
 62
     7
 10
52.007095999999997
 20
-67.423194999999993
 30
0.0
 40
151.913186
 50
88.632324999999994
 51
88.769897999999998
  0
LINE
  5
5D4
  8
0
 62
     7
 10
55.633000000000003
 20
84.446700000000007
 30
0.0
 11
55.727899999999998
 21
84.443999999999988
 31
0.0
  0
ARC
  5
5D5
  8
0
 62
     7
 10
35.490751000000003
 20
76.937033999999997
 30
0.0
 40
19.502364
 50
28.842264
 51
29.059720000000009
  0
LINE
  5
5D6
  8
0
 62
     7
 10
52.573900000000002
 20
86.344999999999999
 30
0.0
 11
52.76959999999999
 21
85.986000000000004
 31
0.0
  0
ARC
  5
5D7
  8
0
 62
     7
 10
74.174880000000002
 20
97.741384999999994
 30
0.0
 40
24.420839000000001
 50
208.774754
 51
209.17852099999999
  0
ARC
  5
5D8
  8
0
 62
     7
 10
47.103991000000001
 20
82.757633999999996
 30
0.0
 40
6.5209739999999989
 50
27.711003000000002
 51
28.163277000000001
  0
ARC
  5
5D9
  8
0
 62
     7
 10
50.281649000000002
 20
90.501737000000006
 30
0.0
 40
0.016094
 50
24.449515000000002
 51
40.492863
  0
ARC
  5
5DA
  8
0
 62
     7
 10
50.293860999999993
 20
90.512226999999996
 30
0.0
 40
0.000048
 50
75.714579000000001
 51
305.52472899999998
  0
ARC
  5
5DB
  8
0
 62
     7
 10
46.468803000000001
 20
88.368645999999998
 30
0.0
 40
4.3847809999999994
 50
28.473991000000002
 51
29.266940999999999
  0
LINE
  5
5DC
  8
0
 62
     7
 10
50.3232
 20
90.459100000000007
 30
0.0
 11
50.394799999999996
 21
90.3279
 31
0.0
  0
ARC
  5
5DD
  8
0
 62
     7
 10
-19.831661
 20
51.759599999999992
 30
0.0
 40
80.120358999999979
 50
28.51443900000001
 51
28.775515000000009
  0
ARC
  5
5DE
  8
0
 62
     7
 10
51.860802999999997
 20
90.701149999999984
 30
0.0
 40
1.465522999999999
 50
208.25048699999999
 51
210.10170400000001
  0
ARC
  5
5DF
  8
0
 62
     7
 10
48.595665999999987
 20
94.922318000000004
 30
0.0
 40
2.4688080000000001
 50
327.776791
 51
329.53683000000001
  0
ARC
  5
5E0
  8
0
 62
     7
 10
-0.021265
 20
124.231201
 30
0.0
 40
59.236433999999988
 50
328.47391800000003
 51
328.86870299999998
  0
ARC
  5
5E1
  8
0
 62
     7
 10
41.530481999999992
 20
98.567406999999989
 30
0.0
 40
10.399445
 50
328.34540700000002
 51
329.29496499999999
  0
ARC
  5
5E2
  8
0
 62
     7
 10
46.595545000000001
 20
95.427707999999996
 30
0.0
 40
4.4402429999999988
 50
327.8572759999999
 51
328.53207300000003
  0
LINE
  5
5E3
  8
0
 62
     7
 10
53.152000000000001
 20
97.660499999999985
 30
0.0
 11
53.153700000000001
 21
97.664299999999983
 31
0.0
  0
ARC
  5
5E4
  8
0
 62
     7
 10
52.801929000000001
 20
97.840162000000007
 30
0.0
 40
0.393286
 50
324.64209699999998
 51
333.43039700000008
  0
ARC
  5
5E5
  8
0
 62
     7
 10
61.176457999999997
 20
92.585996999999992
 30
0.0
 40
9.4936769999999981
 50
148.03061099999999
 51
148.93547599999999
  0
ARC
  5
5E6
  8
0
 62
     7
 10
6.4118889999999986
 20
125.592431
 30
0.0
 40
54.448349
 50
328.54858899999999
 51
328.920545
  0
LINE
  5
5E7
  8
0
 62
     7
 10
55.89739999999999
 20
98.876199999999997
 30
0.0
 11
55.620199999999997
 21
98.882099999999994
 31
0.0
  0
ARC
  5
5E8
  8
0
 62
     7
 10
56.834214000000003
 20
148.99596500000001
 30
0.0
 40
50.128566999999997
 50
268.41495400000002
 51
268.61229900000001
  0
ARC
  5
5E9
  8
0
 62
     7
 10
55.210018999999988
 20
88.299384000000003
 30
0.0
 40
10.58986
 50
88.714402000000007
 51
88.994051999999996
  0
LINE
  5
5EA
  8
0
 62
     7
 10
60.773200000000003
 20
98.763599999999997
 30
0.0
 11
60.7774
 21
98.763599999999997
 31
0.0
  0
ARC
  5
5EB
  8
0
 62
     7
 10
60.723482999999987
 20
97.380677000000006
 30
0.0
 40
1.383961
 50
87.768049000000005
 51
90.278854999999993
  0
ARC
  5
5EC
  8
0
 62
     7
 10
60.388130000000011
 20
88.750695999999991
 30
0.0
 40
10.019316
 50
88.120451000000003
 51
88.975757000000002
  0
ARC
  5
5ED
  8
0
 62
     7
 10
61.885190999999999
 20
167.85514599999999
 30
0.0
 40
69.099305000000001
 50
268.60452700000008
 51
268.90711499999998
  0
LINE
  5
5EE
  8
0
 62
     7
 10
60.202399999999997
 20
98.776300000000006
 30
0.0
 11
60.125900000000001
 21
98.778400000000005
 31
0.0
  0
ARC
  5
5EF
  8
0
 62
     7
 10
267.62004000000002
 20
208.67485199999999
 30
0.0
 40
232.939367
 50
208.580861
 51
208.67354
  0
ARC
  5
5F0
  8
0
 62
     7
 10
80.333919999999992
 20
106.87627500000001
 30
0.0
 40
19.776161999999999
 50
208.67143300000001
 51
209.17090300000001
  0
ARC
  5
5F1
  8
0
 62
     7
 10
53.516801999999998
 20
92.322864999999993
 30
0.0
 40
10.735756
 50
28.150948
 51
28.424472999999999
  0
ARC
  5
5F2
  8
0
 62
     7
 10
65.531218999999993
 20
92.708368000000007
 30
0.0
 40
0.01004
 50
14.383566
 51
38.74653
  0
ARC
  5
5F3
  8
0
 62
     7
 10
65.541116999999986
 20
92.710734999999985
 30
0.0
 40
0.000214
 50
143.68398300000001
 51
10.916831
  0
ARC
  5
5F4
  8
0
 62
     7
 10
64.483007000000001
 20
92.168165999999985
 30
0.0
 40
1.189312999999999
 50
27.144596
 51
30.060863999999999
  0
ARC
  5
5F5
  8
0
 62
     7
 10
49.824590000000001
 20
84.202687999999995
 30
0.0
 40
17.871777999999999
 50
28.622471999999998
 51
29.102969000000002
  0
ARC
  5
5F6
  8
0
 62
     7
 10
40.20822299999999
 20
79.320651999999995
 30
0.0
 40
28.651534000000002
 50
28.279941999999998
 51
29.010012
  0
ARC
  5
5F7
  8
0
 62
     7
 10
54.056193999999991
 20
87.187165000000007
 30
0.0
 40
12.72709
 50
28.272611999999999
 51
28.850045000000001
  0
ARC
  5
5F8
  8
0
 62
     7
 10
100.048833
 20
68.687802000000005
 30
0.0
 40
40.692402000000001
 50
148.47311400000001
 51
148.98615899999999
  0
ARC
  5
5F9
  8
0
 62
     7
 10
51.394973999999991
 20
98.584716999999998
 30
0.0
 40
16.41301
 50
328.323171
 51
328.92606499999999
  0
ARC
  5
5FA
  8
0
 62
     7
 10
71.607354000000001
 20
86.422200000000004
 30
0.0
 40
7.1765559999999988
 50
148.633363
 51
149.04799499999999
  0
ARC
  5
5FB
  8
0
 62
     7
 10
62.668050000000001
 20
85.569798999999989
 30
0.0
 40
0.017108
 50
319.98531000000003
 51
335.07231200000001
  0
ARC
  5
5FC
  8
0
 62
     7
 10
62.220875999999997
 20
85.876660000000001
 30
0.0
 40
0.559366
 50
325.3715390000001
 51
331.584114
  0
LINE
  5
5FD
  8
0
 62
     7
 10
62.712800000000001
 20
85.610499999999988
 30
0.0
 11
62.790500000000002
 21
85.738600000000005
 31
0.0
  0
ARC
  5
5FE
  8
0
 62
     7
 10
94.443629999999999
 20
66.607016000000002
 30
0.0
 40
36.985635000000002
 50
148.28513699999999
 51
148.850572
  0
ARC
  5
5FF
  8
0
 62
     7
 10
68.345718000000005
 20
82.899826000000004
 30
0.0
 40
6.2213789999999989
 50
148.27821399999999
 51
149.57843700000001
  0
LINE
  5
600
  8
0
 62
     7
 10
59.9375
 20
158.899
 30
0.0
 11
55.89739999999999
 21
158.899
 31
0.0
  0
ARC
  5
601
  8
0
 62
     7
 10
55.912769999999988
 20
99.02552
 30
0.0
 40
0.163413
 50
269.31212099999999
 51
273.78421400000002
  0
ARC
  5
602
  8
0
 62
     7
 10
60.203564999999998
 20
13.047713999999999
 30
0.0
 40
85.921706999999998
 50
92.736787000000007
 51
92.863751000000022
  0
ARC
  5
603
  8
0
 62
     7
 10
57.429218000000013
 20
71.366014000000007
 30
0.0
 40
27.537458000000001
 50
91.944651999999991
 51
92.764662999999999
  0
ARC
  5
604
  8
0
 62
     7
 10
58.302942000000002
 20
46.429116
 30
0.0
 40
52.489649999999997
 50
91.368043999999998
 51
91.974131000000014
  0
ARC
  5
605
  8
0
 62
     7
 10
57.945919000000004
 20
58.908320999999987
 30
0.0
 40
40.005521999999999
 50
90.347712999999999
 51
91.283568000000002
  0
ARC
  5
606
  8
0
 62
     7
 10
57.884692999999999
 20
55.074258
 30
0.0
 40
43.839224000000002
 50
89.353858999999986
 51
90.237284000000017
  0
ARC
  5
607
  8
0
 62
     7
 10
58.021617999999997
 20
64.239987999999997
 30
0.0
 40
34.672548999999997
 50
88.377533000000014
 51
89.409309999999991
  0
ARC
  5
608
  8
0
 62
     7
 10
57.819831000000008
 20
57.892690000000002
 30
0.0
 40
41.02302199999999
 50
87.645077000000015
 51
88.346817000000001
  0
ARC
  5
609
  8
0
 62
     7
 10
57.054210999999988
 20
40.388981999999999
 30
0.0
 40
58.543424000000002
 50
87.283039999999986
 51
87.600296000000014
  0
ARC
  5
60A
  8
0
 62
     7
 10
60.190136000000003
 20
105.13305699999999
 30
0.0
 40
6.2768410000000001
 50
266.704295
 51
267.66461199999998
  0
LINE
  5
60B
  8
0
 62
     7
 10
57.499000000000002
 20
98.415999999999997
 30
0.0
 11
57.692799999999998
 21
98.424899999999994
 31
0.0
  0
LINE
  5
60C
  8
0
 62
     7
 10
56.997399999999999
 20
98.366399999999999
 30
0.0
 11
57.1404
 21
98.384299999999996
 31
0.0
  0
LINE
  5
60D
  8
0
 62
     7
 10
57.1404
 20
98.384299999999996
 30
0.0
 11
57.229599999999998
 21
98.393900000000016
 31
0.0
  0
LINE
  5
60E
  8
0
 62
     7
 10
56.504100000000001
 20
98.280199999999994
 30
0.0
 11
56.718000000000011
 21
98.322299999999998
 31
0.0
  0
LINE
  5
60F
  8
0
 62
     7
 10
56.023800000000001
 20
98.160700000000006
 30
0.0
 11
56.218299999999999
 21
98.213399999999993
 31
0.0
  0
LINE
  5
610
  8
0
 62
     7
 10
55.536999999999999
 20
97.999799999999993
 30
0.0
 11
55.626899999999992
 21
98.032200000000003
 31
0.0
  0
LINE
  5
611
  8
0
 62
     7
 10
55.626899999999992
 20
98.032200000000003
 30
0.0
 11
55.739899999999999
 21
98.072199999999995
 31
0.0
  0
LINE
  5
612
  8
0
 62
     7
 10
55.066400000000002
 20
97.804100000000005
 30
0.0
 11
55.3065
 21
97.908900000000003
 31
0.0
  0
LINE
  5
613
  8
0
 62
     7
 10
54.616799999999998
 20
97.576700000000002
 30
0.0
 11
54.806999999999988
 21
97.677300000000002
 31
0.0
  0
LINE
  5
614
  8
0
 62
     7
 10
54.192399999999999
 20
97.320400000000006
 30
0.0
 11
54.231999999999999
 21
97.346599999999995
 31
0.0
  0
LINE
  5
615
  8
0
 62
     7
 10
54.231999999999999
 20
97.346599999999995
 30
0.0
 11
54.369799999999998
 21
97.43310000000001
 31
0.0
  0
LINE
  5
616
  8
0
 62
     7
 10
53.779099999999993
 20
97.028999999999996
 30
0.0
 11
53.965699999999998
 21
97.166100000000014
 31
0.0
  0
LINE
  5
617
  8
0
 62
     7
 10
53.385899999999992
 20
96.704400000000007
 30
0.0
 11
53.5488
 21
96.844999999999985
 31
0.0
  0
LINE
  5
618
  8
0
 62
     7
 10
53.022399999999998
 20
96.356099999999984
 30
0.0
 11
53.028500000000001
 21
96.362700000000004
 31
0.0
  0
LINE
  5
619
  8
0
 62
     7
 10
53.028500000000001
 20
96.362700000000004
 30
0.0
 11
53.175600000000003
 21
96.509399999999999
 31
0.0
  0
LINE
  5
61A
  8
0
 62
     7
 10
52.689999999999998
 20
95.987200000000001
 30
0.0
 11
52.848599999999998
 21
96.169399999999996
 31
0.0
  0
LINE
  5
61B
  8
0
 62
     7
 10
52.377499999999998
 20
95.583399999999983
 30
0.0
 11
52.50569999999999
 21
95.757400000000004
 31
0.0
  0
LINE
  5
61C
  8
0
 62
     7
 10
52.0991
 20
95.164100000000005
 30
0.0
 11
52.223199999999991
 21
95.359499999999997
 31
0.0
  0
LINE
  5
61D
  8
0
 62
     7
 10
51.85349999999999
 20
94.725899999999996
 30
0.0
 11
51.96909999999999
 21
94.941900000000004
 31
0.0
  0
LINE
  5
61E
  8
0
 62
     7
 10
51.6402
 20
94.270099999999999
 30
0.0
 11
51.716200000000001
 21
94.443099999999987
 31
0.0
  0
LINE
  5
61F
  8
0
 62
     7
 10
51.716200000000001
 20
94.443099999999987
 30
0.0
 11
51.727699999999992
 21
94.468199999999996
 31
0.0
  0
LINE
  5
620
  8
0
 62
     7
 10
51.46139999999999
 20
93.799499999999995
 30
0.0
 11
51.53929999999999
 21
94.017899999999997
 31
0.0
  0
LINE
  5
621
  8
0
 62
     7
 10
51.317399999999999
 20
93.318200000000004
 30
0.0
 11
51.3825
 21
93.550799999999995
 31
0.0
  0
LINE
  5
622
  8
0
 62
     7
 10
51.209299999999999
 20
92.827299999999994
 30
0.0
 11
51.2361
 21
92.965100000000007
 31
0.0
  0
LINE
  5
623
  8
0
 62
     7
 10
51.2361
 20
92.965100000000007
 30
0.0
 11
51.255400000000002
 21
93.058800000000005
 31
0.0
  0
LINE
  5
624
  8
0
 62
     7
 10
51.138300000000001
 20
92.329099999999997
 30
0.0
 11
51.163800000000002
 21
92.540300000000002
 31
0.0
  0
LINE
  5
625
  8
0
 62
     7
 10
51.104199999999999
 20
91.836500000000001
 30
0.0
 11
51.115699999999997
 21
92.066599999999994
 31
0.0
  0
LINE
  5
626
  8
0
 62
     7
 10
51.104900000000001
 20
91.364199999999997
 30
0.0
 11
51.103000000000002
 21
91.416899999999998
 31
0.0
  0
LINE
  5
627
  8
0
 62
     7
 10
51.103000000000002
 20
91.416899999999998
 30
0.0
 11
51.1004
 21
91.578100000000006
 31
0.0
  0
LINE
  5
628
  8
0
 62
     7
 10
51.145499999999998
 20
90.825000000000017
 30
0.0
 11
51.121099999999998
 21
91.075800000000001
 31
0.0
  0
LINE
  5
629
  8
0
 62
     7
 10
51.222000000000001
 20
90.328199999999995
 30
0.0
 11
51.181999999999988
 21
90.561099999999996
 31
0.0
  0
LINE
  5
62A
  8
0
 62
     7
 10
51.326000000000001
 20
89.873799999999989
 30
0.0
 11
51.3247
 21
89.878600000000006
 31
0.0
  0
LINE
  5
62B
  8
0
 62
     7
 10
51.3247
 20
89.878600000000006
 30
0.0
 11
51.273699999999991
 21
90.082899999999995
 31
0.0
  0
LINE
  5
62C
  8
0
 62
     7
 10
51.48279999999999
 20
89.359499999999997
 30
0.0
 11
51.404899999999991
 21
89.597200000000001
 31
0.0
  0
LINE
  5
62D
  8
0
 62
     7
 10
51.66640000000001
 20
88.891599999999997
 30
0.0
 11
51.576999999999998
 21
89.107299999999995
 31
0.0
  0
LINE
  5
62E
  8
0
 62
     7
 10
51.869300000000003
 20
88.466499999999996
 30
0.0
 11
51.781799999999997
 21
88.640500000000003
 31
0.0
  0
LINE
  5
62F
  8
0
 62
     7
 10
52.115699999999997
 20
88.032700000000006
 30
0.0
 11
52.0244
 21
88.183999999999997
 31
0.0
  0
LINE
  5
630
  8
0
 62
     7
 10
52.4054
 20
87.599299999999999
 30
0.0
 11
52.289999999999999
 21
87.7637
 31
0.0
  0
LINE
  5
631
  8
0
 62
     7
 10
52.289999999999999
 20
87.7637
 30
0.0
 11
52.273099999999999
 21
87.789199999999994
 31
0.0
  0
LINE
  5
632
  8
0
 62
     7
 10
52.7258
 20
87.193200000000004
 30
0.0
 11
52.570099999999996
 21
87.382999999999996
 31
0.0
  0
LINE
  5
633
  8
0
 62
     7
 10
53.043799999999997
 20
86.845200000000006
 30
0.0
 11
52.897199999999991
 21
86.999499999999983
 31
0.0
  0
LINE
  5
634
  8
0
 62
     7
 10
53.430799999999998
 20
86.479299999999995
 30
0.0
 11
53.307999999999993
 21
86.589200000000005
 31
0.0
  0
LINE
  5
635
  8
0
 62
     7
 10
53.307999999999993
 20
86.589200000000005
 30
0.0
 11
53.2607
 21
86.632999999999996
 31
0.0
  0
LINE
  5
636
  8
0
 62
     7
 10
53.805799999999998
 20
86.174099999999996
 30
0.0
 11
53.637500000000003
 21
86.305400000000006
 31
0.0
  0
LINE
  5
637
  8
0
 62
     7
 10
54.211300000000001
 20
85.889499999999998
 30
0.0
 11
54.056999999999988
 21
85.992900000000006
 31
0.0
  0
LINE
  5
638
  8
0
 62
     7
 10
54.665399999999998
 20
85.620099999999994
 30
0.0
 11
54.5657
 21
85.675600000000003
 31
0.0
  0
LINE
  5
639
  8
0
 62
     7
 10
54.5657
 20
85.675600000000003
 30
0.0
 11
54.459400000000002
 21
85.737300000000005
 31
0.0
  0
LINE
  5
63A
  8
0
 62
     7
 10
55.1053
 20
85.401700000000005
 30
0.0
 11
54.901000000000003
 21
85.498199999999997
 31
0.0
  0
LINE
  5
63B
  8
0
 62
     7
 10
55.5625
 20
85.214299999999994
 30
0.0
 11
55.381999999999991
 21
85.283500000000004
 31
0.0
  0
LINE
  5
63C
  8
0
 62
     7
 10
56.052399999999999
 20
85.054400000000001
 30
0.0
 11
55.996899999999989
 21
85.070300000000003
 31
0.0
  0
LINE
  5
63D
  8
0
 62
     7
 10
55.996899999999989
 20
85.070300000000003
 30
0.0
 11
55.842599999999997
 21
85.117799999999988
 31
0.0
  0
LINE
  5
63E
  8
0
 62
     7
 10
56.544699999999992
 20
84.933899999999994
 30
0.0
 11
56.32889999999999
 21
84.982100000000003
 31
0.0
  0
LINE
  5
63F
  8
0
 62
     7
 10
57.029800000000002
 20
84.852500000000006
 30
0.0
 11
56.831699999999998
 21
84.881100000000004
 31
0.0
  0
LINE
  5
640
  8
0
 62
     7
 10
57.543300000000002
 20
84.804699999999997
 30
0.0
 11
57.528599999999997
 21
84.805000000000007
 31
0.0
  0
LINE
  5
641
  8
0
 62
     7
 10
57.528599999999997
 20
84.805000000000007
 30
0.0
 11
57.318999999999988
 21
84.820499999999996
 31
0.0
  0
LINE
  5
642
  8
0
 62
     7
 10
58.051900000000003
 20
84.795400000000001
 30
0.0
 11
57.823500000000003
 21
84.794700000000006
 31
0.0
  0
LINE
  5
643
  8
0
 62
     7
 10
58.541800000000002
 20
84.822900000000004
 30
0.0
 11
58.334099999999999
 21
84.807100000000005
 31
0.0
  0
LINE
  5
644
  8
0
 62
     7
 10
59.0471
 20
84.888400000000004
 30
0.0
 11
58.825699999999998
 21
84.8553
 31
0.0
  0
LINE
  5
645
  8
0
 62
     7
 10
59.554000000000002
 20
84.993799999999993
 30
0.0
 11
59.323500000000003
 21
84.940700000000007
 31
0.0
  0
LINE
  5
646
  8
0
 62
     7
 10
60.023800000000001
 20
85.128200000000007
 30
0.0
 11
59.8384
 21
85.070300000000003
 31
0.0
  0
LINE
  5
647
  8
0
 62
     7
 10
59.8384
 20
85.070300000000003
 30
0.0
 11
59.816499999999998
 21
85.064099999999996
 31
0.0
  0
LINE
  5
648
  8
0
 62
     7
 10
60.496600000000001
 20
85.300399999999996
 30
0.0
 11
60.288899999999998
 21
85.219800000000006
 31
0.0
  0
LINE
  5
649
  8
0
 62
     7
 10
60.955500000000001
 20
85.508499999999998
 30
0.0
 11
60.765999999999998
 21
85.417900000000003
 31
0.0
  0
LINE
  5
64A
  8
0
 62
     7
 10
61.397500000000001
 20
85.748999999999995
 30
0.0
 11
61.2697
 21
85.675600000000003
 31
0.0
  0
LINE
  5
64B
  8
0
 62
     7
 10
61.2697
 20
85.675600000000003
 30
0.0
 11
61.207799999999992
 21
85.640799999999999
 31
0.0
  0
LINE
  5
64C
  8
0
 62
     7
 10
61.820599999999992
 20
86.021799999999999
 30
0.0
 11
61.636200000000002
 21
85.898099999999985
 31
0.0
  0
LINE
  5
64D
  8
0
 62
     7
 10
62.222999999999999
 20
86.326000000000008
 30
0.0
 11
62.040999999999997
 21
86.182400000000001
 31
0.0
  0
LINE
  5
64E
  8
0
 62
     7
 10
62.601599999999991
 20
86.658500000000004
 30
0.0
 11
62.52729999999999
 21
86.589200000000005
 31
0.0
  0
LINE
  5
64F
  8
0
 62
     7
 10
62.52729999999999
 20
86.589200000000005
 30
0.0
 11
62.439799999999998
 21
86.510300000000001
 31
0.0
  0
LINE
  5
650
  8
0
 62
     7
 10
62.954700000000003
 20
87.018100000000004
 30
0.0
 11
62.8033
 21
86.8566
 31
0.0
  0
LINE
  5
651
  8
0
 62
     7
 10
63.280900000000003
 20
87.402999999999992
 30
0.0
 11
63.149700000000003
 21
87.241399999999999
 31
0.0
  0
LINE
  5
652
  8
0
 62
     7
 10
63.577100000000002
 20
87.810900000000004
 30
0.0
 11
63.544800000000002
 21
87.7637
 31
0.0
  0
LINE
  5
653
  8
0
 62
     7
 10
63.544800000000002
 20
87.7637
 30
0.0
 11
63.450600000000001
 21
87.629300000000001
 31
0.0
  0
LINE
  5
654
  8
0
 62
     7
 10
63.842700000000001
 20
88.239800000000002
 30
0.0
 11
63.730200000000004
 21
88.049599999999984
 31
0.0
  0
LINE
  5
655
  8
0
 62
     7
 10
64.075400000000002
 20
88.687299999999993
 30
0.0
 11
63.991
 21
88.514700000000005
 31
0.0
  0
LINE
  5
656
  8
0
 62
     7
 10
64.275599999999983
 20
89.150999999999996
 30
0.0
 11
64.270600000000002
 21
89.138300000000001
 31
0.0
  0
LINE
  5
657
  8
0
 62
     7
 10
64.270600000000002
 20
89.138300000000001
 30
0.0
 11
64.191000000000003
 21
88.944000000000003
 31
0.0
  0
LINE
  5
658
  8
0
 62
     7
 10
64.440200000000004
 20
89.628200000000007
 30
0.0
 11
64.372
 21
89.418699999999987
 31
0.0
  0
LINE
  5
659
  8
0
 62
     7
 10
64.569100000000006
 20
90.116299999999995
 30
0.0
 11
64.523899999999998
 21
89.930300000000003
 31
0.0
  0
LINE
  5
65A
  8
0
 62
     7
 10
64.6614
 20
90.612799999999993
 30
0.0
 11
64.632800000000003
 21
90.438500000000005
 31
0.0
  0
LINE
  5
65B
  8
0
 62
     7
 10
64.716700000000003
 20
91.115099999999998
 30
0.0
 11
64.697199999999995
 21
90.896000000000001
 31
0.0
  0
LINE
  5
65C
  8
0
 62
     7
 10
64.734999999999999
 20
91.619399999999985
 30
0.0
 11
64.732500000000002
 21
91.429299999999984
 31
0.0
  0
LINE
  5
65D
  8
0
 62
     7
 10
64.715500000000006
 20
92.124499999999998
 30
0.0
 11
64.727000000000004
 21
91.947400000000016
 31
0.0
  0
LINE
  5
65E
  8
0
 62
     7
 10
64.658999999999992
 20
92.626800000000003
 30
0.0
 11
64.688100000000006
 21
92.409099999999995
 31
0.0
  0
LINE
  5
65F
  8
0
 62
     7
 10
64.564800000000005
 20
93.122900000000001
 30
0.0
 11
64.598699999999994
 21
92.965100000000007
 31
0.0
  0
LINE
  5
660
  8
0
 62
     7
 10
64.598699999999994
 20
92.965100000000007
 30
0.0
 11
64.604900000000001
 21
92.937200000000004
 31
0.0
  0
LINE
  5
661
  8
0
 62
     7
 10
64.434700000000007
 20
93.611800000000002
 30
0.0
 11
64.484499999999997
 21
93.441199999999995
 31
0.0
  0
LINE
  5
662
  8
0
 62
     7
 10
64.268699999999995
 20
94.088899999999995
 30
0.0
 11
64.345299999999995
 21
93.884299999999996
 31
0.0
  0
LINE
  5
663
  8
0
 62
     7
 10
64.068200000000004
 20
94.552599999999998
 30
0.0
 11
64.118600000000001
 21
94.443099999999987
 31
0.0
  0
LINE
  5
664
  8
0
 62
     7
 10
64.118600000000001
 20
94.443099999999987
 30
0.0
 11
64.1477
 21
94.379699999999985
 31
0.0
  0
LINE
  5
665
  8
0
 62
     7
 10
63.832900000000002
 20
95.000100000000003
 30
0.0
 11
63.919800000000002
 21
94.844099999999997
 31
0.0
  0
LINE
  5
666
  8
0
 62
     7
 10
63.5655
 20
95.429100000000005
 30
0.0
 11
63.684699999999999
 21
95.246799999999993
 31
0.0
  0
LINE
  5
667
  8
0
 62
     7
 10
63.267699999999991
 20
95.837000000000003
 30
0.0
 11
63.316400000000002
 21
95.774299999999997
 31
0.0
  0
LINE
  5
668
  8
0
 62
     7
 10
63.316400000000002
 20
95.774299999999997
 30
0.0
 11
63.383800000000001
 21
95.685699999999997
 31
0.0
  0
LINE
  5
669
  8
0
 62
     7
 10
62.939500000000002
 20
96.221800000000002
 30
0.0
 11
63.059800000000003
 21
96.087400000000002
 31
0.0
  0
LINE
  5
66A
  8
0
 62
     7
 10
62.583999999999989
 20
96.581800000000015
 30
0.0
 11
62.740099999999998
 21
96.430199999999985
 31
0.0
  0
LINE
  5
66B
  8
0
 62
     7
 10
62.202800000000003
 20
96.913200000000003
 30
0.0
 11
62.2333
 21
96.889099999999985
 31
0.0
  0
LINE
  5
66C
  8
0
 62
     7
 10
62.2333
 20
96.889099999999985
 30
0.0
 11
62.3504
 21
96.790599999999984
 31
0.0
  0
LINE
  5
66D
  8
0
 62
     7
 10
61.799199999999999
 20
97.216399999999993
 30
0.0
 11
61.947499999999991
 21
97.110299999999995
 31
0.0
  0
LINE
  5
66E
  8
0
 62
     7
 10
61.372500000000002
 20
97.488600000000005
 30
0.0
 11
61.556699999999999
 21
97.376199999999983
 31
0.0
  0
LINE
  5
66F
  8
0
 62
     7
 10
60.925899999999999
 20
97.728999999999985
 30
0.0
 11
60.925199999999997
 21
97.728999999999985
 31
0.0
  0
LINE
  5
670
  8
0
 62
     7
 10
60.925199999999997
 20
97.728999999999985
 30
0.0
 11
61.099499999999999
 21
97.640100000000004
 31
0.0
  0
LINE
  5
671
  8
0
 62
     7
 10
60.466299999999997
 20
97.934299999999993
 30
0.0
 11
60.637199999999993
 21
97.862700000000004
 31
0.0
  0
LINE
  5
672
  8
0
 62
     7
 10
59.990900000000003
 20
98.105900000000005
 30
0.0
 11
60.194499999999991
 21
98.037400000000005
 31
0.0
  0
LINE
  5
673
  8
0
 62
     7
 10
59.504100000000001
 20
98.241699999999994
 30
0.0
 11
59.730200000000004
 21
98.183099999999996
 31
0.0
  0
LINE
  5
674
  8
0
 62
     7
 10
59.009300000000003
 20
98.340500000000006
 30
0.0
 11
59.241500000000002
 21
98.298800000000014
 31
0.0
  0
LINE
  5
675
  8
0
 62
     7
 10
58.51639999999999
 20
98.402500000000003
 30
0.0
 11
58.694499999999998
 21
98.384299999999996
 31
0.0
  0
LINE
  5
676
  8
0
 62
     7
 10
58.694499999999998
 20
98.384299999999996
 30
0.0
 11
58.721299999999999
 21
98.381500000000003
 31
0.0
  0
LINE
  5
677
  8
0
 62
     7
 10
58.004100000000001
 20
98.427999999999997
 30
0.0
 11
58.233899999999991
 21
98.421499999999995
 31
0.0
  0
ARC
  5
678
  8
0
 62
     7
 10
59.337155000000003
 20
91.601388
 30
0.0
 40
8.2367969999999993
 50
178.41950600000001
 51
180.16196400000001
  0
LINE
  5
679
  8
0
 62
     7
 10
51.1004
 20
91.578100000000006
 30
0.0
 11
51.229399999999991
 21
91.455500000000001
 31
0.0
  0
LINE
  5
67A
  8
0
 62
     7
 10
51.229399999999991
 20
91.455500000000001
 30
0.0
 11
51.1066
 21
91.325900000000004
 31
0.0
  0
ARC
  5
67B
  8
0
 62
     7
 10
60.063749999999999
 20
91.743307000000001
 30
0.0
 40
8.9675649999999987
 50
182.66773499999999
 51
184.26876299999989
  0
LINE
  5
67C
  8
0
 62
     7
 10
51.1218
 20
91.075800000000001
 30
0.0
 11
51.259700000000002
 21
90.962800000000001
 31
0.0
  0
LINE
  5
67D
  8
0
 62
     7
 10
51.259700000000002
 20
90.962800000000001
 30
0.0
 11
51.1462
 21
90.825000000000017
 31
0.0
  0
ARC
  5
67E
  8
0
 62
     7
 10
61.519739000000001
 20
92.120800999999986
 30
0.0
 40
10.454829999999999
 50
187.1197019999999
 51
188.49565000000001
  0
LINE
  5
67F
  8
0
 62
     7
 10
51.179600000000001
 20
90.577000000000027
 30
0.0
 11
51.326000000000001
 21
90.474299999999999
 31
0.0
  0
LINE
  5
680
  8
0
 62
     7
 10
51.326000000000001
 20
90.474299999999999
 30
0.0
 11
51.222700000000003
 21
90.328199999999995
 31
0.0
  0
ARC
  5
681
  8
0
 62
     7
 10
58.763249000000002
 20
91.788873999999979
 30
0.0
 40
7.6813989999999999
 50
190.96184400000001
 51
192.83173099999999
  0
LINE
  5
682
  8
0
 62
     7
 10
51.275100000000002
 20
90.083600000000004
 30
0.0
 11
51.427500000000002
 21
89.991600000000005
 31
0.0
  0
LINE
  5
683
  8
0
 62
     7
 10
51.427500000000002
 20
89.991600000000005
 30
0.0
 11
51.335700000000003
 21
89.838300000000004
 31
0.0
  0
ARC
  5
684
  8
0
 62
     7
 10
57.636833000000003
 20
91.543767000000003
 30
0.0
 40
6.5288409999999999
 50
195.13603599999999
 51
197.34679700000001
  0
LINE
  5
685
  8
0
 62
     7
 10
51.4056
 20
89.598500000000016
 30
0.0
 11
51.564799999999998
 21
89.518299999999996
 31
0.0
  0
LINE
  5
686
  8
0
 62
     7
 10
51.564799999999998
 20
89.518299999999996
 30
0.0
 11
51.484699999999989
 21
89.358800000000002
 31
0.0
  0
ARC
  5
687
  8
0
 62
     7
 10
58.351204000000003
 20
91.780216999999993
 30
0.0
 40
7.282519999999999
 50
199.41499300000001
 51
201.404808
  0
LINE
  5
688
  8
0
 62
     7
 10
51.572200000000002
 20
89.124499999999983
 30
0.0
 11
51.736899999999999
 21
89.056299999999993
 31
0.0
  0
LINE
  5
689
  8
0
 62
     7
 10
51.736899999999999
 20
89.056299999999993
 30
0.0
 11
51.66879999999999
 21
88.890900000000016
 31
0.0
  0
ARC
  5
68A
  8
0
 62
     7
 10
62.75808399999999
 20
93.809149000000005
 30
0.0
 40
12.132896000000001
 50
203.91036700000001
 51
205.10656299999999
  0
LINE
  5
68B
  8
0
 62
     7
 10
51.7729
 20
88.663499999999999
 30
0.0
 11
51.943100000000001
 21
88.607699999999994
 31
0.0
  0
LINE
  5
68C
  8
0
 62
     7
 10
51.943100000000001
 20
88.607699999999994
 30
0.0
 11
51.886899999999997
 21
88.438199999999995
 31
0.0
  0
ARC
  5
68D
  8
0
 62
     7
 10
57.040596999999998
 20
91.110782999999998
 30
0.0
 40
5.8075559999999991
 50
207.38764399999999
 51
209.90132700000001
  0
LINE
  5
68E
  8
0
 62
     7
 10
52.0075
 20
88.219099999999997
 30
0.0
 11
52.180599999999998
 21
88.176400000000001
 31
0.0
  0
LINE
  5
68F
  8
0
 62
     7
 10
52.180599999999998
 20
88.176400000000001
 30
0.0
 11
52.1374
 21
88.002799999999979
 31
0.0
  0
ARC
  5
690
  8
0
 62
     7
 10
58.408255000000011
 20
91.946573000000015
 30
0.0
 40
7.4110759999999987
 50
212.14460399999999
 51
214.12305900000001
  0
LINE
  5
691
  8
0
 62
     7
 10
52.27409999999999
 20
87.793999999999997
 30
0.0
 11
52.449800000000003
 21
87.7637
 31
0.0
  0
LINE
  5
692
  8
0
 62
     7
 10
52.449800000000003
 20
87.7637
 30
0.0
 11
52.420000000000002
 21
87.587299999999985
 31
0.0
  0
ARC
  5
693
  8
0
 62
     7
 10
56.962853000000003
 20
90.874015
 30
0.0
 40
5.6110369999999996
 50
215.84816799999999
 51
218.474895
  0
LINE
  5
694
  8
0
 62
     7
 10
52.5715
 20
87.388499999999993
 30
0.0
 11
52.749600000000001
 21
87.371600000000015
 31
0.0
  0
LINE
  5
695
  8
0
 62
     7
 10
52.749600000000001
 20
87.371600000000015
 30
0.0
 11
52.731999999999999
 21
87.193899999999999
 31
0.0
  0
ARC
  5
696
  8
0
 62
     7
 10
57.982019999999991
 20
91.673464999999993
 30
0.0
 40
6.9065899999999987
 50
220.44365099999999
 51
222.588899
  0
LINE
  5
697
  8
0
 62
     7
 10
52.898400000000002
 20
87.006799999999998
 30
0.0
 11
53.076500000000003
 21
87.002300000000005
 31
0.0
  0
LINE
  5
698
  8
0
 62
     7
 10
53.076500000000003
 20
87.002300000000005
 30
0.0
 11
53.072899999999997
 21
86.823800000000006
 31
0.0
  0
ARC
  5
699
  8
0
 62
     7
 10
57.265661000000001
 20
90.944638999999995
 30
0.0
 40
5.8849330000000002
 50
224.45470399999999
 51
226.99170599999999
  0
LINE
  5
69A
  8
0
 62
     7
 10
53.2515
 20
86.649900000000017
 30
0.0
 11
53.430300000000003
 21
86.658500000000004
 31
0.0
  0
LINE
  5
69B
  8
0
 62
     7
 10
53.430300000000003
 20
86.658500000000004
 30
0.0
 11
53.439300000000003
 21
86.480399999999989
 31
0.0
  0
ARC
  5
69C
  8
0
 62
     7
 10
57.289304999999999
 20
90.856842000000015
 30
0.0
 40
5.8352659999999998
 50
228.60611800000001
 51
231.17386200000001
  0
LINE
  5
69D
  8
0
 62
     7
 10
53.630800000000001
 20
86.319800000000001
 30
0.0
 11
53.808300000000003
 21
86.342200000000005
 31
0.0
  0
LINE
  5
69E
  8
0
 62
     7
 10
53.808300000000003
 20
86.342200000000005
 30
0.0
 11
53.830800000000004
 21
86.165099999999995
 31
0.0
  0
ARC
  5
69F
  8
0
 62
     7
 10
58.199782999999989
 20
91.992684999999994
 30
0.0
 40
7.2915130000000001
 50
233.09204299999999
 51
235.161798
  0
LINE
  5
6A0
  8
0
 62
     7
 10
54.033900000000003
 20
86.019099999999995
 30
0.0
 11
54.208899999999993
 21
86.054199999999994
 31
0.0
  0
LINE
  5
6A1
  8
0
 62
     7
 10
54.208899999999993
 20
86.054199999999994
 30
0.0
 11
54.244100000000003
 21
85.879199999999997
 31
0.0
  0
ARC
  5
6A2
  8
0
 62
     7
 10
58.562620000000003
 20
92.692119000000005
 30
0.0
 40
8.0750670000000007
 50
237.57837499999999
 51
239.46020100000001
  0
LINE
  5
6A3
  8
0
 62
     7
 10
54.457500000000003
 20
85.748999999999995
 30
0.0
 11
54.629600000000003
 21
85.797200000000004
 31
0.0
  0
LINE
  5
6A4
  8
0
 62
     7
 10
54.629600000000003
 20
85.797200000000004
 30
0.0
 11
54.677500000000002
 21
85.624899999999997
 31
0.0
  0
ARC
  5
6A5
  8
0
 62
     7
 10
58.127003000000002
 20
92.033192000000014
 30
0.0
 40
7.287674
 50
241.64102199999999
 51
243.74292700000001
  0
LINE
  5
6A6
  8
0
 62
     7
 10
54.899999999999999
 20
85.510900000000007
 30
0.0
 11
55.067799999999998
 21
85.571899999999999
 31
0.0
  0
LINE
  5
6A7
  8
0
 62
     7
 10
55.067799999999998
 20
85.571899999999999
 30
0.0
 11
55.128399999999999
 21
85.403099999999995
 31
0.0
  0
ARC
  5
6A8
  8
0
 62
     7
 10
59.068911999999997
 20
94.296839000000006
 30
0.0
 40
9.7387289999999993
 50
246.04619400000001
 51
247.63350500000001
  0
LINE
  5
6A9
  8
0
 62
     7
 10
55.358199999999997
 20
85.305899999999994
 30
0.0
 11
55.5212
 21
85.378999999999976
 31
0.0
  0
LINE
  5
6AA
  8
0
 62
     7
 10
55.5212
 20
85.378999999999976
 30
0.0
 11
55.594499999999996
 21
85.216399999999993
 31
0.0
  0
ARC
  5
6AB
  8
0
 62
     7
 10
58.027707999999997
 20
91.928863000000007
 30
0.0
 40
7.153016
 50
249.996037
 51
252.1665120000001
  0
LINE
  5
6AC
  8
0
 62
     7
 10
55.831200000000003
 20
85.135000000000005
 30
0.0
 11
55.988500000000002
 21
85.220500000000001
 31
0.0
  0
LINE
  5
6AD
  8
0
 62
     7
 10
55.988500000000002
 20
85.220500000000001
 30
0.0
 11
56.073099999999997
 21
85.062700000000007
 31
0.0
  0
ARC
  5
6AE
  8
0
 62
     7
 10
57.832232999999988
 20
91.304233999999994
 30
0.0
 40
6.4984909999999996
 50
254.164514
 51
256.56940299999991
  0
LINE
  5
6AF
  8
0
 62
     7
 10
56.314900000000002
 20
85.000299999999996
 30
0.0
 11
56.465600000000002
 21
85.096500000000006
 31
0.0
  0
LINE
  5
6B0
  8
0
 62
     7
 10
56.465600000000002
 20
85.096500000000006
 30
0.0
 11
56.561599999999991
 21
84.945599999999985
 31
0.0
  0
ARC
  5
6B1
  8
0
 62
     7
 10
58.210828999999997
 20
93.183445000000006
 30
0.0
 40
8.4160179999999993
 50
258.59848199999999
 51
260.47086300000001
  0
LINE
  5
6B2
  8
0
 62
     7
 10
56.807899999999997
 20
84.901499999999984
 30
0.0
 11
56.950699999999998
 21
85.008300000000006
 31
0.0
  0
LINE
  5
6B3
  8
0
 62
     7
 10
56.950699999999998
 20
85.008300000000006
 30
0.0
 11
57.057699999999997
 21
84.865600000000001
 31
0.0
  0
ARC
  5
6B4
  8
0
 62
     7
 10
57.946174999999997
 20
91.789592999999996
 30
0.0
 40
6.9972940000000001
 50
262.58425599999998
 51
264.85338000000002
  0
LINE
  5
6B5
  8
0
 62
     7
 10
57.306800000000003
 20
84.838800000000006
 30
0.0
 11
57.441099999999999
 21
84.955899999999986
 31
0.0
  0
LINE
  5
6B6
  8
0
 62
     7
 10
57.441099999999999
 20
84.955899999999986
 30
0.0
 11
57.558599999999998
 21
84.8215
 31
0.0
  0
ARC
  5
6B7
  8
0
 62
     7
 10
57.894224999999999
 20
90.708584000000002
 30
0.0
 40
5.9143429999999988
 50
266.59816499999999
 51
269.30851999999999
  0
LINE
  5
6B8
  8
0
 62
     7
 10
57.808399999999999
 20
84.813999999999979
 30
0.0
 11
57.934100000000001
 21
84.940700000000007
 31
0.0
  0
LINE
  5
6B9
  8
0
 62
     7
 10
57.934100000000001
 20
84.940700000000007
 30
0.0
 11
58.060600000000001
 21
84.814999999999998
 31
0.0
  0
ARC
  5
6BA
  8
0
 62
     7
 10
57.867156999999992
 20
92.976788999999997
 30
0.0
 40
8.1833850000000012
 50
271.25291900000002
 51
273.22761600000013
  0
LINE
  5
6BB
  8
0
 62
     7
 10
58.311000000000007
 20
84.825299999999999
 30
0.0
 11
58.426400000000001
 21
84.961399999999998
 31
0.0
  0
LINE
  5
6BC
  8
0
 62
     7
 10
58.426400000000001
 20
84.961399999999998
 30
0.0
 11
58.5625
 21
84.845299999999995
 31
0.0
  0
ARC
  5
6BD
  8
0
 62
     7
 10
58.072732000000002
 20
90.275993999999983
 30
0.0
 40
5.4730619999999996
 50
274.982193
 51
277.958887
  0
LINE
  5
6BE
  8
0
 62
     7
 10
58.810600000000001
 20
84.874600000000001
 30
0.0
 11
58.9163
 21
85.018600000000006
 31
0.0
  0
LINE
  5
6BF
  8
0
 62
     7
 10
58.9163
 20
85.018600000000006
 30
0.0
 11
59.060299999999998
 21
84.912800000000004
 31
0.0
  0
ARC
  5
6C0
  8
0
 62
     7
 10
57.929133999999991
 20
91.489193999999998
 30
0.0
 40
6.6948160000000003
 50
279.61260299999998
 51
282.05936800000001
  0
LINE
  5
6C1
  8
0
 62
     7
 10
59.305999999999997
 20
84.959999999999994
 30
0.0
 11
59.400700000000001
 21
85.111599999999996
 31
0.0
  0
LINE
  5
6C2
  8
0
 62
     7
 10
59.400700000000001
 20
85.111599999999996
 30
0.0
 11
59.55210000000001
 21
85.016499999999994
 31
0.0
  0
ARC
  5
6C3
  8
0
 62
     7
 10
57.840209999999999
 20
91.860743999999997
 30
0.0
 40
7.0778470000000002
 50
283.89489700000001
 51
286.22426100000001
  0
LINE
  5
6C4
  8
0
 62
     7
 10
59.793500000000002
 20
85.081999999999994
 30
0.0
 11
59.87680000000001
 21
85.239799999999988
 31
0.0
  0
LINE
  5
6C5
  8
0
 62
     7
 10
59.87680000000001
 20
85.239799999999988
 30
0.0
 11
60.034599999999998
 21
85.1571
 31
0.0
  0
ARC
  5
6C6
  8
0
 62
     7
 10
58.015638000000003
 20
91.358560999999995
 30
0.0
 40
6.5460269999999987
 50
287.86468000000002
 51
290.40393399999999
  0
LINE
  5
6C7
  8
0
 62
     7
 10
60.270600000000002
 20
85.239799999999988
 30
0.0
 11
60.342300000000002
 21
85.403099999999995
 31
0.0
  0
LINE
  5
6C8
  8
0
 62
     7
 10
60.342300000000002
 20
85.403099999999995
 30
0.0
 11
60.50589999999999
 21
85.332099999999997
 31
0.0
  0
ARC
  5
6C9
  8
0
 62
     7
 10
57.713830000000002
 20
92.019823000000002
 30
0.0
 40
7.2728449999999993
 50
292.496397
 51
294.79720600000002
  0
LINE
  5
6CA
  8
0
 62
     7
 10
60.734999999999999
 20
85.432000000000002
 30
0.0
 11
60.793900000000001
 21
85.600800000000007
 31
0.0
  0
LINE
  5
6CB
  8
0
 62
     7
 10
60.793900000000001
 20
85.600800000000007
 30
0.0
 11
60.962200000000003
 21
85.541899999999998
 31
0.0
  0
ARC
  5
6CC
  8
0
 62
     7
 10
57.588121000000001
 20
92.228159999999988
 30
0.0
 40
7.5161839999999991
 50
296.61648100000002
 51
298.85681699999998
  0
LINE
  5
6CD
  8
0
 62
     7
 10
61.183599999999998
 20
85.658699999999996
 30
0.0
 11
61.229700000000001
 21
85.830600000000004
 31
0.0
  0
LINE
  5
6CE
  8
0
 62
     7
 10
61.229700000000001
 20
85.830600000000004
 30
0.0
 11
61.40229999999999
 21
85.784499999999994
 31
0.0
  0
ARC
  5
6CF
  8
0
 62
     7
 10
57.007004999999999
 20
93.042199999999994
 30
0.0
 40
8.5127959999999998
 50
301.04778399999998
 51
303.040728
  0
LINE
  5
6D0
  8
0
 62
     7
 10
61.6145
 20
85.917100000000005
 30
0.0
 11
61.648000000000003
 21
86.092799999999997
 31
0.0
  0
LINE
  5
6D1
  8
0
 62
     7
 10
61.648000000000003
 20
86.092799999999997
 30
0.0
 11
61.823
 21
86.058999999999997
 31
0.0
  0
LINE
  5
6D2
  8
0
 62
     7
 10
61.823
 20
86.058999999999997
 30
0.0
 11
61.820599999999992
 21
86.021799999999999
 31
0.0
  0
ARC
  5
6D3
  8
0
 62
     7
 10
57.008109999999988
 20
92.865637000000007
 30
0.0
 40
8.3664509999999996
 50
305.11422900000002
 51
307.15483799999998
  0
LINE
  5
6D4
  8
0
 62
     7
 10
62.024700000000003
 20
86.206800000000001
 30
0.0
 11
62.044800000000002
 21
86.384200000000007
 31
0.0
  0
LINE
  5
6D5
  8
0
 62
     7
 10
62.044800000000002
 20
86.384200000000007
 30
0.0
 11
62.22229999999999
 21
86.363600000000005
 31
0.0
  0
LINE
  5
6D6
  8
0
 62
     7
 10
62.22229999999999
 20
86.363600000000005
 30
0.0
 11
62.222999999999999
 21
86.326000000000008
 31
0.0
  0
ARC
  5
6D7
  8
0
 62
     7
 10
58.88646
 20
90.473954000000006
 30
0.0
 40
5.323296
 50
308.8123589999999
 51
312.03236800000002
  0
LINE
  5
6D8
  8
0
 62
     7
 10
62.450699999999998
 20
86.519999999999996
 30
0.0
 11
62.412399999999998
 21
86.526499999999984
 31
0.0
  0
LINE
  5
6D9
  8
0
 62
     7
 10
62.412399999999998
 20
86.526499999999984
 30
0.0
 11
62.419699999999999
 21
86.704599999999999
 31
0.0
  0
LINE
  5
6DA
  8
0
 62
     7
 10
62.419699999999999
 20
86.704599999999999
 30
0.0
 11
62.598500000000001
 21
86.697400000000002
 31
0.0
  0
LINE
  5
6DB
  8
0
 62
     7
 10
62.598500000000001
 20
86.697400000000002
 30
0.0
 11
62.601599999999991
 21
86.658500000000004
 31
0.0
  0
ARC
  5
6DC
  8
0
 62
     7
 10
57.912467000000007
 20
91.614997999999986
 30
0.0
 40
6.8231049999999991
 50
313.41194900000011
 51
315.93856099999999
  0
LINE
  5
6DD
  8
0
 62
     7
 10
62.8155
 20
86.870000000000005
 30
0.0
 11
62.7759
 21
86.873500000000007
 31
0.0
  0
LINE
  5
6DE
  8
0
 62
     7
 10
62.7759
 20
86.873500000000007
 30
0.0
 11
62.7699
 21
87.052300000000002
 31
0.0
  0
LINE
  5
6DF
  8
0
 62
     7
 10
62.7699
 20
87.052300000000002
 30
0.0
 11
62.948500000000003
 21
87.0578
 31
0.0
  0
LINE
  5
6E0
  8
0
 62
     7
 10
62.948500000000003
 20
87.0578
 30
0.0
 11
62.954700000000003
 21
87.018100000000004
 31
0.0
  0
ARC
  5
6E1
  8
0
 62
     7
 10
57.896174000000002
 20
91.641103999999999
 30
0.0
 40
6.8527610000000001
 50
317.57598400000001
 51
320.101361
  0
LINE
  5
6E2
  8
0
 62
     7
 10
63.153500000000001
 20
87.245500000000007
 30
0.0
 11
63.112099999999991
 21
87.246899999999997
 31
0.0
  0
LINE
  5
6E3
  8
0
 62
     7
 10
63.112099999999991
 20
87.246899999999997
 30
0.0
 11
63.093200000000003
 21
87.424300000000002
 31
0.0
  0
LINE
  5
6E4
  8
0
 62
     7
 10
63.093200000000003
 20
87.424300000000002
 30
0.0
 11
63.270600000000002
 21
87.443299999999994
 31
0.0
  0
LINE
  5
6E5
  8
0
 62
     7
 10
63.270600000000002
 20
87.443299999999994
 30
0.0
 11
63.280900000000003
 21
87.402999999999992
 31
0.0
  0
ARC
  5
6E6
  8
0
 62
     7
 10
56.590468000000008
 20
92.610310999999996
 30
0.0
 40
8.4781429999999993
 50
322.10563100000002
 51
324.154582
  0
LINE
  5
6E7
  8
0
 62
     7
 10
63.462800000000001
 20
87.645499999999984
 30
0.0
 11
63.4208
 21
87.643799999999999
 31
0.0
  0
LINE
  5
6E8
  8
0
 62
     7
 10
63.4208
 20
87.643799999999999
 30
0.0
 11
63.388599999999997
 21
87.819500000000005
 31
0.0
  0
LINE
  5
6E9
  8
0
 62
     7
 10
63.388599999999997
 20
87.819500000000005
 30
0.0
 11
63.564300000000003
 21
87.851499999999987
 31
0.0
  0
LINE
  5
6EA
  8
0
 62
     7
 10
63.564300000000003
 20
87.851499999999987
 30
0.0
 11
63.577100000000002
 21
87.810900000000004
 31
0.0
  0
ARC
  5
6EB
  8
0
 62
     7
 10
57.365226999999997
 20
91.964768999999976
 30
0.0
 40
7.4727289999999993
 50
326.22905200000002
 51
328.56521099999998
  0
LINE
  5
6EC
  8
0
 62
     7
 10
63.741199999999999
 20
88.067499999999995
 30
0.0
 11
63.698500000000003
 21
88.062000000000026
 31
0.0
  0
LINE
  5
6ED
  8
0
 62
     7
 10
63.698500000000003
 20
88.062000000000026
 30
0.0
 11
63.653700000000001
 21
88.235000000000014
 31
0.0
  0
LINE
  5
6EE
  8
0
 62
     7
 10
63.653700000000001
 20
88.235000000000014
 30
0.0
 11
63.826799999999999
 21
88.280100000000004
 31
0.0
  0
LINE
  5
6EF
  8
0
 62
     7
 10
63.826799999999999
 20
88.280100000000004
 30
0.0
 11
63.842700000000001
 21
88.239800000000002
 31
0.0
  0
ARC
  5
6F0
  8
0
 62
     7
 10
58.548442000000001
 20
91.274303999999987
 30
0.0
 40
6.1022270000000001
 50
330.17978900000003
 51
333.04800699999998
  0
LINE
  5
6F1
  8
0
 62
     7
 10
63.987900000000003
 20
88.508499999999984
 30
0.0
 11
63.945500000000003
 21
88.500200000000007
 31
0.0
  0
LINE
  5
6F2
  8
0
 62
     7
 10
63.945500000000003
 20
88.500200000000007
 30
0.0
 11
63.887599999999999
 21
88.6691
 31
0.0
  0
LINE
  5
6F3
  8
0
 62
     7
 10
63.887599999999999
 20
88.6691
 30
0.0
 11
64.056600000000003
 21
88.726900000000001
 31
0.0
  0
LINE
  5
6F4
  8
0
 62
     7
 10
64.056600000000003
 20
88.726900000000001
 30
0.0
 11
64.075400000000002
 21
88.687299999999993
 31
0.0
  0
ARC
  5
6F5
  8
0
 62
     7
 10
58.40766099999999
 20
91.409706000000014
 30
0.0
 40
6.2876560000000001
 50
334.34350499999999
 51
337.13639999999998
  0
LINE
  5
6F6
  8
0
 62
     7
 10
64.201300000000003
 20
88.966700000000003
 30
0.0
 11
64.158100000000005
 21
88.955299999999994
 31
0.0
  0
LINE
  5
6F7
  8
0
 62
     7
 10
64.158100000000005
 20
88.955299999999994
 30
0.0
 11
64.088099999999983
 21
89.119699999999995
 31
0.0
  0
LINE
  5
6F8
  8
0
 62
     7
 10
64.088099999999983
 20
89.119699999999995
 30
0.0
 11
64.252799999999993
 21
89.189300000000003
 31
0.0
  0
LINE
  5
6F9
  8
0
 62
     7
 10
64.252799999999993
 20
89.189300000000003
 30
0.0
 11
64.275599999999983
 21
89.150999999999996
 31
0.0
  0
ARC
  5
6FA
  8
0
 62
     7
 10
57.916255999999997
 20
91.598182999999992
 30
0.0
 40
6.8139019999999997
 50
338.95246800000001
 51
341.53212300000001
  0
LINE
  5
6FB
  8
0
 62
     7
 10
64.379300000000001
 20
89.439700000000002
 30
0.0
 11
64.337400000000002
 21
89.424599999999998
 31
0.0
  0
LINE
  5
6FC
  8
0
 62
     7
 10
64.337400000000002
 20
89.424599999999998
 30
0.0
 11
64.255899999999997
 21
89.583399999999983
 31
0.0
  0
LINE
  5
6FD
  8
0
 62
     7
 10
64.255899999999997
 20
89.583399999999983
 30
0.0
 11
64.414000000000001
 21
89.665400000000005
 31
0.0
  0
LINE
  5
6FE
  8
0
 62
     7
 10
64.414000000000001
 20
89.665400000000005
 30
0.0
 11
64.440200000000004
 21
89.628200000000007
 31
0.0
  0
ARC
  5
6FF
  8
0
 62
     7
 10
57.768553000000011
 20
91.649710999999996
 30
0.0
 40
6.9712179999999986
 50
343.14301699999999
 51
345.67136499999998
  0
LINE
  5
700
  8
0
 62
     7
 10
64.522900000000007
 20
89.924499999999995
 30
0.0
 11
64.4816
 21
89.905799999999985
 31
0.0
  0
LINE
  5
701
  8
0
 62
     7
 10
64.4816
 20
89.905799999999985
 30
0.0
 11
64.388599999999997
 21
90.058099999999996
 31
0.0
  0
LINE
  5
702
  8
0
 62
     7
 10
64.388599999999997
 20
90.058099999999996
 30
0.0
 11
64.540499999999994
 21
90.151499999999999
 31
0.0
  0
ARC
  5
703
  8
0
 62
     7
 10
57.792460999999989
 20
91.621762000000004
 30
0.0
 40
6.9418160000000002
 50
347.47519399999999
 51
350.01803899999999
  0
LINE
  5
704
  8
0
 62
     7
 10
64.629199999999997
 20
90.418499999999995
 30
0.0
 11
64.589699999999993
 21
90.3964
 31
0.0
  0
LINE
  5
705
  8
0
 62
     7
 10
64.589699999999993
 20
90.3964
 30
0.0
 11
64.485699999999994
 21
90.541099999999986
 31
0.0
  0
LINE
  5
706
  8
0
 62
     7
 10
64.485699999999994
 20
90.541099999999986
 30
0.0
 11
64.630399999999995
 21
90.645899999999997
 31
0.0
  0
ARC
  5
707
  8
0
 62
     7
 10
58.323509999999999
 20
91.560376000000005
 30
0.0
 40
6.4083430000000003
 50
351.49659300000002
 51
354.25337500000001
  0
LINE
  5
708
  8
0
 62
     7
 10
64.699600000000004
 20
90.918700000000001
 30
0.0
 11
64.6614
 21
90.894300000000001
 31
0.0
  0
LINE
  5
709
  8
0
 62
     7
 10
64.6614
 20
90.894300000000001
 30
0.0
 11
64.546499999999995
 21
91.031000000000006
 31
0.0
  0
LINE
  5
70A
  8
0
 62
     7
 10
64.546499999999995
 20
91.031000000000006
 30
0.0
 11
64.683300000000003
 21
91.145399999999995
 31
0.0
  0
ARC
  5
70B
  8
0
 62
     7
 10
58.603712000000002
 20
91.584388000000004
 30
0.0
 40
6.1309760000000004
 50
355.609916
 51
358.485885
  0
LINE
  5
70C
  8
0
 62
     7
 10
64.695999999999984
 20
91.395200000000003
 30
0.0
 11
64.5715
 21
91.523300000000006
 31
0.0
  0
LINE
  5
70D
  8
0
 62
     7
 10
64.5715
 20
91.523300000000006
 30
0.0
 11
64.698999999999984
 21
91.647999999999996
 31
0.0
  0
ARC
  5
70E
  8
0
 62
     7
 10
58.377637999999997
 20
91.620645999999994
 30
0.0
 40
6.3573209999999989
 50
359.98921000000001
 51
2.7660960000000001
  0
LINE
  5
70F
  8
0
 62
     7
 10
64.693100000000001
 20
91.897800000000004
 30
0.0
 11
64.559299999999993
 21
92.016299999999987
 31
0.0
  0
LINE
  5
710
  8
0
 62
     7
 10
64.559299999999993
 20
92.016299999999987
 30
0.0
 11
64.677800000000005
 21
92.150000000000006
 31
0.0
  0
LINE
  5
711
  8
0
 62
     7
 10
64.677800000000005
 20
92.150000000000006
 30
0.0
 11
64.715500000000006
 21
92.124499999999998
 31
0.0
  0
ARC
  5
712
  8
0
 62
     7
 10
56.411430000000003
 20
91.471100000000007
 30
0.0
 40
8.3297309999999989
 50
4.4990319999999988
 51
6.6157760000000003
  0
LINE
  5
713
  8
0
 62
     7
 10
64.653499999999994
 20
92.398700000000005
 30
0.0
 11
64.511899999999997
 21
92.506900000000002
 31
0.0
  0
LINE
  5
714
  8
0
 62
     7
 10
64.511899999999997
 20
92.506900000000002
 30
0.0
 11
64.620099999999994
 21
92.648799999999994
 31
0.0
  0
LINE
  5
715
  8
0
 62
     7
 10
64.620099999999994
 20
92.648799999999994
 30
0.0
 11
64.658999999999992
 21
92.626800000000003
 31
0.0
  0
ARC
  5
716
  8
0
 62
     7
 10
58.315013999999998
 20
91.676406
 30
0.0
 40
6.4147749999999988
 50
8.5201440000000002
 51
11.269164999999999
  0
LINE
  5
717
  8
0
 62
     7
 10
64.577500000000001
 20
92.895200000000017
 30
0.0
 11
64.427499999999995
 21
92.992999999999995
 31
0.0
  0
LINE
  5
718
  8
0
 62
     7
 10
64.427499999999995
 20
92.992999999999995
 30
0.0
 11
64.525300000000001
 21
93.142499999999984
 31
0.0
  0
LINE
  5
719
  8
0
 62
     7
 10
64.525300000000001
 20
93.142499999999984
 30
0.0
 11
64.564800000000005
 21
93.122900000000001
 31
0.0
  0
ARC
  5
71A
  8
0
 62
     7
 10
58.293591000000013
 20
91.708043999999987
 30
0.0
 40
6.4288019999999992
 50
12.713756
 51
15.452221
  0
LINE
  5
71B
  8
0
 62
     7
 10
64.463800000000006
 20
93.385099999999994
 30
0.0
 11
64.307599999999994
 21
93.471500000000006
 31
0.0
  0
LINE
  5
71C
  8
0
 62
     7
 10
64.307599999999994
 20
93.471500000000006
 30
0.0
 11
64.394099999999995
 21
93.627599999999987
 31
0.0
  0
LINE
  5
71D
  8
0
 62
     7
 10
64.394099999999995
 20
93.627599999999987
 30
0.0
 11
64.434700000000007
 21
93.611800000000002
 31
0.0
  0
ARC
  5
71E
  8
0
 62
     7
 10
57.870843999999991
 20
91.600492000000017
 30
0.0
 40
6.8651029999999986
 50
17.035836
 51
19.589205
  0
LINE
  5
71F
  8
0
 62
     7
 10
64.3386
 20
93.902199999999993
 30
0.0
 11
64.3155
 21
93.865300000000005
 31
0.0
  0
LINE
  5
720
  8
0
 62
     7
 10
64.3155
 20
93.865300000000005
 30
0.0
 11
64.152600000000007
 21
93.939400000000006
 31
0.0
  0
LINE
  5
721
  8
0
 62
     7
 10
64.152600000000007
 20
93.939400000000006
 30
0.0
 11
64.2273
 21
94.101699999999994
 31
0.0
  0
LINE
  5
722
  8
0
 62
     7
 10
64.2273
 20
94.101699999999994
 30
0.0
 11
64.268699999999995
 21
94.088899999999995
 31
0.0
  0
ARC
  5
723
  8
0
 62
     7
 10
59.446350000000002
 20
92.249773000000005
 30
0.0
 40
5.1611159999999998
 50
20.875869999999999
 51
24.264347999999998
  0
LINE
  5
724
  8
0
 62
     7
 10
64.151499999999999
 20
94.370699999999999
 30
0.0
 11
64.131399999999999
 21
94.332800000000006
 31
0.0
  0
LINE
  5
725
  8
0
 62
     7
 10
64.131399999999999
 20
94.332800000000006
 30
0.0
 11
63.9636
 21
94.394800000000004
 31
0.0
  0
LINE
  5
726
  8
0
 62
     7
 10
63.9636
 20
94.394800000000004
 30
0.0
 11
64.0261
 21
94.562299999999993
 31
0.0
  0
LINE
  5
727
  8
0
 62
     7
 10
64.0261
 20
94.562299999999993
 30
0.0
 11
64.068200000000004
 21
94.552599999999998
 31
0.0
  0
ARC
  5
728
  8
0
 62
     7
 10
55.658113
 20
90.454573999999994
 30
0.0
 40
9.3553639999999998
 50
25.979054999999999
 51
27.846053999999999
  0
LINE
  5
729
  8
0
 62
     7
 10
63.930199999999992
 20
94.824399999999997
 30
0.0
 11
63.913800000000002
 21
94.785499999999999
 31
0.0
  0
LINE
  5
72A
  8
0
 62
     7
 10
63.913800000000002
 20
94.785499999999999
 30
0.0
 11
63.741700000000002
 21
94.834800000000001
 31
0.0
  0
LINE
  5
72B
  8
0
 62
     7
 10
63.741700000000002
 20
94.834800000000001
 30
0.0
 11
63.791499999999999
 21
95.006699999999995
 31
0.0
  0
LINE
  5
72C
  8
0
 62
     7
 10
63.791499999999999
 20
95.006699999999995
 30
0.0
 11
63.832900000000002
 21
95.000100000000003
 31
0.0
  0
ARC
  5
72D
  8
0
 62
     7
 10
57.838802000000001
 20
91.565117999999998
 30
0.0
 40
6.9085499999999991
 50
29.815808000000001
 51
32.334639000000003
  0
LINE
  5
72E
  8
0
 62
     7
 10
63.676099999999991
 20
95.260199999999998
 30
0.0
 11
63.662700000000001
 21
95.220600000000005
 31
0.0
  0
LINE
  5
72F
  8
0
 62
     7
 10
63.662700000000001
 20
95.220600000000005
 30
0.0
 11
63.488300000000002
 21
95.257800000000003
 31
0.0
  0
LINE
  5
730
  8
0
 62
     7
 10
63.488300000000002
 20
95.257800000000003
 30
0.0
 11
63.524900000000002
 21
95.432199999999995
 31
0.0
  0
LINE
  5
731
  8
0
 62
     7
 10
63.524900000000002
 20
95.432199999999995
 30
0.0
 11
63.5655
 21
95.429100000000005
 31
0.0
  0
ARC
  5
732
  8
0
 62
     7
 10
58.385927000000002
 20
91.953556999999975
 30
0.0
 40
6.2375660000000002
 50
33.861600000000003
 51
36.636389000000001
  0
LINE
  5
733
  8
0
 62
     7
 10
63.391199999999998
 20
95.675700000000006
 30
0.0
 11
63.380899999999997
 21
95.636499999999998
 31
0.0
  0
LINE
  5
734
  8
0
 62
     7
 10
63.380899999999997
 20
95.636499999999998
 30
0.0
 11
63.203800000000001
 21
95.660199999999989
 31
0.0
  0
LINE
  5
735
  8
0
 62
     7
 10
63.203800000000001
 20
95.660199999999989
 30
0.0
 11
63.227499999999999
 21
95.837699999999984
 31
0.0
  0
LINE
  5
736
  8
0
 62
     7
 10
63.227499999999999
 20
95.837699999999984
 30
0.0
 11
63.267699999999991
 21
95.837000000000003
 31
0.0
  0
ARC
  5
737
  8
0
 62
     7
 10
57.944800999999998
 20
91.629665000000017
 30
0.0
 40
6.7848670000000002
 50
38.323430000000002
 51
40.868355000000001
  0
LINE
  5
738
  8
0
 62
     7
 10
63.075600000000001
 20
96.069199999999995
 30
0.0
 11
63.068399999999997
 21
96.030199999999994
 31
0.0
  0
LINE
  5
739
  8
0
 62
     7
 10
63.068399999999997
 20
96.030199999999994
 30
0.0
 11
62.890300000000003
 21
96.041300000000007
 31
0.0
  0
LINE
  5
73A
  8
0
 62
     7
 10
62.890300000000003
 20
96.041300000000007
 30
0.0
 11
62.900599999999997
 21
96.219399999999993
 31
0.0
  0
LINE
  5
73B
  8
0
 62
     7
 10
62.900599999999997
 20
96.219399999999993
 30
0.0
 11
62.939500000000002
 21
96.221800000000002
 31
0.0
  0
ARC
  5
73C
  8
0
 62
     7
 10
57.769922999999991
 20
91.473776999999984
 30
0.0
 40
7.0191479999999986
 50
42.565746999999988
 51
45.012343000000001
  0
LINE
  5
73D
  8
0
 62
     7
 10
62.732100000000003
 20
96.438100000000006
 30
0.0
 11
62.728000000000002
 21
96.400599999999997
 31
0.0
  0
LINE
  5
73E
  8
0
 62
     7
 10
62.728000000000002
 20
96.400599999999997
 30
0.0
 11
62.549900000000001
 21
96.397499999999994
 31
0.0
  0
LINE
  5
73F
  8
0
 62
     7
 10
62.549900000000001
 20
96.397499999999994
 30
0.0
 11
62.546799999999998
 21
96.576300000000003
 31
0.0
  0
LINE
  5
740
  8
0
 62
     7
 10
62.546799999999998
 20
96.576300000000003
 30
0.0
 11
62.583999999999989
 21
96.581800000000015
 31
0.0
  0
ARC
  5
741
  8
0
 62
     7
 10
56.560215999999997
 20
90.085228999999998
 30
0.0
 40
8.859535000000001
 50
47.162521999999989
 51
49.085138000000001
  0
LINE
  5
742
  8
0
 62
     7
 10
62.362699999999997
 20
96.780199999999994
 30
0.0
 11
62.361400000000003
 21
96.743700000000004
 31
0.0
  0
LINE
  5
743
  8
0
 62
     7
 10
62.361400000000003
 20
96.743700000000004
 30
0.0
 11
62.183300000000003
 21
96.727900000000005
 31
0.0
  0
LINE
  5
744
  8
0
 62
     7
 10
62.183300000000003
 20
96.727900000000005
 30
0.0
 11
62.167499999999997
 21
96.905600000000007
 31
0.0
  0
ARC
  5
745
  8
0
 62
     7
 10
57.822575000000001
 20
91.496545999999995
 30
0.0
 40
6.9661080000000002
 50
51.039048999999991
 51
53.474131999999997
  0
LINE
  5
746
  8
0
 62
     7
 10
61.970100000000002
 20
97.059299999999993
 30
0.0
 11
61.793700000000001
 21
97.030299999999997
 31
0.0
  0
LINE
  5
747
  8
0
 62
     7
 10
61.793700000000001
 20
97.030299999999997
 30
0.0
 11
61.765099999999997
 21
97.206400000000016
 31
0.0
  0
ARC
  5
748
  8
0
 62
     7
 10
57.823678999999998
 20
91.470407999999992
 30
0.0
 40
6.9865209999999998
 50
55.329566
 51
57.737761999999996
  0
LINE
  5
749
  8
0
 62
     7
 10
61.556699999999999
 20
97.345200000000006
 30
0.0
 11
61.383400000000002
 21
97.303200000000004
 31
0.0
  0
LINE
  5
74A
  8
0
 62
     7
 10
61.383400000000002
 20
97.303200000000004
 30
0.0
 11
61.341500000000003
 21
97.476799999999997
 31
0.0
  0
ARC
  5
74B
  8
0
 62
     7
 10
58.296053000000001
 20
92.292108999999996
 30
0.0
 40
6.0388469999999996
 50
59.373006999999987
 51
62.143484000000001
  0
LINE
  5
74C
  8
0
 62
     7
 10
61.1233
 20
97.599100000000007
 30
0.0
 11
60.953099999999999
 21
97.545100000000005
 31
0.0
  0
LINE
  5
74D
  8
0
 62
     7
 10
60.953099999999999
 20
97.545100000000005
 30
0.0
 11
60.899000000000001
 21
97.714500000000015
 31
0.0
  0
ARC
  5
74E
  8
0
 62
     7
 10
58.408031000000008
 20
92.664599999999993
 30
0.0
 40
5.655621
 50
63.544909999999987
 51
66.486994999999993
  0
LINE
  5
74F
  8
0
 62
     7
 10
60.6723
 20
97.820700000000002
 30
0.0
 11
60.506900000000002
 21
97.753799999999998
 31
0.0
  0
LINE
  5
750
  8
0
 62
     7
 10
60.506900000000002
 20
97.753799999999998
 30
0.0
 11
60.440100000000001
 21
97.919200000000004
 31
0.0
  0
ARC
  5
751
  8
0
 62
     7
 10
57.544736999999998
 20
90.652218000000005
 30
0.0
 40
7.8463289999999981
 50
68.139612999999997
 51
70.242945999999989
  0
LINE
  5
752
  8
0
 62
     7
 10
60.206200000000003
 20
98.008799999999994
 30
0.0
 11
60.046300000000002
 21
97.929500000000004
 31
0.0
  0
LINE
  5
753
  8
0
 62
     7
 10
60.046300000000002
 20
97.929500000000004
 30
0.0
 11
59.967300000000002
 21
98.090100000000007
 31
0.0
  0
ARC
  5
754
  8
0
 62
     7
 10
57.385139000000002
 20
89.830132000000006
 30
0.0
 40
8.6763110000000001
 50
72.522807999999998
 51
74.409570000000002
  0
LINE
  5
755
  8
0
 62
     7
 10
59.727800000000002
 20
98.161699999999996
 30
0.0
 11
59.573999999999991
 21
98.0715
 31
0.0
  0
LINE
  5
756
  8
0
 62
     7
 10
59.573999999999991
 20
98.0715
 30
0.0
 11
59.483400000000003
 21
98.225100000000012
 31
0.0
  0
ARC
  5
757
  8
0
 62
     7
 10
57.735168999999992
 20
90.738039999999998
 30
0.0
 40
7.7092929999999988
 50
76.735303999999999
 51
78.841661999999999
  0
LINE
  5
758
  8
0
 62
     7
 10
59.239100000000001
 20
98.278499999999994
 30
0.0
 11
59.091999999999999
 21
98.176900000000003
 31
0.0
  0
LINE
  5
759
  8
0
 62
     7
 10
59.091999999999999
 20
98.176900000000003
 30
0.0
 11
58.990400000000001
 21
98.323600000000013
 31
0.0
  0
ARC
  5
75A
  8
0
 62
     7
 10
58.093618000000014
 20
92.893179000000003
 30
0.0
 40
5.5237819999999989
 50
80.457482999999996
 51
83.381337000000002
  0
LINE
  5
75B
  8
0
 62
     7
 10
58.743000000000002
 20
98.359499999999997
 30
0.0
 11
58.603900000000003
 21
98.247200000000007
 31
0.0
  0
LINE
  5
75C
  8
0
 62
     7
 10
58.603900000000003
 20
98.247200000000007
 30
0.0
 11
58.49219999999999
 21
98.386300000000006
 31
0.0
  0
ARC
  5
75D
  8
0
 62
     7
 10
57.872546
 20
90.847942000000003
 30
0.0
 40
7.581955999999999
 50
85.192999999999984
 51
87.301207999999988
  0
LINE
  5
75E
  8
0
 62
     7
 10
58.2423
 20
98.403199999999998
 30
0.0
 11
58.112200000000001
 21
98.280900000000017
 31
0.0
  0
LINE
  5
75F
  8
0
 62
     7
 10
58.112200000000001
 20
98.280900000000017
 30
0.0
 11
57.989899999999992
 21
98.411199999999994
 31
0.0
  0
ARC
  5
760
  8
0
 62
     7
 10
57.906112
 20
91.889653999999993
 30
0.0
 40
6.5391129999999986
 50
89.141728999999998
 51
91.570432999999966
  0
LINE
  5
761
  8
0
 62
     7
 10
57.740200000000002
 20
98.409800000000004
 30
0.0
 11
57.619199999999992
 21
98.278499999999994
 31
0.0
  0
LINE
  5
762
  8
0
 62
     7
 10
57.619199999999992
 20
98.278499999999994
 30
0.0
 11
57.488
 21
98.3994
 31
0.0
  0
ARC
  5
763
  8
0
 62
     7
 10
57.863245999999997
 20
92.357968999999997
 30
0.0
 40
6.0689469999999996
 50
93.440765999999996
 51
96.03883900000001
  0
LINE
  5
764
  8
0
 62
     7
 10
57.238199999999992
 20
98.379499999999993
 30
0.0
 11
57.127600000000001
 21
98.239599999999996
 31
0.0
  0
LINE
  5
765
  8
0
 62
     7
 10
57.127600000000001
 20
98.239599999999996
 30
0.0
 11
56.9878
 21
98.350499999999997
 31
0.0
  0
ARC
  5
766
  8
0
 62
     7
 10
58.022191000000007
 20
90.881330000000005
 30
0.0
 40
7.5548630000000001
 50
97.796008
 51
99.871762000000004
  0
LINE
  5
767
  8
0
 62
     7
 10
56.740400000000001
 20
98.312600000000003
 30
0.0
 11
56.640099999999997
 21
98.164500000000004
 31
0.0
  0
LINE
  5
768
  8
0
 62
     7
 10
56.640099999999997
 20
98.164500000000004
 30
0.0
 11
56.4923
 21
98.264399999999995
 31
0.0
  0
ARC
  5
769
  8
0
 62
     7
 10
57.901481999999987
 20
91.678849999999997
 30
0.0
 40
6.748124999999999
 50
101.984368
 51
104.288377
  0
LINE
  5
76A
  8
0
 62
     7
 10
56.248800000000003
 20
98.207899999999995
 30
0.0
 11
56.1599
 21
98.0535
 31
0.0
  0
LINE
  5
76B
  8
0
 62
     7
 10
56.1599
 20
98.0535
 30
0.0
 11
56.004899999999999
 21
98.142399999999995
 31
0.0
  0
ARC
  5
76C
  8
0
 62
     7
 10
57.716574000000001
 20
92.214713000000003
 30
0.0
 40
6.1814410000000004
 50
106.016155
 51
108.512603
  0
LINE
  5
76D
  8
0
 62
     7
 10
55.766100000000002
 20
98.068400000000011
 30
0.0
 11
55.68889999999999
 21
97.907799999999995
 31
0.0
  0
LINE
  5
76E
  8
0
 62
     7
 10
55.68889999999999
 20
97.907799999999995
 30
0.0
 11
55.527700000000003
 21
97.984999999999999
 31
0.0
  0
ARC
  5
76F
  8
0
 62
     7
 10
58.022970999999998
 20
91.346591999999987
 30
0.0
 40
7.1022350000000003
 50
110.53035800000001
 51
112.688822
  0
LINE
  5
770
  8
0
 62
     7
 10
55.295000000000002
 20
97.892999999999986
 30
0.0
 11
55.2301
 21
97.727000000000004
 31
0.0
  0
LINE
  5
771
  8
0
 62
     7
 10
55.2301
 20
97.727000000000004
 30
0.0
 11
55.063999999999993
 21
97.792400000000015
 31
0.0
  0
ARC
  5
772
  8
0
 62
     7
 10
57.505713
 20
92.480928000000006
 30
0.0
 40
5.8554760000000003
 50
114.619158
 51
117.21107000000001
  0
LINE
  5
773
  8
0
 62
     7
 10
54.838500000000003
 20
97.683499999999995
 30
0.0
 11
54.785600000000002
 21
97.512699999999995
 31
0.0
  0
LINE
  5
774
  8
0
 62
     7
 10
54.785600000000002
 20
97.512699999999995
 30
0.0
 11
54.614800000000002
 21
97.565700000000007
 31
0.0
  0
ARC
  5
775
  8
0
 62
     7
 10
57.988469000000002
 20
91.520178000000016
 30
0.0
 40
6.931811999999999
 50
119.104356
 51
121.2788639999999
  0
LINE
  5
776
  8
0
 62
     7
 10
54.398400000000002
 20
97.441000000000017
 30
0.0
 11
54.358400000000003
 21
97.267399999999995
 31
0.0
  0
LINE
  5
777
  8
0
 62
     7
 10
54.358400000000003
 20
97.267399999999995
 30
0.0
 11
54.184499999999993
 21
97.307300000000012
 31
0.0
  0
ARC
  5
778
  8
0
 62
     7
 10
57.220493000000012
 20
92.631124999999997
 30
0.0
 40
5.5821089999999991
 50
122.93172199999999
 51
125.619353
  0
LINE
  5
779
  8
0
 62
     7
 10
53.977400000000003
 20
97.166100000000014
 30
0.0
 11
53.950499999999998
 21
96.989999999999995
 31
0.0
  0
LINE
  5
77A
  8
0
 62
     7
 10
53.950499999999998
 20
96.989999999999995
 30
0.0
 11
53.774299999999997
 21
97.017300000000006
 31
0.0
  0
ARC
  5
77B
  8
0
 62
     7
 10
59.595849999999999
 20
89.521122000000005
 30
0.0
 40
9.4977
 50
127.80245499999999
 51
129.375238
  0
LINE
  5
77C
  8
0
 62
     7
 10
53.5779
 20
96.861500000000007
 30
0.0
 11
53.563999999999993
 21
96.683800000000005
 31
0.0
  0
LINE
  5
77D
  8
0
 62
     7
 10
53.563999999999993
 20
96.683800000000005
 30
0.0
 11
53.386600000000001
 21
96.697599999999994
 31
0.0
  0
ARC
  5
77E
  8
0
 62
     7
 10
58.580241000000001
 20
90.885249000000016
 30
0.0
 40
7.800279999999999
 50
131.752895
 51
133.648562
  0
LINE
  5
77F
  8
0
 62
     7
 10
53.202300000000001
 20
96.528099999999995
 30
0.0
 11
53.201700000000002
 21
96.349900000000005
 31
0.0
  0
LINE
  5
780
  8
0
 62
     7
 10
53.201700000000002
 20
96.349900000000005
 30
0.0
 11
53.023099999999999
 21
96.350600000000014
 31
0.0
  0
ARC
  5
781
  8
0
 62
     7
 10
58.724438999999997
 20
90.844219999999993
 30
0.0
 40
7.9305909999999997
 50
135.971159
 51
137.82903300000001
  0
LINE
  5
782
  8
0
 62
     7
 10
52.851500000000001
 20
96.167699999999996
 30
0.0
 11
52.8643
 21
95.989599999999996
 31
0.0
  0
LINE
  5
783
  8
0
 62
     7
 10
52.8643
 20
95.989599999999996
 30
0.0
 11
52.686199999999999
 21
95.977500000000006
 31
0.0
  0
ARC
  5
784
  8
0
 62
     7
 10
57.060268999999991
 20
92.288319999999999
 30
0.0
 40
5.7252010000000002
 50
139.82669100000001
 51
142.382938
  0
LINE
  5
785
  8
0
 62
     7
 10
52.529400000000003
 20
95.782899999999998
 30
0.0
 11
52.554900000000004
 21
95.606099999999998
 31
0.0
  0
LINE
  5
786
  8
0
 62
     7
 10
52.554900000000004
 20
95.606099999999998
 30
0.0
 11
52.3782
 21
95.580600000000004
 31
0.0
  0
ARC
  5
787
  8
0
 62
     7
 10
56.742981999999991
 20
92.403287000000006
 30
0.0
 40
5.4009809999999989
 50
143.927875
 51
146.62280899999999
  0
LINE
  5
788
  8
0
 62
     7
 10
52.235900000000001
 20
95.374600000000015
 30
0.0
 11
52.27409999999999
 21
95.200000000000017
 31
0.0
  0
LINE
  5
789
  8
0
 62
     7
 10
52.27409999999999
 20
95.200000000000017
 30
0.0
 11
52.10029999999999
 21
95.161699999999996
 31
0.0
  0
ARC
  5
78A
  8
0
 62
     7
 10
58.396793999999993
 20
91.327868000000009
 30
0.0
 40
7.3741079999999997
 50
148.65203500000001
 51
150.62210400000001
  0
LINE
  5
78B
  8
0
 62
     7
 10
51.973399999999998
 20
94.946099999999987
 30
0.0
 11
52.025100000000002
 21
94.775199999999998
 31
0.0
  0
LINE
  5
78C
  8
0
 62
     7
 10
52.025100000000002
 20
94.775199999999998
 30
0.0
 11
51.854199999999999
 21
94.723500000000001
 31
0.0
  0
ARC
  5
78D
  8
0
 62
     7
 10
57.104757999999997
 20
92.019118000000006
 30
0.0
 40
5.9078339999999994
 50
152.730897
 51
155.18543600000001
  0
LINE
  5
78E
  8
0
 62
     7
 10
51.743600000000001
 20
94.499200000000002
 30
0.0
 11
51.807299999999998
 21
94.332800000000006
 31
0.0
  0
LINE
  5
78F
  8
0
 62
     7
 10
51.807299999999998
 20
94.332800000000006
 30
0.0
 11
51.640900000000002
 21
94.268699999999995
 31
0.0
  0
ARC
  5
790
  8
0
 62
     7
 10
58.254681999999988
 20
91.473671999999993
 30
0.0
 40
7.1812929999999993
 50
157.08233999999999
 51
159.09706199999999
  0
LINE
  5
791
  8
0
 62
     7
 10
51.547199999999997
 20
94.036500000000004
 30
0.0
 11
51.623399999999997
 21
93.875000000000014
 31
0.0
  0
LINE
  5
792
  8
0
 62
     7
 10
51.623399999999997
 20
93.875000000000014
 30
0.0
 11
51.46139999999999
 21
93.798799999999986
 31
0.0
  0
ARC
  5
793
  8
0
 62
     7
 10
57.220354
 20
91.823048
 30
0.0
 40
6.0886399999999989
 50
161.05766199999999
 51
163.41696400000001
  0
LINE
  5
794
  8
0
 62
     7
 10
51.385599999999997
 20
93.5608
 30
0.0
 11
51.473199999999999
 21
93.405699999999996
 31
0.0
  0
LINE
  5
795
  8
0
 62
     7
 10
51.473199999999999
 20
93.405699999999996
 30
0.0
 11
51.317399999999999
 21
93.317899999999995
 31
0.0
  0
ARC
  5
796
  8
0
 62
     7
 10
57.039034999999998
 20
91.821810999999997
 30
0.0
 40
5.914051999999999
 50
165.343174
 51
167.76955799999999
  0
LINE
  5
797
  8
0
 62
     7
 10
51.2592
 20
93.074700000000007
 30
0.0
 11
51.358800000000002
 21
92.926199999999994
 31
0.0
  0
LINE
  5
798
  8
0
 62
     7
 10
51.358800000000002
 20
92.926199999999994
 30
0.0
 11
51.20989999999999
 21
92.827299999999994
 31
0.0
  0
ARC
  5
799
  8
0
 62
     7
 10
60.069637
 20
91.267088000000015
 30
0.0
 40
8.9967009999999998
 50
170.01318599999999
 51
171.60681400000001
  0
LINE
  5
79A
  8
0
 62
     7
 10
51.169299999999993
 20
92.580299999999994
 30
0.0
 11
51.279200000000003
 21
92.439400000000006
 31
0.0
  0
LINE
  5
79B
  8
0
 62
     7
 10
51.279200000000003
 20
92.439400000000006
 30
0.0
 11
51.138300000000001
 21
92.329099999999997
 31
0.0
  0
ARC
  5
79C
  8
0
 62
     7
 10
60.001968999999988
 20
91.417178000000007
 30
0.0
 40
8.9104729999999996
 50
174.12561199999999
 51
175.729151
  0
LINE
  5
79D
  8
0
 62
     7
 10
51.116199999999999
 20
92.080699999999993
 30
0.0
 11
51.2361
 21
91.948099999999997
 31
0.0
  0
LINE
  5
79E
  8
0
 62
     7
 10
51.2361
 20
91.948099999999997
 30
0.0
 11
51.103499999999997
 21
91.828599999999994
 31
0.0
  0
ARC
  5
79F
  8
0
 62
     7
 10
57.917501999999999
 20
91.611782000000005
 30
0.0
 40
5.302122999999999
 50
359.99721799999998
 51
89.997187999999994
  0
ARC
  5
7A0
  8
0
 62
     7
 10
57.917676
 20
91.611438000000007
 30
0.0
 40
5.302467
 50
89.999068999999992
 51
179.99904000000001
  0
ARC
  5
7A1
  8
0
 62
     7
 10
57.917501999999999
 20
91.611782000000005
 30
0.0
 40
5.3022929999999988
 50
180.002802
 51
270.00281200000001
  0
ARC
  5
7A2
  8
0
 62
     7
 10
57.917673999999998
 20
91.611440000000002
 30
0.0
 40
5.3019499999999988
 50
270.00095099999999
 51
0.000921
  0
ARC
  5
7A3
  8
0
 62
     7
 10
57.91784599999999
 20
91.611438000000007
 30
0.0
 40
5.5546499999999988
 50
0.000898
 51
90.000868999999994
  0
ARC
  5
7A4
  8
0
 62
     7
 10
57.917676
 20
91.611438000000007
 30
0.0
 40
5.5546499999999988
 50
89.999111999999997
 51
179.99908199999999
  0
ARC
  5
7A5
  8
0
 62
     7
 10
57.917673999999998
 20
91.611609999999985
 30
0.0
 40
5.5546480000000003
 50
180.00089800000001
 51
270.00090799999998
  0
ARC
  5
7A6
  8
0
 62
     7
 10
57.91784599999999
 20
91.611611999999994
 30
0.0
 40
5.5546499999999988
 50
269.99913100000009
 51
359.99910199999999
  0
ARC
  5
7A7
  8
0
 62
     7
 10
57.927435000000003
 20
91.626003999999995
 30
0.0
 40
7.7195330000000002
 50
229.13318799999999
 51
248.202
  0
ARC
  5
7A8
  8
0
 62
     7
 10
57.911611000000001
 20
91.619855000000001
 30
0.0
 40
7.712400999999999
 50
289.13819799999999
 51
308.23053499999997
  0
ARC
  5
7A9
  8
0
 62
     7
 10
57.880915000000002
 20
91.611581999999999
 30
0.0
 40
7.7390439999999989
 50
349.166586
 51
8.1944470000000003
  0
ARC
  5
7AA
  8
0
 62
     7
 10
57.918140999999999
 20
91.610122000000004
 30
0.0
 40
7.703403999999999
 50
49.123176000000001
 51
68.240056999999993
  0
ARC
  5
7AB
  8
0
 62
     7
 10
57.919257999999999
 20
91.605955000000009
 30
0.0
 40
7.7080989999999998
 50
109.108597
 51
128.22308000000001
  0
ARC
  5
7AC
  8
0
 62
     7
 10
57.922792999999999
 20
91.612099000000015
 30
0.0
 40
7.7077450000000001
 50
169.12421000000001
 51
188.237889
  0
LINE
  5
7AD
  8
0
 62
     7
 10
55.917400000000001
 20
158.899
 30
0.0
 11
55.917400000000001
 21
98.862499999999997
 31
0.0
  0
LINE
  5
7AE
  8
0
 62
     7
 10
59.91749999999999
 20
98.861400000000003
 30
0.0
 11
59.91749999999999
 21
158.899
 31
0.0
  0
ARC
  5
7AF
  8
0
 62
     7
 10
57.918104000000007
 20
91.611870999999994
 30
0.0
 40
7.5255149999999986
 50
269.99739699999998
 51
359.997367
  0
ARC
  5
7B0
  8
0
 62
     7
 10
57.699370999999992
 20
91.445039000000008
 30
0.0
 40
7.7460380000000004
 50
1.2315529999999999
 51
73.224506000000005
  0
ARC
  5
7B1
  8
0
 62
     7
 10
57.917105999999997
 20
91.611641000000006
 30
0.0
 40
7.5253699999999988
 50
105.37659499999999
 51
195.377274
  0
ARC
  5
7B2
  8
0
 62
     7
 10
58.085167000000013
 20
91.832300000000004
 30
0.0
 40
7.7477539999999987
 50
196.621194
 51
268.76192300000002
  0
ARC
  5
7B3
  8
0
 62
     7
 10
57.91784599999999
 20
91.611438000000007
 30
0.0
 40
6.4428010000000002
 50
0.000776
 51
90.000745999999992
  0
ARC
  5
7B4
  8
0
 62
     7
 10
57.917676
 20
91.611438000000007
 30
0.0
 40
6.4428010000000002
 50
89.999234000000001
 51
179.99920399999999
  0
ARC
  5
7B5
  8
0
 62
     7
 10
57.917673999999998
 20
91.611609999999985
 30
0.0
 40
6.4427989999999991
 50
180.000776
 51
270.00078600000001
  0
ARC
  5
7B6
  8
0
 62
     7
 10
57.91784599999999
 20
91.611611999999994
 30
0.0
 40
6.4428010000000002
 50
269.99925400000001
 51
359.99922400000003
  0
LINE
  5
7B7
  8
_________2
 62
     7
 10
134.589
 20
258.911
 30
0.0
 11
134.589
 21
230.911
 31
0.0
  0
LINE
  5
7B8
  8
_________2
 62
     7
 10
158.95500000000001
 20
258.911
 30
0.0
 11
158.95500000000001
 21
230.911
 31
0.0
  0
TEXT
  5
7B9
  8
_________2
 62
     7
 10
168.34633466666671
 20
233.06100000000001
 30
0.0
 40
3.3734599999999988
  1
クロム
 41
0.5
 72
     1
 11
171.27000000000001
 21
233.06100000000001
 31
0.0
  0
TEXT
  5
7BA
  8
_________2
 62
     7
 10
138.89959333333331
 20
233.06200000000001
 30
0.0
 40
3.3734599999999988
  1
HR63618-CH
 41
0.5
 72
     1
 11
146.77099999999999
 21
233.06200000000001
 31
0.0
  0
LINE
  5
7BB
  8
_________2
 62
     7
 10
134.589
 20
230.911
 30
0.0
 11
183.55099999999999
 21
230.911
 31
0.0
  0
TEXT
  5
7BC
  8
_________2
 62
     7
 10
168.45878333333329
 20
240.06100000000001
 30
0.0
 40
3.3734599999999988
  1
ブラス
 41
0.5
 72
     1
 11
171.27000000000001
 21
240.06100000000001
 31
0.0
  0
TEXT
  5
7BD
  8
_________2
 62
     7
 10
162.38655533333329
 20
247.06200000000001
 30
0.0
 40
3.3734599999999988
  1
アンティークブラス
 41
0.5
 72
     1
 11
171.27000000000001
 21
247.06200000000001
 31
0.0
  0
TEXT
  5
7BE
  8
_________2
 62
     7
 10
169.4708213333333
 20
254.06200000000001
 30
0.0
 40
3.3734599999999988
  1
仕上
 41
0.5
 72
     1
 11
171.27000000000001
 21
254.06200000000001
 31
0.0
  0
TEXT
  5
7BF
  8
_________2
 62
     7
 10
138.89959333333331
 20
240.06200000000001
 30
0.0
 40
3.3734599999999988
  1
HR63618-PB
 41
0.5
 72
     1
 11
146.77099999999999
 21
240.06200000000001
 31
0.0
  0
TEXT
  5
7C0
  8
_________2
 62
     7
 10
138.89959333333331
 20
247.06200000000001
 30
0.0
 40
3.3734599999999988
  1
HR63618-AB
 41
0.5
 72
     1
 11
146.77099999999999
 21
247.06200000000001
 31
0.0
  0
TEXT
  5
7C1
  8
_________2
 62
     7
 10
144.97182133333331
 20
254.06200000000001
 30
0.0
 40
3.3734599999999988
  1
品番
 41
0.5
 72
     1
 11
146.77099999999999
 21
254.06200000000001
 31
0.0
  0
LINE
  5
7C2
  8
_________2
 62
     7
 10
134.589
 20
237.911
 30
0.0
 11
183.55099999999999
 21
237.911
 31
0.0
  0
LINE
  5
7C3
  8
_________2
 62
     7
 10
134.589
 20
244.911
 30
0.0
 11
183.55099999999999
 21
244.911
 31
0.0
  0
LINE
  5
7C4
  8
_________2
 62
     7
 10
134.589
 20
251.911
 30
0.0
 11
183.55099999999999
 21
251.911
 31
0.0
  0
TEXT
  5
7C5
  8
_________2
 62
     7
 10
136.66252499999999
 20
9.1082000000000001
 30
0.0
 40
3.9357000000000002
  1
図中の表参照
 41
0.5
 72
     1
 11
143.55000000000001
 21
9.1082000000000001
 31
0.0
  0
TEXT
  5
7C6
  8
_________2
 62
     7
 10
137.31847500000001
 20
-0.8926299999999999
 30
0.0
 40
3.9357000000000002
  1
HR63618
 41
0.5
 72
     1
 11
143.55000000000001
 21
-0.8926299999999999
 31
0.0
  0
LINE
  5
7C7
  8
_________2
 62
     7
 10
205.30099999999999
 20
127.411
 30
0.0
 11
183.55099999999999
 21
127.411
 31
0.0
  0
LINE
  5
7C8
  8
_________2
 62
     7
 10
100.3
 20
-4.0910799999999998
 30
0.0
 11
100.3
 21
-21.071000000000002
 31
0.0
  0
LINE
  5
7C9
  8
_________2
 62
     7
 10
100.3
 20
275.93099999999998
 30
0.0
 11
100.3
 21
258.911
 31
0.0
  0
LINE
  5
7CA
  8
_________2
 62
     7
 10
17.049399999999999
 20
127.411
 30
0.0
 11
-4.7010300000000003
 21
127.411
 31
0.0
  0
LINE
  5
7CB
  8
_________2
 62
     7
 10
76.740799999999993
 20
29.8047
 30
0.0
 11
74.554599999999994
 21
29.8047
 31
0.0
  0
LINE
  5
7CC
  8
_________2
 62
     7
 10
77.233500000000006
 20
29.8047
 30
0.0
 11
76.981300000000005
 21
29.8047
 31
0.0
  0
LINE
  5
7CD
  8
_________2
 62
     7
 10
77.726200000000006
 20
29.8047
 30
0.0
 11
80.6511
 21
29.8047
 31
0.0
  0
LINE
  5
7CE
  8
_________2
 62
     7
 10
77.233500000000006
 20
29.8047
 30
0.0
 11
77.485699999999994
 21
29.8047
 31
0.0
  0
LINE
  5
7CF
  8
_________2
 62
     7
 10
70.837299999999999
 20
29.8047
 30
0.0
 11
68.650300000000001
 21
29.8047
 31
0.0
  0
LINE
  5
7D0
  8
_________2
 62
     7
 10
71.329300000000003
 20
29.8047
 30
0.0
 11
71.077799999999996
 21
29.8047
 31
0.0
  0
LINE
  5
7D1
  8
_________2
 62
     7
 10
71.329300000000003
 20
30.2974
 30
0.0
 11
71.329300000000003
 21
32.484400000000001
 31
0.0
  0
LINE
  5
7D2
  8
_________2
 62
     7
 10
71.329300000000003
 20
29.8047
 30
0.0
 11
71.329300000000003
 21
30.057300000000001
 31
0.0
  0
LINE
  5
7D3
  8
_________2
 62
     7
 10
71.821899999999999
 20
29.8047
 30
0.0
 11
74.008899999999997
 21
29.8047
 31
0.0
  0
LINE
  5
7D4
  8
_________2
 62
     7
 10
71.329300000000003
 20
29.8047
 30
0.0
 11
71.581400000000002
 21
29.8047
 31
0.0
  0
LINE
  5
7D5
  8
_________2
 62
     7
 10
71.329300000000003
 20
29.312799999999999
 30
0.0
 11
71.329300000000003
 21
27.126200000000001
 31
0.0
  0
LINE
  5
7D6
  8
_________2
 62
     7
 10
71.329300000000003
 20
29.8047
 30
0.0
 11
71.329300000000003
 21
29.5532
 31
0.0
  0
LINE
  5
7D7
  8
_________2
 62
     7
 10
75.040300000000002
 20
28.5852
 30
0.0
 11
80.218299999999985
 21
27.720400000000001
 31
0.0
  0
LINE
  5
7D8
  8
_________2
 62
     7
 10
75.040300000000002
 20
31.024699999999999
 30
0.0
 11
80.218299999999985
 21
31.8901
 31
0.0
  0
LINE
  5
7D9
  8
_________2
 62
     7
 10
80.218299999999985
 20
27.720400000000001
 30
0.0
 11
80.218299999999985
 21
31.8901
 31
0.0
  0
LINE
  5
7DA
  8
_________2
 62
     7
 10
75.040300000000002
 20
28.5852
 30
0.0
 11
75.040300000000002
 21
31.024699999999999
 31
0.0
  0
ARC
  5
7DB
  8
_________2
 62
     7
 10
71.282674
 20
29.757801000000001
 30
0.0
 40
1.267714
 50
2.1220840000000001
 51
87.894083999999992
  0
ARC
  5
7DC
  8
_________2
 62
     7
 10
71.375812999999994
 20
29.758545999999999
 30
0.0
 40
1.2669680000000001
 50
92.105782999999988
 51
177.91037
  0
ARC
  5
7DD
  8
_________2
 62
     7
 10
71.376186000000004
 20
29.851671
 30
0.0
 40
1.2673680000000001
 50
182.12203600000001
 51
267.877993
  0
ARC
  5
7DE
  8
_________2
 62
     7
 10
71.282368999999989
 20
29.852347999999999
 30
0.0
 40
1.2680439999999991
 50
272.11916400000001
 51
357.84848499999998
  0
ARC
  5
7DF
  8
_________2
 62
     7
 10
71.248890000000003
 20
29.724731999999999
 30
0.0
 40
2.1668310000000002
 50
2.1161439999999989
 51
87.874379000000005
  0
ARC
  5
7E0
  8
_________2
 62
     7
 10
71.408928000000003
 20
29.726146
 30
0.0
 40
2.165392999999999
 50
92.108508999999998
 51
177.91986499999999
  0
ARC
  5
7E1
  8
_________2
 62
     7
 10
71.409267
 20
29.884751999999999
 30
0.0
 40
2.1657829999999998
 50
182.117133
 51
267.88289700000001
  0
ARC
  5
7E2
  8
_________2
 62
     7
 10
71.249286999999995
 20
29.885429999999999
 30
0.0
 40
2.1664590000000001
 50
272.11546800000002
 51
357.86560400000002
  0
TEXT
  5
7E3
  8
_________2
 62
     7
 10
104.605
 20
1.6794899999999999
 30
0.0
 40
3.0923400000000001
  1
図番
 41
0.5
  0
LINE
  5
7E4
  8
_________2
 62
     7
 10
103.55
 20
5.9087199999999989
 30
0.0
 11
183.55099999999999
 21
5.9087199999999989
 31
0.0
  0
TEXT
  5
7E5
  8
_________2
 62
     7
 10
104.605
 20
11.6793
 30
0.0
 40
3.0923400000000001
  1
品番
 41
0.5
  0
TEXT
  5
7E6
  8
_________2
 62
     7
 10
104.605
 20
31.8184
 30
0.0
 40
3.0923400000000001
  1
名称
 41
0.5
  0
TEXT
  5
7E7
  8
_________2
 62
     7
 10
91.844958333333338
 20
26.822299999999998
 30
0.0
 40
3.6545800000000002
  1
mm
 41
0.5
 72
     1
 11
93.367699999999985
 21
26.822299999999998
 31
0.0
  0
TEXT
  5
7E8
  8
_________2
 62
     7
 10
85.642999999999986
 20
31.8184
 30
0.0
 40
3.0923400000000001
  1
単位
 41
0.5
  0
TEXT
  5
7E9
  8
_________2
 62
     7
 10
85.642999999999986
 20
19.410799999999998
 30
0.0
 40
3.0923400000000001
  1
尺度
 41
0.5
  0
TEXT
  5
7EA
  8
_________2
 62
     7
 10
90.548558666666679
 20
13.2182
 30
0.0
 40
3.6545800000000002
  1
1 ： 2
 41
0.5
 72
     1
 11
93.959500000000006
 21
13.2182
 31
0.0
  0
TEXT
  5
7EB
  8
_________2
 62
     7
 10
109.179
 20
24.226099999999999
 30
0.0
 40
3.9357000000000002
  1
ニューレトロ スペアーパーホルダー
 41
0.5
  0
TEXT
  5
7EC
  8
_________2
 62
     7
 10
39.425100333333333
 20
13.603400000000001
 30
0.0
 40
3.6545800000000002
  1
早川
 41
0.5
 72
     1
 11
41.313299999999998
 21
13.603400000000001
 31
0.0
  0
TEXT
  5
7ED
  8
_________2
 62
     7
 10
20.790190666666671
 20
13.603400000000001
 30
0.0
 40
3.6545800000000002
  1
石原
 41
0.5
 72
     1
 11
22.7393
 21
13.603400000000001
 31
0.0
  0
TEXT
  5
7EE
  8
_________2
 62
     7
 10
67.785600000000002
 20
13.2182
 30
0.0
 40
3.6545800000000002
  1
15.12.08
 41
0.5
  0
TEXT
  5
7EF
  8
_________2
 62
     7
 10
66.5929
 20
19.410799999999998
 30
0.0
 40
3.0923400000000001
  1
日付
 41
0.5
  0
TEXT
  5
7F0
  8
_________2
 62
     7
 10
29.639199999999999
 20
19.410799999999998
 30
0.0
 40
3.0923400000000001
  1
検図
 41
0.5
  0
TEXT
  5
7F1
  8
_________2
 62
     7
 10
18.020900000000001
 20
5.21143
 30
0.0
 40
3.0923400000000001
  1
備考
 41
0.5
  0
TEXT
  5
7F2
  8
_________2
 62
     7
 10
18.020900000000001
 20
19.410799999999998
 30
0.0
 40
3.0923400000000001
  1
製図
 41
0.5
  0
TEXT
  5
7F3
  8
_________2
 62
     7
 10
23.788265333333339
 20
27.936800000000002
 30
0.0
 40
4.4979399999999989
  1
セラトレーディング株式会社
 41
0.5
 72
     1
 11
41.180300000000003
 21
27.936800000000002
 31
0.0
  0
LINE
  5
7F4
  8
_________2
 62
     7
 10
183.55099999999999
 20
-4.0910799999999998
 30
0.0
 11
17.049399999999999
 21
-4.0910799999999998
 31
0.0
  0
LINE
  5
7F5
  8
_________2
 62
     7
 10
17.049399999999999
 20
-4.0910799999999998
 30
0.0
 11
17.049399999999999
 21
258.911
 31
0.0
  0
LINE
  5
7F6
  8
_________2
 62
     7
 10
17.049399999999999
 20
258.911
 30
0.0
 11
183.55099999999999
 21
258.911
 31
0.0
  0
LINE
  5
7F7
  8
_________2
 62
     7
 10
183.55099999999999
 20
258.911
 30
0.0
 11
183.55099999999999
 21
-4.0910799999999998
 31
0.0
  0
LINE
  5
7F8
  8
_________2
 62
     7
 10
65.549700000000001
 20
9.4092999999999982
 30
0.0
 11
65.549700000000001
 21
35.909100000000002
 31
0.0
  0
LINE
  5
7F9
  8
_________2
 62
     7
 10
84.549599999999984
 20
9.4092999999999982
 30
0.0
 11
84.549599999999984
 21
35.909100000000002
 31
0.0
  0
LINE
  5
7FA
  8
_________2
 62
     7
 10
103.55
 20
-4.0910799999999998
 30
0.0
 11
103.55
 21
35.909100000000002
 31
0.0
  0
LINE
  5
7FB
  8
_________2
 62
     7
 10
28.549199999999999
 20
9.4092999999999982
 30
0.0
 11
28.549199999999999
 21
23.409199999999998
 31
0.0
  0
LINE
  5
7FC
  8
_________2
 62
     7
 10
17.049399999999999
 20
9.4092999999999982
 30
0.0
 11
103.55
 21
9.4092999999999982
 31
0.0
  0
LINE
  5
7FD
  8
_________2
 62
     7
 10
17.049399999999999
 20
23.409199999999998
 30
0.0
 11
103.55
 21
23.409199999999998
 31
0.0
  0
LINE
  5
7FE
  8
_________2
 62
     7
 10
103.55
 20
15.9085
 30
0.0
 11
183.55099999999999
 21
15.9085
 31
0.0
  0
LINE
  5
7FF
  8
_________2
 62
     7
 10
17.049399999999999
 20
35.909100000000002
 30
0.0
 11
183.55099999999999
 21
35.909100000000002
 31
0.0
  0
ENDSEC
  0
EOF
