  0
SECTION
  2
HEADER
  9
$ACADVER
  1
AC1009
  9
$INSBASE
 10
0.0
 20
0.0
 30
0.0
  9
$EXTMIN
 10
-4.7001699999999991
 20
-21.070999999999991
 30
0.0
  9
$EXTMAX
 10
205.30099999999999
 20
275.93099999999993
 30
0.0
  9
$LIMMIN
 10
0.0
 20
0.0
  9
$LIMMAX
 10
12.0
 20
9.0
  9
$ORTHOMODE
 70
     0
  9
$REGENMODE
 70
     1
  9
$FILLMODE
 70
     1
  9
$QTEXTMODE
 70
     0
  9
$MIRRTEXT
 70
     1
  9
$DRAGMODE
 70
     2
  9
$LTSCALE
 40
1.0
  9
$OSMODE
 70
    37
  9
$ATTMODE
 70
     1
  9
$TEXTSIZE
 40
0.0
  9
$TRACEWID
 40
0.05
  9
$TEXTSTYLE
  7
STANDARD
  9
$CLAYER
  8
0
  9
$CELTYPE
  6
CONTINUOUS
  9
$CECOLOR
 62
   256
  9
$DIMSCALE
 40
1.0
  9
$DIMASZ
 40
0.18
  9
$DIMEXO
 40
0.0625
  9
$DIMDLI
 40
0.38
  9
$DIMRND
 40
0.0
  9
$DIMDLE
 40
0.0
  9
$DIMEXE
 40
0.18
  9
$DIMTP
 40
0.0
  9
$DIMTM
 40
0.0
  9
$DIMTXT
 40
0.18
  9
$DIMCEN
 40
0.09
  9
$DIMTSZ
 40
0.0
  9
$DIMTOL
 70
     0
  9
$DIMLIM
 70
     0
  9
$DIMTIH
 70
     1
  9
$DIMTOH
 70
     1
  9
$DIMSE1
 70
     0
  9
$DIMSE2
 70
     0
  9
$DIMTAD
 70
     0
  9
$DIMZIN
 70
     0
  9
$DIMBLK
  1

  9
$DIMASO
 70
     1
  9
$DIMSHO
 70
     1
  9
$DIMPOST
  1

  9
$DIMAPOST
  1

  9
$DIMALT
 70
     0
  9
$DIMALTD
 70
     2
  9
$DIMALTF
 40
25.399999999999999
  9
$DIMLFAC
 40
1.0
  9
$DIMTOFL
 70
     0
  9
$DIMTVP
 40
0.0
  9
$DIMTIX
 70
     0
  9
$DIMSOXD
 70
     0
  9
$DIMSAH
 70
     0
  9
$DIMBLK1
  1

  9
$DIMBLK2
  1

  9
$DIMSTYLE
  2
STANDARD
  9
$DIMCLRD
 70
     0
  9
$DIMCLRE
 70
     0
  9
$DIMCLRT
 70
     0
  9
$DIMTFAC
 40
1.0
  9
$DIMGAP
 40
0.09
  9
$LUNITS
 70
     2
  9
$LUPREC
 70
     4
  9
$SKETCHINC
 40
0.1
  9
$FILLETRAD
 40
0.0
  9
$AUNITS
 70
     0
  9
$AUPREC
 70
     0
  9
$MENU
  1
.
  9
$ELEVATION
 40
0.0
  9
$PELEVATION
 40
0.0
  9
$THICKNESS
 40
0.0
  9
$LIMCHECK
 70
     0
  9
$BLIPMODE
 70
     0
  9
$CHAMFERA
 40
0.0
  9
$CHAMFERB
 40
0.0
  9
$SKPOLY
 70
     0
  9
$TDCREATE
 40
2444972.375
  9
$TDUPDATE
 40
2455296.2322473489
  9
$TDINDWG
 40
0.003010706
  9
$TDUSRTIMER
 40
0.003010706
  9
$USRTIMER
 70
     1
  9
$ANGBASE
 50
0.0
  9
$ANGDIR
 70
     0
  9
$PDMODE
 70
     0
  9
$PDSIZE
 40
0.0
  9
$PLINEWID
 40
0.0
  9
$COORDS
 70
     1
  9
$SPLFRAME
 70
     0
  9
$SPLINETYPE
 70
     6
  9
$SPLINESEGS
 70
     8
  9
$ATTDIA
 70
     0
  9
$ATTREQ
 70
     1
  9
$HANDLING
 70
     1
  9
$HANDSEED
  5
17F
  9
$SURFTAB1
 70
     6
  9
$SURFTAB2
 70
     6
  9
$SURFTYPE
 70
     6
  9
$SURFU
 70
     6
  9
$SURFV
 70
     6
  9
$UCSNAME
  2

  9
$UCSORG
 10
0.0
 20
0.0
 30
0.0
  9
$UCSXDIR
 10
1.0
 20
0.0
 30
0.0
  9
$UCSYDIR
 10
0.0
 20
1.0
 30
0.0
  9
$PUCSNAME
  2

  9
$PUCSORG
 10
0.0
 20
0.0
 30
0.0
  9
$PUCSXDIR
 10
1.0
 20
0.0
 30
0.0
  9
$PUCSYDIR
 10
0.0
 20
1.0
 30
0.0
  9
$USERI1
 70
     0
  9
$USERI2
 70
     0
  9
$USERI3
 70
     0
  9
$USERI4
 70
     0
  9
$USERI5
 70
     0
  9
$USERR1
 40
0.0
  9
$USERR2
 40
0.0
  9
$USERR3
 40
0.0
  9
$USERR4
 40
0.0
  9
$USERR5
 40
0.0
  9
$WORLDVIEW
 70
     1
  9
$SHADEDGE
 70
     3
  9
$SHADEDIF
 70
    70
  9
$TILEMODE
 70
     1
  9
$MAXACTVP
 70
    48
  9
$PLIMCHECK
 70
     0
  9
$PEXTMIN
 10
1.0000000000000000E+020
 20
1.0000000000000000E+020
 30
1.0000000000000000E+020
  9
$PEXTMAX
 10
-1.0000000000000000E+020
 20
-1.0000000000000000E+020
 30
-1.0000000000000000E+020
  9
$PLIMMIN
 10
0.0
 20
0.0
  9
$PLIMMAX
 10
12.0
 20
9.0
  9
$UNITMODE
 70
     0
  9
$VISRETAIN
 70
     1
  9
$PLINEGEN
 70
     0
  9
$PSLTSCALE
 70
     1
  0
ENDSEC
  0
SECTION
  2
TABLES
  0
TABLE
  2
VPORT
 70
     2
  0
VPORT
  2
*ACTIVE
 70
     0
 10
0.0
 20
0.0
 11
1.0
 21
1.0
 12
181.16444471805491
 22
127.43000069151149
 13
0.0
 23
0.0
 14
1.0
 24
1.0
 15
0.0
 25
0.0
 16
0.0
 26
0.0
 36
1.0
 17
0.0
 27
0.0
 37
0.0
 40
300.30211792331522
 41
2.2894736842105261
 42
50.0
 43
0.0
 44
0.0
 50
0.0
 51
0.0
 71
     0
 72
   100
 73
     1
 74
     1
 75
     0
 76
     0
 77
     0
 78
     0
  0
ENDTAB
  0
TABLE
  2
LTYPE
 70
     3
  0
LTYPE
  2
CONTINUOUS
 70
     0
  3
Solid line
 72
    65
 73
     0
 40
0.0
  0
LTYPE
  2
AIGENLINE001
 70
     0
  3
generate AI->DXF Converter
 72
    65
 73
     4
 40
10.300112
 49
8.0000600000000013
 49
-0.700021
 49
0.9000100000000001
 49
-0.700021
  0
LTYPE
  2
AIGENLINE002
 70
     0
  3
generate AI->DXF Converter
 72
    65
 73
     4
 40
5.8561449999999988
 49
3.5278
 49
-0.776115
 49
0.776115
 49
-0.776115
  0
ENDTAB
  0
TABLE
  2
LAYER
 70
     2
  0
LAYER
  2
0
 70
     0
 62
     7
  6
CONTINUOUS
  0
LAYER
  2
_________2
 70
     0
 62
     7
  6
CONTINUOUS
  0
ENDTAB
  0
TABLE
  2
STYLE
 70
     1
  0
STYLE
  2
STANDARD
 70
     0
 40
0.0
 41
0.0
 50
0.0
 71
     0
 42
0.0
  3
TXT
  4
EXTFONT.SHX
  0
ENDTAB
  0
TABLE
  2
VIEW
 70
     0
  0
ENDTAB
  0
TABLE
  2
UCS
 70
     0
  0
ENDTAB
  0
TABLE
  2
APPID
 70
     1
  0
APPID
  2
ACAD
 70
     0
  0
ENDTAB
  0
TABLE
  2
DIMSTYLE
 70
     1
  0
DIMSTYLE
  2
STANDARD
 70
     0
  3

  4

  5

  6

  7

 40
1.0
 41
0.18
 42
0.0625
 43
0.38
 44
0.18
 45
0.0
 46
0.0
 47
0.0
 48
0.0
140
0.18
141
0.09
142
0.0
143
25.399999999999999
144
1.0
145
0.0
146
1.0
147
0.09
 71
     0
 72
     0
 73
     1
 74
     1
 75
     0
 76
     0
 77
     0
 78
     0
170
     0
171
     2
172
     0
173
     0
174
     0
175
     0
176
     0
177
     0
178
     0
  0
ENDTAB
  0
ENDSEC
  0
SECTION
  2
BLOCKS
  0
BLOCK
  8
0
  2
$MODEL_SPACE
 70
     0
 10
0.0
 20
0.0
 30
0.0
  3
$MODEL_SPACE
  1

  0
ENDBLK
  5
1A
  8
0
  0
BLOCK
 67
     1
  8
0
  2
$PAPER_SPACE
 70
     0
 10
0.0
 20
0.0
 30
0.0
  3
$PAPER_SPACE
  1

  0
ENDBLK
  5
17
 67
     1
  8
0
  0
ENDSEC
  0
SECTION
  2
ENTITIES
  0
TEXT
  5
23
  8
0
 62
     7
 10
79.301972500000005
 20
149.75700000000001
 30
0.0
 40
3.0923400000000001
  1
60
 41
0.5
 72
     1
 11
80.461600000000004
 21
149.75700000000001
 31
0.0
  0
TEXT
  5
24
  8
0
 62
     7
 10
68.999009000000001
 20
172.56599999999989
 30
0.0
 40
3.0923400000000001
  1
G1 1/4
 41
0.5
 72
     1
 11
72.555199999999999
 21
172.56599999999989
 31
0.0
  0
TEXT
  5
25
  8
0
 62
     7
 10
159.61822000000001
 20
144.26599999999991
 30
0.0
 40
3.0923400000000001
  1
15
 41
0.5
 72
     1
 11
160.64899999999989
 21
144.26599999999991
 31
0.0
  0
TEXT
  5
26
  8
0
 62
     7
 10
121.5391349999999
 20
91.029600000000016
 30
0.0
 40
3.0923400000000001
  1
400
 41
0.5
 72
     1
 11
123.343
 21
91.029600000000016
 31
0.0
  0
TEXT
  5
27
  8
0
 62
     7
 10
153.20199999999991
 20
119.8882875
 30
0.0
 40
3.0923400000000001
  1
%%c80
 50
90.0
 41
0.5
 72
     1
 11
153.20199999999991
 21
121.821
 31
0.0
  0
TEXT
  5
28
  8
0
 62
     7
 10
60.6113
 20
141.59121999999999
 30
0.0
 40
3.0923400000000001
  1
15
 50
90.0
 41
0.5
 72
     1
 11
60.6113
 21
142.62200000000001
 31
0.0
  0
TEXT
  5
29
  8
0
 62
     7
 10
60.6113
 20
133.582525
 30
0.0
 40
3.0923400000000001
  1
49
 50
90.0
 41
0.5
 72
     1
 11
60.6113
 21
134.87100000000001
 31
0.0
  0
TEXT
  5
2A
  8
0
 62
     7
 10
70.136039999999994
 20
98.057299999999998
 30
0.0
 40
3.0923400000000001
  1
%%c45
 41
0.5
 72
     1
 11
72.197599999999994
 21
98.057299999999998
 31
0.0
  0
TEXT
  5
2B
  8
0
 62
     7
 10
71.782168999999996
 20
55.9756
 30
0.0
 40
3.0923400000000001
  1
P視
 41
0.5
 72
     1
 11
73.276799999999994
 21
55.9756
 31
0.0
  0
TEXT
  5
2C
  8
0
 62
     7
 10
68.728409999999997
 20
84.502199999999988
 30
0.0
 40
3.0923400000000001
  1
P
 41
0.5
 72
     1
 11
69.243799999999993
 21
84.502199999999988
 31
0.0
  0
TEXT
  5
2D
  8
0
 62
     7
 10
86.712695999999994
 20
97.564700000000002
 30
0.0
 40
3.0923400000000001
  1
掃除口付
 41
0.5
 72
     2
 11
93.722000000000008
 21
97.564700000000002
 31
0.0
  0
TEXT
  5
2F
  8
0
 62
     7
 10
55.2316
 20
116.78622
 30
0.0
 40
3.0923400000000001
  1
91
 50
90.0
 41
0.5
 72
     1
 11
55.2316
 21
117.81699999999999
 31
0.0
  0
TEXT
  5
30
  8
0
 62
     7
 10
55.054200000000002
 20
140.89326299999991
 30
0.0
 40
3.0923400000000001
  1
85～185
 50
90.0
 41
0.5
 72
     1
 11
55.054200000000002
 21
145.17099999999999
 31
0.0
  0
TEXT
  5
31
  8
0
 62
     7
 10
177.46599999999989
 20
126.65443999999999
 30
0.0
 40
3.0923400000000001
  1
%%c32
 50
90.0
 41
0.5
 72
     1
 11
177.46599999999989
 21
128.71600000000001
 31
0.0
  0
ARC
  5
38
  8
0
 62
     7
 10
72.702135999999996
 20
204.84305599999999
 30
0.0
 40
5.6250159999999996
 50
270.00002000000001
 51
359.99998999999991
  0
ARC
  5
39
  8
0
 62
     7
 10
72.702135999999996
 20
204.843054
 30
0.0
 40
5.6250140000000002
 50
179.99996999999991
 51
270.00002000000001
  0
ARC
  5
3A
  8
0
 62
     7
 10
72.702138000000005
 20
204.843054
 30
0.0
 40
5.6250159999999996
 50
90.0
 51
179.99996999999991
  0
ARC
  5
3B
  8
0
 62
     7
 10
72.702135999999996
 20
204.843054
 30
0.0
 40
5.6250159999999996
 50
0.00001
 51
89.999980000000008
  0
ARC
  5
3C
  8
0
 62
     7
 10
35.275258000000001
 20
128.6756739999999
 30
0.0
 40
10.195119
 50
0.5748850000000001
 51
55.42518299999999
  0
ARC
  5
3D
  8
0
 62
     7
 10
35.290297999999993
 20
128.87164799999991
 30
0.0
 40
10.179997
 50
304.76520299999999
 51
359.47273000000001
  0
ARC
  5
3E
  8
0
 62
     7
 10
35.665796999999998
 20
128.88102399999991
 30
0.0
 40
10.196566000000001
 50
180.57912399999989
 51
235.42098300000001
  0
ARC
  5
3F
  8
0
 62
     7
 10
35.649095000000003
 20
128.68428199999991
 30
0.0
 40
10.179774
 50
124.763347
 51
179.47268199999999
  0
LINE
  5
40
  8
0
  6
AIGENLINE001
 62
     7
 10
23.647099999999998
 20
128.77799999999991
 30
0.0
 11
47.703800000000001
 21
128.77799999999991
 31
0.0
  0
LINE
  5
41
  8
0
 62
     7
 10
29.844699999999989
 20
144.77799999999991
 30
0.0
 11
29.844699999999989
 21
106.02799999999991
 31
0.0
  0
LINE
  5
42
  8
0
 62
     7
 10
41.094700000000003
 20
144.77799999999991
 30
0.0
 11
41.094700000000003
 21
106.02799999999991
 31
0.0
  0
LINE
  5
43
  8
0
 62
     7
 10
29.844699999999989
 20
106.02799999999991
 30
0.0
 11
41.094700000000003
 21
106.02799999999991
 31
0.0
  0
LINE
  5
44
  8
0
 62
     7
 10
29.844699999999989
 20
141.02799999999999
 30
0.0
 11
41.094700000000003
 21
141.02799999999999
 31
0.0
  0
LINE
  5
45
  8
0
 62
     7
 10
29.844699999999989
 20
144.77799999999991
 30
0.0
 11
41.094700000000003
 21
144.77799999999991
 31
0.0
  0
LINE
  5
46
  8
0
  6
AIGENLINE001
 62
     7
 10
35.469900000000003
 20
104.495
 30
0.0
 11
35.469900000000003
 21
165.30199999999999
 31
0.0
  0
LINE
  5
47
  8
0
 62
     7
 10
31.469799999999999
 20
160.65299999999999
 30
0.0
 11
31.469799999999999
 21
144.77799999999991
 31
0.0
  0
LINE
  5
48
  8
0
 62
     7
 10
39.469799999999992
 20
144.77799999999991
 30
0.0
 11
39.469799999999992
 21
160.65299999999999
 31
0.0
  0
ARC
  5
49
  8
0
 62
     7
 10
72.702136999999993
 20
69.213956999999994
 30
0.0
 40
4.8750140000000002
 50
269.99799499999989
 51
359.99796600000002
  0
ARC
  5
4A
  8
0
 62
     7
 10
72.701878000000008
 20
69.213868999999988
 30
0.0
 40
4.8749260000000003
 50
180.00102200000001
 51
270.00103200000001
  0
ARC
  5
4B
  8
0
 62
     7
 10
72.702051999999995
 20
69.213868999999988
 30
0.0
 40
4.8750999999999989
 50
90.001011999999989
 51
180.00102200000001
  0
ARC
  5
4C
  8
0
 62
     7
 10
72.701964000000004
 20
69.213782999999992
 30
0.0
 40
4.8751860000000002
 50
0.00001
 51
89.999980000000008
  0
ARC
  5
4D
  8
0
 62
     7
 10
72.701964000000004
 20
69.213785000000001
 30
0.0
 40
5.6251879999999987
 50
270.00002000000001
 51
359.99998999999991
  0
ARC
  5
4E
  8
0
 62
     7
 10
72.70205
 20
69.213696999999996
 30
0.0
 40
5.6250999999999989
 50
179.9990929999999
 51
269.999143
  0
ARC
  5
4F
  8
0
 62
     7
 10
72.702051999999995
 20
69.213868999999988
 30
0.0
 40
5.625102
 50
90.000876999999988
 51
180.00088700000001
  0
ARC
  5
50
  8
0
 62
     7
 10
72.701964000000004
 20
69.213782999999992
 30
0.0
 40
5.6251879999999987
 50
0.00001
 51
89.999980000000008
  0
ARC
  5
51
  8
0
 62
     7
 10
78.331356999999997
 20
124.874849
 30
0.0
 40
1.1190100000000001
 50
244.067431
 51
269.78471399999989
  0
ARC
  5
52
  8
0
 62
     7
 10
78.816754000000003
 20
126.01329699999989
 30
0.0
 40
2.3558959999999991
 50
225.81489300000001
 51
245.559304
  0
ARC
  5
53
  8
0
 62
     7
 10
80.334447999999995
 20
127.731224
 30
0.0
 40
4.6468870000000004
 50
213.11113199999991
 51
227.159389
  0
ARC
  5
54
  8
0
 62
     7
 10
82.027886999999993
 20
128.91638699999999
 30
0.0
 40
6.7130859999999988
 50
181.27562699999999
 51
213.68846600000001
  0
ARC
  5
55
  8
0
 62
     7
 10
78.331356999999997
 20
132.65903499999999
 30
0.0
 40
1.1190100000000001
 50
90.215285999999992
 51
115.9325689999999
  0
ARC
  5
56
  8
0
 62
     7
 10
78.816754000000003
 20
131.52058799999989
 30
0.0
 40
2.3558959999999991
 50
114.440696
 51
134.18510699999999
  0
ARC
  5
57
  8
0
 62
     7
 10
80.334447999999995
 20
129.80266099999989
 30
0.0
 40
4.6468870000000004
 50
132.840611
 51
146.888868
  0
ARC
  5
58
  8
0
 62
     7
 10
82.027886999999993
 20
128.6174969999999
 30
0.0
 40
6.7130859999999988
 50
146.31153399999991
 51
178.7243729999999
  0
ARC
  5
59
  8
0
 62
     7
 10
72.702309
 20
204.84322700000001
 30
0.0
 40
3.8750689999999999
 50
0.00001
 51
89.999980000000008
  0
ARC
  5
5A
  8
0
 62
     7
 10
72.851232999999993
 20
204.6939459999999
 30
0.0
 40
4.0271039999999996
 50
92.119292999999985
 51
177.875584
  0
ARC
  5
5B
  8
0
 62
     7
 10
72.850510999999997
 20
204.99178599999999
 30
0.0
 40
4.0263549999999997
 50
182.114518
 51
267.89060499999999
  0
ARC
  5
5C
  8
0
 62
     7
 10
72.702309
 20
204.84322800000001
 30
0.0
 40
3.8750689999999999
 50
270.00002000000001
 51
359.99998999999991
  0
ARC
  5
5D
  8
0
 62
     7
 10
72.702481000000006
 20
204.843054
 30
0.0
 40
4.5001850000000001
 50
0.002203
 51
90.002172999999999
  0
ARC
  5
5E
  8
0
 62
     7
 10
72.702309999999997
 20
204.84322700000001
 30
0.0
 40
4.500013
 50
90.0
 51
179.99996999999991
  0
ARC
  5
5F
  8
0
 62
     7
 10
72.702309
 20
204.84322700000001
 30
0.0
 40
4.5000109999999989
 50
179.99996999999991
 51
270.00002000000001
  0
ARC
  5
60
  8
0
 62
     7
 10
72.702481000000006
 20
204.84339999999989
 30
0.0
 40
4.5001850000000001
 50
269.99782699999997
 51
359.99779699999999
  0
ARC
  5
61
  8
0
 62
     7
 10
72.702136999999993
 20
204.84339899999989
 30
0.0
 40
4.7499560000000001
 50
359.99793199999999
 51
89.997901999999996
  0
ARC
  5
62
  8
0
 62
     7
 10
72.702309999999997
 20
204.84322700000001
 30
0.0
 40
4.7501290000000003
 50
90.0
 51
179.99996999999991
  0
ARC
  5
63
  8
0
 62
     7
 10
72.702309
 20
204.84322700000001
 30
0.0
 40
4.7501269999999991
 50
179.99996999999991
 51
270.00002000000001
  0
ARC
  5
64
  8
0
 62
     7
 10
72.702136999999993
 20
204.84305599999999
 30
0.0
 40
4.7499560000000001
 50
270.00209799999999
 51
0.002068
  0
LINE
  5
65
  8
0
  6
AIGENLINE002
 62
     7
 10
72.701999999999984
 20
196.78399999999999
 30
0.0
 11
72.701999999999984
 21
212.249
 31
0.0
  0
LINE
  5
66
  8
0
 62
     7
 10
85.491299999999995
 20
148.351
 30
0.0
 11
87.701999999999998
 21
148.9429999999999
 31
0.0
  0
LINE
  5
67
  8
0
 62
     7
 10
87.701999999999998
 20
148.9429999999999
 30
0.0
 11
85.491299999999995
 21
149.535
 31
0.0
  0
LINE
  5
68
  8
0
 62
     7
 10
85.491299999999995
 20
149.535
 30
0.0
 11
85.491299999999995
 21
148.351
 31
0.0
  0
LINE
  5
69
  8
0
 62
     7
 10
74.912400000000005
 20
149.52099999999999
 30
0.0
 11
72.701999999999984
 21
148.929
 31
0.0
  0
LINE
  5
6A
  8
0
 62
     7
 10
72.701999999999984
 20
148.929
 30
0.0
 11
74.912400000000005
 21
148.33600000000001
 31
0.0
  0
LINE
  5
6B
  8
0
 62
     7
 10
74.912400000000005
 20
148.33600000000001
 30
0.0
 11
74.912400000000005
 21
149.52099999999999
 31
0.0
  0
LINE
  5
6C
  8
0
 62
     7
 10
87.701999999999998
 20
148.93600000000001
 30
0.0
 11
72.701999999999984
 21
148.93600000000001
 31
0.0
  0
LINE
  5
6D
  8
0
 62
     7
 10
75.241200000000006
 20
170.13900000000001
 30
0.0
 11
77.451700000000002
 21
170.73099999999991
 31
0.0
  0
LINE
  5
6E
  8
0
 62
     7
 10
77.451700000000002
 20
170.73099999999991
 30
0.0
 11
75.241200000000006
 21
171.32299999999989
 31
0.0
  0
LINE
  5
6F
  8
0
 62
     7
 10
75.241200000000006
 20
171.32299999999989
 30
0.0
 11
75.241200000000006
 21
170.13900000000001
 31
0.0
  0
LINE
  5
70
  8
0
 62
     7
 10
70.162599999999983
 20
171.309
 30
0.0
 11
67.952200000000005
 21
170.71700000000001
 31
0.0
  0
LINE
  5
71
  8
0
 62
     7
 10
67.952200000000005
 20
170.71700000000001
 30
0.0
 11
70.162599999999983
 21
170.124
 31
0.0
  0
LINE
  5
72
  8
0
 62
     7
 10
70.162599999999983
 20
170.124
 30
0.0
 11
70.162599999999983
 21
171.309
 31
0.0
  0
LINE
  5
73
  8
0
 62
     7
 10
77.451700000000002
 20
170.72399999999999
 30
0.0
 11
67.952200000000005
 21
170.72399999999999
 31
0.0
  0
LINE
  5
74
  8
0
 62
     7
 10
67.952200000000005
 20
165.352
 30
0.0
 11
67.952200000000005
 21
171.42400000000001
 31
0.0
  0
LINE
  5
75
  8
0
 62
     7
 10
77.451700000000002
 20
165.352
 30
0.0
 11
77.451700000000002
 21
171.42400000000001
 31
0.0
  0
LINE
  5
76
  8
0
 62
     7
 10
41.095100000000002
 20
160.65299999999999
 30
0.0
 11
41.095100000000002
 21
164.40299999999991
 31
0.0
  0
LINE
  5
77
  8
0
 62
     7
 10
29.845099999999999
 20
160.65299999999999
 30
0.0
 11
29.845099999999999
 21
164.40299999999991
 31
0.0
  0
LINE
  5
78
  8
0
 62
     7
 10
29.845099999999999
 20
164.40299999999991
 30
0.0
 11
41.095100000000002
 21
164.40299999999991
 31
0.0
  0
LINE
  5
79
  8
0
 62
     7
 10
29.845099999999999
 20
160.65299999999999
 30
0.0
 11
41.095100000000002
 21
160.65299999999999
 31
0.0
  0
LINE
  5
7A
  8
0
 62
     7
 10
78.327200000000005
 20
160.65299999999999
 30
0.0
 11
78.327200000000005
 21
164.40299999999991
 31
0.0
  0
LINE
  5
7B
  8
0
 62
     7
 10
67.077100000000002
 20
160.65299999999999
 30
0.0
 11
67.077100000000002
 21
164.40299999999991
 31
0.0
  0
LINE
  5
7C
  8
0
 62
     7
 10
65.073800000000006
 20
128.77799999999991
 30
0.0
 11
55.386299999999999
 21
128.77799999999991
 31
0.0
  0
LINE
  5
7D
  8
0
 62
     7
 10
78.222899999999996
 20
104.2679999999999
 30
0.0
 11
76.720699999999994
 21
105.994
 31
0.0
  0
LINE
  5
7E
  8
0
 62
     7
 10
76.720699999999994
 20
105.994
 30
0.0
 11
77.158600000000007
 21
103.74799999999991
 31
0.0
  0
LINE
  5
7F
  8
0
 62
     7
 10
77.158600000000007
 20
103.74799999999991
 30
0.0
 11
78.222899999999996
 21
104.2679999999999
 31
0.0
  0
LINE
  5
80
  8
0
 62
     7
 10
81.385400000000004
 20
96.444000000000003
 30
0.0
 11
76.720699999999994
 21
105.994
 31
0.0
  0
LINE
  5
81
  8
0
 62
     7
 10
81.385400000000004
 20
96.444000000000003
 30
0.0
 11
93.551500000000004
 21
96.444000000000003
 31
0.0
  0
LINE
  5
82
  8
0
  6
AIGENLINE001
 62
     7
 10
64.628699999999995
 20
204.8429999999999
 30
0.0
 11
174.1579999999999
 21
204.8429999999999
 31
0.0
  0
LINE
  5
83
  8
0
 62
     7
 10
158.953
 20
194.8429999999999
 30
0.0
 11
162.70299999999989
 21
194.8429999999999
 31
0.0
  0
LINE
  5
84
  8
0
 62
     7
 10
158.953
 20
214.8429999999999
 30
0.0
 11
162.70299999999989
 21
214.8429999999999
 31
0.0
  0
LINE
  5
85
  8
0
 62
     7
 10
158.953
 20
214.8429999999999
 30
0.0
 11
158.953
 21
194.8429999999999
 31
0.0
  0
LINE
  5
86
  8
0
 62
     7
 10
162.70299999999989
 20
214.8429999999999
 30
0.0
 11
162.70299999999989
 21
194.8429999999999
 31
0.0
  0
LINE
  5
87
  8
0
 62
     7
 10
172.703
 20
208.8429999999999
 30
0.0
 11
172.703
 21
200.8429999999999
 31
0.0
  0
LINE
  5
88
  8
0
 62
     7
 10
87.702399999999983
 20
199.8429999999999
 30
0.0
 11
75.2774
 21
199.8429999999999
 31
0.0
  0
LINE
  5
89
  8
0
 62
     7
 10
87.702399999999983
 20
209.84299999999999
 30
0.0
 11
75.2774
 21
209.84299999999999
 31
0.0
  0
LINE
  5
8A
  8
0
 62
     7
 10
158.953
 20
200.8429999999999
 30
0.0
 11
87.702399999999983
 21
200.8429999999999
 31
0.0
  0
LINE
  5
8B
  8
0
 62
     7
 10
172.703
 20
200.8429999999999
 30
0.0
 11
162.70299999999989
 21
200.8429999999999
 31
0.0
  0
LINE
  5
8C
  8
0
 62
     7
 10
158.953
 20
208.8429999999999
 30
0.0
 11
87.702399999999983
 21
208.8429999999999
 31
0.0
  0
LINE
  5
8D
  8
0
 62
     7
 10
172.703
 20
208.8429999999999
 30
0.0
 11
162.70299999999989
 21
208.8429999999999
 31
0.0
  0
LINE
  5
8E
  8
0
 62
     7
 10
87.702399999999983
 20
199.8429999999999
 30
0.0
 11
87.702399999999983
 21
209.84299999999999
 31
0.0
  0
LINE
  5
8F
  8
0
 62
     7
 10
155.43299999999999
 20
136.53100000000001
 30
0.0
 11
154.83999999999989
 21
138.74199999999999
 31
0.0
  0
LINE
  5
90
  8
0
 62
     7
 10
154.83999999999989
 20
138.74199999999999
 30
0.0
 11
154.24799999999991
 21
136.53100000000001
 31
0.0
  0
LINE
  5
91
  8
0
 62
     7
 10
154.24799999999991
 20
136.53100000000001
 30
0.0
 11
155.43299999999999
 21
136.53100000000001
 31
0.0
  0
LINE
  5
92
  8
0
 62
     7
 10
154.26300000000001
 20
120.959
 30
0.0
 11
154.8549999999999
 21
118.74799999999991
 31
0.0
  0
LINE
  5
93
  8
0
 62
     7
 10
154.8549999999999
 20
118.74799999999991
 30
0.0
 11
155.447
 21
120.959
 31
0.0
  0
LINE
  5
94
  8
0
 62
     7
 10
155.447
 20
120.959
 30
0.0
 11
154.26300000000001
 21
120.959
 31
0.0
  0
LINE
  5
95
  8
0
 62
     7
 10
154.8479999999999
 20
138.74199999999999
 30
0.0
 11
154.8479999999999
 21
118.7489999999999
 31
0.0
  0
LINE
  5
96
  8
0
 62
     7
 10
158.32900000000001
 20
118.77799999999991
 30
0.0
 11
154.34999999999991
 21
118.77799999999991
 31
0.0
  0
LINE
  5
97
  8
0
 62
     7
 10
158.2949999999999
 20
138.77799999999999
 30
0.0
 11
154.28200000000001
 21
138.77799999999999
 31
0.0
  0
LINE
  5
98
  8
0
 62
     7
 10
66.584500000000006
 20
162.52799999999999
 30
0.0
 11
55.552900000000001
 21
162.52799999999999
 31
0.0
  0
LINE
  5
99
  8
0
 62
     7
 10
56.531100000000002
 20
126.56699999999999
 30
0.0
 11
55.938899999999997
 21
128.77799999999991
 31
0.0
  0
LINE
  5
9A
  8
0
 62
     7
 10
55.938899999999997
 20
128.77799999999991
 30
0.0
 11
55.346499999999999
 21
126.56699999999999
 31
0.0
  0
LINE
  5
9B
  8
0
 62
     7
 10
55.346499999999999
 20
126.56699999999999
 30
0.0
 11
56.531100000000002
 21
126.56699999999999
 31
0.0
  0
LINE
  5
9C
  8
0
 62
     7
 10
56.531100000000002
 20
160.31700000000001
 30
0.0
 11
55.938899999999997
 21
162.52699999999999
 31
0.0
  0
LINE
  5
9D
  8
0
 62
     7
 10
55.938899999999997
 20
162.52699999999999
 30
0.0
 11
55.346499999999999
 21
160.31700000000001
 31
0.0
  0
LINE
  5
9E
  8
0
 62
     7
 10
55.346499999999999
 20
160.31700000000001
 30
0.0
 11
56.531100000000002
 21
160.31700000000001
 31
0.0
  0
LINE
  5
9F
  8
0
 62
     7
 10
55.3611
 20
130.98799999999989
 30
0.0
 11
55.953400000000002
 21
128.77799999999991
 31
0.0
  0
LINE
  5
A0
  8
0
 62
     7
 10
55.953400000000002
 20
128.77799999999991
 30
0.0
 11
56.545699999999989
 21
130.98799999999989
 31
0.0
  0
LINE
  5
A1
  8
0
 62
     7
 10
56.545699999999989
 20
130.98799999999989
 30
0.0
 11
55.3611
 21
130.98799999999989
 31
0.0
  0
LINE
  5
A2
  8
0
 62
     7
 10
55.3611
 20
108.2549999999999
 30
0.0
 11
55.953400000000002
 21
106.045
 31
0.0
  0
LINE
  5
A3
  8
0
 62
     7
 10
55.953400000000002
 20
106.045
 30
0.0
 11
56.545699999999989
 21
108.2549999999999
 31
0.0
  0
LINE
  5
A4
  8
0
 62
     7
 10
56.545699999999989
 20
108.2549999999999
 30
0.0
 11
55.3611
 21
108.2549999999999
 31
0.0
  0
LINE
  5
A5
  8
0
 62
     7
 10
55.946100000000001
 20
162.52699999999999
 30
0.0
 11
55.946100000000001
 21
106.045
 31
0.0
  0
LINE
  5
A6
  8
0
 62
     7
 10
62.093600000000002
 20
138.81700000000001
 30
0.0
 11
61.501399999999997
 21
141.02799999999999
 31
0.0
  0
LINE
  5
A7
  8
0
 62
     7
 10
61.501399999999997
 20
141.02799999999999
 30
0.0
 11
60.908999999999999
 21
138.81700000000001
 31
0.0
  0
LINE
  5
A8
  8
0
 62
     7
 10
60.908999999999999
 20
138.81700000000001
 30
0.0
 11
62.093600000000002
 21
138.81700000000001
 31
0.0
  0
LINE
  5
A9
  8
0
 62
     7
 10
60.9236
 20
146.989
 30
0.0
 11
61.515799999999999
 21
144.77799999999991
 31
0.0
  0
LINE
  5
AA
  8
0
 62
     7
 10
61.515799999999999
 20
144.77799999999991
 30
0.0
 11
62.108199999999997
 21
146.989
 31
0.0
  0
LINE
  5
AB
  8
0
 62
     7
 10
62.108199999999997
 20
146.989
 30
0.0
 11
60.9236
 21
146.989
 31
0.0
  0
LINE
  5
AC
  8
0
 62
     7
 10
60.9236
 20
130.995
 30
0.0
 11
61.515799999999999
 21
128.78399999999991
 31
0.0
  0
LINE
  5
AD
  8
0
 62
     7
 10
61.515799999999999
 20
128.78399999999991
 30
0.0
 11
62.108199999999997
 21
130.995
 31
0.0
  0
LINE
  5
AE
  8
0
 62
     7
 10
62.108199999999997
 20
130.995
 30
0.0
 11
60.9236
 21
130.995
 31
0.0
  0
LINE
  5
AF
  8
0
 62
     7
 10
61.508600000000001
 20
148.49000000000001
 30
0.0
 11
61.508600000000001
 21
128.78399999999991
 31
0.0
  0
LINE
  5
B0
  8
0
 62
     7
 10
65.889799999999994
 20
106.02799999999991
 30
0.0
 11
55.552900000000001
 21
106.02799999999991
 31
0.0
  0
LINE
  5
B1
  8
0
 62
     7
 10
65.889799999999994
 20
144.77799999999991
 30
0.0
 11
60.998899999999999
 21
144.77799999999991
 31
0.0
  0
LINE
  5
B2
  8
0
 62
     7
 10
67.077100000000002
 20
164.40299999999991
 30
0.0
 11
78.327200000000005
 21
164.40299999999991
 31
0.0
  0
LINE
  5
B3
  8
0
 62
     7
 10
67.077100000000002
 20
160.65299999999999
 30
0.0
 11
78.327200000000005
 21
160.65299999999999
 31
0.0
  0
LINE
  5
B4
  8
0
 62
     7
 10
67.077100000000002
 20
144.77799999999991
 30
0.0
 11
78.327200000000005
 21
144.77799999999991
 31
0.0
  0
LINE
  5
B5
  8
0
 62
     7
 10
65.889799999999994
 20
141.02799999999999
 30
0.0
 11
60.998899999999999
 21
141.02799999999999
 31
0.0
  0
LINE
  5
B6
  8
0
 62
     7
 10
69.5929
 20
90.164599999999993
 30
0.0
 11
69.000699999999995
 21
92.375299999999996
 31
0.0
  0
LINE
  5
B7
  8
0
 62
     7
 10
69.000699999999995
 20
92.375299999999996
 30
0.0
 11
68.408299999999997
 21
90.164599999999993
 31
0.0
  0
LINE
  5
B8
  8
0
 62
     7
 10
68.408299999999997
 20
90.164599999999993
 30
0.0
 11
69.5929
 21
90.164599999999993
 31
0.0
  0
LINE
  5
B9
  8
0
 62
     7
 10
69.000699999999995
 20
92.375299999999996
 30
0.0
 11
69.000699999999995
 21
87.980400000000003
 31
0.0
  0
LINE
  5
BA
  8
0
 62
     7
 10
172.703
 20
89.337400000000002
 30
0.0
 11
172.703
 21
123.751
 31
0.0
  0
LINE
  5
BB
  8
0
 62
     7
 10
74.969200000000001
 20
90.608699999999985
 30
0.0
 11
72.758799999999994
 21
90.016400000000004
 31
0.0
  0
LINE
  5
BC
  8
0
 62
     7
 10
72.758799999999994
 20
90.016400000000004
 30
0.0
 11
74.969200000000001
 21
89.424199999999999
 31
0.0
  0
LINE
  5
BD
  8
0
 62
     7
 10
74.969200000000001
 20
89.424199999999999
 30
0.0
 11
74.969200000000001
 21
90.608699999999985
 31
0.0
  0
LINE
  5
BE
  8
0
 62
     7
 10
170.47499999999991
 20
89.438699999999997
 30
0.0
 11
172.68599999999989
 21
90.030900000000003
 31
0.0
  0
LINE
  5
BF
  8
0
 62
     7
 10
172.68599999999989
 20
90.030900000000003
 30
0.0
 11
170.47499999999991
 21
90.623099999999994
 31
0.0
  0
LINE
  5
C0
  8
0
 62
     7
 10
170.47499999999991
 20
90.623099999999994
 30
0.0
 11
170.47499999999991
 21
89.438699999999997
 31
0.0
  0
LINE
  5
C1
  8
0
 62
     7
 10
72.758799999999994
 20
90.023700000000005
 30
0.0
 11
172.68599999999989
 21
90.023700000000005
 31
0.0
  0
LINE
  5
C2
  8
0
 62
     7
 10
72.701999999999984
 20
89.417299999999983
 30
0.0
 11
72.701999999999984
 21
95.730199999999996
 31
0.0
  0
LINE
  5
C3
  8
0
 62
     7
 10
78.327200000000005
 20
96.050600000000017
 30
0.0
 11
78.327200000000005
 21
105.52200000000001
 31
0.0
  0
LINE
  5
C4
  8
0
 62
     7
 10
67.077100000000002
 20
96.050600000000017
 30
0.0
 11
67.077100000000002
 21
105.52200000000001
 31
0.0
  0
LINE
  5
C5
  8
0
 62
     7
 10
69.287499999999994
 20
97.170900000000003
 30
0.0
 11
67.077100000000002
 21
96.578699999999998
 31
0.0
  0
LINE
  5
C6
  8
0
 62
     7
 10
67.077100000000002
 20
96.578699999999998
 30
0.0
 11
69.287499999999994
 21
95.986500000000007
 31
0.0
  0
LINE
  5
C7
  8
0
 62
     7
 10
69.287499999999994
 20
95.986500000000007
 30
0.0
 11
69.287499999999994
 21
97.170900000000003
 31
0.0
  0
LINE
  5
C8
  8
0
 62
     7
 10
76.116600000000005
 20
96.000900000000016
 30
0.0
 11
78.327200000000005
 21
96.59320000000001
 31
0.0
  0
LINE
  5
C9
  8
0
 62
     7
 10
78.327200000000005
 20
96.59320000000001
 30
0.0
 11
76.116600000000005
 21
97.185400000000001
 31
0.0
  0
LINE
  5
CA
  8
0
 62
     7
 10
76.116600000000005
 20
97.185400000000001
 30
0.0
 11
76.116600000000005
 21
96.000900000000016
 31
0.0
  0
LINE
  5
CB
  8
0
 62
     7
 10
67.077100000000002
 20
96.585899999999995
 30
0.0
 11
78.327200000000005
 21
96.585899999999995
 31
0.0
  0
LINE
  5
CC
  8
0
 62
     7
 10
179.602
 20
124.77799999999991
 30
0.0
 11
173.67099999999991
 21
124.77799999999991
 31
0.0
  0
LINE
  5
CD
  8
0
 62
     7
 10
179.602
 20
132.77799999999991
 30
0.0
 11
173.67099999999991
 21
132.77799999999991
 31
0.0
  0
LINE
  5
CE
  8
0
 62
     7
 10
179.52500000000001
 20
130.54799999999989
 30
0.0
 11
178.93299999999991
 21
132.7579999999999
 31
0.0
  0
LINE
  5
CF
  8
0
 62
     7
 10
178.93299999999991
 20
132.7579999999999
 30
0.0
 11
178.34099999999989
 21
130.54799999999989
 31
0.0
  0
LINE
  5
D0
  8
0
 62
     7
 10
178.34099999999989
 20
130.54799999999989
 30
0.0
 11
179.52500000000001
 21
130.54799999999989
 31
0.0
  0
LINE
  5
D1
  8
0
 62
     7
 10
178.3549999999999
 20
127.03100000000001
 30
0.0
 11
178.94799999999989
 21
124.821
 31
0.0
  0
LINE
  5
D2
  8
0
 62
     7
 10
178.94799999999989
 20
124.821
 30
0.0
 11
179.53999999999991
 21
127.03100000000001
 31
0.0
  0
LINE
  5
D3
  8
0
 62
     7
 10
179.53999999999991
 20
127.03100000000001
 30
0.0
 11
178.3549999999999
 21
127.03100000000001
 31
0.0
  0
LINE
  5
D4
  8
0
 62
     7
 10
178.94
 20
132.7579999999999
 30
0.0
 11
178.94
 21
124.821
 31
0.0
  0
LINE
  5
D5
  8
0
 62
     7
 10
156.74199999999999
 20
142.5439999999999
 30
0.0
 11
158.953
 21
143.13599999999991
 31
0.0
  0
LINE
  5
D6
  8
0
 62
     7
 10
158.953
 20
143.13599999999991
 30
0.0
 11
156.74199999999999
 21
143.7289999999999
 31
0.0
  0
LINE
  5
D7
  8
0
 62
     7
 10
156.74199999999999
 20
143.7289999999999
 30
0.0
 11
156.74199999999999
 21
142.5439999999999
 31
0.0
  0
LINE
  5
D8
  8
0
 62
     7
 10
164.9129999999999
 20
143.714
 30
0.0
 11
162.70299999999989
 21
143.12200000000001
 31
0.0
  0
LINE
  5
D9
  8
0
 62
     7
 10
162.70299999999989
 20
143.12200000000001
 30
0.0
 11
164.9129999999999
 21
142.52899999999991
 31
0.0
  0
LINE
  5
DA
  8
0
 62
     7
 10
164.9129999999999
 20
142.52899999999991
 30
0.0
 11
164.9129999999999
 21
143.714
 31
0.0
  0
LINE
  5
DB
  8
0
 62
     7
 10
166.52500000000001
 20
143.12899999999991
 30
0.0
 11
154.98199999999991
 21
143.12899999999991
 31
0.0
  0
LINE
  5
DC
  8
0
 62
     7
 10
162.70299999999989
 20
139.31100000000001
 30
0.0
 11
162.70299999999989
 21
143.68899999999999
 31
0.0
  0
LINE
  5
DD
  8
0
 62
     7
 10
158.953
 20
139.31100000000001
 30
0.0
 11
158.953
 21
143.68899999999999
 31
0.0
  0
LINE
  5
E3
  8
0
  6
AIGENLINE001
 62
     7
 10
65.735799999999983
 20
69.213800000000006
 30
0.0
 11
79.671099999999996
 21
69.213800000000006
 31
0.0
  0
LINE
  5
E4
  8
0
  6
AIGENLINE001
 62
     7
 10
72.701999999999984
 20
62.301499999999997
 30
0.0
 11
72.701999999999984
 21
76.0809
 31
0.0
  0
LINE
  5
E5
  8
0
  6
AIGENLINE001
 62
     7
 10
65.967399999999998
 20
128.77799999999991
 30
0.0
 11
173.80199999999999
 21
128.77799999999991
 31
0.0
  0
LINE
  5
E6
  8
0
 62
     7
 10
158.953
 20
118.77799999999991
 30
0.0
 11
162.70299999999989
 21
118.77799999999991
 31
0.0
  0
LINE
  5
E7
  8
0
 62
     7
 10
158.953
 20
138.77799999999999
 30
0.0
 11
162.70299999999989
 21
138.77799999999999
 31
0.0
  0
LINE
  5
E8
  8
0
 62
     7
 10
158.953
 20
138.77799999999999
 30
0.0
 11
158.953
 21
118.77799999999991
 31
0.0
  0
LINE
  5
E9
  8
0
 62
     7
 10
162.70299999999989
 20
138.77799999999999
 30
0.0
 11
162.70299999999989
 21
118.77799999999991
 31
0.0
  0
LINE
  5
EA
  8
0
 62
     7
 10
172.703
 20
132.77799999999991
 30
0.0
 11
172.703
 21
124.77799999999991
 31
0.0
  0
LINE
  5
EB
  8
0
 62
     7
 10
87.702399999999983
 20
123.77799999999991
 30
0.0
 11
78.327200000000005
 21
123.77799999999991
 31
0.0
  0
LINE
  5
EC
  8
0
 62
     7
 10
87.702399999999983
 20
133.77799999999991
 30
0.0
 11
78.327200000000005
 21
133.77799999999991
 31
0.0
  0
LINE
  5
ED
  8
0
 62
     7
 10
158.953
 20
124.77799999999991
 30
0.0
 11
87.702399999999983
 21
124.77799999999991
 31
0.0
  0
LINE
  5
EE
  8
0
 62
     7
 10
172.703
 20
124.77799999999991
 30
0.0
 11
162.70299999999989
 21
124.77799999999991
 31
0.0
  0
LINE
  5
EF
  8
0
 62
     7
 10
158.953
 20
132.77799999999991
 30
0.0
 11
87.702399999999983
 21
132.77799999999991
 31
0.0
  0
LINE
  5
F0
  8
0
 62
     7
 10
172.703
 20
132.77799999999991
 30
0.0
 11
162.70299999999989
 21
132.77799999999991
 31
0.0
  0
LINE
  5
F1
  8
0
 62
     7
 10
67.077100000000002
 20
144.77799999999991
 30
0.0
 11
67.077100000000002
 21
106.02799999999991
 31
0.0
  0
LINE
  5
F2
  8
0
 62
     7
 10
78.327200000000005
 20
123.7559999999999
 30
0.0
 11
78.327200000000005
 21
106.02799999999991
 31
0.0
  0
LINE
  5
F3
  8
0
 62
     7
 10
78.327200000000005
 20
144.77799999999991
 30
0.0
 11
78.327200000000005
 21
133.77799999999991
 31
0.0
  0
LINE
  5
F4
  8
0
 62
     7
 10
67.077100000000002
 20
106.02799999999991
 30
0.0
 11
78.327200000000005
 21
106.02799999999991
 31
0.0
  0
LINE
  5
F5
  8
0
 62
     7
 10
67.077100000000002
 20
141.02799999999999
 30
0.0
 11
78.327200000000005
 21
141.02799999999999
 31
0.0
  0
LINE
  5
F6
  8
0
 62
     7
 10
87.702399999999983
 20
123.77799999999991
 30
0.0
 11
87.702399999999983
 21
133.77799999999991
 31
0.0
  0
LINE
  5
F7
  8
0
 62
     7
 10
87.701999999999998
 20
134.47799999999989
 30
0.0
 11
87.701999999999998
 21
149.739
 31
0.0
  0
LINE
  5
F8
  8
0
  6
AIGENLINE001
 62
     7
 10
72.701999999999984
 20
103.31
 30
0.0
 11
72.701999999999984
 21
166.584
 31
0.0
  0
LINE
  5
F9
  8
0
 62
     7
 10
68.701999999999998
 20
160.65299999999999
 30
0.0
 11
68.701999999999998
 21
144.77799999999991
 31
0.0
  0
LINE
  5
FA
  8
0
 62
     7
 10
76.702100000000002
 20
144.77799999999991
 30
0.0
 11
76.702100000000002
 21
160.65299999999999
 31
0.0
  0
LINE
  5
FB
  8
_________2
 62
     7
 10
205.30099999999999
 20
127.41200000000001
 30
0.0
 11
183.55099999999999
 21
127.41200000000001
 31
0.0
  0
LINE
  5
FC
  8
_________2
 62
     7
 10
100.2999999999999
 20
-4.0907299999999998
 30
0.0
 11
100.2999999999999
 21
-21.070999999999991
 31
0.0
  0
LINE
  5
FD
  8
_________2
 62
     7
 10
100.2999999999999
 20
275.93099999999993
 30
0.0
 11
100.2999999999999
 21
258.911
 31
0.0
  0
LINE
  5
FE
  8
_________2
 62
     7
 10
17.049900000000001
 20
127.41200000000001
 30
0.0
 11
-4.7001699999999991
 21
127.41200000000001
 31
0.0
  0
LINE
  5
FF
  8
_________2
 62
     7
 10
76.741699999999994
 20
29.805099999999999
 30
0.0
 11
74.555099999999996
 21
29.805099999999999
 31
0.0
  0
LINE
  5
100
  8
_________2
 62
     7
 10
77.234399999999994
 20
29.805099999999999
 30
0.0
 11
76.982200000000006
 21
29.805099999999999
 31
0.0
  0
LINE
  5
101
  8
_________2
 62
     7
 10
77.727000000000004
 20
29.805099999999999
 30
0.0
 11
80.651899999999983
 21
29.805099999999999
 31
0.0
  0
LINE
  5
102
  8
_________2
 62
     7
 10
77.234399999999994
 20
29.805099999999999
 30
0.0
 11
77.485900000000001
 21
29.805099999999999
 31
0.0
  0
LINE
  5
103
  8
_________2
 62
     7
 10
70.837599999999995
 20
29.805099999999999
 30
0.0
 11
68.650899999999993
 21
29.805099999999999
 31
0.0
  0
LINE
  5
104
  8
_________2
 62
     7
 10
71.330100000000002
 20
29.805099999999999
 30
0.0
 11
71.078100000000006
 21
29.805099999999999
 31
0.0
  0
LINE
  5
105
  8
_________2
 62
     7
 10
71.330100000000002
 20
30.297699999999999
 30
0.0
 11
71.330100000000002
 21
32.484699999999989
 31
0.0
  0
LINE
  5
106
  8
_________2
 62
     7
 10
71.330100000000002
 20
29.805099999999999
 30
0.0
 11
71.330100000000002
 21
30.057300000000001
 31
0.0
  0
LINE
  5
107
  8
_________2
 62
     7
 10
71.822800000000001
 20
29.805099999999999
 30
0.0
 11
74.009399999999999
 21
29.805099999999999
 31
0.0
  0
LINE
  5
108
  8
_________2
 62
     7
 10
71.330100000000002
 20
29.805099999999999
 30
0.0
 11
71.582300000000004
 21
29.805099999999999
 31
0.0
  0
LINE
  5
109
  8
_________2
 62
     7
 10
71.330100000000002
 20
29.313099999999991
 30
0.0
 11
71.330100000000002
 21
27.126200000000001
 31
0.0
  0
LINE
  5
10A
  8
_________2
 62
     7
 10
71.330100000000002
 20
29.805099999999999
 30
0.0
 11
71.330100000000002
 21
29.553599999999999
 31
0.0
  0
LINE
  5
10B
  8
_________2
 62
     7
 10
75.041200000000003
 20
28.5855
 30
0.0
 11
80.219199999999987
 21
27.720800000000001
 31
0.0
  0
LINE
  5
10C
  8
_________2
 62
     7
 10
75.041200000000003
 20
31.024699999999999
 30
0.0
 11
80.219199999999987
 21
31.8901
 31
0.0
  0
LINE
  5
10D
  8
_________2
 62
     7
 10
80.219199999999987
 20
27.720800000000001
 30
0.0
 11
80.219199999999987
 21
31.8901
 31
0.0
  0
LINE
  5
10E
  8
_________2
 62
     7
 10
75.041200000000003
 20
28.5855
 30
0.0
 11
75.041200000000003
 21
31.024699999999999
 31
0.0
  0
ARC
  5
10F
  8
_________2
 62
     7
 10
71.283212000000006
 20
29.758179999999999
 30
0.0
 40
1.267347
 50
2.1211329999999999
 51
87.878856999999996
  0
ARC
  5
110
  8
_________2
 62
     7
 10
71.376639999999995
 20
29.758388
 30
0.0
 40
1.2671250000000001
 50
92.103989999999996
 51
177.88788799999989
  0
ARC
  5
111
  8
_________2
 62
     7
 10
71.37688
 20
29.852027
 30
0.0
 40
1.267374
 50
182.12257700000001
 51
267.88554499999998
  0
ARC
  5
112
  8
_________2
 62
     7
 10
71.28320699999999
 20
29.85199999999999
 30
0.0
 40
1.267353
 50
272.12136299999992
 51
357.878647
  0
ARC
  5
113
  8
_________2
 62
     7
 10
71.329947000000004
 20
29.805259
 30
0.0
 40
2.084813
 50
359.99527599999988
 51
89.995245999999995
  0
ARC
  5
114
  8
_________2
 62
     7
 10
71.330206000000004
 20
29.805172999999989
 30
0.0
 40
2.0848990000000001
 50
90.002367000000007
 51
180.00237699999991
  0
ARC
  5
115
  8
_________2
 62
     7
 10
71.409627999999998
 20
29.885133
 30
0.0
 40
2.1658009999999992
 50
182.11808199999999
 51
267.89615199999997
  0
ARC
  5
116
  8
_________2
 62
     7
 10
71.250139000000004
 20
29.885425999999999
 30
0.0
 40
2.166110999999999
 50
272.11604699999998
 51
357.87449299999997
  0
TEXT
  5
117
  8
_________2
 62
     7
 10
104.605
 20
1.67984
 30
0.0
 40
3.0923400000000001
  1
図番
 41
0.5
  0
LINE
  5
118
  8
_________2
 62
     7
 10
103.55
 20
5.9090699999999989
 30
0.0
 11
183.55099999999999
 21
5.9090699999999989
 31
0.0
  0
TEXT
  5
119
  8
_________2
 62
     7
 10
104.605
 20
11.679600000000001
 30
0.0
 40
3.0923400000000001
  1
品番
 41
0.5
  0
TEXT
  5
11A
  8
_________2
 62
     7
 10
104.605
 20
31.8184
 30
0.0
 40
3.0923400000000001
  1
名称
 41
0.5
  0
TEXT
  5
11B
  8
_________2
 62
     7
 10
91.845258333333334
 20
26.822299999999998
 30
0.0
 40
3.6545800000000002
  1
mm
 41
0.5
 72
     1
 11
93.367999999999995
 21
26.822299999999998
 31
0.0
  0
TEXT
  5
11C
  8
_________2
 62
     7
 10
85.643900000000016
 20
31.8184
 30
0.0
 40
3.0923400000000001
  1
単位
 41
0.5
  0
TEXT
  5
11D
  8
_________2
 62
     7
 10
85.643900000000016
 20
19.411200000000001
 30
0.0
 40
3.0923400000000001
  1
尺度
 41
0.5
  0
TEXT
  5
11E
  8
_________2
 62
     7
 10
90.548958666666664
 20
13.218199999999991
 30
0.0
 40
3.6545800000000002
  1
1 ： 4
 41
0.5
 72
     1
 11
93.959900000000005
 21
13.218199999999991
 31
0.0
  0
TEXT
  5
11F
  8
_________2
 62
     7
 10
136.99049999999991
 20
9.1082000000000001
 30
0.0
 40
3.9357000000000002
  1
HT32.16R
 41
0.5
 72
     1
 11
143.55000000000001
 21
9.1082000000000001
 31
0.0
  0
TEXT
  5
120
  8
_________2
 62
     7
 10
137.41847499999989
 20
-0.892285
 30
0.0
 40
3.9357000000000002
  1
HT3216R
 41
0.5
 72
     1
 11
143.65000000000001
 21
-0.892285
 31
0.0
  0
TEXT
  5
121
  8
_________2
 62
     7
 10
109.179
 20
24.2254
 30
0.0
 40
3.9357000000000002
  1
ボトルトラップ
 41
0.5
  0
TEXT
  5
122
  8
_________2
 62
     7
 10
39.303781000000001
 20
13.603400000000001
 30
0.0
 40
3.6545800000000002
  1
田尻
 41
0.5
 72
     1
 11
41.313800000000001
 21
13.603400000000001
 31
0.0
  0
TEXT
  5
123
  8
_________2
 62
     7
 10
20.79059066666666
 20
13.603400000000001
 30
0.0
 40
3.6545800000000002
  1
石原
 41
0.5
 72
     1
 11
22.739699999999988
 21
13.603400000000001
 31
0.0
  0
TEXT
  5
124
  8
_________2
 62
     7
 10
67.786000000000001
 20
13.218199999999991
 30
0.0
 40
3.6545800000000002
  1
10.04.08
 41
0.5
  0
TEXT
  5
125
  8
_________2
 62
     7
 10
66.593400000000003
 20
19.411200000000001
 30
0.0
 40
3.0923400000000001
  1
日付
 41
0.5
  0
TEXT
  5
126
  8
_________2
 62
     7
 10
29.639700000000001
 20
19.411200000000001
 30
0.0
 40
3.0923400000000001
  1
検図
 41
0.5
  0
TEXT
  5
127
  8
_________2
 62
     7
 10
18.021799999999988
 20
5.2117699999999987
 30
0.0
 40
3.0923400000000001
  1
備考
 41
0.5
  0
TEXT
  5
128
  8
_________2
 62
     7
 10
18.021799999999988
 20
19.411200000000001
 30
0.0
 40
3.0923400000000001
  1
製図
 41
0.5
  0
TEXT
  5
129
  8
_________2
 62
     7
 10
23.788965333333341
 20
27.937100000000001
 30
0.0
 40
4.4979399999999989
  1
セラトレーディング株式会社
 41
0.5
 72
     1
 11
41.180999999999997
 21
27.937100000000001
 31
0.0
  0
LINE
  5
12A
  8
_________2
 62
     7
 10
183.55099999999999
 20
-4.0907299999999998
 30
0.0
 11
17.049900000000001
 21
-4.0907299999999998
 31
0.0
  0
LINE
  5
12B
  8
_________2
 62
     7
 10
17.049900000000001
 20
-4.0907299999999998
 30
0.0
 11
17.049900000000001
 21
258.911
 31
0.0
  0
LINE
  5
12C
  8
_________2
 62
     7
 10
17.049900000000001
 20
258.911
 30
0.0
 11
183.55099999999999
 21
258.911
 31
0.0
  0
LINE
  5
12D
  8
_________2
 62
     7
 10
183.55099999999999
 20
258.911
 30
0.0
 11
183.55099999999999
 21
-4.0907299999999998
 31
0.0
  0
LINE
  5
12E
  8
_________2
 62
     7
 10
65.5501
 20
9.4092999999999982
 30
0.0
 11
65.5501
 21
35.909100000000002
 31
0.0
  0
LINE
  5
12F
  8
_________2
 62
     7
 10
84.550399999999996
 20
9.4092999999999982
 30
0.0
 11
84.550399999999996
 21
35.909100000000002
 31
0.0
  0
LINE
  5
130
  8
_________2
 62
     7
 10
103.55
 20
-4.0907299999999998
 30
0.0
 11
103.55
 21
35.909100000000002
 31
0.0
  0
LINE
  5
131
  8
_________2
 62
     7
 10
28.550000000000001
 20
9.4092999999999982
 30
0.0
 11
28.550000000000001
 21
23.409600000000001
 31
0.0
  0
LINE
  5
132
  8
_________2
 62
     7
 10
17.049900000000001
 20
9.4092999999999982
 30
0.0
 11
103.55
 21
9.4092999999999982
 31
0.0
  0
LINE
  5
133
  8
_________2
 62
     7
 10
17.049900000000001
 20
23.409600000000001
 30
0.0
 11
103.55
 21
23.409600000000001
 31
0.0
  0
LINE
  5
134
  8
_________2
 62
     7
 10
103.55
 20
15.90889999999999
 30
0.0
 11
183.55099999999999
 21
15.90889999999999
 31
0.0
  0
LINE
  5
135
  8
_________2
 62
     7
 10
17.049900000000001
 20
35.909100000000002
 30
0.0
 11
183.55099999999999
 21
35.909100000000002
 31
0.0
  0
LINE
  5
168
  8
0
 62
     7
 10
72.379657467555475
 20
72.917187638604688
 30
0.0
 11
72.379657467555475
 21
65.417187638604688
 31
0.0
  0
LINE
  5
169
  8
0
 62
     7
 10
73.004957467555485
 20
72.917187638604688
 30
0.0
 11
73.004957467555485
 21
65.417187638604688
 31
0.0
  0
LINE
  5
16A
  8
0
 62
     7
 10
73.004957467555485
 20
68.136087638604693
 30
0.0
 11
73.90235746755549
 21
66.031087638604674
 31
0.0
  0
LINE
  5
16B
  8
0
 62
     7
 10
72.379657467555475
 20
65.417187638604688
 30
0.0
 11
73.004957467555485
 21
65.417187638604688
 31
0.0
  0
LINE
  5
16C
  8
0
 62
     7
 10
72.379657467555475
 20
72.917187638604688
 30
0.0
 11
73.004957467555485
 21
72.917187638604688
 31
0.0
  0
LINE
  5
16D
  8
0
 62
     7
 10
74.834657467555473
 20
66.762187638604701
 30
0.0
 11
73.004957467555485
 21
68.136087638604693
 31
0.0
  0
LINE
  5
16E
  8
0
 62
     7
 10
79.54235746755549
 20
59.795487638604698
 30
0.0
 11
73.004957467555485
 21
68.136087638604693
 31
0.0
  0
LINE
  5
16F
  8
0
 62
     7
 10
73.90235746755549
 20
66.031087638604674
 30
0.0
 11
74.834657467555473
 21
66.762187638604701
 31
0.0
  0
LINE
  5
170
  8
0
 62
     7
 10
79.575157467555485
 20
59.770687638604691
 30
0.0
 11
90.682256119757767
 21
59.770687638604691
 31
0.0
  0
TEXT
  5
171
  8
0
 62
     7
 10
82.170987467555491
 20
60.785587638604703
 30
0.0
 40
3.0923400000000001
  1
スリ割り
 41
0.5
 72
     2
 11
88.871057467555488
 21
60.785587638604703
 31
0.0
  0
ENDSEC
  0
EOF
