  0
SECTION
  2
HEADER
  9
$ACADVER
  1
AC1015
  9
$ACADMAINTVER
 70
         6
  9
$DWGCODEPAGE
  3
ANSI_932
  9
$INSBASE
 10
0.0
 20
0.0
 30
0.0
  9
$EXTMIN
 10
0.0
 20
0.0
 30
0.0
  9
$EXTMAX
 10
420.0
 20
297.0
 30
0.0
  9
$LIMMIN
 10
0.0
 20
0.0
  9
$LIMMAX
 10
420.0
 20
297.0
  9
$ORTHOMODE
 70
         0
  9
$REGENMODE
 70
         1
  9
$FILLMODE
 70
         1
  9
$QTEXTMODE
 70
         0
  9
$MIRRTEXT
 70
         1
  9
$LTSCALE
 40
25.4
  9
$ATTMODE
 70
         1
  9
$TEXTSIZE
 40
0.2
  9
$TRACEWID
 40
0.05
  9
$TEXTSTYLE
  7
Standard
  9
$CLAYER
  8
0
  9
$CELTYPE
  6
CONTINUOUS
  9
$CECOLOR
 62
       256
  9
$CELTSCALE
 40
1.0
  9
$DISPSILH
 70
         0
  9
$DIMSCALE
 40
1.0
  9
$DIMASZ
 40
0.18
  9
$DIMEXO
 40
0.0625
  9
$DIMDLI
 40
0.38
  9
$DIMRND
 40
0.0
  9
$DIMDLE
 40
0.0
  9
$DIMEXE
 40
0.18
  9
$DIMTP
 40
0.0
  9
$DIMTM
 40
0.0
  9
$DIMTXT
 40
0.18
  9
$DIMCEN
 40
0.09
  9
$DIMTSZ
 40
0.0
  9
$DIMTOL
 70
         0
  9
$DIMLIM
 70
         0
  9
$DIMTIH
 70
         1
  9
$DIMTOH
 70
         1
  9
$DIMSE1
 70
         0
  9
$DIMSE2
 70
         0
  9
$DIMTAD
 70
         0
  9
$DIMZIN
 70
         0
  9
$DIMBLK
  1

  9
$DIMASO
 70
         1
  9
$DIMSHO
 70
         1
  9
$DIMPOST
  1

  9
$DIMAPOST
  1

  9
$DIMALT
 70
         0
  9
$DIMALTD
 70
         2
  9
$DIMALTF
 40
25.4
  9
$DIMLFAC
 40
1.0
  9
$DIMTOFL
 70
         0
  9
$DIMTVP
 40
0.0
  9
$DIMTIX
 70
         0
  9
$DIMSOXD
 70
         0
  9
$DIMSAH
 70
         0
  9
$DIMBLK1
  1

  9
$DIMBLK2
  1

  9
$DIMSTYLE
  2
Standard
  9
$DIMCLRD
 70
         0
  9
$DIMCLRE
 70
         0
  9
$DIMCLRT
 70
         0
  9
$DIMTFAC
 40
1.0
  9
$DIMGAP
 40
0.09
  9
$DIMJUST
 70
         0
  9
$DIMSD1
 70
         0
  9
$DIMSD2
 70
         0
  9
$DIMTOLJ
 70
         1
  9
$DIMTZIN
 70
         0
  9
$DIMALTZ
 70
         0
  9
$DIMALTTZ
 70
         0
  9
$DIMUPT
 70
         0
  9
$DIMDEC
 70
         4
  9
$DIMTDEC
 70
         4
  9
$DIMALTU
 70
         2
  9
$DIMALTTD
 70
         2
  9
$DIMTXSTY
  7
Standard
  9
$DIMAUNIT
 70
         0
  9
$DIMADEC
 70
         0
  9
$DIMALTRND
 40
0.0
  9
$DIMAZIN
 70
         0
  9
$DIMDSEP
 70
         0
  9
$DIMATFIT
 70
         3
  9
$DIMFRAC
 70
         0
  9
$DIMLDRBLK
  1

  9
$DIMLUNIT
 70
         2
  9
$DIMLWD
 70
         0
  9
$DIMLWE
 70
         0
  9
$DIMTMOVE
 70
         0
  9
$LUNITS
 70
         2
  9
$LUPREC
 70
         4
  9
$SKETCHINC
 40
0.1
  9
$FILLETRAD
 40
0.0
  9
$AUNITS
 70
         0
  9
$AUPREC
 70
         0
  9
$MENU
  1
acad
  9
$ELEVATION
 40
0.0
  9
$PELEVATION
 40
0.0
  9
$THICKNESS
 40
0.0
  9
$LIMCHECK
 70
         0
  9
$CHAMFERA
 40
0.0
  9
$CHAMFERB
 40
0.0
  9
$CHAMFERC
 40
0.0
  9
$CHAMFERD
 40
0.0
  9
$SKPOLY
 70
         0
  9
$TDCREATE
 40
0.000000000
  9
$TDUCREATE
 40
0.000000000
  9
$TDUPDATE
 40
0.000000000
  9
$TDUUPDATE
 40
0.000000000
  9
$TDINDWG
 40
0.0000000000
  9
$TDUSRTIMER
 40
0.0000000000
  9
$USRTIMER
 70
         1
  9
$ANGBASE
 50
0.0
  9
$ANGDIR
 70
         0
  9
$PDMODE
 70
         0
  9
$PDSIZE
 40
0.0
  9
$PLINEWID
 40
0.0
  9
$SPLFRAME
 70
         0
  9
$SPLINETYPE
 70
         6
  9
$SPLINESEGS
 70
         8
  9
$HANDSEED
  5
368
  9
$SURFTAB1
 70
         6
  9
$SURFTAB2
 70
         6
  9
$SURFTYPE
 70
         6
  9
$SURFU
 70
         6
  9
$SURFV
 70
         6
  9
$UCSBASE
  2

  9
$UCSNAME
  2

  9
$UCSORG
 10
0.0
 20
0.0
 30
0.0
  9
$UCSXDIR
 10
1.0
 20
0.0
 30
0.0
  9
$UCSYDIR
 10
0.0
 20
1.0
 30
0.0
  9
$UCSORTHOREF
  2

  9
$UCSORTHOVIEW
 70
         0
  9
$UCSORGTOP
 10
0.0
 20
0.0
 30
0.0
  9
$UCSORGBOTTOM
 10
0.0
 20
0.0
 30
0.0
  9
$UCSORGLEFT
 10
0.0
 20
0.0
 30
0.0
  9
$UCSORGRIGHT
 10
0.0
 20
0.0
 30
0.0
  9
$UCSORGFRONT
 10
0.0
 20
0.0
 30
0.0
  9
$UCSORGBACK
 10
0.0
 20
0.0
 30
0.0
  9
$PUCSBASE
  2

  9
$PUCSNAME
  2

  9
$PUCSORG
 10
0.0
 20
0.0
 30
0.0
  9
$PUCSXDIR
 10
1.0
 20
0.0
 30
0.0
  9
$PUCSYDIR
 10
0.0
 20
1.0
 30
0.0
  9
$PUCSORTHOREF
  2

  9
$PUCSORTHOVIEW
 70
         0
  9
$PUCSORGTOP
 10
0.0
 20
0.0
 30
0.0
  9
$PUCSORGBOTTOM
 10
0.0
 20
0.0
 30
0.0
  9
$PUCSORGLEFT
 10
0.0
 20
0.0
 30
0.0
  9
$PUCSORGRIGHT
 10
0.0
 20
0.0
 30
0.0
  9
$PUCSORGFRONT
 10
0.0
 20
0.0
 30
0.0
  9
$PUCSORGBACK
 10
0.0
 20
0.0
 30
0.0
  9
$USERI1
 70
         0
  9
$USERI2
 70
         0
  9
$USERI3
 70
         0
  9
$USERI4
 70
         0
  9
$USERI5
 70
         0
  9
$USERR1
 40
0.0
  9
$USERR2
 40
0.0
  9
$USERR3
 40
0.0
  9
$USERR4
 40
0.0
  9
$USERR5
 40
0.0
  9
$WORLDVIEW
 70
         1
  9
$SHADEDGE
 70
         3
  9
$SHADEDIF
 70
        70
  9
$TILEMODE
 70
         1
  9
$MAXACTVP
 70
        16
  9
$PINSBASE
 10
0.0
 20
0.0
 30
0.0
  9
$PLIMCHECK
 70
         0
  9
$PEXTMIN
 10
1.0000000000E+20
 20
1.0000000000E+20
 30
1.0000000000E+20
  9
$PEXTMAX
 10
-1.0000000000E+20
 20
-1.0000000000E+20
 30
-1.0000000000E+20
  9
$PLIMMIN
 10
0.0
 20
0.0
  9
$PLIMMAX
 10
12.0
 20
9.0
  9
$UNITMODE
 70
         0
  9
$VISRETAIN
 70
         0
  9
$PLINEGEN
 70
         1
  9
$PSLTSCALE
 70
         0
  9
$TREEDEPTH
 70
      3020
  9
$CMLSTYLE
  2
Standard
  9
$CMLJUST
 70
         0
  9
$CMLSCALE
 40
1.0
  9
$PROXYGRAPHICS
 70
         0
  9
$MEASUREMENT
 70
         0
  9
$CELWEIGHT
370
         0
  9
$ENDCAPS
280
         0
  9
$JOINSTYLE
280
         0
  9
$LWDISPLAY
290
         0
  9
$INSUNITS
 70
         0
  9
$HYPERLINKBASE
  1

  9
$STYLESHEET
  1

  9
$XEDIT
290
         1
  9
$CEPSNTYPE
380
         0
  9
$PSTYLEMODE
290
         1
  9
$FINGERPRINTGUID
  2

  9
$VERSIONGUID
  2

  9
$EXTNAMES
290
         1
  9
$PSVPSCALE
 40
0.0
  0
ENDSEC
  0
SECTION
  2
CLASSES
  0
CLASS
  1
LWPOLYLINE
  2
AcDbPolyline
  3
AutoCAD 2000
 90
        0
280
         0
281
         1
  0
CLASS
  1
IMAGE
  2
AcDbRasterImage
  3
ISM
 90
      127
280
         0
281
         1
  0
CLASS
  1
OLE2FRAME
  2
AcDbOle2Frame
  3
AutoCAD 2000
 90
        0
280
         0
281
         1
  0
CLASS
  1
HATCH
  2
AcDbHatch
  3
AutoCAD 2000
 90
        0
280
         0
281
         1
  0
CLASS
  1
DICTIONARYVAR
  2
AcDbDictionaryVar
  3
AutoCAD 2000
 90
        0
280
         0
281
         0
  0
CLASS
  1
RASTERVARIABLES
  2
AcDbRasterVariables
  3
ISM
 90
        0
280
         0
281
         0
  0
CLASS
  1
IMAGEDEF
  2
AcDbRasterImageDef
  3
ISM
 90
        0
280
         0
281
         0
  0
CLASS
  1
IMAGEDEF_REACTOR
  2
AcDbRasterImageDefReactor
  3
ISM
 90
        1
280
         0
281
         0
  0
CLASS
  1
IDBUFFER
  2
AcDbIdBuffer
  3
AutoCAD 2000
 90
        0
280
         0
281
         0
  0
CLASS
  1
SPATIAL_FILTER
  2
AcDbSpatialFilter
  3
AutoCAD 2000
 90
        0
280
         0
281
         0
  0
CLASS
  1
XRECORD
  2
AcDbXrecord
  3
AutoCAD 2000
 90
        0
280
         0
281
         0
  0
CLASS
  1
SORTENTSTABLE
  2
AcDbSortentsTable
  3
AutoCAD 2000
 90
        0
280
         0
281
         0
  0
CLASS
  1
LAYER_INDEX
  2
AcDbLayerIndex
  3
AutoCAD 2000
 90
        0
280
         0
281
         0
  0
CLASS
  1
SPATIAL_INDEX
  2
AcDbSpatialIndex
  3
AutoCAD 2000
 90
        0
280
         0
281
         0
  0
CLASS
  1
OBJECT_PTR
  2
CAseDLPNTableRecord
  3
"ASE-LPNTableRecord"
 90
        1
280
         0
281
         0
  0
CLASS
  1
LAYOUT
  2
AcDbLayout
  3
AutoCAD 2000
 90
        0
280
         0
281
         0
  0
CLASS
  1
PLOTSETTINGS
  2
AcDbPlotSettings
  3
AutoCAD 2000
 90
        0
280
         0
281
         0
  0
CLASS
  1
ACDBDICTIONARYWDFLT
  2
AcDbDictionaryWithDefault
  3
AutoCAD 2000
 90
        0
280
         0
281
         0
  0
CLASS
  1
ACDBPLACEHOLDER
  2
AcDbPlaceHolder
  3
AutoCAD 2000
 90
        0
280
         0
281
         0
  0
CLASS
  1
VBA_PROJECT
  2
AcDbVbaProject
  3
acadvba
 90
        0
280
         0
281
         0
  0
CLASS
  1
WIPEOUT
  2
AcDbWipeout
  3
WipeOut|AutoCAD Express Tool|expresstools@autodesk.com
 90
      127
280
         0
281
         1
  0
CLASS
  1
WIPEOUTVARIABLES
  2
AcDbWipeoutVariables
  3
WipeOut|AutoCAD Express Tool|expresstools@autodesk.com
 90
        0
280
         0
281
         0
  0
CLASS
  1
RTEXT
  2
RText
  3
RText|AutoCAD Express Tool|expresstools@autodesk.com
 90
        0
280
         0
281
         1
  0
CLASS
  1
ARCALIGNEDTEXT
  2
AcDbArcAlignedText
  3
ATEXT|AutoCAD Express Tool|expresstools@autodesk.com
 90
        0
280
         0
281
         1
  0
ENDSEC
  0
SECTION
  2
TABLES
  0
TABLE
  2
VPORT
  5
7
100
AcDbSymbolTable
 70
         1
  0
VPORT
  5
15
100
AcDbSymbolTableRecord
100
AcDbViewportTableRecord
  2
*ACTIVE
 70
         0
 10
0.0
 20
0.0
 11
1.0
 21
1.0
 12
210.0
 22
148.5
 13
0.0
 23
0.0
 14
1.0
 24
1.0
 15
0.0
 25
0.0
 16
0.0
 26
0.0
 36
1.0
 17
0.0
 27
0.0
 37
0.0
 40
297.0
 41
1.604229
 42
50.0
 43
0.0
 44
0.0
 50
0.0
 51
0.0
 71
         0
 72
       100
 73
         1
 74
         1
 75
         0
 76
         0
 77
         0
 78
         0
281
         0
 65
         0
110
0.0
120
0.0
130
0.0
111
1.0
121
0.0
131
0.0
112
0.0
122
1.0
132
0.0
345
0
346
0
 79
         0
146
0.0
  0
ENDTAB
  0
TABLE
  2
LTYPE
  5
4
100
AcDbSymbolTable
 70
         7
  0
LTYPE
  5
11
100
AcDbSymbolTableRecord
100
AcDbLinetypeTableRecord
  2
ByBlock
 70
        64
  3

 72
        65
 73
         0
 40
0.0
  0
LTYPE
  5
12
100
AcDbSymbolTableRecord
100
AcDbLinetypeTableRecord
  2
ByLayer
 70
        64
  3

 72
        65
 73
         0
 40
0.0
  0
LTYPE
  5
13
100
AcDbSymbolTableRecord
100
AcDbLinetypeTableRecord
  2
CONTINUOUS
 70
         0
  3
Solid line
 72
        65
 73
         0
 40
0.0
  0
LTYPE
  5
28
100
AcDbSymbolTableRecord
100
AcDbLinetypeTableRecord
  2
HIDDEN2
 70
        64
  3
_ _ _ _ _ _ _ _ _ _ _ _ _ _ _ _ _ _ _ _ _ _ _ _
 72
        65
 73
         2
 40
0.1875
 49
0.125
 74
         0
 49
-0.0625
 74
         0
  0
LTYPE
  5
29
100
AcDbSymbolTableRecord
100
AcDbLinetypeTableRecord
  2
CENTER2
 70
        64
  3
___ _ ___ _ ___ _ ___ _ ___ _ ___ _ ___ _ ___ _
 72
        65
 73
         4
 40
1.125
 49
0.75
 74
         0
 49
-0.125
 74
         0
 49
0.125
 74
         0
 49
-0.125
 74
         0
  0
LTYPE
  5
2A
100
AcDbSymbolTableRecord
100
AcDbLinetypeTableRecord
  2
PHANTOM2
 70
        64
  3
___ _ _ ___ _ _ ___ _ _ ___ _ _ ___ _ _ ___ _ _
 72
        65
 73
         6
 40
1.25
 49
0.625
 74
         0
 49
-0.125
 74
         0
 49
0.125
 74
         0
 49
-0.125
 74
         0
 49
0.125
 74
         0
 49
-0.125
 74
         0
  0
LTYPE
  5
2B
100
AcDbSymbolTableRecord
100
AcDbLinetypeTableRecord
  2
DOT2
 70
        64
  3
...............................................
 72
        65
 73
         2
 40
0.125
 49
0.0
 74
         0
 49
-0.125
 74
         0
  0
ENDTAB
  0
TABLE
  2
LAYER
  5
2
100
AcDbSymbolTable
 70
         3
  0
LAYER
  5
14
100
AcDbSymbolTableRecord
100
AcDbLayerTableRecord
  2
0
 70
         0
 62
         7
  6
CONTINUOUS
290
         1
370
        -3
390
0
  0
LAYER
  5
2D
100
AcDbSymbolTableRecord
100
AcDbLayerTableRecord
  2
_TRANSLATION
 70
         0
 62
        -1
  6
CONTINUOUS
290
         1
370
        -3
390
0
  0
LAYER
  5
2F
100
AcDbSymbolTableRecord
100
AcDbLayerTableRecord
  2
DEFAULT
 70
         0
 62
         7
  6
CONTINUOUS
290
         1
370
        -3
390
0
  0
ENDTAB
  0
TABLE
  2
STYLE
  5
3
100
AcDbSymbolTable
 70
         2
  0
STYLE
  5
17
100
AcDbSymbolTableRecord
100
AcDbTextStyleTableRecord
  2
Standard
 70
         0
 40
0.0
 41
1.0
 50
0.0
 71
         0
 42
0.2
  3
txt
  4

  0
STYLE
  5
2D9
100
AcDbSymbolTableRecord
100
AcDbTextStyleTableRecord
  2
arial_ttf
 70
         0
 40
0.0
 41
1.0
 50
0.0
 71
         0
 42
0.2
  3
arial.ttf
  4

1001
ACAD
1000
ＭＳ ゴシック
1071
    32770
  0
ENDTAB
  0
TABLE
  2
VIEW
  5
5
100
AcDbSymbolTable
 70
         0
  0
ENDTAB
  0
TABLE
  2
UCS
  5
6
100
AcDbSymbolTable
 70
         0
  0
ENDTAB
  0
TABLE
  2
APPID
  5
8
100
AcDbSymbolTable
 70
         1
  0
APPID
  5
16
100
AcDbSymbolTableRecord
100
AcDbRegAppTableRecord
  2
ACAD
 70
         0
  0
ENDTAB
  0
TABLE
  2
DIMSTYLE
  5
9
100
AcDbSymbolTable
 70
         1
100
AcDbDimStyleTable
 71
         0
  0
DIMSTYLE
105
18
100
AcDbSymbolTableRecord
100
AcDbDimStyleTableRecord
  2
Standard
 70
         0
  3

  4

 40
1.0
 41
0.18
 42
0.0625
 43
0.38
 44
0.18
 45
0.0
 46
0.0
 47
0.0
 48
0.0
 71
         0
 72
         0
 73
         1
 74
         1
 75
         0
 76
         0
 77
         0
 78
         0
 79
         0
140
0.18
141
0.09
142
0.0
143
25.4
144
1.0
145
0.0
146
1.0
147
0.09
148
0.0
170
         0
171
         2
172
         0
173
         0
174
         0
175
         0
176
         0
177
         0
178
         0
179
         0
271
         4
272
         4
273
         2
274
         2
275
         0
276
         0
277
         2
278
        46
279
         0
280
         0
281
         0
282
         0
283
         1
284
         0
285
         0
286
         0
288
         0
289
         0
340
17
341
0
342
0
343
0
344
0
371
        -2
372
        -2
  0
ENDTAB
  0
TABLE
  2
BLOCK_RECORD
  5
1
100
AcDbSymbolTable
 70
         0
  0
BLOCK_RECORD
  5
A
100
AcDbSymbolTableRecord
100
AcDbBlockTableRecord
  2
*MODEL_SPACE
340
20
  0
BLOCK_RECORD
  5
B
100
AcDbSymbolTableRecord
100
AcDbBlockTableRecord
  2
*PAPER_SPACE
340
21
  0
ENDTAB
  0
ENDSEC
  0
SECTION
  2
BLOCKS
  0
BLOCK
  5
D
100
AcDbEntity
  8
0
390
0
100
AcDbBlockBegin
  2
*MODEL_SPACE
 70
         0
 10
0.0
 20
0.0
 30
0.0
  3
*MODEL_SPACE
  1

  0
ENDBLK
  5
E
100
AcDbEntity
  8
0
390
0
100
AcDbBlockEnd
  0
BLOCK
  5
F
100
AcDbEntity
 67
         1
  8
0
390
0
100
AcDbBlockBegin
  2
*PAPER_SPACE
 70
         0
 10
0.0
 20
0.0
 30
0.0
  3
*PAPER_SPACE
  1

  0
ENDBLK
  5
10
100
AcDbEntity
 67
         1
  8
0
390
0
100
AcDbBlockEnd
  0
ENDSEC
  0
SECTION
  2
ENTITIES
  0
LINE
  5
31
100
AcDbEntity
  8
0
370
         0
390
0
  6
CONTINUOUS
 62
         7
100
AcDbLine
 10
190.0
 20
208.0
 30
0.0
 11
190.0
 21
170.0
 31
0.0
  0
LINE
  5
32
100
AcDbEntity
  8
0
370
         0
390
0
  6
CONTINUOUS
 62
         7
100
AcDbLine
 10
190.0
 20
208.0
 30
0.0
 11
190.77646
 21
205.102223
 31
0.0
  0
LINE
  5
33
100
AcDbEntity
  8
0
370
         0
390
0
  6
CONTINUOUS
 62
         7
100
AcDbLine
 10
190.0
 20
208.0
 30
0.0
 11
189.223547
 21
205.102221
 31
0.0
  0
LINE
  5
34
100
AcDbEntity
  8
0
370
         0
390
0
  6
CONTINUOUS
 62
         7
100
AcDbLine
 10
190.0
 20
170.0
 30
0.0
 11
189.22354
 21
172.897777
 31
0.0
  0
LINE
  5
35
100
AcDbEntity
  8
0
370
         0
390
0
  6
CONTINUOUS
 62
         7
100
AcDbLine
 10
190.0
 20
170.0
 30
0.0
 11
190.776453
 21
172.897779
 31
0.0
  0
LINE
  5
36
100
AcDbEntity
  8
0
370
         0
390
0
  6
CONTINUOUS
 62
         7
100
AcDbLine
 10
133.0
 20
208.0
 30
0.0
 11
192.285995
 21
208.0
 31
0.0
  0
LINE
  5
37
100
AcDbEntity
  8
0
370
         0
390
0
  6
CONTINUOUS
 62
         7
100
AcDbLine
 10
133.0
 20
170.0
 30
0.0
 11
192.285995
 21
170.0
 31
0.0
  0
LINE
  5
38
100
AcDbEntity
  8
0
370
         0
390
0
  6
CONTINUOUS
 62
         7
100
AcDbLine
 10
376.0
 20
220.0
 30
0.0
 11
383.0
 21
220.0
 31
0.0
  0
LINE
  5
39
100
AcDbEntity
  8
0
370
         0
390
0
  6
CONTINUOUS
 62
         7
100
AcDbLine
 10
376.0
 20
220.0
 30
0.0
 11
378.897778
 21
220.776456
 31
0.0
  0
LINE
  5
3A
100
AcDbEntity
  8
0
370
         0
390
0
  6
CONTINUOUS
 62
         7
100
AcDbLine
 10
376.0
 20
220.0
 30
0.0
 11
378.897778
 21
219.223544
 31
0.0
  0
LINE
  5
3B
100
AcDbEntity
  8
0
370
         0
390
0
  6
CONTINUOUS
 62
         7
100
AcDbLine
 10
383.0
 20
220.0
 30
0.0
 11
380.102222
 21
219.223544
 31
0.0
  0
LINE
  5
3C
100
AcDbEntity
  8
0
370
         0
390
0
  6
CONTINUOUS
 62
         7
100
AcDbLine
 10
383.0
 20
220.0
 30
0.0
 11
380.102222
 21
220.776456
 31
0.0
  0
LINE
  5
3D
100
AcDbEntity
  8
0
370
         0
390
0
  6
CONTINUOUS
 62
         7
100
AcDbLine
 10
376.0
 20
235.5
 30
0.0
 11
376.0
 21
217.714005
 31
0.0
  0
LINE
  5
3E
100
AcDbEntity
  8
0
370
         0
390
0
  6
CONTINUOUS
 62
         7
100
AcDbLine
 10
383.0
 20
229.5
 30
0.0
 11
383.0
 21
217.714005
 31
0.0
  0
LINE
  5
3F
100
AcDbEntity
  8
0
370
         0
390
0
  6
CONTINUOUS
 62
         7
100
AcDbLine
 10
210.0
 20
254.0
 30
0.0
 11
210.0
 21
238.0
 31
0.0
  0
LINE
  5
40
100
AcDbEntity
  8
0
370
         0
390
0
  6
CONTINUOUS
 62
         7
100
AcDbLine
 10
210.0
 20
254.0
 30
0.0
 11
210.77646
 21
251.102223
 31
0.0
  0
LINE
  5
41
100
AcDbEntity
  8
0
370
         0
390
0
  6
CONTINUOUS
 62
         7
100
AcDbLine
 10
210.0
 20
254.0
 30
0.0
 11
209.223547
 21
251.102221
 31
0.0
  0
LINE
  5
42
100
AcDbEntity
  8
0
370
         0
390
0
  6
CONTINUOUS
 62
         7
100
AcDbLine
 10
210.0
 20
238.0
 30
0.0
 11
209.22354
 21
240.897777
 31
0.0
  0
LINE
  5
43
100
AcDbEntity
  8
0
370
         0
390
0
  6
CONTINUOUS
 62
         7
100
AcDbLine
 10
210.0
 20
238.0
 30
0.0
 11
210.776453
 21
240.897779
 31
0.0
  0
LINE
  5
44
100
AcDbEntity
  8
0
370
         0
390
0
  6
CONTINUOUS
 62
         7
100
AcDbLine
 10
376.0
 20
254.0
 30
0.0
 11
123.5
 21
254.0
 31
0.0
  0
LINE
  5
45
100
AcDbEntity
  8
0
370
         0
390
0
  6
CONTINUOUS
 62
         7
100
AcDbLine
 10
376.0
 20
238.0
 30
0.0
 11
123.5
 21
238.0
 31
0.0
  0
LINE
  5
46
100
AcDbEntity
  8
0
370
         0
390
0
  6
CONTINUOUS
 62
         7
100
AcDbLine
 10
395.0
 20
229.5
 30
0.0
 11
395.0
 21
262.5
 31
0.0
  0
LINE
  5
47
100
AcDbEntity
  8
0
370
         0
390
0
  6
CONTINUOUS
 62
         7
100
AcDbLine
 10
395.0
 20
229.5
 30
0.0
 11
394.223547
 21
232.397779
 31
0.0
  0
LINE
  5
48
100
AcDbEntity
  8
0
370
         0
390
0
  6
CONTINUOUS
 62
         7
100
AcDbLine
 10
395.0
 20
229.5
 30
0.0
 11
395.77646
 21
232.397777
 31
0.0
  0
LINE
  5
49
100
AcDbEntity
  8
0
370
         0
390
0
  6
CONTINUOUS
 62
         7
100
AcDbLine
 10
395.0
 20
262.5
 30
0.0
 11
395.776453
 21
259.602221
 31
0.0
  0
LINE
  5
4A
100
AcDbEntity
  8
0
370
         0
390
0
  6
CONTINUOUS
 62
         7
100
AcDbLine
 10
395.0
 20
262.5
 30
0.0
 11
394.22354
 21
259.602223
 31
0.0
  0
LINE
  5
4B
100
AcDbEntity
  8
0
370
         0
390
0
  6
CONTINUOUS
 62
         7
100
AcDbLine
 10
383.0
 20
229.5
 30
0.0
 11
397.286003
 21
229.5
 31
0.0
  0
LINE
  5
4C
100
AcDbEntity
  8
0
370
         0
390
0
  6
CONTINUOUS
 62
         7
100
AcDbLine
 10
383.0
 20
262.5
 30
0.0
 11
397.286003
 21
262.5
 31
0.0
  0
LINE
  5
4D
100
AcDbEntity
  8
0
370
         0
390
0
  6
CONTINUOUS
 62
         7
100
AcDbLine
 10
86.5
 20
130.0
 30
0.0
 11
152.0
 21
130.0
 31
0.0
  0
LINE
  5
4E
100
AcDbEntity
  8
0
370
         0
390
0
  6
CONTINUOUS
 62
         7
100
AcDbLine
 10
86.5
 20
130.0
 30
0.0
 11
89.397778
 21
130.776456
 31
0.0
  0
LINE
  5
4F
100
AcDbEntity
  8
0
370
         0
390
0
  6
CONTINUOUS
 62
         7
100
AcDbLine
 10
86.5
 20
130.0
 30
0.0
 11
89.397778
 21
129.223544
 31
0.0
  0
LINE
  5
50
100
AcDbEntity
  8
0
370
         0
390
0
  6
CONTINUOUS
 62
         7
100
AcDbLine
 10
152.0
 20
130.0
 30
0.0
 11
149.102222
 21
129.223544
 31
0.0
  0
LINE
  5
51
100
AcDbEntity
  8
0
370
         0
390
0
  6
CONTINUOUS
 62
         7
100
AcDbLine
 10
152.0
 20
130.0
 30
0.0
 11
149.102222
 21
130.776456
 31
0.0
  0
LINE
  5
52
100
AcDbEntity
  8
0
370
         0
390
0
  6
CONTINUOUS
 62
         7
100
AcDbLine
 10
86.5
 20
159.875
 30
0.0
 11
86.5
 21
127.713997
 31
0.0
  0
LINE
  5
53
100
AcDbEntity
  8
0
370
         0
390
0
  6
CONTINUOUS
 62
         7
100
AcDbLine
 10
152.0
 20
189.0
 30
0.0
 11
152.0
 21
127.713997
 31
0.0
  0
LINE
  5
54
100
AcDbEntity
  8
0
370
         0
390
0
  6
CONTINUOUS
 62
         7
100
AcDbLine
 10
104.5
 20
270.0
 30
0.0
 11
152.0
 21
270.0
 31
0.0
  0
LINE
  5
55
100
AcDbEntity
  8
0
370
         0
390
0
  6
CONTINUOUS
 62
         7
100
AcDbLine
 10
104.5
 20
270.0
 30
0.0
 11
107.397778
 21
270.776456
 31
0.0
  0
LINE
  5
56
100
AcDbEntity
  8
0
370
         0
390
0
  6
CONTINUOUS
 62
         7
100
AcDbLine
 10
104.5
 20
270.0
 30
0.0
 11
107.397778
 21
269.223544
 31
0.0
  0
LINE
  5
57
100
AcDbEntity
  8
0
370
         0
390
0
  6
CONTINUOUS
 62
         7
100
AcDbLine
 10
152.0
 20
270.0
 30
0.0
 11
149.102222
 21
269.223544
 31
0.0
  0
LINE
  5
58
100
AcDbEntity
  8
0
370
         0
390
0
  6
CONTINUOUS
 62
         7
100
AcDbLine
 10
152.0
 20
270.0
 30
0.0
 11
149.102222
 21
270.776456
 31
0.0
  0
LINE
  5
59
100
AcDbEntity
  8
0
370
         0
390
0
  6
CONTINUOUS
 62
         7
100
AcDbLine
 10
104.5
 20
227.0
 30
0.0
 11
104.5
 21
272.286011
 31
0.0
  0
LINE
  5
5A
100
AcDbEntity
  8
0
370
         0
390
0
  6
CONTINUOUS
 62
         7
100
AcDbLine
 10
152.0
 20
189.0
 30
0.0
 11
152.0
 21
272.286011
 31
0.0
  0
LINE
  5
5B
100
AcDbEntity
  8
0
370
         0
390
0
  6
CONTINUOUS
 62
         7
100
AcDbLine
 10
113.0
 20
140.0
 30
0.0
 11
86.5
 21
140.0
 31
0.0
  0
LINE
  5
5C
100
AcDbEntity
  8
0
370
         0
390
0
  6
CONTINUOUS
 62
         7
100
AcDbLine
 10
113.0
 20
140.0
 30
0.0
 11
110.102222
 21
139.223544
 31
0.0
  0
LINE
  5
5D
100
AcDbEntity
  8
0
370
         0
390
0
  6
CONTINUOUS
 62
         7
100
AcDbLine
 10
113.0
 20
140.0
 30
0.0
 11
110.102222
 21
140.776456
 31
0.0
  0
LINE
  5
5E
100
AcDbEntity
  8
0
370
         0
390
0
  6
CONTINUOUS
 62
         7
100
AcDbLine
 10
86.5
 20
140.0
 30
0.0
 11
89.397778
 21
140.776456
 31
0.0
  0
LINE
  5
5F
100
AcDbEntity
  8
0
370
         0
390
0
  6
CONTINUOUS
 62
         7
100
AcDbLine
 10
86.5
 20
140.0
 30
0.0
 11
89.397778
 21
139.223544
 31
0.0
  0
LINE
  5
60
100
AcDbEntity
  8
0
370
         0
390
0
  6
CONTINUOUS
 62
         7
100
AcDbLine
 10
113.0
 20
161.5
 30
0.0
 11
113.0
 21
137.714005
 31
0.0
  0
LINE
  5
61
100
AcDbEntity
  8
0
370
         0
390
0
  6
CONTINUOUS
 62
         7
100
AcDbLine
 10
86.5
 20
159.875
 30
0.0
 11
86.5
 21
137.714005
 31
0.0
  0
LINE
  5
62
100
AcDbEntity
  8
0
370
         0
390
0
  6
CONTINUOUS
 62
         7
100
AcDbLine
 10
200.0
 20
170.0
 30
0.0
 11
200.0
 21
246.0
 31
0.0
  0
LINE
  5
63
100
AcDbEntity
  8
0
370
         0
390
0
  6
CONTINUOUS
 62
         7
100
AcDbLine
 10
200.0
 20
170.0
 30
0.0
 11
199.223547
 21
172.897779
 31
0.0
  0
LINE
  5
64
100
AcDbEntity
  8
0
370
         0
390
0
  6
CONTINUOUS
 62
         7
100
AcDbLine
 10
200.0
 20
170.0
 30
0.0
 11
200.77646
 21
172.897777
 31
0.0
  0
LINE
  5
65
100
AcDbEntity
  8
0
370
         0
390
0
  6
CONTINUOUS
 62
         7
100
AcDbLine
 10
200.0
 20
246.0
 30
0.0
 11
200.776453
 21
243.102221
 31
0.0
  0
LINE
  5
66
100
AcDbEntity
  8
0
370
         0
390
0
  6
CONTINUOUS
 62
         7
100
AcDbLine
 10
200.0
 20
246.0
 30
0.0
 11
199.22354
 21
243.102223
 31
0.0
  0
LINE
  5
67
100
AcDbEntity
  8
0
370
         0
390
0
  6
CONTINUOUS
 62
         7
100
AcDbLine
 10
133.0
 20
170.0
 30
0.0
 11
202.285995
 21
170.0
 31
0.0
  0
LINE
  5
68
100
AcDbEntity
  8
0
370
         0
390
0
  6
CONTINUOUS
 62
         7
100
AcDbLine
 10
58.5
 20
120.0
 30
0.0
 11
406.0
 21
120.0
 31
0.0
  0
LINE
  5
69
100
AcDbEntity
  8
0
370
         0
390
0
  6
CONTINUOUS
 62
         7
100
AcDbLine
 10
58.5
 20
120.0
 30
0.0
 11
61.397778
 21
120.776456
 31
0.0
  0
LINE
  5
6A
100
AcDbEntity
  8
0
370
         0
390
0
  6
CONTINUOUS
 62
         7
100
AcDbLine
 10
58.5
 20
120.0
 30
0.0
 11
61.397778
 21
119.223544
 31
0.0
  0
LINE
  5
6B
100
AcDbEntity
  8
0
370
         0
390
0
  6
CONTINUOUS
 62
         7
100
AcDbLine
 10
406.0
 20
120.0
 30
0.0
 11
403.102222
 21
119.223544
 31
0.0
  0
LINE
  5
6C
100
AcDbEntity
  8
0
370
         0
390
0
  6
CONTINUOUS
 62
         7
100
AcDbLine
 10
406.0
 20
120.0
 30
0.0
 11
403.102222
 21
120.776456
 31
0.0
  0
LINE
  5
6D
100
AcDbEntity
  8
0
370
         0
390
0
  6
CONTINUOUS
 62
         7
100
AcDbLine
 10
58.5
 20
158.875
 30
0.0
 11
58.5
 21
117.713997
 31
0.0
  0
LINE
  5
6E
100
AcDbEntity
  8
0
370
         0
390
0
  6
CONTINUOUS
 62
         7
100
AcDbLine
 10
406.0
 20
238.0
 30
0.0
 11
406.0
 21
117.713997
 31
0.0
  0
LINE
  5
6F
100
AcDbEntity
  8
0
370
         0
390
0
  6
CONTINUOUS
 62
         7
100
AcDbLine
 10
410.0
 20
29.75
 30
0.0
 11
410.0
 21
10.0
 31
0.0
  0
LINE
  5
70
100
AcDbEntity
  8
0
370
         0
390
0
  6
CONTINUOUS
 62
         7
100
AcDbLine
 10
10.0
 20
10.0
 30
0.0
 11
25.5
 21
10.0
 31
0.0
  0
LINE
  5
71
100
AcDbEntity
  8
0
370
         0
390
0
  6
CONTINUOUS
 62
         7
100
AcDbLine
 10
10.0
 20
286.0
 30
0.0
 11
10.0
 21
30.25
 31
0.0
  0
LINE
  5
72
100
AcDbEntity
  8
0
370
         0
390
0
  6
CONTINUOUS
 62
         7
100
AcDbLine
 10
236.25
 20
25.75
 30
0.0
 11
238.25
 21
25.75
 31
0.0
  0
LINE
  5
73
100
AcDbEntity
  8
0
370
         0
390
0
  6
CONTINUOUS
 62
         7
100
AcDbLine
 10
236.25
 20
21.75
 30
0.0
 11
237.25
 21
21.75
 31
0.0
  0
LINE
  5
74
100
AcDbEntity
  8
0
370
         0
390
0
  6
CONTINUOUS
 62
         7
100
AcDbLine
 10
235.25
 20
25.3501
 30
0.0
 11
235.25
 21
24.79
 31
0.0
  0
LINE
  5
75
100
AcDbEntity
  8
0
370
         0
390
0
  6
CONTINUOUS
 62
         7
100
AcDbLine
 10
236.25
 20
25.75
 30
0.0
 11
236.25
 21
21.75
 31
0.0
  0
LINE
  5
76
100
AcDbEntity
  8
0
370
         0
390
0
  6
CONTINUOUS
 62
         7
100
AcDbLine
 10
247.25
 20
25.75
 30
0.0
 11
247.25
 21
21.75
 31
0.0
  0
LINE
  5
77
100
AcDbEntity
  8
0
370
         0
390
0
  6
CONTINUOUS
 62
         7
100
AcDbLine
 10
251.25
 20
25.75
 30
0.0
 11
251.25
 21
21.75
 31
0.0
  0
LINE
  5
78
100
AcDbEntity
  8
0
370
         0
390
0
  6
CONTINUOUS
 62
         7
100
AcDbLine
 10
252.25
 20
25.75
 30
0.0
 11
252.25
 21
21.75
 31
0.0
  0
LINE
  5
79
100
AcDbEntity
  8
0
370
         0
390
0
  6
CONTINUOUS
 62
         7
100
AcDbLine
 10
234.25
 20
23.75
 30
0.0
 11
235.25
 21
23.75
 31
0.0
  0
LINE
  5
7A
100
AcDbEntity
  8
0
370
         0
390
0
  6
CONTINUOUS
 62
         7
100
AcDbLine
 10
237.25
 20
25.05
 30
0.0
 11
238.25
 21
25.05
 31
0.0
  0
LINE
  5
7B
100
AcDbEntity
  8
0
370
         0
390
0
  6
CONTINUOUS
 62
         7
100
AcDbLine
 10
248.25
 20
25.75
 30
0.0
 11
248.25
 21
24.1
 31
0.0
  0
LINE
  5
7C
100
AcDbEntity
  8
0
370
         0
390
0
  6
CONTINUOUS
 62
         7
100
AcDbLine
 10
250.25
 20
25.75
 30
0.0
 11
250.25
 21
24.1
 31
0.0
  0
LINE
  5
7D
100
AcDbEntity
  8
0
370
         0
390
0
  6
CONTINUOUS
 62
         7
100
AcDbLine
 10
248.25
 20
24.1
 30
0.0
 11
250.25
 21
24.1
 31
0.0
  0
LINE
  5
7E
100
AcDbEntity
  8
0
370
         0
390
0
  6
CONTINUOUS
 62
         7
100
AcDbLine
 10
248.25
 20
23.4
 30
0.0
 11
250.25
 21
23.4
 31
0.0
  0
LINE
  5
7F
100
AcDbEntity
  8
0
370
         0
390
0
  6
CONTINUOUS
 62
         7
100
AcDbLine
 10
250.25
 20
21.75
 30
0.0
 11
251.25
 21
21.75
 31
0.0
  0
LINE
  5
80
100
AcDbEntity
  8
0
370
         0
390
0
  6
CONTINUOUS
 62
         7
100
AcDbLine
 10
247.25
 20
21.75
 30
0.0
 11
248.25
 21
21.75
 31
0.0
  0
LINE
  5
81
100
AcDbEntity
  8
0
370
         0
390
0
  6
CONTINUOUS
 62
         7
100
AcDbLine
 10
247.25
 20
25.75
 30
0.0
 11
248.25
 21
25.75
 31
0.0
  0
LINE
  5
82
100
AcDbEntity
  8
0
370
         0
390
0
  6
CONTINUOUS
 62
         7
100
AcDbLine
 10
250.25
 20
25.75
 30
0.0
 11
251.25
 21
25.75
 31
0.0
  0
LINE
  5
83
100
AcDbEntity
  8
0
370
         0
390
0
  6
CONTINUOUS
 62
         7
100
AcDbLine
 10
252.25
 20
25.75
 30
0.0
 11
255.4
 21
25.75
 31
0.0
  0
LINE
  5
84
100
AcDbEntity
  8
0
370
         0
390
0
  6
CONTINUOUS
 62
         7
100
AcDbLine
 10
248.25
 20
23.4
 30
0.0
 11
248.25
 21
21.75
 31
0.0
  0
LINE
  5
85
100
AcDbEntity
  8
0
370
         0
390
0
  6
CONTINUOUS
 62
         7
100
AcDbLine
 10
250.25
 20
23.4
 30
0.0
 11
250.25
 21
21.75
 31
0.0
  0
LINE
  5
86
100
AcDbEntity
  8
0
370
         0
390
0
  6
CONTINUOUS
 62
         7
100
AcDbLine
 10
252.25
 20
21.75
 30
0.0
 11
255.75
 21
21.75
 31
0.0
  0
LINE
  5
87
100
AcDbEntity
  8
0
370
         0
390
0
  6
CONTINUOUS
 62
         7
100
AcDbLine
 10
253.25
 20
24.1
 30
0.0
 11
255.05
 21
24.1
 31
0.0
  0
LINE
  5
88
100
AcDbEntity
  8
0
370
         0
390
0
  6
CONTINUOUS
 62
         7
100
AcDbLine
 10
253.25
 20
23.4
 30
0.0
 11
255.05
 21
23.4
 31
0.0
  0
LINE
  5
89
100
AcDbEntity
  8
0
370
         0
390
0
  6
CONTINUOUS
 62
         7
100
AcDbLine
 10
253.25
 20
25.05
 30
0.0
 11
255.4
 21
25.05
 31
0.0
  0
LINE
  5
8A
100
AcDbEntity
  8
0
370
         0
390
0
  6
CONTINUOUS
 62
         7
100
AcDbLine
 10
253.25
 20
22.45
 30
0.0
 11
255.75
 21
22.45
 31
0.0
  0
LINE
  5
8B
100
AcDbEntity
  8
0
370
         0
390
0
  6
CONTINUOUS
 62
         7
100
AcDbLine
 10
253.25
 20
25.05
 30
0.0
 11
253.25
 21
24.1
 31
0.0
  0
LINE
  5
8C
100
AcDbEntity
  8
0
370
         0
390
0
  6
CONTINUOUS
 62
         7
100
AcDbLine
 10
253.25
 20
23.4
 30
0.0
 11
253.25
 21
22.45
 31
0.0
  0
LINE
  5
8D
100
AcDbEntity
  8
0
370
         0
390
0
  6
CONTINUOUS
 62
         7
100
AcDbLine
 10
255.05
 20
24.1
 30
0.0
 11
255.05
 21
23.4
 31
0.0
  0
LINE
  5
8E
100
AcDbEntity
  8
0
370
         0
390
0
  6
CONTINUOUS
 62
         7
100
AcDbLine
 10
237.25
 20
23.75
 30
0.0
 11
238.25
 21
23.75
 31
0.0
  0
LINE
  5
8F
100
AcDbEntity
  8
0
370
         0
390
0
  6
CONTINUOUS
 62
         7
100
AcDbLine
 10
237.25
 20
25.05
 30
0.0
 11
237.25
 21
21.75
 31
0.0
  0
LINE
  5
90
100
AcDbEntity
  8
0
370
         0
390
0
  6
CONTINUOUS
 62
         7
100
AcDbLine
 10
234.25
 20
23.75
 30
0.0
 11
234.25
 21
22.5244
 31
0.0
  0
LINE
  5
91
100
AcDbEntity
  8
0
370
         0
390
0
  6
CONTINUOUS
 62
         7
100
AcDbLine
 10
235.25
 20
23.75
 30
0.0
 11
235.25
 21
22.15
 31
0.0
  0
LINE
  5
92
100
AcDbEntity
  8
0
370
         0
390
0
  6
CONTINUOUS
 62
         7
100
AcDbLine
 10
237.25
 20
23.75
 30
0.0
 11
238.941
 21
21.75
 31
0.0
  0
LINE
  5
93
100
AcDbEntity
  8
0
370
         0
390
0
  6
CONTINUOUS
 62
         7
100
AcDbLine
 10
239.055
 20
23.1641
 30
0.0
 11
240.25
 21
21.75
 31
0.0
  0
LINE
  5
94
100
AcDbEntity
  8
0
370
         0
390
0
  6
CONTINUOUS
 62
         7
100
AcDbLine
 10
238.941
 20
21.75
 30
0.0
 11
240.25
 21
21.75
 31
0.0
  0
LINE
  5
95
100
AcDbEntity
  8
0
370
         0
390
0
  6
CONTINUOUS
 62
         7
100
AcDbLine
 10
410.0
 20
286.0
 30
0.0
 11
410.0
 21
30.25
 31
0.0
  0
LINE
  5
96
100
AcDbEntity
  8
0
370
         0
390
0
  6
CONTINUOUS
 62
         7
100
AcDbLine
 10
10.0
 20
286.0
 30
0.0
 11
410.0
 21
286.0
 31
0.0
  0
LINE
  5
97
100
AcDbEntity
  8
0
370
         0
390
0
  6
CONTINUOUS
 62
         7
100
AcDbLine
 10
10.0
 20
15.0
 30
0.0
 11
25.5
 21
15.0
 31
0.0
  0
LINE
  5
98
100
AcDbEntity
  8
0
370
         0
390
0
  6
CONTINUOUS
 62
         7
100
AcDbLine
 10
10.0
 20
20.0
 30
0.0
 11
25.5
 21
20.0
 31
0.0
  0
LINE
  5
99
100
AcDbEntity
  8
0
370
         0
390
0
  6
CONTINUOUS
 62
         7
100
AcDbLine
 10
10.0
 20
25.0
 30
0.0
 11
25.5
 21
25.0
 31
0.0
  0
LINE
  5
9A
100
AcDbEntity
  8
0
370
         0
390
0
  6
CONTINUOUS
 62
         7
100
AcDbLine
 10
25.5
 20
29.75
 30
0.0
 11
25.5
 21
10.0
 31
0.0
  0
LINE
  5
9B
100
AcDbEntity
  8
0
370
         0
390
0
  6
CONTINUOUS
 62
         7
100
AcDbLine
 10
26.0
 20
29.75
 30
0.0
 11
26.0
 21
10.0
 31
0.0
  0
LINE
  5
9C
100
AcDbEntity
  8
0
370
         0
390
0
  6
CONTINUOUS
 62
         7
100
AcDbLine
 10
175.5
 20
29.75
 30
0.0
 11
175.5
 21
10.0
 31
0.0
  0
LINE
  5
9D
100
AcDbEntity
  8
0
370
         0
390
0
  6
CONTINUOUS
 62
         7
100
AcDbLine
 10
176.0
 20
29.75
 30
0.0
 11
176.0
 21
10.0
 31
0.0
  0
LINE
  5
9E
100
AcDbEntity
  8
0
370
         0
390
0
  6
CONTINUOUS
 62
         7
100
AcDbLine
 10
26.0
 20
29.75
 30
0.0
 11
136.0
 21
29.75
 31
0.0
  0
LINE
  5
9F
100
AcDbEntity
  8
0
370
         0
390
0
  6
CONTINUOUS
 62
         7
100
AcDbLine
 10
266.25
 20
29.75
 30
0.0
 11
281.75
 21
29.75
 31
0.0
  0
LINE
  5
A0
100
AcDbEntity
  8
0
370
         0
390
0
  6
CONTINUOUS
 62
         7
100
AcDbLine
 10
266.25
 20
29.75
 30
0.0
 11
266.25
 21
10.0
 31
0.0
  0
LINE
  5
A1
100
AcDbEntity
  8
0
370
         0
390
0
  6
CONTINUOUS
 62
         7
100
AcDbLine
 10
282.25
 20
29.75
 30
0.0
 11
355.75
 21
29.75
 31
0.0
  0
LINE
  5
A2
100
AcDbEntity
  8
0
370
         0
390
0
  6
CONTINUOUS
 62
         7
100
AcDbLine
 10
281.75
 20
29.75
 30
0.0
 11
281.75
 21
10.0
 31
0.0
  0
LINE
  5
A3
100
AcDbEntity
  8
0
370
         0
390
0
  6
CONTINUOUS
 62
         7
100
AcDbLine
 10
282.25
 20
29.75
 30
0.0
 11
282.25
 21
10.0
 31
0.0
  0
LINE
  5
A4
100
AcDbEntity
  8
0
370
         0
390
0
  6
CONTINUOUS
 62
         7
100
AcDbLine
 10
355.75
 20
29.75
 30
0.0
 11
355.75
 21
10.0
 31
0.0
  0
LINE
  5
A5
100
AcDbEntity
  8
0
370
         0
390
0
  6
CONTINUOUS
 62
         7
100
AcDbLine
 10
356.25
 20
29.75
 30
0.0
 11
356.25
 21
10.0
 31
0.0
  0
LINE
  5
A6
100
AcDbEntity
  8
0
370
         0
390
0
  6
CONTINUOUS
 62
         7
100
AcDbLine
 10
356.25
 20
29.75
 30
0.0
 11
410.0
 21
29.75
 31
0.0
  0
LINE
  5
A7
100
AcDbEntity
  8
0
370
         0
390
0
  6
CONTINUOUS
 62
         7
100
AcDbLine
 10
9.5
 20
9.5
 30
0.0
 11
410.5
 21
9.5
 31
0.0
  0
LINE
  5
A8
100
AcDbEntity
  8
0
370
         0
390
0
  6
CONTINUOUS
 62
         7
100
AcDbLine
 10
410.5
 20
286.5
 30
0.0
 11
410.5
 21
9.5
 31
0.0
  0
LINE
  5
A9
100
AcDbEntity
  8
0
370
         0
390
0
  6
CONTINUOUS
 62
         7
100
AcDbLine
 10
9.5
 20
286.5
 30
0.0
 11
9.5
 21
9.5
 31
0.0
  0
LINE
  5
AA
100
AcDbEntity
  8
0
370
         0
390
0
  6
CONTINUOUS
 62
         7
100
AcDbLine
 10
9.5
 20
286.5
 30
0.0
 11
410.5
 21
286.5
 31
0.0
  0
LINE
  5
AB
100
AcDbEntity
  8
0
370
         0
390
0
  6
CONTINUOUS
 62
         7
100
AcDbLine
 10
282.25
 20
10.0
 30
0.0
 11
355.75
 21
10.0
 31
0.0
  0
LINE
  5
AC
100
AcDbEntity
  8
0
370
         0
390
0
  6
CONTINUOUS
 62
         7
100
AcDbLine
 10
266.25
 20
10.0
 30
0.0
 11
281.75
 21
10.0
 31
0.0
  0
LINE
  5
AD
100
AcDbEntity
  8
0
370
         0
390
0
  6
CONTINUOUS
 62
         7
100
AcDbLine
 10
356.25
 20
10.0
 30
0.0
 11
410.0
 21
10.0
 31
0.0
  0
LINE
  5
AE
100
AcDbEntity
  8
0
370
         0
390
0
  6
CONTINUOUS
 62
         7
100
AcDbLine
 10
10.0
 20
30.25
 30
0.0
 11
410.0
 21
30.25
 31
0.0
  0
LINE
  5
AF
100
AcDbEntity
  8
0
370
         0
390
0
  6
CONTINUOUS
 62
         7
100
AcDbLine
 10
265.75
 20
29.75
 30
0.0
 11
265.75
 21
10.0
 31
0.0
  0
LINE
  5
B0
100
AcDbEntity
  8
0
370
         0
390
0
  6
CONTINUOUS
 62
         7
100
AcDbLine
 10
10.0
 20
29.75
 30
0.0
 11
25.5
 21
29.75
 31
0.0
  0
LINE
  5
B1
100
AcDbEntity
  8
0
370
         0
390
0
  6
CONTINUOUS
 62
         7
100
AcDbLine
 10
10.0
 20
29.75
 30
0.0
 11
10.0
 21
10.0
 31
0.0
  0
LINE
  5
B2
100
AcDbEntity
  8
0
370
         0
390
0
  6
CONTINUOUS
 62
         7
100
AcDbLine
 10
255.75
 20
22.45
 30
0.0
 11
255.75
 21
21.75
 31
0.0
  0
LINE
  5
B3
100
AcDbEntity
  8
0
370
         0
390
0
  6
CONTINUOUS
 62
         7
100
AcDbLine
 10
255.4
 20
25.75
 30
0.0
 11
255.4
 21
25.05
 31
0.0
  0
LINE
  5
B4
100
AcDbEntity
  8
0
370
         0
390
0
  6
CONTINUOUS
 62
         7
100
AcDbLine
 10
26.0
 20
10.0
 30
0.0
 11
136.0
 21
10.0
 31
0.0
  0
LINE
  5
B5
100
AcDbEntity
  8
0
370
         0
390
0
  6
CONTINUOUS
 62
         7
100
AcDbLine
 10
176.0
 20
29.75
 30
0.0
 11
265.75
 21
29.75
 31
0.0
  0
LINE
  5
B6
100
AcDbEntity
  8
0
370
         0
390
0
  6
CONTINUOUS
 62
         7
100
AcDbLine
 10
176.0
 20
10.0
 30
0.0
 11
265.75
 21
10.0
 31
0.0
  0
LINE
  5
B7
100
AcDbEntity
  8
0
370
         0
390
0
  6
CONTINUOUS
 62
         7
100
AcDbLine
 10
26.0
 20
25.0
 30
0.0
 11
136.0
 21
25.0
 31
0.0
  0
LINE
  5
B8
100
AcDbEntity
  8
0
370
         0
390
0
  6
CONTINUOUS
 62
         7
100
AcDbLine
 10
39.75
 20
29.75
 30
0.0
 11
39.75
 21
10.0
 31
0.0
  0
LINE
  5
B9
100
AcDbEntity
  8
0
370
         0
390
0
  6
CONTINUOUS
 62
         7
100
AcDbLine
 10
26.0
 20
20.0
 30
0.0
 11
136.0
 21
20.0
 31
0.0
  0
LINE
  5
BA
100
AcDbEntity
  8
0
370
         0
390
0
  6
CONTINUOUS
 62
         7
100
AcDbLine
 10
26.0
 20
15.0
 30
0.0
 11
136.0
 21
15.0
 31
0.0
  0
LINE
  5
BB
100
AcDbEntity
  8
0
370
         0
390
0
  6
CONTINUOUS
 62
         7
100
AcDbLine
 10
136.5
 20
10.0
 30
0.0
 11
175.5
 21
10.0
 31
0.0
  0
LINE
  5
BC
100
AcDbEntity
  8
0
370
         0
390
0
  6
CONTINUOUS
 62
         7
100
AcDbLine
 10
136.5
 20
29.75
 30
0.0
 11
175.5
 21
29.75
 31
0.0
  0
LINE
  5
BD
100
AcDbEntity
  8
0
370
         0
390
0
  6
CONTINUOUS
 62
         7
100
AcDbLine
 10
136.0
 20
29.75
 30
0.0
 11
136.0
 21
10.0
 31
0.0
  0
LINE
  5
BE
100
AcDbEntity
  8
0
370
         0
390
0
  6
CONTINUOUS
 62
         7
100
AcDbLine
 10
53.5
 20
29.75
 30
0.0
 11
53.5
 21
10.0
 31
0.0
  0
LINE
  5
BF
100
AcDbEntity
  8
0
370
         0
390
0
  6
CONTINUOUS
 62
         7
100
AcDbLine
 10
67.25
 20
29.75
 30
0.0
 11
67.25
 21
10.0
 31
0.0
  0
LINE
  5
C0
100
AcDbEntity
  8
0
370
         0
390
0
  6
CONTINUOUS
 62
         7
100
AcDbLine
 10
81.0
 20
29.75
 30
0.0
 11
81.0
 21
10.0
 31
0.0
  0
LINE
  5
C1
100
AcDbEntity
  8
0
370
         0
390
0
  6
CONTINUOUS
 62
         7
100
AcDbLine
 10
94.75
 20
29.75
 30
0.0
 11
94.75
 21
10.0
 31
0.0
  0
LINE
  5
C2
100
AcDbEntity
  8
0
370
         0
390
0
  6
CONTINUOUS
 62
         7
100
AcDbLine
 10
108.5
 20
29.75
 30
0.0
 11
108.5
 21
10.0
 31
0.0
  0
LINE
  5
C3
100
AcDbEntity
  8
0
370
         0
390
0
  6
CONTINUOUS
 62
         7
100
AcDbLine
 10
122.25
 20
29.75
 30
0.0
 11
122.25
 21
10.0
 31
0.0
  0
LINE
  5
C4
100
AcDbEntity
  8
0
370
         0
390
0
  6
CONTINUOUS
 62
         7
100
AcDbLine
 10
136.5
 20
29.75
 30
0.0
 11
136.5
 21
10.0
 31
0.0
  0
LINE
  5
C5
100
AcDbEntity
  8
0
370
         0
390
0
  6
CENTER2
 62
         7
100
AcDbLine
 10
58.5
 20
70.0
 30
0.0
 11
406.0
 21
70.0
 31
0.0
  0
LINE
  5
C6
100
AcDbEntity
  8
0
370
         0
390
0
  6
CONTINUOUS
 62
         7
100
AcDbLine
 10
92.5
 20
60.5
 30
0.0
 11
93.103
 21
60.5
 31
0.0
  0
LINE
  5
C7
100
AcDbEntity
  8
0
370
         0
390
0
  6
CONTINUOUS
 62
         7
100
AcDbLine
 10
92.5
 20
60.8969
 30
0.0
 11
93.5
 21
60.8969
 31
0.0
  0
LINE
  5
C8
100
AcDbEntity
  8
0
370
         0
390
0
  6
CONTINUOUS
 62
         7
100
AcDbLine
 10
124.75
 20
60.2292
 30
0.0
 11
124.75
 21
62.0
 31
0.0
  0
LINE
  5
C9
100
AcDbEntity
  8
0
370
         0
390
0
  6
CONTINUOUS
 62
         7
100
AcDbLine
 10
92.5
 20
79.7708
 30
0.0
 11
92.5
 21
60.2292
 31
0.0
  0
LINE
  5
CA
100
AcDbEntity
  8
0
370
         0
390
0
  6
CONTINUOUS
 62
         7
100
AcDbLine
 10
86.5
 20
60.2292
 30
0.0
 11
86.5
 21
79.7708
 31
0.0
  0
LINE
  5
CB
100
AcDbEntity
  8
0
370
         0
390
0
  6
CONTINUOUS
 62
         7
100
AcDbLine
 10
94.0
 20
61.5
 30
0.0
 11
113.043
 21
61.5
 31
0.0
  0
LINE
  5
CC
100
AcDbEntity
  8
0
370
         0
390
0
  6
CONTINUOUS
 62
         7
100
AcDbLine
 10
93.103
 20
60.5
 30
0.0
 11
93.5
 21
60.8969
 31
0.0
  0
LINE
  5
CD
100
AcDbEntity
  8
0
370
         0
390
0
  6
CONTINUOUS
 62
         7
100
AcDbLine
 10
125.104
 20
59.875
 30
0.0
 11
130.396
 21
59.875
 31
0.0
  0
LINE
  5
CE
100
AcDbEntity
  8
0
370
         0
390
0
  6
CONTINUOUS
 62
         7
100
AcDbLine
 10
92.5
 20
79.1031
 30
0.0
 11
93.5
 21
79.1031
 31
0.0
  0
LINE
  5
CF
100
AcDbEntity
  8
0
370
         0
390
0
  6
CONTINUOUS
 62
         7
100
AcDbLine
 10
92.5
 20
79.5
 30
0.0
 11
93.103
 21
79.5
 31
0.0
  0
LINE
  5
D0
100
AcDbEntity
  8
0
370
         0
390
0
  6
CONTINUOUS
 62
         7
100
AcDbLine
 10
130.75
 20
79.7708
 30
0.0
 11
130.75
 21
78.0
 31
0.0
  0
LINE
  5
D1
100
AcDbEntity
  8
0
370
         0
390
0
  6
CONTINUOUS
 62
         7
100
AcDbLine
 10
93.103
 20
79.5
 30
0.0
 11
93.5
 21
79.1031
 31
0.0
  0
LINE
  5
D2
100
AcDbEntity
  8
0
370
         0
390
0
  6
CONTINUOUS
 62
         7
100
AcDbLine
 10
93.5
 20
79.1031
 30
0.0
 11
93.5
 21
60.8969
 31
0.0
  0
LINE
  5
D3
100
AcDbEntity
  8
0
370
         0
390
0
  6
CONTINUOUS
 62
         7
100
AcDbLine
 10
94.0
 20
78.5
 30
0.0
 11
113.043
 21
78.5
 31
0.0
  0
LINE
  5
D4
100
AcDbEntity
  8
0
370
         0
390
0
  6
CONTINUOUS
 62
         7
100
AcDbLine
 10
113.543
 20
61.89
 30
0.0
 11
113.543
 21
78.11
 31
0.0
  0
LINE
  5
D5
100
AcDbEntity
  8
0
370
         0
390
0
  6
CONTINUOUS
 62
         7
100
AcDbLine
 10
93.103
 20
79.5
 30
0.0
 11
93.103
 21
60.5
 31
0.0
  0
LINE
  5
D6
100
AcDbEntity
  8
0
370
         0
390
0
  6
CONTINUOUS
 62
         7
100
AcDbLine
 10
125.104
 20
80.125
 30
0.0
 11
130.396
 21
80.125
 31
0.0
  0
LINE
  5
D7
100
AcDbEntity
  8
0
370
         0
390
0
  6
CONTINUOUS
 62
         7
100
AcDbLine
 10
113.75
 20
62.0
 30
0.0
 11
376.0
 21
62.0
 31
0.0
  0
LINE
  5
D8
100
AcDbEntity
  8
0
370
         0
390
0
  6
CONTINUOUS
 62
         7
100
AcDbLine
 10
113.75
 20
78.0
 30
0.0
 11
376.0
 21
78.0
 31
0.0
  0
LINE
  5
D9
100
AcDbEntity
  8
0
370
         0
390
0
  6
CENTER2
 62
         7
100
AcDbLine
 10
152.0
 20
62.0
 30
0.0
 11
152.0
 21
78.0
 31
0.0
  0
LINE
  5
DA
100
AcDbEntity
  8
0
370
         0
390
0
  6
CONTINUOUS
 62
         7
100
AcDbLine
 10
406.0
 20
78.0
 30
0.0
 11
406.0
 21
62.0
 31
0.0
  0
LINE
  5
DB
100
AcDbEntity
  8
0
370
         0
390
0
  6
CONTINUOUS
 62
         7
100
AcDbLine
 10
383.0
 20
86.5
 30
0.0
 11
383.0
 21
53.5
 31
0.0
  0
LINE
  5
DC
100
AcDbEntity
  8
0
370
         0
390
0
  6
CONTINUOUS
 62
         7
100
AcDbLine
 10
376.0
 20
80.5
 30
0.0
 11
376.0
 21
59.5
 31
0.0
  0
LINE
  5
DD
100
AcDbEntity
  8
0
370
         0
390
0
  6
CONTINUOUS
 62
         7
100
AcDbLine
 10
382.0
 20
86.5
 30
0.0
 11
383.0
 21
86.5
 31
0.0
  0
LINE
  5
DE
100
AcDbEntity
  8
0
370
         0
390
0
  6
CONTINUOUS
 62
         7
100
AcDbLine
 10
382.0
 20
53.5
 30
0.0
 11
383.0
 21
53.5
 31
0.0
  0
LINE
  5
DF
100
AcDbEntity
  8
0
370
         0
390
0
  6
CONTINUOUS
 62
         7
100
AcDbLine
 10
383.0
 20
62.0
 30
0.0
 11
406.0
 21
62.0
 31
0.0
  0
LINE
  5
E0
100
AcDbEntity
  8
0
370
         0
390
0
  6
CONTINUOUS
 62
         7
100
AcDbLine
 10
383.0
 20
78.0
 30
0.0
 11
406.0
 21
78.0
 31
0.0
  0
LINE
  5
E1
100
AcDbEntity
  8
0
370
         0
390
0
  6
CONTINUOUS
 62
         7
100
AcDbLine
 10
124.75
 20
78.0
 30
0.0
 11
124.75
 21
79.7708
 31
0.0
  0
LINE
  5
E2
100
AcDbEntity
  8
0
370
         0
390
0
  6
CONTINUOUS
 62
         7
100
AcDbLine
 10
130.75
 20
62.0
 30
0.0
 11
130.75
 21
60.2292
 31
0.0
  0
LINE
  5
E3
100
AcDbEntity
  8
0
370
         0
390
0
  6
CENTER2
 62
         7
100
AcDbLine
 10
58.5
 20
170.0
 30
0.0
 11
133.0
 21
170.0
 31
0.0
  0
LINE
  5
E4
100
AcDbEntity
  8
0
370
         0
390
0
  6
CONTINUOUS
 62
         7
100
AcDbLine
 10
113.75
 20
162.0
 30
0.0
 11
133.0
 21
162.0
 31
0.0
  0
LINE
  5
E5
100
AcDbEntity
  8
0
370
         0
390
0
  6
CONTINUOUS
 62
         7
100
AcDbLine
 10
113.75
 20
178.0
 30
0.0
 11
133.0
 21
178.0
 31
0.0
  0
LINE
  5
E6
100
AcDbEntity
  8
0
370
         0
390
0
  6
CONTINUOUS
 62
         7
100
AcDbLine
 10
123.5
 20
200.0
 30
0.0
 11
124.75
 21
200.0
 31
0.0
  0
LINE
  5
E7
100
AcDbEntity
  8
0
370
         0
390
0
  6
CONTINUOUS
 62
         7
100
AcDbLine
 10
123.5
 20
216.0
 30
0.0
 11
124.75
 21
216.0
 31
0.0
  0
LINE
  5
E8
100
AcDbEntity
  8
0
370
         0
390
0
  6
CENTER2
 62
         7
100
AcDbLine
 10
123.75
 20
208.0
 30
0.0
 11
133.0
 21
208.0
 31
0.0
  0
LINE
  5
E9
100
AcDbEntity
  8
0
370
         0
390
0
  6
CONTINUOUS
 62
         7
100
AcDbLine
 10
131.5
 20
200.0
 30
0.0
 11
133.0
 21
200.0
 31
0.0
  0
LINE
  5
EA
100
AcDbEntity
  8
0
370
         0
390
0
  6
CONTINUOUS
 62
         7
100
AcDbLine
 10
131.5
 20
216.0
 30
0.0
 11
133.0
 21
216.0
 31
0.0
  0
LINE
  5
EB
100
AcDbEntity
  8
0
370
         0
390
0
  6
CONTINUOUS
 62
         7
100
AcDbLine
 10
92.5
 20
160.5
 30
0.0
 11
93.103
 21
160.5
 31
0.0
  0
LINE
  5
EC
100
AcDbEntity
  8
0
370
         0
390
0
  6
CONTINUOUS
 62
         7
100
AcDbLine
 10
92.5
 20
160.897
 30
0.0
 11
93.5
 21
160.897
 31
0.0
  0
LINE
  5
ED
100
AcDbEntity
  8
0
370
         0
390
0
  6
CONTINUOUS
 62
         7
100
AcDbLine
 10
86.5
 20
160.229
 30
0.0
 11
86.5
 21
179.771
 31
0.0
  0
LINE
  5
EE
100
AcDbEntity
  8
0
370
         0
390
0
  6
CONTINUOUS
 62
         7
100
AcDbLine
 10
130.75
 20
217.771
 30
0.0
 11
130.75
 21
198.229
 31
0.0
  0
LINE
  5
EF
100
AcDbEntity
  8
0
370
         0
390
0
  6
CONTINUOUS
 62
         7
100
AcDbLine
 10
124.75
 20
198.229
 30
0.0
 11
124.75
 21
217.771
 31
0.0
  0
LINE
  5
F0
100
AcDbEntity
  8
0
370
         0
390
0
  6
CONTINUOUS
 62
         7
100
AcDbLine
 10
94.0
 20
161.5
 30
0.0
 11
113.043
 21
161.5
 31
0.0
  0
LINE
  5
F1
100
AcDbEntity
  8
0
370
         0
390
0
  6
CONTINUOUS
 62
         7
100
AcDbLine
 10
93.103
 20
160.5
 30
0.0
 11
93.5
 21
160.897
 31
0.0
  0
LINE
  5
F2
100
AcDbEntity
  8
0
370
         0
390
0
  6
CONTINUOUS
 62
         7
100
AcDbLine
 10
86.854
 20
159.875
 30
0.0
 11
92.146
 21
159.875
 31
0.0
  0
LINE
  5
F3
100
AcDbEntity
  8
0
370
         0
390
0
  6
CONTINUOUS
 62
         7
100
AcDbLine
 10
92.5
 20
179.103
 30
0.0
 11
93.5
 21
179.103
 31
0.0
  0
LINE
  5
F4
100
AcDbEntity
  8
0
370
         0
390
0
  6
CONTINUOUS
 62
         7
100
AcDbLine
 10
92.5
 20
179.5
 30
0.0
 11
93.103
 21
179.5
 31
0.0
  0
LINE
  5
F5
100
AcDbEntity
  8
0
370
         0
390
0
  6
CONTINUOUS
 62
         7
100
AcDbLine
 10
92.5
 20
179.771
 30
0.0
 11
92.5
 21
160.229
 31
0.0
  0
LINE
  5
F6
100
AcDbEntity
  8
0
370
         0
390
0
  6
CONTINUOUS
 62
         7
100
AcDbLine
 10
93.103
 20
179.5
 30
0.0
 11
93.5
 21
179.103
 31
0.0
  0
LINE
  5
F7
100
AcDbEntity
  8
0
370
         0
390
0
  6
CONTINUOUS
 62
         7
100
AcDbLine
 10
93.5
 20
179.103
 30
0.0
 11
93.5
 21
160.897
 31
0.0
  0
LINE
  5
F8
100
AcDbEntity
  8
0
370
         0
390
0
  6
CONTINUOUS
 62
         7
100
AcDbLine
 10
94.0
 20
178.5
 30
0.0
 11
113.043
 21
178.5
 31
0.0
  0
LINE
  5
F9
100
AcDbEntity
  8
0
370
         0
390
0
  6
CONTINUOUS
 62
         7
100
AcDbLine
 10
113.543
 20
161.89
 30
0.0
 11
113.543
 21
178.11
 31
0.0
  0
LINE
  5
FA
100
AcDbEntity
  8
0
370
         0
390
0
  6
CONTINUOUS
 62
         7
100
AcDbLine
 10
93.103
 20
179.5
 30
0.0
 11
93.103
 21
160.5
 31
0.0
  0
LINE
  5
FB
100
AcDbEntity
  8
0
370
         0
390
0
  6
CONTINUOUS
 62
         7
100
AcDbLine
 10
86.854
 20
180.125
 30
0.0
 11
92.146
 21
180.125
 31
0.0
  0
LINE
  5
FC
100
AcDbEntity
  8
0
370
         0
390
0
  6
CENTER2
 62
         7
100
AcDbLine
 10
123.5
 20
246.0
 30
0.0
 11
406.0
 21
246.0
 31
0.0
  0
LINE
  5
FD
100
AcDbEntity
  8
0
370
         0
390
0
  6
CONTINUOUS
 62
         7
100
AcDbLine
 10
406.0
 20
254.0
 30
0.0
 11
406.0
 21
238.0
 31
0.0
  0
LINE
  5
FE
100
AcDbEntity
  8
0
370
         0
390
0
  6
CONTINUOUS
 62
         7
100
AcDbLine
 10
383.0
 20
262.5
 30
0.0
 11
383.0
 21
229.5
 31
0.0
  0
LINE
  5
FF
100
AcDbEntity
  8
0
370
         0
390
0
  6
CONTINUOUS
 62
         7
100
AcDbLine
 10
376.0
 20
256.5
 30
0.0
 11
376.0
 21
235.5
 31
0.0
  0
LINE
  5
100
100
AcDbEntity
  8
0
370
         0
390
0
  6
CONTINUOUS
 62
         7
100
AcDbLine
 10
382.0
 20
262.5
 30
0.0
 11
383.0
 21
262.5
 31
0.0
  0
LINE
  5
101
100
AcDbEntity
  8
0
370
         0
390
0
  6
CONTINUOUS
 62
         7
100
AcDbLine
 10
382.0
 20
229.5
 30
0.0
 11
383.0
 21
229.5
 31
0.0
  0
LINE
  5
102
100
AcDbEntity
  8
0
370
         0
390
0
  6
CONTINUOUS
 62
         7
100
AcDbLine
 10
383.0
 20
238.0
 30
0.0
 11
406.0
 21
238.0
 31
0.0
  0
LINE
  5
103
100
AcDbEntity
  8
0
370
         0
390
0
  6
CONTINUOUS
 62
         7
100
AcDbLine
 10
383.0
 20
254.0
 30
0.0
 11
406.0
 21
254.0
 31
0.0
  0
LINE
  5
104
100
AcDbEntity
  8
0
370
         0
390
0
  6
CENTER2
 62
         7
100
AcDbLine
 10
30.0
 20
159.875
 30
0.0
 11
30.0
 21
262.5
 31
0.0
  0
LINE
  5
105
100
AcDbEntity
  8
0
370
         0
390
0
  6
CENTER2
 62
         7
100
AcDbLine
 10
18.875
 20
170.0
 30
0.0
 11
41.125
 21
170.0
 31
0.0
  0
LINE
  5
106
100
AcDbEntity
  8
0
370
         0
390
0
  6
CENTER2
 62
         7
100
AcDbLine
 10
19.875
 20
208.0
 30
0.0
 11
40.125
 21
208.0
 31
0.0
  0
LINE
  5
107
100
AcDbEntity
  8
0
370
         0
390
0
  6
CONTINUOUS
 62
         7
100
AcDbLine
 10
38.0
 20
208.0
 30
0.0
 11
38.0
 21
246.0
 31
0.0
  0
LINE
  5
108
100
AcDbEntity
  8
0
370
         0
390
0
  6
CONTINUOUS
 62
         7
100
AcDbLine
 10
22.0
 20
208.0
 30
0.0
 11
22.0
 21
246.0
 31
0.0
  0
LINE
  5
109
100
AcDbEntity
  8
0
370
         0
390
0
  6
CONTINUOUS
 62
         7
100
AcDbLine
 10
25.39
 20
180.125
 30
0.0
 11
34.61
 21
180.125
 31
0.0
  0
LINE
  5
10A
100
AcDbEntity
  8
0
370
         0
390
0
  6
CONTINUOUS
 62
         7
100
AcDbLine
 10
18.927
 20
171.07
 30
0.0
 11
23.536
 21
179.055
 31
0.0
  0
LINE
  5
10B
100
AcDbEntity
  8
0
370
         0
390
0
  6
CONTINUOUS
 62
         7
100
AcDbLine
 10
23.536
 20
160.945
 30
0.0
 11
18.927
 21
168.93
 31
0.0
  0
LINE
  5
10C
100
AcDbEntity
  8
0
370
         0
390
0
  6
CONTINUOUS
 62
         7
100
AcDbLine
 10
34.61
 20
159.875
 30
0.0
 11
25.39
 21
159.875
 31
0.0
  0
LINE
  5
10D
100
AcDbEntity
  8
0
370
         0
390
0
  6
CONTINUOUS
 62
         7
100
AcDbLine
 10
20.945
 20
214.464
 30
0.0
 11
22.0
 21
215.073
 31
0.0
  0
LINE
  5
10E
100
AcDbEntity
  8
0
370
         0
390
0
  6
CONTINUOUS
 62
         7
100
AcDbLine
 10
19.875
 20
203.39
 30
0.0
 11
19.875
 21
212.61
 31
0.0
  0
LINE
  5
10F
100
AcDbEntity
  8
0
370
         0
390
0
  6
CONTINUOUS
 62
         7
100
AcDbLine
 10
28.93
 20
196.927
 30
0.0
 11
20.945
 21
201.536
 31
0.0
  0
LINE
  5
110
100
AcDbEntity
  8
0
370
         0
390
0
  6
CONTINUOUS
 62
         7
100
AcDbLine
 10
39.055
 20
201.536
 30
0.0
 11
31.07
 21
196.927
 31
0.0
  0
LINE
  5
111
100
AcDbEntity
  8
0
370
         0
390
0
  6
CONTINUOUS
 62
         7
100
AcDbLine
 10
40.125
 20
212.61
 30
0.0
 11
40.125
 21
203.39
 31
0.0
  0
LINE
  5
112
100
AcDbEntity
  8
0
370
         0
390
0
  6
CONTINUOUS
 62
         7
100
AcDbLine
 10
38.0
 20
215.073
 30
0.0
 11
39.055
 21
214.464
 31
0.0
  0
LINE
  5
113
100
AcDbEntity
  8
0
370
         0
390
0
  6
CONTINUOUS
 62
         7
100
AcDbLine
 10
22.0
 20
176.394
 30
0.0
 11
22.0
 21
200.927
 31
0.0
  0
LINE
  5
114
100
AcDbEntity
  8
0
370
         0
390
0
  6
CONTINUOUS
 62
         7
100
AcDbLine
 10
38.0
 20
176.394
 30
0.0
 11
38.0
 21
200.927
 31
0.0
  0
LINE
  5
115
100
AcDbEntity
  8
0
370
         0
390
0
  6
CONTINUOUS
 62
         7
100
AcDbLine
 10
36.464
 20
160.945
 30
0.0
 11
41.073
 21
168.93
 31
0.0
  0
LINE
  5
116
100
AcDbEntity
  8
0
370
         0
390
0
  6
CONTINUOUS
 62
         7
100
AcDbLine
 10
41.073
 20
171.07
 30
0.0
 11
36.464
 21
179.055
 31
0.0
  0
LINE
  5
117
100
AcDbEntity
  8
0
370
         0
390
0
  6
CENTER2
 62
         7
100
AcDbLine
 10
13.5
 20
246.0
 30
0.0
 11
46.5
 21
246.0
 31
0.0
  0
ARC
  5
118
100
AcDbEntity
  8
0
370
         0
390
0
  6
CONTINUOUS
 62
         7
100
AcDbCircle
 10
243.75
 20
19.75
 30
0.0
 40
4.299994
100
AcDbArc
 50
238.085323
 51
301.914526
  0
ARC
  5
119
100
AcDbEntity
  8
0
370
         0
390
0
  6
CONTINUOUS
 62
         7
100
AcDbCircle
 10
239.203583
 20
12.45002
 30
0.0
 40
4.299994
100
AcDbArc
 50
58.085474
 51
120.348677
  0
ARC
  5
11A
100
AcDbEntity
  8
0
370
         0
390
0
  6
CONTINUOUS
 62
         7
100
AcDbCircle
 10
248.296417
 20
12.45002
 30
0.0
 40
4.299994
100
AcDbArc
 50
59.651419
 51
121.914677
  0
ARC
  5
11B
100
AcDbEntity
  8
0
370
         0
390
0
  6
CONTINUOUS
 62
         7
100
AcDbCircle
 10
234.657166
 20
23.75
 30
0.0
 40
4.299994
100
AcDbArc
 50
236.5292
 51
301.914526
  0
ARC
  5
11C
100
AcDbEntity
  8
0
370
         0
390
0
  6
CONTINUOUS
 62
         7
100
AcDbCircle
 10
239.203583
 20
16.45002
 30
0.0
 40
4.299994
100
AcDbArc
 50
58.085474
 51
121.914677
  0
ARC
  5
11D
100
AcDbEntity
  8
0
370
         0
390
0
  6
CONTINUOUS
 62
         7
100
AcDbCircle
 10
243.75
 20
23.75
 30
0.0
 40
4.299994
100
AcDbArc
 50
238.085323
 51
301.914526
  0
ARC
  5
11E
100
AcDbEntity
  8
0
370
         0
390
0
  6
CONTINUOUS
 62
         7
100
AcDbCircle
 10
248.296417
 20
16.45002
 30
0.0
 40
4.299994
100
AcDbArc
 50
58.085474
 51
121.914677
  0
ARC
  5
11F
100
AcDbEntity
  8
0
370
         0
390
0
  6
CONTINUOUS
 62
         7
100
AcDbCircle
 10
252.842834
 20
23.75
 30
0.0
 40
4.299994
100
AcDbArc
 50
238.085323
 51
303.47065
  0
ARC
  5
120
100
AcDbEntity
  8
0
370
         0
390
0
  6
CONTINUOUS
 62
         7
100
AcDbCircle
 10
234.657166
 20
21.75
 30
0.0
 40
4.299994
100
AcDbArc
 50
272.157976
 51
301.914526
  0
ARC
  5
121
100
AcDbEntity
  8
0
370
         0
390
0
  6
CONTINUOUS
 62
         7
100
AcDbCircle
 10
239.203583
 20
14.45002
 30
0.0
 40
4.299994
100
AcDbArc
 50
58.085474
 51
121.914677
  0
ARC
  5
122
100
AcDbEntity
  8
0
370
         0
390
0
  6
CONTINUOUS
 62
         7
100
AcDbCircle
 10
243.75
 20
21.75
 30
0.0
 40
4.299994
100
AcDbArc
 50
238.085323
 51
301.914526
  0
ARC
  5
123
100
AcDbEntity
  8
0
370
         0
390
0
  6
CONTINUOUS
 62
         7
100
AcDbCircle
 10
248.296417
 20
14.45002
 30
0.0
 40
4.299994
100
AcDbArc
 50
58.085474
 51
121.914677
  0
ARC
  5
124
100
AcDbEntity
  8
0
370
         0
390
0
  6
CONTINUOUS
 62
         7
100
AcDbCircle
 10
252.842834
 20
21.75
 30
0.0
 40
4.299994
100
AcDbArc
 50
238.085323
 51
267.84186
  0
ARC
  5
125
100
AcDbEntity
  8
0
370
         0
390
0
  6
CONTINUOUS
 62
         7
100
AcDbCircle
 10
234.657166
 20
23.75
 30
0.0
 40
4.699993
100
AcDbArc
 50
246.373724
 51
301.914526
  0
ARC
  5
126
100
AcDbEntity
  8
0
370
         0
390
0
  6
CONTINUOUS
 62
         7
100
AcDbCircle
 10
239.203583
 20
16.45002
 30
0.0
 40
3.899994
100
AcDbArc
 50
58.085474
 51
121.914677
  0
ARC
  5
127
100
AcDbEntity
  8
0
370
         0
390
0
  6
CONTINUOUS
 62
         7
100
AcDbCircle
 10
243.75
 20
23.75
 30
0.0
 40
4.699993
100
AcDbArc
 50
238.085323
 51
301.914533
  0
ARC
  5
128
100
AcDbEntity
  8
0
370
         0
390
0
  6
CONTINUOUS
 62
         7
100
AcDbCircle
 10
248.296417
 20
16.45002
 30
0.0
 40
3.899994
100
AcDbArc
 50
58.085474
 51
121.91469
  0
ARC
  5
129
100
AcDbEntity
  8
0
370
         0
390
0
  6
CONTINUOUS
 62
         7
100
AcDbCircle
 10
252.842834
 20
23.75
 30
0.0
 40
4.699993
100
AcDbArc
 50
238.085323
 51
293.62614
  0
ARC
  5
12A
100
AcDbEntity
  8
0
370
         0
390
0
  6
CONTINUOUS
 62
         7
100
AcDbCircle
 10
234.657166
 20
21.75
 30
0.0
 40
4.699993
100
AcDbArc
 50
278.226529
 51
301.914526
  0
ARC
  5
12B
100
AcDbEntity
  8
0
370
         0
390
0
  6
CONTINUOUS
 62
         7
100
AcDbCircle
 10
239.203583
 20
14.45002
 30
0.0
 40
3.899994
100
AcDbArc
 50
58.085474
 51
121.914677
  0
ARC
  5
12C
100
AcDbEntity
  8
0
370
         0
390
0
  6
CONTINUOUS
 62
         7
100
AcDbCircle
 10
243.75
 20
21.75
 30
0.0
 40
4.699993
100
AcDbArc
 50
238.085323
 51
301.914533
  0
ARC
  5
12D
100
AcDbEntity
  8
0
370
         0
390
0
  6
CONTINUOUS
 62
         7
100
AcDbCircle
 10
248.296417
 20
14.45002
 30
0.0
 40
3.899994
100
AcDbArc
 50
58.085474
 51
121.91469
  0
ARC
  5
12E
100
AcDbEntity
  8
0
370
         0
390
0
  6
CONTINUOUS
 62
         7
100
AcDbCircle
 10
252.842834
 20
21.75
 30
0.0
 40
4.699993
100
AcDbArc
 50
238.085323
 51
261.773204
  0
ARC
  5
12F
100
AcDbEntity
  8
0
370
         0
390
0
  6
CONTINUOUS
 62
         7
100
AcDbCircle
 10
239.203583
 20
12.45002
 30
0.0
 40
3.899994
100
AcDbArc
 50
58.085474
 51
115.94581
  0
ARC
  5
130
100
AcDbEntity
  8
0
370
         0
390
0
  6
CONTINUOUS
 62
         7
100
AcDbCircle
 10
243.75
 20
19.75
 30
0.0
 40
4.699993
100
AcDbArc
 50
238.085323
 51
301.914533
  0
ARC
  5
131
100
AcDbEntity
  8
0
370
         0
390
0
  6
CONTINUOUS
 62
         7
100
AcDbCircle
 10
248.296417
 20
12.45002
 30
0.0
 40
3.899994
100
AcDbArc
 50
64.052919
 51
121.91469
  0
ARC
  5
132
100
AcDbEntity
  8
0
370
         0
390
0
  6
CONTINUOUS
 62
         7
100
AcDbCircle
 10
127.75
 20
62.875
 30
0.0
 40
4.0
100
AcDbArc
 50
221.409498
 51
228.59026
  0
ARC
  5
133
100
AcDbEntity
  8
0
370
         0
390
0
  6
CONTINUOUS
 62
         7
100
AcDbCircle
 10
89.5
 20
77.125
 30
0.0
 40
4.0
100
AcDbArc
 50
41.409655
 51
138.590502
  0
ARC
  5
134
100
AcDbEntity
  8
0
370
         0
390
0
  6
CONTINUOUS
 62
         7
100
AcDbCircle
 10
89.5
 20
62.875
 30
0.0
 40
4.0
100
AcDbArc
 50
221.409498
 51
318.590345
  0
ARC
  5
135
100
AcDbEntity
  8
0
370
         0
390
0
  6
CONTINUOUS
 62
         7
100
AcDbCircle
 10
94.0
 20
61.0
 30
0.0
 40
0.5
100
AcDbArc
 50
90.000079
 51
180.000157
  0
ARC
  5
136
100
AcDbEntity
  8
0
370
         0
390
0
  6
CONTINUOUS
 62
         7
100
AcDbCircle
 10
127.75
 20
62.875
 30
0.0
 40
4.0
100
AcDbArc
 50
311.409587
 51
318.590348
  0
ARC
  5
137
100
AcDbEntity
  8
0
370
         0
390
0
  6
CONTINUOUS
 62
         7
100
AcDbCircle
 10
127.75
 20
77.125
 30
0.0
 40
4.0
100
AcDbArc
 50
131.40974
 51
138.590502
  0
ARC
  5
138
100
AcDbEntity
  8
0
370
         0
390
0
  6
CONTINUOUS
 62
         7
100
AcDbCircle
 10
127.75
 20
77.125
 30
0.0
 40
4.0
100
AcDbArc
 50
41.409655
 51
48.590417
  0
ARC
  5
139
100
AcDbEntity
  8
0
370
         0
390
0
  6
CONTINUOUS
 62
         7
100
AcDbCircle
 10
94.0
 20
79.0
 30
0.0
 40
0.5
100
AcDbArc
 50
179.999857
 51
269.999928
  0
ARC
  5
13A
100
AcDbEntity
  8
0
370
         0
390
0
  6
CONTINUOUS
 62
         7
100
AcDbCircle
 10
113.75
 20
61.75
 30
0.0
 40
0.25
100
AcDbArc
 50
90.000079
 51
160.528911
  0
ARC
  5
13B
100
AcDbEntity
  8
0
370
         0
390
0
  6
CONTINUOUS
 62
         7
100
AcDbCircle
 10
113.042908
 20
62.0
 30
0.0
 40
0.5
100
AcDbArc
 50
269.999915
 51
340.528753
  0
ARC
  5
13C
100
AcDbEntity
  8
0
370
         0
390
0
  6
CONTINUOUS
 62
         7
100
AcDbCircle
 10
113.042908
 20
78.0
 30
0.0
 40
0.5
100
AcDbArc
 50
19.471245
 51
90.000079
  0
ARC
  5
13D
100
AcDbEntity
  8
0
370
         0
390
0
  6
CONTINUOUS
 62
         7
100
AcDbCircle
 10
113.75
 20
78.25
 30
0.0
 40
0.25
100
AcDbArc
 50
199.471089
 51
269.999928
  0
ARC
  5
13E
100
AcDbEntity
  8
0
370
         0
390
0
  6
CONTINUOUS
 62
         7
100
AcDbCircle
 10
152.0
 20
70.0
 30
0.0
 40
8.0
100
AcDbArc
 50
269.999921
 51
90.000079
  0
ARC
  5
13F
100
AcDbEntity
  8
0
370
         0
390
0
  6
CONTINUOUS
 62
         7
100
AcDbCircle
 10
382.0
 20
80.5
 30
0.0
 40
6.0
100
AcDbArc
 50
90.000079
 51
180.000157
  0
ARC
  5
140
100
AcDbEntity
  8
0
370
         0
390
0
  6
CONTINUOUS
 62
         7
100
AcDbCircle
 10
382.0
 20
59.5
 30
0.0
 40
6.0
100
AcDbArc
 50
180.000143
 51
270.000229
  0
ARC
  5
141
100
AcDbEntity
  8
0
370
         0
390
0
  6
CONTINUOUS
 62
         7
100
AcDbCircle
 10
123.5
 20
227.0
 30
0.0
 40
27.0
100
AcDbArc
 50
90.000079
 51
270.000229
  0
ARC
  5
142
100
AcDbEntity
  8
0
370
         0
390
0
  6
CONTINUOUS
 62
         7
100
AcDbCircle
 10
123.5
 20
227.0
 30
0.0
 40
11.0
100
AcDbArc
 50
90.000079
 51
270.000229
  0
ARC
  5
143
100
AcDbEntity
  8
0
370
         0
390
0
  6
CENTER2
 62
         7
100
AcDbCircle
 10
123.5
 20
227.0
 30
0.0
 40
19.0
100
AcDbArc
 50
90.000079
 51
270.000229
  0
ARC
  5
144
100
AcDbEntity
  8
0
370
         0
390
0
  6
CONTINUOUS
 62
         7
100
AcDbCircle
 10
133.0
 20
189.0
 30
0.0
 40
27.0
100
AcDbArc
 50
269.999915
 51
90.000079
  0
ARC
  5
145
100
AcDbEntity
  8
0
370
         0
390
0
  6
CONTINUOUS
 62
         7
100
AcDbCircle
 10
133.0
 20
189.0
 30
0.0
 40
11.0
100
AcDbArc
 50
269.999915
 51
90.000079
  0
ARC
  5
146
100
AcDbEntity
  8
0
370
         0
390
0
  6
CENTER2
 62
         7
100
AcDbCircle
 10
133.0
 20
189.0
 30
0.0
 40
19.0
100
AcDbArc
 50
269.999915
 51
90.000079
  0
ARC
  5
147
100
AcDbEntity
  8
0
370
         0
390
0
  6
CONTINUOUS
 62
         7
100
AcDbCircle
 10
131.5
 20
199.0
 30
0.0
 40
1.0
100
AcDbArc
 50
90.000079
 51
138.590502
  0
ARC
  5
148
100
AcDbEntity
  8
0
370
         0
390
0
  6
CONTINUOUS
 62
         7
100
AcDbCircle
 10
131.5
 20
217.0
 30
0.0
 40
1.0
100
AcDbArc
 50
221.409498
 51
269.999928
  0
ARC
  5
149
100
AcDbEntity
  8
0
370
         0
390
0
  6
CONTINUOUS
 62
         7
100
AcDbCircle
 10
89.5
 20
162.875
 30
0.0
 40
4.0
100
AcDbArc
 50
221.409498
 51
228.59026
  0
ARC
  5
14A
100
AcDbEntity
  8
0
370
         0
390
0
  6
CONTINUOUS
 62
         7
100
AcDbCircle
 10
127.75
 20
215.125
 30
0.0
 40
4.0
100
AcDbArc
 50
41.409655
 51
138.590502
  0
ARC
  5
14B
100
AcDbEntity
  8
0
370
         0
390
0
  6
CONTINUOUS
 62
         7
100
AcDbCircle
 10
127.75
 20
200.875
 30
0.0
 40
4.0
100
AcDbArc
 50
221.409498
 51
318.590345
  0
ARC
  5
14C
100
AcDbEntity
  8
0
370
         0
390
0
  6
CONTINUOUS
 62
         7
100
AcDbCircle
 10
94.0
 20
161.0
 30
0.0
 40
0.5
100
AcDbArc
 50
90.000079
 51
180.000157
  0
ARC
  5
14D
100
AcDbEntity
  8
0
370
         0
390
0
  6
CONTINUOUS
 62
         7
100
AcDbCircle
 10
89.5
 20
162.875
 30
0.0
 40
4.0
100
AcDbArc
 50
311.409587
 51
318.590348
  0
ARC
  5
14E
100
AcDbEntity
  8
0
370
         0
390
0
  6
CONTINUOUS
 62
         7
100
AcDbCircle
 10
89.5
 20
177.125
 30
0.0
 40
4.0
100
AcDbArc
 50
131.40974
 51
138.590502
  0
ARC
  5
14F
100
AcDbEntity
  8
0
370
         0
390
0
  6
CONTINUOUS
 62
         7
100
AcDbCircle
 10
89.5
 20
177.125
 30
0.0
 40
4.0
100
AcDbArc
 50
41.409655
 51
48.590417
  0
ARC
  5
150
100
AcDbEntity
  8
0
370
         0
390
0
  6
CONTINUOUS
 62
         7
100
AcDbCircle
 10
94.0
 20
179.0
 30
0.0
 40
0.5
100
AcDbArc
 50
179.999857
 51
269.999928
  0
ARC
  5
151
100
AcDbEntity
  8
0
370
         0
390
0
  6
CONTINUOUS
 62
         7
100
AcDbCircle
 10
113.75
 20
161.75
 30
0.0
 40
0.25
100
AcDbArc
 50
90.000079
 51
160.528911
  0
ARC
  5
152
100
AcDbEntity
  8
0
370
         0
390
0
  6
CONTINUOUS
 62
         7
100
AcDbCircle
 10
113.042908
 20
162.0
 30
0.0
 40
0.5
100
AcDbArc
 50
269.999915
 51
340.528753
  0
ARC
  5
153
100
AcDbEntity
  8
0
370
         0
390
0
  6
CONTINUOUS
 62
         7
100
AcDbCircle
 10
113.042908
 20
178.0
 30
0.0
 40
0.5
100
AcDbArc
 50
19.471245
 51
90.000079
  0
ARC
  5
154
100
AcDbEntity
  8
0
370
         0
390
0
  6
CONTINUOUS
 62
         7
100
AcDbCircle
 10
113.75
 20
178.25
 30
0.0
 40
0.25
100
AcDbArc
 50
199.471089
 51
269.999928
  0
ARC
  5
155
100
AcDbEntity
  8
0
370
         0
390
0
  6
CONTINUOUS
 62
         7
100
AcDbCircle
 10
382.0
 20
256.5
 30
0.0
 40
6.0
100
AcDbArc
 50
90.000079
 51
180.000157
  0
ARC
  5
156
100
AcDbEntity
  8
0
370
         0
390
0
  6
CONTINUOUS
 62
         7
100
AcDbCircle
 10
382.0
 20
235.5
 30
0.0
 40
6.0
100
AcDbArc
 50
180.000143
 51
270.000229
  0
ARC
  5
157
100
AcDbEntity
  8
0
370
         0
390
0
  6
CONTINUOUS
 62
         7
100
AcDbCircle
 10
30.0
 20
170.0
 30
0.0
 40
11.125
100
AcDbArc
 50
54.479161
 51
65.52094
  0
ARC
  5
158
100
AcDbEntity
  8
0
370
         0
390
0
  6
CONTINUOUS
 62
         7
100
AcDbCircle
 10
30.0
 20
170.0
 30
0.0
 40
11.125
100
AcDbArc
 50
114.47921
 51
125.520992
  0
ARC
  5
159
100
AcDbEntity
  8
0
370
         0
390
0
  6
CONTINUOUS
 62
         7
100
AcDbCircle
 10
30.0
 20
170.0
 30
0.0
 40
11.125
100
AcDbArc
 50
174.479269
 51
185.521045
  0
CIRCLE
  5
15A
100
AcDbEntity
  8
0
370
         0
390
0
  6
CONTINUOUS
 62
         7
100
AcDbCircle
 10
30.0
 20
170.0
 30
0.0
 40
8.125
  0
ARC
  5
15B
100
AcDbEntity
  8
0
370
         0
390
0
  6
CONTINUOUS
 62
         7
100
AcDbCircle
 10
30.0
 20
170.0
 30
0.0
 40
11.125
100
AcDbArc
 50
234.479008
 51
245.520783
  0
ARC
  5
15C
100
AcDbEntity
  8
0
370
         0
390
0
  6
CONTINUOUS
 62
         7
100
AcDbCircle
 10
30.0
 20
170.0
 30
0.0
 40
11.125
100
AcDbArc
 50
294.479067
 51
305.520839
  0
ARC
  5
15D
100
AcDbEntity
  8
0
370
         0
390
0
  6
CONTINUOUS
 62
         7
100
AcDbCircle
 10
30.0
 20
208.0
 30
0.0
 40
11.125
100
AcDbArc
 50
144.479236
 51
155.521012
  0
ARC
  5
15E
100
AcDbEntity
  8
0
370
         0
390
0
  6
CONTINUOUS
 62
         7
100
AcDbCircle
 10
30.0
 20
208.0
 30
0.0
 40
11.125
100
AcDbArc
 50
204.478988
 51
215.520764
  0
ARC
  5
15F
100
AcDbEntity
  8
0
370
         0
390
0
  6
CONTINUOUS
 62
         7
100
AcDbCircle
 10
30.0
 20
208.0
 30
0.0
 40
11.125
100
AcDbArc
 50
264.479041
 51
275.520816
  0
ARC
  5
160
100
AcDbEntity
  8
0
370
         0
390
0
  6
CONTINUOUS
 62
         7
100
AcDbCircle
 10
30.0
 20
208.0
 30
0.0
 40
8.125
100
AcDbArc
 50
169.936862
 51
10.063595
  0
ARC
  5
161
100
AcDbEntity
  8
0
370
         0
390
0
  6
CONTINUOUS
 62
         7
100
AcDbCircle
 10
30.0
 20
208.0
 30
0.0
 40
11.125
100
AcDbArc
 50
324.479083
 51
335.520866
  0
ARC
  5
162
100
AcDbEntity
  8
0
370
         0
390
0
  6
CONTINUOUS
 62
         7
100
AcDbCircle
 10
30.0
 20
208.0
 30
0.0
 40
11.125
100
AcDbArc
 50
24.479137
 51
35.520914
  0
ARC
  5
163
100
AcDbEntity
  8
0
370
         0
390
0
  6
CONTINUOUS
 62
         7
100
AcDbCircle
 10
30.0
 20
208.0
 30
0.0
 40
8.0
100
AcDbArc
 50
179.999857
 51
360.0
  0
CIRCLE
  5
164
100
AcDbEntity
  8
0
370
         0
390
0
  6
CONTINUOUS
 62
         7
100
AcDbCircle
 10
30.0
 20
170.0
 30
0.0
 40
9.770751
  0
ARC
  5
165
100
AcDbEntity
  8
0
370
         0
390
0
  6
CONTINUOUS
 62
         7
100
AcDbCircle
 10
30.0
 20
170.0
 30
0.0
 40
11.125
100
AcDbArc
 50
354.47911
 51
5.520885
  0
ARC
  5
166
100
AcDbEntity
  8
0
370
         0
390
0
  6
CONTINUOUS
 62
         7
100
AcDbCircle
 10
30.0
 20
208.0
 30
0.0
 40
9.770751
100
AcDbArc
 50
144.961995
 51
35.038476
  0
ARC
  5
167
100
AcDbEntity
  8
0
370
         0
390
0
  6
CONTINUOUS
 62
         7
100
AcDbCircle
 10
30.0
 20
246.0
 30
0.0
 40
8.0
100
AcDbArc
 50
0.0
 51
180.000157
  0
ARC
  5
168
100
AcDbEntity
  8
0
370
         0
390
0
  6
CONTINUOUS
 62
         7
100
AcDbCircle
 10
30.0
 20
246.0
 30
0.0
 40
16.5
100
AcDbArc
 50
299.002493
 51
240.997664
  0
LINE
  5
169
100
AcDbEntity
  8
0
370
         0
390
0
  6
CONTINUOUS
 62
         7
100
AcDbLine
 10
250.00362
 20
15.95729
 30
0.0
 11
250.032928
 21
15.969521
 31
0.0
  0
LINE
  5
16A
100
AcDbEntity
  8
0
370
         0
390
0
  6
CONTINUOUS
 62
         7
100
AcDbLine
 10
250.032928
 20
15.969521
 30
0.0
 11
250.062208
 21
15.981817
 31
0.0
  0
LINE
  5
16B
100
AcDbEntity
  8
0
370
         0
390
0
  6
CONTINUOUS
 62
         7
100
AcDbLine
 10
250.062208
 20
15.981817
 30
0.0
 11
250.091462
 21
15.994178
 31
0.0
  0
LINE
  5
16C
100
AcDbEntity
  8
0
370
         0
390
0
  6
CONTINUOUS
 62
         7
100
AcDbLine
 10
250.091462
 20
15.994178
 30
0.0
 11
250.120687
 21
16.006604
 31
0.0
  0
LINE
  5
16D
100
AcDbEntity
  8
0
370
         0
390
0
  6
CONTINUOUS
 62
         7
100
AcDbLine
 10
250.120687
 20
16.006604
 30
0.0
 11
250.149885
 21
16.019096
 31
0.0
  0
LINE
  5
16E
100
AcDbEntity
  8
0
370
         0
390
0
  6
CONTINUOUS
 62
         7
100
AcDbLine
 10
250.149885
 20
16.019096
 30
0.0
 11
250.179055
 21
16.031652
 31
0.0
  0
LINE
  5
16F
100
AcDbEntity
  8
0
370
         0
390
0
  6
CONTINUOUS
 62
         7
100
AcDbLine
 10
250.179055
 20
16.031652
 30
0.0
 11
250.208196
 21
16.044275
 31
0.0
  0
LINE
  5
170
100
AcDbEntity
  8
0
370
         0
390
0
  6
CONTINUOUS
 62
         7
100
AcDbLine
 10
250.208196
 20
16.044275
 30
0.0
 11
250.237309
 21
16.056962
 31
0.0
  0
LINE
  5
171
100
AcDbEntity
  8
0
370
         0
390
0
  6
CONTINUOUS
 62
         7
100
AcDbLine
 10
250.237309
 20
16.056962
 30
0.0
 11
250.266394
 21
16.069716
 31
0.0
  0
LINE
  5
172
100
AcDbEntity
  8
0
370
         0
390
0
  6
CONTINUOUS
 62
         7
100
AcDbLine
 10
250.266394
 20
16.069716
 30
0.0
 11
250.295449
 21
16.082535
 31
0.0
  0
LINE
  5
173
100
AcDbEntity
  8
0
370
         0
390
0
  6
CONTINUOUS
 62
         7
100
AcDbLine
 10
250.295449
 20
16.082535
 30
0.0
 11
250.324476
 21
16.09542
 31
0.0
  0
LINE
  5
174
100
AcDbEntity
  8
0
370
         0
390
0
  6
CONTINUOUS
 62
         7
100
AcDbLine
 10
250.324476
 20
16.09542
 30
0.0
 11
250.353473
 21
16.10837
 31
0.0
  0
LINE
  5
175
100
AcDbEntity
  8
0
370
         0
390
0
  6
CONTINUOUS
 62
         7
100
AcDbLine
 10
250.353473
 20
16.10837
 30
0.0
 11
250.382441
 21
16.121386
 31
0.0
  0
LINE
  5
176
100
AcDbEntity
  8
0
370
         0
390
0
  6
CONTINUOUS
 62
         7
100
AcDbLine
 10
250.382441
 20
16.121386
 30
0.0
 11
250.411379
 21
16.134469
 31
0.0
  0
LINE
  5
177
100
AcDbEntity
  8
0
370
         0
390
0
  6
CONTINUOUS
 62
         7
100
AcDbLine
 10
250.411379
 20
16.134469
 30
0.0
 11
250.440287
 21
16.147617
 31
0.0
  0
LINE
  5
178
100
AcDbEntity
  8
0
370
         0
390
0
  6
CONTINUOUS
 62
         7
100
AcDbLine
 10
250.440287
 20
16.147617
 30
0.0
 11
250.469165
 21
16.160831
 31
0.0
  0
LINE
  5
179
100
AcDbEntity
  8
0
370
         0
390
0
  6
CONTINUOUS
 62
         7
100
AcDbLine
 10
232.2854
 20
20.163522
 30
0.0
 11
232.313538
 21
20.11725
 31
0.0
  0
LINE
  5
17A
100
AcDbEntity
  8
0
370
         0
390
0
  6
CONTINUOUS
 62
         7
100
AcDbLine
 10
232.313538
 20
20.11725
 30
0.0
 11
232.341991
 21
20.071164
 31
0.0
  0
LINE
  5
17B
100
AcDbEntity
  8
0
370
         0
390
0
  6
CONTINUOUS
 62
         7
100
AcDbLine
 10
232.341991
 20
20.071164
 30
0.0
 11
232.370757
 21
20.025265
 31
0.0
  0
LINE
  5
17C
100
AcDbEntity
  8
0
370
         0
390
0
  6
CONTINUOUS
 62
         7
100
AcDbLine
 10
232.370757
 20
20.025265
 30
0.0
 11
232.399834
 21
19.979556
 31
0.0
  0
LINE
  5
17D
100
AcDbEntity
  8
0
370
         0
390
0
  6
CONTINUOUS
 62
         7
100
AcDbLine
 10
232.399834
 20
19.979556
 30
0.0
 11
232.429217
 21
19.934036
 31
0.0
  0
LINE
  5
17E
100
AcDbEntity
  8
0
370
         0
390
0
  6
CONTINUOUS
 62
         7
100
AcDbLine
 10
232.429217
 20
19.934036
 30
0.0
 11
232.458904
 21
19.888708
 31
0.0
  0
LINE
  5
17F
100
AcDbEntity
  8
0
370
         0
390
0
  6
CONTINUOUS
 62
         7
100
AcDbLine
 10
232.458904
 20
19.888708
 30
0.0
 11
232.488893
 21
19.843572
 31
0.0
  0
LINE
  5
180
100
AcDbEntity
  8
0
370
         0
390
0
  6
CONTINUOUS
 62
         7
100
AcDbLine
 10
232.488893
 20
19.843572
 30
0.0
 11
232.519181
 21
19.79863
 31
0.0
  0
LINE
  5
181
100
AcDbEntity
  8
0
370
         0
390
0
  6
CONTINUOUS
 62
         7
100
AcDbLine
 10
232.519181
 20
19.79863
 30
0.0
 11
232.549283
 21
19.754582
 31
0.0
  0
LINE
  5
182
100
AcDbEntity
  8
0
370
         0
390
0
  6
CONTINUOUS
 62
         7
100
AcDbLine
 10
232.549283
 20
19.754582
 30
0.0
 11
232.57968
 21
19.710707
 31
0.0
  0
LINE
  5
183
100
AcDbEntity
  8
0
370
         0
390
0
  6
CONTINUOUS
 62
         7
100
AcDbLine
 10
232.57968
 20
19.710707
 30
0.0
 11
232.610371
 21
19.667006
 31
0.0
  0
LINE
  5
184
100
AcDbEntity
  8
0
370
         0
390
0
  6
CONTINUOUS
 62
         7
100
AcDbLine
 10
232.610371
 20
19.667006
 30
0.0
 11
232.641351
 21
19.623482
 31
0.0
  0
LINE
  5
185
100
AcDbEntity
  8
0
370
         0
390
0
  6
CONTINUOUS
 62
         7
100
AcDbLine
 10
232.641351
 20
19.623482
 30
0.0
 11
232.672619
 21
19.580135
 31
0.0
  0
LINE
  5
186
100
AcDbEntity
  8
0
370
         0
390
0
  6
CONTINUOUS
 62
         7
100
AcDbLine
 10
232.672619
 20
19.580135
 30
0.0
 11
232.704173
 21
19.536966
 31
0.0
  0
LINE
  5
187
100
AcDbEntity
  8
0
370
         0
390
0
  6
CONTINUOUS
 62
         7
100
AcDbLine
 10
232.704173
 20
19.536966
 30
0.0
 11
232.736009
 21
19.493978
 31
0.0
  0
LINE
  5
188
100
AcDbEntity
  8
0
370
         0
390
0
  6
CONTINUOUS
 62
         7
100
AcDbLine
 10
232.736009
 20
19.493978
 30
0.0
 11
232.768126
 21
19.45117
 31
0.0
  0
LINE
  5
189
100
AcDbEntity
  8
0
370
         0
390
0
  6
CONTINUOUS
 62
         7
100
AcDbLine
 10
234.819617
 20
17.452661
 30
0.0
 11
234.850918
 21
17.429731
 31
0.0
  0
LINE
  5
18A
100
AcDbEntity
  8
0
370
         0
390
0
  6
CONTINUOUS
 62
         7
100
AcDbLine
 10
234.850918
 20
17.429731
 30
0.0
 11
234.8823
 21
17.406907
 31
0.0
  0
LINE
  5
18B
100
AcDbEntity
  8
0
370
         0
390
0
  6
CONTINUOUS
 62
         7
100
AcDbLine
 10
234.8823
 20
17.406907
 30
0.0
 11
234.91376
 21
17.384188
 31
0.0
  0
LINE
  5
18C
100
AcDbEntity
  8
0
370
         0
390
0
  6
CONTINUOUS
 62
         7
100
AcDbLine
 10
234.91376
 20
17.384188
 30
0.0
 11
234.9453
 21
17.361574
 31
0.0
  0
LINE
  5
18D
100
AcDbEntity
  8
0
370
         0
390
0
  6
CONTINUOUS
 62
         7
100
AcDbLine
 10
234.9453
 20
17.361574
 30
0.0
 11
234.976917
 21
17.339064
 31
0.0
  0
LINE
  5
18E
100
AcDbEntity
  8
0
370
         0
390
0
  6
CONTINUOUS
 62
         7
100
AcDbLine
 10
234.976917
 20
17.339064
 30
0.0
 11
235.008612
 21
17.316659
 31
0.0
  0
LINE
  5
18F
100
AcDbEntity
  8
0
370
         0
390
0
  6
CONTINUOUS
 62
         7
100
AcDbLine
 10
235.008612
 20
17.316659
 30
0.0
 11
235.040384
 21
17.294359
 31
0.0
  0
LINE
  5
190
100
AcDbEntity
  8
0
370
         0
390
0
  6
CONTINUOUS
 62
         7
100
AcDbLine
 10
235.040384
 20
17.294359
 30
0.0
 11
235.072232
 21
17.272164
 31
0.0
  0
LINE
  5
191
100
AcDbEntity
  8
0
370
         0
390
0
  6
CONTINUOUS
 62
         7
100
AcDbLine
 10
235.072232
 20
17.272164
 30
0.0
 11
235.104155
 21
17.250073
 31
0.0
  0
LINE
  5
192
100
AcDbEntity
  8
0
370
         0
390
0
  6
CONTINUOUS
 62
         7
100
AcDbLine
 10
235.104155
 20
17.250073
 30
0.0
 11
235.136153
 21
17.228087
 31
0.0
  0
LINE
  5
193
100
AcDbEntity
  8
0
370
         0
390
0
  6
CONTINUOUS
 62
         7
100
AcDbLine
 10
235.136153
 20
17.228087
 30
0.0
 11
235.168225
 21
17.206205
 31
0.0
  0
LINE
  5
194
100
AcDbEntity
  8
0
370
         0
390
0
  6
CONTINUOUS
 62
         7
100
AcDbLine
 10
235.168225
 20
17.206205
 30
0.0
 11
235.200371
 21
17.184428
 31
0.0
  0
LINE
  5
195
100
AcDbEntity
  8
0
370
         0
390
0
  6
CONTINUOUS
 62
         7
100
AcDbLine
 10
235.200371
 20
17.184428
 30
0.0
 11
235.232589
 21
17.162756
 31
0.0
  0
LINE
  5
196
100
AcDbEntity
  8
0
370
         0
390
0
  6
CONTINUOUS
 62
         7
100
AcDbLine
 10
235.232589
 20
17.162756
 30
0.0
 11
235.26488
 21
17.141188
 31
0.0
  0
LINE
  5
197
100
AcDbEntity
  8
0
370
         0
390
0
  6
CONTINUOUS
 62
         7
100
AcDbLine
 10
235.26488
 20
17.141188
 30
0.0
 11
235.297242
 21
17.119724
 31
0.0
  0
LINE
  5
198
100
AcDbEntity
  8
0
370
         0
390
0
  6
CONTINUOUS
 62
         7
100
AcDbLine
 10
235.297242
 20
17.119724
 30
0.0
 11
235.328862
 21
17.098898
 31
0.0
  0
LINE
  5
199
100
AcDbEntity
  8
0
370
         0
390
0
  6
CONTINUOUS
 62
         7
100
AcDbLine
 10
237.029973
 20
16.161227
 30
0.0
 11
237.0592
 21
16.147851
 31
0.0
  0
LINE
  5
19A
100
AcDbEntity
  8
0
370
         0
390
0
  6
CONTINUOUS
 62
         7
100
AcDbLine
 10
237.0592
 20
16.147851
 30
0.0
 11
237.088471
 21
16.134537
 31
0.0
  0
LINE
  5
19B
100
AcDbEntity
  8
0
370
         0
390
0
  6
CONTINUOUS
 62
         7
100
AcDbLine
 10
237.088471
 20
16.134537
 30
0.0
 11
237.117785
 21
16.121285
 31
0.0
  0
LINE
  5
19C
100
AcDbEntity
  8
0
370
         0
390
0
  6
CONTINUOUS
 62
         7
100
AcDbLine
 10
237.117785
 20
16.121285
 30
0.0
 11
237.147142
 21
16.108094
 31
0.0
  0
LINE
  5
19D
100
AcDbEntity
  8
0
370
         0
390
0
  6
CONTINUOUS
 62
         7
100
AcDbLine
 10
237.147142
 20
16.108094
 30
0.0
 11
237.176542
 21
16.094966
 31
0.0
  0
LINE
  5
19E
100
AcDbEntity
  8
0
370
         0
390
0
  6
CONTINUOUS
 62
         7
100
AcDbLine
 10
237.176542
 20
16.094966
 30
0.0
 11
237.205985
 21
16.0819
 31
0.0
  0
LINE
  5
19F
100
AcDbEntity
  8
0
370
         0
390
0
  6
CONTINUOUS
 62
         7
100
AcDbLine
 10
237.205985
 20
16.0819
 30
0.0
 11
237.23547
 21
16.068896
 31
0.0
  0
LINE
  5
1A0
100
AcDbEntity
  8
0
370
         0
390
0
  6
CONTINUOUS
 62
         7
100
AcDbLine
 10
237.23547
 20
16.068896
 30
0.0
 11
237.264997
 21
16.055955
 31
0.0
  0
LINE
  5
1A1
100
AcDbEntity
  8
0
370
         0
390
0
  6
CONTINUOUS
 62
         7
100
AcDbLine
 10
237.264997
 20
16.055955
 30
0.0
 11
237.294565
 21
16.043075
 31
0.0
  0
LINE
  5
1A2
100
AcDbEntity
  8
0
370
         0
390
0
  6
CONTINUOUS
 62
         7
100
AcDbLine
 10
237.294565
 20
16.043075
 30
0.0
 11
237.324175
 21
16.030258
 31
0.0
  0
LINE
  5
1A3
100
AcDbEntity
  8
0
370
         0
390
0
  6
CONTINUOUS
 62
         7
100
AcDbLine
 10
237.324175
 20
16.030258
 30
0.0
 11
237.353825
 21
16.017504
 31
0.0
  0
LINE
  5
1A4
100
AcDbEntity
  8
0
370
         0
390
0
  6
CONTINUOUS
 62
         7
100
AcDbLine
 10
237.353825
 20
16.017504
 30
0.0
 11
237.383517
 21
16.004812
 31
0.0
  0
LINE
  5
1A5
100
AcDbEntity
  8
0
370
         0
390
0
  6
CONTINUOUS
 62
         7
100
AcDbLine
 10
237.383517
 20
16.004812
 30
0.0
 11
237.413248
 21
15.992182
 31
0.0
  0
LINE
  5
1A6
100
AcDbEntity
  8
0
370
         0
390
0
  6
CONTINUOUS
 62
         7
100
AcDbLine
 10
237.413248
 20
15.992182
 30
0.0
 11
237.44302
 21
15.979616
 31
0.0
  0
LINE
  5
1A7
100
AcDbEntity
  8
0
370
         0
390
0
  6
CONTINUOUS
 62
         7
100
AcDbLine
 10
237.44302
 20
15.979616
 30
0.0
 11
237.472831
 21
15.967112
 31
0.0
  0
LINE
  5
1A8
100
AcDbEntity
  8
0
370
         0
390
0
  6
CONTINUOUS
 62
         7
100
AcDbLine
 10
237.472831
 20
15.967112
 30
0.0
 11
237.502682
 21
15.95467
 31
0.0
  0
LINE
  5
1A9
100
AcDbEntity
  8
0
370
         0
390
0
  6
CONTINUOUS
 62
         7
100
AcDbLine
 10
252.170758
 20
17.098648
 30
0.0
 11
252.20322
 21
17.120029
 31
0.0
  0
LINE
  5
1AA
100
AcDbEntity
  8
0
370
         0
390
0
  6
CONTINUOUS
 62
         7
100
AcDbLine
 10
252.20322
 20
17.120029
 30
0.0
 11
252.235614
 21
17.141516
 31
0.0
  0
LINE
  5
1AB
100
AcDbEntity
  8
0
370
         0
390
0
  6
CONTINUOUS
 62
         7
100
AcDbLine
 10
252.235614
 20
17.141516
 30
0.0
 11
252.267937
 21
17.163108
 31
0.0
  0
LINE
  5
1AC
100
AcDbEntity
  8
0
370
         0
390
0
  6
CONTINUOUS
 62
         7
100
AcDbLine
 10
252.267937
 20
17.163108
 30
0.0
 11
252.300189
 21
17.184806
 31
0.0
  0
LINE
  5
1AD
100
AcDbEntity
  8
0
370
         0
390
0
  6
CONTINUOUS
 62
         7
100
AcDbLine
 10
252.300189
 20
17.184806
 30
0.0
 11
252.332369
 21
17.206609
 31
0.0
  0
LINE
  5
1AE
100
AcDbEntity
  8
0
370
         0
390
0
  6
CONTINUOUS
 62
         7
100
AcDbLine
 10
252.332369
 20
17.206609
 30
0.0
 11
252.364478
 21
17.228519
 31
0.0
  0
LINE
  5
1AF
100
AcDbEntity
  8
0
370
         0
390
0
  6
CONTINUOUS
 62
         7
100
AcDbLine
 10
252.364478
 20
17.228519
 30
0.0
 11
252.396514
 21
17.250534
 31
0.0
  0
LINE
  5
1B0
100
AcDbEntity
  8
0
370
         0
390
0
  6
CONTINUOUS
 62
         7
100
AcDbLine
 10
252.396514
 20
17.250534
 30
0.0
 11
252.428477
 21
17.272656
 31
0.0
  0
LINE
  5
1B1
100
AcDbEntity
  8
0
370
         0
390
0
  6
CONTINUOUS
 62
         7
100
AcDbLine
 10
252.428477
 20
17.272656
 30
0.0
 11
252.460367
 21
17.294884
 31
0.0
  0
LINE
  5
1B2
100
AcDbEntity
  8
0
370
         0
390
0
  6
CONTINUOUS
 62
         7
100
AcDbLine
 10
252.460367
 20
17.294884
 30
0.0
 11
252.492182
 21
17.317218
 31
0.0
  0
LINE
  5
1B3
100
AcDbEntity
  8
0
370
         0
390
0
  6
CONTINUOUS
 62
         7
100
AcDbLine
 10
252.492182
 20
17.317218
 30
0.0
 11
252.523921
 21
17.339659
 31
0.0
  0
LINE
  5
1B4
100
AcDbEntity
  8
0
370
         0
390
0
  6
CONTINUOUS
 62
         7
100
AcDbLine
 10
252.523921
 20
17.339659
 30
0.0
 11
252.555586
 21
17.362206
 31
0.0
  0
LINE
  5
1B5
100
AcDbEntity
  8
0
370
         0
390
0
  6
CONTINUOUS
 62
         7
100
AcDbLine
 10
252.555586
 20
17.362206
 30
0.0
 11
252.587174
 21
17.38486
 31
0.0
  0
LINE
  5
1B6
100
AcDbEntity
  8
0
370
         0
390
0
  6
CONTINUOUS
 62
         7
100
AcDbLine
 10
252.587174
 20
17.38486
 30
0.0
 11
252.618685
 21
17.407621
 31
0.0
  0
LINE
  5
1B7
100
AcDbEntity
  8
0
370
         0
390
0
  6
CONTINUOUS
 62
         7
100
AcDbLine
 10
252.618685
 20
17.407621
 30
0.0
 11
252.650119
 21
17.430489
 31
0.0
  0
LINE
  5
1B8
100
AcDbEntity
  8
0
370
         0
390
0
  6
CONTINUOUS
 62
         7
100
AcDbLine
 10
252.650119
 20
17.430489
 30
0.0
 11
252.681475
 21
17.453463
 31
0.0
  0
LINE
  5
1B9
100
AcDbEntity
  8
0
370
         0
390
0
  6
CONTINUOUS
 62
         7
100
AcDbLine
 10
254.726619
 20
19.444218
 30
0.0
 11
254.759275
 21
19.487657
 31
0.0
  0
LINE
  5
1BA
100
AcDbEntity
  8
0
370
         0
390
0
  6
CONTINUOUS
 62
         7
100
AcDbLine
 10
254.759275
 20
19.487657
 30
0.0
 11
254.791656
 21
19.531302
 31
0.0
  0
LINE
  5
1BB
100
AcDbEntity
  8
0
370
         0
390
0
  6
CONTINUOUS
 62
         7
100
AcDbLine
 10
254.791656
 20
19.531302
 30
0.0
 11
254.823759
 21
19.575151
 31
0.0
  0
LINE
  5
1BC
100
AcDbEntity
  8
0
370
         0
390
0
  6
CONTINUOUS
 62
         7
100
AcDbLine
 10
254.823759
 20
19.575151
 30
0.0
 11
254.855582
 21
19.619204
 31
0.0
  0
LINE
  5
1BD
100
AcDbEntity
  8
0
370
         0
390
0
  6
CONTINUOUS
 62
         7
100
AcDbLine
 10
254.855582
 20
19.619204
 30
0.0
 11
254.887121
 21
19.66346
 31
0.0
  0
LINE
  5
1BE
100
AcDbEntity
  8
0
370
         0
390
0
  6
CONTINUOUS
 62
         7
100
AcDbLine
 10
254.887121
 20
19.66346
 30
0.0
 11
254.918374
 21
19.707919
 31
0.0
  0
LINE
  5
1BF
100
AcDbEntity
  8
0
370
         0
390
0
  6
CONTINUOUS
 62
         7
100
AcDbLine
 10
254.918374
 20
19.707919
 30
0.0
 11
254.949339
 21
19.752579
 31
0.0
  0
LINE
  5
1C0
100
AcDbEntity
  8
0
370
         0
390
0
  6
CONTINUOUS
 62
         7
100
AcDbLine
 10
254.949339
 20
19.752579
 30
0.0
 11
254.980012
 21
19.79744
 31
0.0
  0
LINE
  5
1C1
100
AcDbEntity
  8
0
370
         0
390
0
  6
CONTINUOUS
 62
         7
100
AcDbLine
 10
254.980012
 20
19.79744
 30
0.0
 11
255.01039
 21
19.842501
 31
0.0
  0
LINE
  5
1C2
100
AcDbEntity
  8
0
370
         0
390
0
  6
CONTINUOUS
 62
         7
100
AcDbLine
 10
255.01039
 20
19.842501
 30
0.0
 11
255.040471
 21
19.887761
 31
0.0
  0
LINE
  5
1C3
100
AcDbEntity
  8
0
370
         0
390
0
  6
CONTINUOUS
 62
         7
100
AcDbLine
 10
255.040471
 20
19.887761
 30
0.0
 11
255.070251
 21
19.933219
 31
0.0
  0
LINE
  5
1C4
100
AcDbEntity
  8
0
370
         0
390
0
  6
CONTINUOUS
 62
         7
100
AcDbLine
 10
255.070251
 20
19.933219
 30
0.0
 11
255.099729
 21
19.978873
 31
0.0
  0
LINE
  5
1C5
100
AcDbEntity
  8
0
370
         0
390
0
  6
CONTINUOUS
 62
         7
100
AcDbLine
 10
255.099729
 20
19.978873
 30
0.0
 11
255.128901
 21
20.024724
 31
0.0
  0
LINE
  5
1C6
100
AcDbEntity
  8
0
370
         0
390
0
  6
CONTINUOUS
 62
         7
100
AcDbLine
 10
255.128901
 20
20.024724
 30
0.0
 11
255.157764
 21
20.07077
 31
0.0
  0
LINE
  5
1C7
100
AcDbEntity
  8
0
370
         0
390
0
  6
CONTINUOUS
 62
         7
100
AcDbLine
 10
255.157764
 20
20.07077
 30
0.0
 11
255.186315
 21
20.117009
 31
0.0
  0
LINE
  5
1C8
100
AcDbEntity
  8
0
370
         0
390
0
  6
CONTINUOUS
 62
         7
100
AcDbLine
 10
255.186315
 20
20.117009
 30
0.0
 11
255.214552
 21
20.163442
 31
0.0
  0
LINE
  5
1C9
100
AcDbEntity
  8
0
370
         0
390
0
  6
CONTINUOUS
 62
         7
100
AcDbLine
 10
235.250114
 20
24.789958
 30
0.0
 11
235.160551
 21
24.823314
 31
0.0
  0
LINE
  5
1CA
100
AcDbEntity
  8
0
370
         0
390
0
  6
CONTINUOUS
 62
         7
100
AcDbLine
 10
235.160551
 20
24.823314
 30
0.0
 11
235.069982
 21
24.854026
 31
0.0
  0
LINE
  5
1CB
100
AcDbEntity
  8
0
370
         0
390
0
  6
CONTINUOUS
 62
         7
100
AcDbLine
 10
235.069982
 20
24.854026
 30
0.0
 11
234.978561
 21
24.882199
 31
0.0
  0
LINE
  5
1CC
100
AcDbEntity
  8
0
370
         0
390
0
  6
CONTINUOUS
 62
         7
100
AcDbLine
 10
234.978561
 20
24.882199
 30
0.0
 11
234.886554
 21
24.907892
 31
0.0
  0
LINE
  5
1CD
100
AcDbEntity
  8
0
370
         0
390
0
  6
CONTINUOUS
 62
         7
100
AcDbLine
 10
234.886554
 20
24.907892
 30
0.0
 11
234.793198
 21
24.931414
 31
0.0
  0
LINE
  5
1CE
100
AcDbEntity
  8
0
370
         0
390
0
  6
CONTINUOUS
 62
         7
100
AcDbLine
 10
234.793198
 20
24.931414
 30
0.0
 11
234.699885
 21
24.952509
 31
0.0
  0
LINE
  5
1CF
100
AcDbEntity
  8
0
370
         0
390
0
  6
CONTINUOUS
 62
         7
100
AcDbLine
 10
234.699885
 20
24.952509
 30
0.0
 11
234.6061
 21
24.971403
 31
0.0
  0
LINE
  5
1D0
100
AcDbEntity
  8
0
370
         0
390
0
  6
CONTINUOUS
 62
         7
100
AcDbLine
 10
234.6061
 20
24.971403
 30
0.0
 11
234.511908
 21
24.988158
 31
0.0
  0
LINE
  5
1D1
100
AcDbEntity
  8
0
370
         0
390
0
  6
CONTINUOUS
 62
         7
100
AcDbLine
 10
234.511908
 20
24.988158
 30
0.0
 11
234.417367
 21
25.002826
 31
0.0
  0
LINE
  5
1D2
100
AcDbEntity
  8
0
370
         0
390
0
  6
CONTINUOUS
 62
         7
100
AcDbLine
 10
234.417367
 20
25.002826
 30
0.0
 11
234.322528
 21
25.015452
 31
0.0
  0
LINE
  5
1D3
100
AcDbEntity
  8
0
370
         0
390
0
  6
CONTINUOUS
 62
         7
100
AcDbLine
 10
234.322528
 20
25.015452
 30
0.0
 11
234.227443
 21
25.026073
 31
0.0
  0
LINE
  5
1D4
100
AcDbEntity
  8
0
370
         0
390
0
  6
CONTINUOUS
 62
         7
100
AcDbLine
 10
234.227443
 20
25.026073
 30
0.0
 11
234.132156
 21
25.034722
 31
0.0
  0
LINE
  5
1D5
100
AcDbEntity
  8
0
370
         0
390
0
  6
CONTINUOUS
 62
         7
100
AcDbLine
 10
234.132156
 20
25.034722
 30
0.0
 11
234.036712
 21
25.041423
 31
0.0
  0
LINE
  5
1D6
100
AcDbEntity
  8
0
370
         0
390
0
  6
CONTINUOUS
 62
         7
100
AcDbLine
 10
234.036712
 20
25.041423
 30
0.0
 11
233.941153
 21
25.046194
 31
0.0
  0
LINE
  5
1D7
100
AcDbEntity
  8
0
370
         0
390
0
  6
CONTINUOUS
 62
         7
100
AcDbLine
 10
233.941153
 20
25.046194
 30
0.0
 11
233.844859
 21
25.049063
 31
0.0
  0
LINE
  5
1D8
100
AcDbEntity
  8
0
370
         0
390
0
  6
CONTINUOUS
 62
         7
100
AcDbLine
 10
233.844859
 20
25.049063
 30
0.0
 11
233.750015
 21
25.049999
 31
0.0
  0
LINE
  5
1D9
100
AcDbEntity
  8
0
370
         0
390
0
  6
CONTINUOUS
 62
         7
100
AcDbLine
 10
239.054151
 20
23.163933
 30
0.0
 11
239.319047
 21
23.259047
 31
0.0
  0
LINE
  5
1DA
100
AcDbEntity
  8
0
370
         0
390
0
  6
CONTINUOUS
 62
         7
100
AcDbLine
 10
239.319047
 20
23.259047
 30
0.0
 11
239.569742
 21
23.385645
 31
0.0
  0
LINE
  5
1DB
100
AcDbEntity
  8
0
370
         0
390
0
  6
CONTINUOUS
 62
         7
100
AcDbLine
 10
239.569742
 20
23.385645
 30
0.0
 11
239.799775
 21
23.546674
 31
0.0
  0
LINE
  5
1DC
100
AcDbEntity
  8
0
370
         0
390
0
  6
CONTINUOUS
 62
         7
100
AcDbLine
 10
239.799775
 20
23.546674
 30
0.0
 11
239.998618
 21
23.744761
 31
0.0
  0
LINE
  5
1DD
100
AcDbEntity
  8
0
370
         0
390
0
  6
CONTINUOUS
 62
         7
100
AcDbLine
 10
239.998618
 20
23.744761
 30
0.0
 11
240.150868
 21
23.980261
 31
0.0
  0
LINE
  5
1DE
100
AcDbEntity
  8
0
370
         0
390
0
  6
CONTINUOUS
 62
         7
100
AcDbLine
 10
240.150868
 20
23.980261
 30
0.0
 11
240.237133
 21
24.247127
 31
0.0
  0
LINE
  5
1DF
100
AcDbEntity
  8
0
370
         0
390
0
  6
CONTINUOUS
 62
         7
100
AcDbLine
 10
240.237133
 20
24.247127
 30
0.0
 11
240.241218
 21
24.526382
 31
0.0
  0
LINE
  5
1E0
100
AcDbEntity
  8
0
370
         0
390
0
  6
CONTINUOUS
 62
         7
100
AcDbLine
 10
240.241218
 20
24.526382
 30
0.0
 11
240.162694
 21
24.794526
 31
0.0
  0
LINE
  5
1E1
100
AcDbEntity
  8
0
370
         0
390
0
  6
CONTINUOUS
 62
         7
100
AcDbLine
 10
240.162694
 20
24.794526
 30
0.0
 11
240.016236
 21
25.033363
 31
0.0
  0
LINE
  5
1E2
100
AcDbEntity
  8
0
370
         0
390
0
  6
CONTINUOUS
 62
         7
100
AcDbLine
 10
240.016236
 20
25.033363
 30
0.0
 11
239.821523
 21
25.235022
 31
0.0
  0
LINE
  5
1E3
100
AcDbEntity
  8
0
370
         0
390
0
  6
CONTINUOUS
 62
         7
100
AcDbLine
 10
239.821523
 20
25.235022
 30
0.0
 11
239.59467
 21
25.399339
 31
0.0
  0
LINE
  5
1E4
100
AcDbEntity
  8
0
370
         0
390
0
  6
CONTINUOUS
 62
         7
100
AcDbLine
 10
239.59467
 20
25.399339
 30
0.0
 11
239.345766
 21
25.529353
 31
0.0
  0
LINE
  5
1E5
100
AcDbEntity
  8
0
370
         0
390
0
  6
CONTINUOUS
 62
         7
100
AcDbLine
 10
239.345766
 20
25.529353
 30
0.0
 11
239.082616
 21
25.627454
 31
0.0
  0
LINE
  5
1E6
100
AcDbEntity
  8
0
370
         0
390
0
  6
CONTINUOUS
 62
         7
100
AcDbLine
 10
239.082616
 20
25.627454
 30
0.0
 11
238.810181
 21
25.695965
 31
0.0
  0
LINE
  5
1E7
100
AcDbEntity
  8
0
370
         0
390
0
  6
CONTINUOUS
 62
         7
100
AcDbLine
 10
238.810181
 20
25.695965
 30
0.0
 11
238.532136
 21
25.7365
 31
0.0
  0
LINE
  5
1E8
100
AcDbEntity
  8
0
370
         0
390
0
  6
CONTINUOUS
 62
         7
100
AcDbLine
 10
238.532136
 20
25.7365
 30
0.0
 11
238.25
 21
25.75
 31
0.0
  0
LINE
  5
1E9
100
AcDbEntity
  8
0
370
         0
390
0
  6
CONTINUOUS
 62
         7
100
AcDbLine
 10
238.25
 20
23.75
 30
0.0
 11
238.413069
 21
23.758701
 31
0.0
  0
LINE
  5
1EA
100
AcDbEntity
  8
0
370
         0
390
0
  6
CONTINUOUS
 62
         7
100
AcDbLine
 10
238.413069
 20
23.758701
 30
0.0
 11
238.574424
 21
23.785159
 31
0.0
  0
LINE
  5
1EB
100
AcDbEntity
  8
0
370
         0
390
0
  6
CONTINUOUS
 62
         7
100
AcDbLine
 10
238.574424
 20
23.785159
 30
0.0
 11
238.732009
 21
23.830495
 31
0.0
  0
LINE
  5
1EC
100
AcDbEntity
  8
0
370
         0
390
0
  6
CONTINUOUS
 62
         7
100
AcDbLine
 10
238.732009
 20
23.830495
 30
0.0
 11
238.882654
 21
23.896623
 31
0.0
  0
LINE
  5
1ED
100
AcDbEntity
  8
0
370
         0
390
0
  6
CONTINUOUS
 62
         7
100
AcDbLine
 10
238.882654
 20
23.896623
 30
0.0
 11
239.020143
 21
23.985392
 31
0.0
  0
LINE
  5
1EE
100
AcDbEntity
  8
0
370
         0
390
0
  6
CONTINUOUS
 62
         7
100
AcDbLine
 10
239.020143
 20
23.985392
 30
0.0
 11
239.136969
 21
24.099822
 31
0.0
  0
LINE
  5
1EF
100
AcDbEntity
  8
0
370
         0
390
0
  6
CONTINUOUS
 62
         7
100
AcDbLine
 10
239.136969
 20
24.099822
 30
0.0
 11
239.219732
 21
24.241302
 31
0.0
  0
LINE
  5
1F0
100
AcDbEntity
  8
0
370
         0
390
0
  6
CONTINUOUS
 62
         7
100
AcDbLine
 10
239.219732
 20
24.241302
 30
0.0
 11
239.25
 21
24.400013
 31
0.0
  0
LINE
  5
1F1
100
AcDbEntity
  8
0
370
         0
390
0
  6
CONTINUOUS
 62
         7
100
AcDbLine
 10
239.25
 20
24.400013
 30
0.0
 11
239.219498
 21
24.559327
 31
0.0
  0
LINE
  5
1F2
100
AcDbEntity
  8
0
370
         0
390
0
  6
CONTINUOUS
 62
         7
100
AcDbLine
 10
239.219498
 20
24.559327
 30
0.0
 11
239.13762
 21
24.699384
 31
0.0
  0
LINE
  5
1F3
100
AcDbEntity
  8
0
370
         0
390
0
  6
CONTINUOUS
 62
         7
100
AcDbLine
 10
239.13762
 20
24.699384
 30
0.0
 11
239.021152
 21
24.81383
 31
0.0
  0
LINE
  5
1F4
100
AcDbEntity
  8
0
370
         0
390
0
  6
CONTINUOUS
 62
         7
100
AcDbLine
 10
239.021152
 20
24.81383
 30
0.0
 11
238.884068
 21
24.902635
 31
0.0
  0
LINE
  5
1F5
100
AcDbEntity
  8
0
370
         0
390
0
  6
CONTINUOUS
 62
         7
100
AcDbLine
 10
238.884068
 20
24.902635
 30
0.0
 11
238.734303
 21
24.968688
 31
0.0
  0
LINE
  5
1F6
100
AcDbEntity
  8
0
370
         0
390
0
  6
CONTINUOUS
 62
         7
100
AcDbLine
 10
238.734303
 20
24.968688
 30
0.0
 11
238.577066
 21
25.014252
 31
0.0
  0
LINE
  5
1F7
100
AcDbEntity
  8
0
370
         0
390
0
  6
CONTINUOUS
 62
         7
100
AcDbLine
 10
238.577066
 20
25.014252
 30
0.0
 11
238.4155
 21
25.041036
 31
0.0
  0
LINE
  5
1F8
100
AcDbEntity
  8
0
370
         0
390
0
  6
CONTINUOUS
 62
         7
100
AcDbLine
 10
238.4155
 20
25.041036
 30
0.0
 11
238.251951
 21
25.049998
 31
0.0
  0
LINE
  5
1F9
100
AcDbEntity
  8
0
370
         0
390
0
  6
CONTINUOUS
 62
         7
100
AcDbLine
 10
235.249462
 20
25.350328
 30
0.0
 11
234.666883
 21
25.61064
 31
0.0
  0
LINE
  5
1FA
100
AcDbEntity
  8
0
370
         0
390
0
  6
CONTINUOUS
 62
         7
100
AcDbLine
 10
234.666883
 20
25.61064
 30
0.0
 11
234.040767
 21
25.736428
 31
0.0
  0
LINE
  5
1FB
100
AcDbEntity
  8
0
370
         0
390
0
  6
CONTINUOUS
 62
         7
100
AcDbLine
 10
234.040767
 20
25.736428
 30
0.0
 11
233.402567
 21
25.73059
 31
0.0
  0
LINE
  5
1FC
100
AcDbEntity
  8
0
370
         0
390
0
  6
CONTINUOUS
 62
         7
100
AcDbLine
 10
233.402567
 20
25.73059
 30
0.0
 11
232.78004
 21
25.593326
 31
0.0
  0
LINE
  5
1FD
100
AcDbEntity
  8
0
370
         0
390
0
  6
CONTINUOUS
 62
         7
100
AcDbLine
 10
232.78004
 20
25.593326
 30
0.0
 11
232.20228
 21
25.320632
 31
0.0
  0
LINE
  5
1FE
100
AcDbEntity
  8
0
370
         0
390
0
  6
CONTINUOUS
 62
         7
100
AcDbLine
 10
232.20228
 20
25.320632
 30
0.0
 11
231.714053
 21
24.910649
 31
0.0
  0
LINE
  5
1FF
100
AcDbEntity
  8
0
370
         0
390
0
  6
CONTINUOUS
 62
         7
100
AcDbLine
 10
231.714053
 20
24.910649
 30
0.0
 11
231.374153
 21
24.372395
 31
0.0
  0
LINE
  5
200
100
AcDbEntity
  8
0
370
         0
390
0
  6
CONTINUOUS
 62
         7
100
AcDbLine
 10
231.374153
 20
24.372395
 30
0.0
 11
231.250015
 21
23.75
 31
0.0
  0
LINE
  5
201
100
AcDbEntity
  8
0
370
         0
390
0
  6
CONTINUOUS
 62
         7
100
AcDbLine
 10
231.250015
 20
23.75
 30
0.0
 11
231.374395
 21
23.127013
 31
0.0
  0
LINE
  5
202
100
AcDbEntity
  8
0
370
         0
390
0
  6
CONTINUOUS
 62
         7
100
AcDbLine
 10
231.374395
 20
23.127013
 30
0.0
 11
231.714313
 21
22.589059
 31
0.0
  0
LINE
  5
203
100
AcDbEntity
  8
0
370
         0
390
0
  6
CONTINUOUS
 62
         7
100
AcDbLine
 10
231.714313
 20
22.589059
 30
0.0
 11
232.202607
 21
22.179161
 31
0.0
  0
LINE
  5
204
100
AcDbEntity
  8
0
370
         0
390
0
  6
CONTINUOUS
 62
         7
100
AcDbLine
 10
232.202607
 20
22.179161
 30
0.0
 11
232.779587
 21
21.906826
 31
0.0
  0
LINE
  5
205
100
AcDbEntity
  8
0
370
         0
390
0
  6
CONTINUOUS
 62
         7
100
AcDbLine
 10
232.779587
 20
21.906826
 30
0.0
 11
233.403235
 21
21.769335
 31
0.0
  0
LINE
  5
206
100
AcDbEntity
  8
0
370
         0
390
0
  6
CONTINUOUS
 62
         7
100
AcDbLine
 10
233.403235
 20
21.769335
 30
0.0
 11
234.04151
 21
21.763642
 31
0.0
  0
LINE
  5
207
100
AcDbEntity
  8
0
370
         0
390
0
  6
CONTINUOUS
 62
         7
100
AcDbLine
 10
234.04151
 20
21.763642
 30
0.0
 11
234.666444
 21
21.889221
 31
0.0
  0
LINE
  5
208
100
AcDbEntity
  8
0
370
         0
390
0
  6
CONTINUOUS
 62
         7
100
AcDbLine
 10
234.666444
 20
21.889221
 30
0.0
 11
235.249623
 21
22.149769
 31
0.0
  0
LINE
  5
209
100
AcDbEntity
  8
0
370
         0
390
0
  6
CONTINUOUS
 62
         7
100
AcDbLine
 10
233.750015
 20
25.049999
 30
0.0
 11
233.444931
 21
25.022826
 31
0.0
  0
LINE
  5
20A
100
AcDbEntity
  8
0
370
         0
390
0
  6
CONTINUOUS
 62
         7
100
AcDbLine
 10
233.444931
 20
25.022826
 30
0.0
 11
233.149684
 21
24.941343
 31
0.0
  0
LINE
  5
20B
100
AcDbEntity
  8
0
370
         0
390
0
  6
CONTINUOUS
 62
         7
100
AcDbLine
 10
233.149684
 20
24.941343
 30
0.0
 11
232.874813
 21
24.805776
 31
0.0
  0
LINE
  5
20C
100
AcDbEntity
  8
0
370
         0
390
0
  6
CONTINUOUS
 62
         7
100
AcDbLine
 10
232.874813
 20
24.805776
 30
0.0
 11
232.632701
 21
24.617363
 31
0.0
  0
LINE
  5
20D
100
AcDbEntity
  8
0
370
         0
390
0
  6
CONTINUOUS
 62
         7
100
AcDbLine
 10
232.632701
 20
24.617363
 30
0.0
 11
232.438007
 21
24.380129
 31
0.0
  0
LINE
  5
20E
100
AcDbEntity
  8
0
370
         0
390
0
  6
CONTINUOUS
 62
         7
100
AcDbLine
 10
232.438007
 20
24.380129
 30
0.0
 11
232.306417
 21
24.103131
 31
0.0
  0
LINE
  5
20F
100
AcDbEntity
  8
0
370
         0
390
0
  6
CONTINUOUS
 62
         7
100
AcDbLine
 10
232.306417
 20
24.103131
 30
0.0
 11
232.251216
 21
23.802016
 31
0.0
  0
LINE
  5
210
100
AcDbEntity
  8
0
370
         0
390
0
  6
CONTINUOUS
 62
         7
100
AcDbLine
 10
232.251216
 20
23.802016
 30
0.0
 11
232.278534
 21
23.497707
 31
0.0
  0
LINE
  5
211
100
AcDbEntity
  8
0
370
         0
390
0
  6
CONTINUOUS
 62
         7
100
AcDbLine
 10
232.278534
 20
23.497707
 30
0.0
 11
232.385091
 21
23.210867
 31
0.0
  0
LINE
  5
212
100
AcDbEntity
  8
0
370
         0
390
0
  6
CONTINUOUS
 62
         7
100
AcDbLine
 10
232.385091
 20
23.210867
 30
0.0
 11
232.559405
 21
22.959268
 31
0.0
  0
LINE
  5
213
100
AcDbEntity
  8
0
370
         0
390
0
  6
CONTINUOUS
 62
         7
100
AcDbLine
 10
232.559405
 20
22.959268
 30
0.0
 11
232.786477
 21
22.753676
 31
0.0
  0
LINE
  5
214
100
AcDbEntity
  8
0
370
         0
390
0
  6
CONTINUOUS
 62
         7
100
AcDbLine
 10
232.786477
 20
22.753676
 30
0.0
 11
233.051376
 21
22.599616
 31
0.0
  0
LINE
  5
215
100
AcDbEntity
  8
0
370
         0
390
0
  6
CONTINUOUS
 62
         7
100
AcDbLine
 10
233.051376
 20
22.599616
 30
0.0
 11
233.341123
 21
22.499233
 31
0.0
  0
LINE
  5
216
100
AcDbEntity
  8
0
370
         0
390
0
  6
CONTINUOUS
 62
         7
100
AcDbLine
 10
233.341123
 20
22.499233
 30
0.0
 11
233.6443
 21
22.453233
 31
0.0
  0
LINE
  5
217
100
AcDbEntity
  8
0
370
         0
390
0
  6
CONTINUOUS
 62
         7
100
AcDbLine
 10
233.6443
 20
22.453233
 30
0.0
 11
233.950758
 21
22.461695
 31
0.0
  0
LINE
  5
218
100
AcDbEntity
  8
0
370
         0
390
0
  6
CONTINUOUS
 62
         7
100
AcDbLine
 10
233.950758
 20
22.461695
 30
0.0
 11
234.250552
 21
22.524514
 31
0.0
  0
LINE
  5
219
100
AcDbEntity
  8
0
370
         0
390
0
  6
CONTINUOUS
 62
         7
100
AcDbLine
 10
243.75
 20
21.75
 30
0.0
 11
244.62414
 21
21.876244
 31
0.0
  0
LINE
  5
21A
100
AcDbEntity
  8
0
370
         0
390
0
  6
CONTINUOUS
 62
         7
100
AcDbLine
 10
244.62414
 20
21.876244
 30
0.0
 11
245.418362
 21
22.260503
 31
0.0
  0
LINE
  5
21B
100
AcDbEntity
  8
0
370
         0
390
0
  6
CONTINUOUS
 62
         7
100
AcDbLine
 10
245.418362
 20
22.260503
 30
0.0
 11
246.016497
 21
22.906015
 31
0.0
  0
LINE
  5
21C
100
AcDbEntity
  8
0
370
         0
390
0
  6
CONTINUOUS
 62
         7
100
AcDbLine
 10
246.016497
 20
22.906015
 30
0.0
 11
246.25
 21
23.75
 31
0.0
  0
LINE
  5
21D
100
AcDbEntity
  8
0
370
         0
390
0
  6
CONTINUOUS
 62
         7
100
AcDbLine
 10
246.25
 20
23.75
 30
0.0
 11
246.016399
 21
24.594155
 31
0.0
  0
LINE
  5
21E
100
AcDbEntity
  8
0
370
         0
390
0
  6
CONTINUOUS
 62
         7
100
AcDbLine
 10
246.016399
 20
24.594155
 30
0.0
 11
245.418488
 21
25.239406
 31
0.0
  0
LINE
  5
21F
100
AcDbEntity
  8
0
370
         0
390
0
  6
CONTINUOUS
 62
         7
100
AcDbLine
 10
245.418488
 20
25.239406
 30
0.0
 11
244.62433
 21
25.623699
 31
0.0
  0
LINE
  5
220
100
AcDbEntity
  8
0
370
         0
390
0
  6
CONTINUOUS
 62
         7
100
AcDbLine
 10
244.62433
 20
25.623699
 30
0.0
 11
243.75
 21
25.75
 31
0.0
  0
LINE
  5
221
100
AcDbEntity
  8
0
370
         0
390
0
  6
CONTINUOUS
 62
         7
100
AcDbLine
 10
243.75
 20
25.75
 30
0.0
 11
242.87586
 21
25.623756
 31
0.0
  0
LINE
  5
222
100
AcDbEntity
  8
0
370
         0
390
0
  6
CONTINUOUS
 62
         7
100
AcDbLine
 10
242.87586
 20
25.623756
 30
0.0
 11
242.081638
 21
25.239497
 31
0.0
  0
LINE
  5
223
100
AcDbEntity
  8
0
370
         0
390
0
  6
CONTINUOUS
 62
         7
100
AcDbLine
 10
242.081638
 20
25.239497
 30
0.0
 11
241.483503
 21
24.593985
 31
0.0
  0
LINE
  5
224
100
AcDbEntity
  8
0
370
         0
390
0
  6
CONTINUOUS
 62
         7
100
AcDbLine
 10
241.483503
 20
24.593985
 30
0.0
 11
241.25
 21
23.75
 31
0.0
  0
LINE
  5
225
100
AcDbEntity
  8
0
370
         0
390
0
  6
CONTINUOUS
 62
         7
100
AcDbLine
 10
241.25
 20
23.75
 30
0.0
 11
241.483601
 21
22.905845
 31
0.0
  0
LINE
  5
226
100
AcDbEntity
  8
0
370
         0
390
0
  6
CONTINUOUS
 62
         7
100
AcDbLine
 10
241.483601
 20
22.905845
 30
0.0
 11
242.081512
 21
22.260594
 31
0.0
  0
LINE
  5
227
100
AcDbEntity
  8
0
370
         0
390
0
  6
CONTINUOUS
 62
         7
100
AcDbLine
 10
242.081512
 20
22.260594
 30
0.0
 11
242.87567
 21
21.876301
 31
0.0
  0
LINE
  5
228
100
AcDbEntity
  8
0
370
         0
390
0
  6
CONTINUOUS
 62
         7
100
AcDbLine
 10
242.87567
 20
21.876301
 30
0.0
 11
243.75
 21
21.75
 31
0.0
  0
LINE
  5
229
100
AcDbEntity
  8
0
370
         0
390
0
  6
CONTINUOUS
 62
         7
100
AcDbLine
 10
243.75
 20
22.450001
 30
0.0
 11
244.290603
 21
22.537365
 31
0.0
  0
LINE
  5
22A
100
AcDbEntity
  8
0
370
         0
390
0
  6
CONTINUOUS
 62
         7
100
AcDbLine
 10
244.290603
 20
22.537365
 30
0.0
 11
244.772287
 21
22.798668
 31
0.0
  0
LINE
  5
22B
100
AcDbEntity
  8
0
370
         0
390
0
  6
CONTINUOUS
 62
         7
100
AcDbLine
 10
244.772287
 20
22.798668
 30
0.0
 11
245.11992
 21
23.220468
 31
0.0
  0
LINE
  5
22C
100
AcDbEntity
  8
0
370
         0
390
0
  6
CONTINUOUS
 62
         7
100
AcDbLine
 10
245.11992
 20
23.220468
 30
0.0
 11
245.25
 21
23.75
 31
0.0
  0
LINE
  5
22D
100
AcDbEntity
  8
0
370
         0
390
0
  6
CONTINUOUS
 62
         7
100
AcDbLine
 10
245.25
 20
23.75
 30
0.0
 11
245.120024
 21
24.279329
 31
0.0
  0
LINE
  5
22E
100
AcDbEntity
  8
0
370
         0
390
0
  6
CONTINUOUS
 62
         7
100
AcDbLine
 10
245.120024
 20
24.279329
 30
0.0
 11
244.77243
 21
24.701217
 31
0.0
  0
LINE
  5
22F
100
AcDbEntity
  8
0
370
         0
390
0
  6
CONTINUOUS
 62
         7
100
AcDbLine
 10
244.77243
 20
24.701217
 30
0.0
 11
244.291073
 21
24.962478
 31
0.0
  0
LINE
  5
230
100
AcDbEntity
  8
0
370
         0
390
0
  6
CONTINUOUS
 62
         7
100
AcDbLine
 10
244.291073
 20
24.962478
 30
0.0
 11
243.75
 21
25.049999
 31
0.0
  0
LINE
  5
231
100
AcDbEntity
  8
0
370
         0
390
0
  6
CONTINUOUS
 62
         7
100
AcDbLine
 10
243.75
 20
25.049999
 30
0.0
 11
243.209397
 21
24.962635
 31
0.0
  0
LINE
  5
232
100
AcDbEntity
  8
0
370
         0
390
0
  6
CONTINUOUS
 62
         7
100
AcDbLine
 10
243.209397
 20
24.962635
 30
0.0
 11
242.727713
 21
24.701332
 31
0.0
  0
LINE
  5
233
100
AcDbEntity
  8
0
370
         0
390
0
  6
CONTINUOUS
 62
         7
100
AcDbLine
 10
242.727713
 20
24.701332
 30
0.0
 11
242.38008
 21
24.279532
 31
0.0
  0
LINE
  5
234
100
AcDbEntity
  8
0
370
         0
390
0
  6
CONTINUOUS
 62
         7
100
AcDbLine
 10
242.38008
 20
24.279532
 30
0.0
 11
242.25
 21
23.75
 31
0.0
  0
LINE
  5
235
100
AcDbEntity
  8
0
370
         0
390
0
  6
CONTINUOUS
 62
         7
100
AcDbLine
 10
242.25
 20
23.75
 30
0.0
 11
242.379976
 21
23.220671
 31
0.0
  0
LINE
  5
236
100
AcDbEntity
  8
0
370
         0
390
0
  6
CONTINUOUS
 62
         7
100
AcDbLine
 10
242.379976
 20
23.220671
 30
0.0
 11
242.72757
 21
22.798783
 31
0.0
  0
LINE
  5
237
100
AcDbEntity
  8
0
370
         0
390
0
  6
CONTINUOUS
 62
         7
100
AcDbLine
 10
242.72757
 20
22.798783
 30
0.0
 11
243.208927
 21
22.537522
 31
0.0
  0
LINE
  5
238
100
AcDbEntity
  8
0
370
         0
390
0
  6
CONTINUOUS
 62
         7
100
AcDbLine
 10
243.208927
 20
22.537522
 30
0.0
 11
243.75
 21
22.450001
 31
0.0
  0
LINE
  5
239
100
AcDbEntity
  8
0
370
         0
390
0
  6
CONTINUOUS
 62
         7
100
AcDbLine
 10
129.541681
 20
77.999973
 30
0.0
 11
129.37472
 21
78.213283
 31
0.0
  0
LINE
  5
23A
100
AcDbEntity
  8
0
370
         0
390
0
  6
CONTINUOUS
 62
         7
100
AcDbLine
 10
129.37472
 20
78.213283
 30
0.0
 11
129.190088
 21
78.411497
 31
0.0
  0
LINE
  5
23B
100
AcDbEntity
  8
0
370
         0
390
0
  6
CONTINUOUS
 62
         7
100
AcDbLine
 10
129.190088
 20
78.411497
 30
0.0
 11
128.987431
 21
78.591127
 31
0.0
  0
LINE
  5
23C
100
AcDbEntity
  8
0
370
         0
390
0
  6
CONTINUOUS
 62
         7
100
AcDbLine
 10
128.987431
 20
78.591127
 30
0.0
 11
128.766902
 21
78.748026
 31
0.0
  0
LINE
  5
23D
100
AcDbEntity
  8
0
370
         0
390
0
  6
CONTINUOUS
 62
         7
100
AcDbLine
 10
128.766902
 20
78.748026
 30
0.0
 11
128.529486
 21
78.877487
 31
0.0
  0
LINE
  5
23E
100
AcDbEntity
  8
0
370
         0
390
0
  6
CONTINUOUS
 62
         7
100
AcDbLine
 10
128.529486
 20
78.877487
 30
0.0
 11
128.277377
 21
78.974567
 31
0.0
  0
LINE
  5
23F
100
AcDbEntity
  8
0
370
         0
390
0
  6
CONTINUOUS
 62
         7
100
AcDbLine
 10
128.277377
 20
78.974567
 30
0.0
 11
128.014257
 21
79.034717
 31
0.0
  0
LINE
  5
240
100
AcDbEntity
  8
0
370
         0
390
0
  6
CONTINUOUS
 62
         7
100
AcDbLine
 10
128.014257
 20
79.034717
 30
0.0
 11
127.745664
 21
79.054675
 31
0.0
  0
LINE
  5
241
100
AcDbEntity
  8
0
370
         0
390
0
  6
CONTINUOUS
 62
         7
100
AcDbLine
 10
127.745664
 20
79.054675
 30
0.0
 11
127.477186
 21
79.0334
 31
0.0
  0
LINE
  5
242
100
AcDbEntity
  8
0
370
         0
390
0
  6
CONTINUOUS
 62
         7
100
AcDbLine
 10
127.477186
 20
79.0334
 30
0.0
 11
127.214758
 21
78.972134
 31
0.0
  0
LINE
  5
243
100
AcDbEntity
  8
0
370
         0
390
0
  6
CONTINUOUS
 62
         7
100
AcDbLine
 10
127.214758
 20
78.972134
 30
0.0
 11
126.964003
 21
78.874445
 31
0.0
  0
LINE
  5
244
100
AcDbEntity
  8
0
370
         0
390
0
  6
CONTINUOUS
 62
         7
100
AcDbLine
 10
126.964003
 20
78.874445
 30
0.0
 11
126.727843
 21
78.744715
 31
0.0
  0
LINE
  5
245
100
AcDbEntity
  8
0
370
         0
390
0
  6
CONTINUOUS
 62
         7
100
AcDbLine
 10
126.727843
 20
78.744715
 30
0.0
 11
126.508483
 21
78.587857
 31
0.0
  0
LINE
  5
246
100
AcDbEntity
  8
0
370
         0
390
0
  6
CONTINUOUS
 62
         7
100
AcDbLine
 10
126.508483
 20
78.587857
 30
0.0
 11
126.307261
 21
78.408899
 31
0.0
  0
LINE
  5
247
100
AcDbEntity
  8
0
370
         0
390
0
  6
CONTINUOUS
 62
         7
100
AcDbLine
 10
126.307261
 20
78.408899
 30
0.0
 11
126.123684
 21
78.211408
 31
0.0
  0
LINE
  5
248
100
AcDbEntity
  8
0
370
         0
390
0
  6
CONTINUOUS
 62
         7
100
AcDbLine
 10
126.123684
 20
78.211408
 30
0.0
 11
125.957502
 21
77.998837
 31
0.0
  0
LINE
  5
249
100
AcDbEntity
  8
0
370
         0
390
0
  6
CONTINUOUS
 62
         7
100
AcDbLine
 10
129.541681
 20
62.000027
 30
0.0
 11
129.37472
 21
61.786717
 31
0.0
  0
LINE
  5
24A
100
AcDbEntity
  8
0
370
         0
390
0
  6
CONTINUOUS
 62
         7
100
AcDbLine
 10
129.37472
 20
61.786717
 30
0.0
 11
129.190088
 21
61.588503
 31
0.0
  0
LINE
  5
24B
100
AcDbEntity
  8
0
370
         0
390
0
  6
CONTINUOUS
 62
         7
100
AcDbLine
 10
129.190088
 20
61.588503
 30
0.0
 11
128.987431
 21
61.408873
 31
0.0
  0
LINE
  5
24C
100
AcDbEntity
  8
0
370
         0
390
0
  6
CONTINUOUS
 62
         7
100
AcDbLine
 10
128.987431
 20
61.408873
 30
0.0
 11
128.766902
 21
61.251974
 31
0.0
  0
LINE
  5
24D
100
AcDbEntity
  8
0
370
         0
390
0
  6
CONTINUOUS
 62
         7
100
AcDbLine
 10
128.766902
 20
61.251974
 30
0.0
 11
128.529486
 21
61.122513
 31
0.0
  0
LINE
  5
24E
100
AcDbEntity
  8
0
370
         0
390
0
  6
CONTINUOUS
 62
         7
100
AcDbLine
 10
128.529486
 20
61.122513
 30
0.0
 11
128.277377
 21
61.025433
 31
0.0
  0
LINE
  5
24F
100
AcDbEntity
  8
0
370
         0
390
0
  6
CONTINUOUS
 62
         7
100
AcDbLine
 10
128.277377
 20
61.025433
 30
0.0
 11
128.014257
 21
60.965283
 31
0.0
  0
LINE
  5
250
100
AcDbEntity
  8
0
370
         0
390
0
  6
CONTINUOUS
 62
         7
100
AcDbLine
 10
128.014257
 20
60.965283
 30
0.0
 11
127.745664
 21
60.945325
 31
0.0
  0
LINE
  5
251
100
AcDbEntity
  8
0
370
         0
390
0
  6
CONTINUOUS
 62
         7
100
AcDbLine
 10
127.745664
 20
60.945325
 30
0.0
 11
127.477186
 21
60.9666
 31
0.0
  0
LINE
  5
252
100
AcDbEntity
  8
0
370
         0
390
0
  6
CONTINUOUS
 62
         7
100
AcDbLine
 10
127.477186
 20
60.9666
 30
0.0
 11
127.214758
 21
61.027866
 31
0.0
  0
LINE
  5
253
100
AcDbEntity
  8
0
370
         0
390
0
  6
CONTINUOUS
 62
         7
100
AcDbLine
 10
127.214758
 20
61.027866
 30
0.0
 11
126.964003
 21
61.125555
 31
0.0
  0
LINE
  5
254
100
AcDbEntity
  8
0
370
         0
390
0
  6
CONTINUOUS
 62
         7
100
AcDbLine
 10
126.964003
 20
61.125555
 30
0.0
 11
126.727843
 21
61.255285
 31
0.0
  0
LINE
  5
255
100
AcDbEntity
  8
0
370
         0
390
0
  6
CONTINUOUS
 62
         7
100
AcDbLine
 10
126.727843
 20
61.255285
 30
0.0
 11
126.508483
 21
61.412143
 31
0.0
  0
LINE
  5
256
100
AcDbEntity
  8
0
370
         0
390
0
  6
CONTINUOUS
 62
         7
100
AcDbLine
 10
126.508483
 20
61.412143
 30
0.0
 11
126.307261
 21
61.591101
 31
0.0
  0
LINE
  5
257
100
AcDbEntity
  8
0
370
         0
390
0
  6
CONTINUOUS
 62
         7
100
AcDbLine
 10
126.307261
 20
61.591101
 30
0.0
 11
126.123684
 21
61.788592
 31
0.0
  0
LINE
  5
258
100
AcDbEntity
  8
0
370
         0
390
0
  6
CONTINUOUS
 62
         7
100
AcDbLine
 10
126.123684
 20
61.788592
 30
0.0
 11
125.957502
 21
62.001163
 31
0.0
  0
LINE
  5
259
100
AcDbEntity
  8
0
370
         0
390
0
  6
CONTINUOUS
 62
         7
100
AcDbLine
 10
89.5
 20
58.926607
 30
0.0
 11
90.45558
 21
59.082192
 31
0.0
  0
LINE
  5
25A
100
AcDbEntity
  8
0
370
         0
390
0
  6
CONTINUOUS
 62
         7
100
AcDbLine
 10
90.45558
 20
59.082192
 30
0.0
 11
91.305603
 21
59.546786
 31
0.0
  0
LINE
  5
25B
100
AcDbEntity
  8
0
370
         0
390
0
  6
CONTINUOUS
 62
         7
100
AcDbLine
 10
91.305603
 20
59.546786
 30
0.0
 11
91.917413
 21
60.294792
 31
0.0
  0
LINE
  5
25C
100
AcDbEntity
  8
0
370
         0
390
0
  6
CONTINUOUS
 62
         7
100
AcDbLine
 10
91.917413
 20
60.294792
 30
0.0
 11
92.145751
 21
61.231493
 31
0.0
  0
LINE
  5
25D
100
AcDbEntity
  8
0
370
         0
390
0
  6
CONTINUOUS
 62
         7
100
AcDbLine
 10
92.145751
 20
61.231493
 30
0.0
 11
91.917579
 21
62.167869
 31
0.0
  0
LINE
  5
25E
100
AcDbEntity
  8
0
370
         0
390
0
  6
CONTINUOUS
 62
         7
100
AcDbLine
 10
91.917579
 20
62.167869
 30
0.0
 11
91.305821
 21
62.916023
 31
0.0
  0
LINE
  5
25F
100
AcDbEntity
  8
0
370
         0
390
0
  6
CONTINUOUS
 62
         7
100
AcDbLine
 10
91.305821
 20
62.916023
 30
0.0
 11
90.456288
 21
63.380555
 31
0.0
  0
LINE
  5
260
100
AcDbEntity
  8
0
370
         0
390
0
  6
CONTINUOUS
 62
         7
100
AcDbLine
 10
90.456288
 20
63.380555
 30
0.0
 11
89.5
 21
63.536379
 31
0.0
  0
LINE
  5
261
100
AcDbEntity
  8
0
370
         0
390
0
  6
CONTINUOUS
 62
         7
100
AcDbLine
 10
89.5
 20
63.536379
 30
0.0
 11
88.54442
 21
63.380794
 31
0.0
  0
LINE
  5
262
100
AcDbEntity
  8
0
370
         0
390
0
  6
CONTINUOUS
 62
         7
100
AcDbLine
 10
88.54442
 20
63.380794
 30
0.0
 11
87.694397
 21
62.9162
 31
0.0
  0
LINE
  5
263
100
AcDbEntity
  8
0
370
         0
390
0
  6
CONTINUOUS
 62
         7
100
AcDbLine
 10
87.694397
 20
62.9162
 30
0.0
 11
87.082587
 21
62.168194
 31
0.0
  0
LINE
  5
264
100
AcDbEntity
  8
0
370
         0
390
0
  6
CONTINUOUS
 62
         7
100
AcDbLine
 10
87.082587
 20
62.168194
 30
0.0
 11
86.854249
 21
61.231493
 31
0.0
  0
LINE
  5
265
100
AcDbEntity
  8
0
370
         0
390
0
  6
CONTINUOUS
 62
         7
100
AcDbLine
 10
86.854249
 20
61.231493
 30
0.0
 11
87.082421
 21
60.295117
 31
0.0
  0
LINE
  5
266
100
AcDbEntity
  8
0
370
         0
390
0
  6
CONTINUOUS
 62
         7
100
AcDbLine
 10
87.082421
 20
60.295117
 30
0.0
 11
87.694179
 21
59.546963
 31
0.0
  0
LINE
  5
267
100
AcDbEntity
  8
0
370
         0
390
0
  6
CONTINUOUS
 62
         7
100
AcDbLine
 10
87.694179
 20
59.546963
 30
0.0
 11
88.543712
 21
59.082431
 31
0.0
  0
LINE
  5
268
100
AcDbEntity
  8
0
370
         0
390
0
  6
CONTINUOUS
 62
         7
100
AcDbLine
 10
88.543712
 20
59.082431
 30
0.0
 11
89.5
 21
58.926607
 31
0.0
  0
LINE
  5
269
100
AcDbEntity
  8
0
370
         0
390
0
  6
CONTINUOUS
 62
         7
100
AcDbLine
 10
89.5
 20
74.609772
 30
0.0
 11
88.212041
 21
74.026691
 31
0.0
  0
LINE
  5
26A
100
AcDbEntity
  8
0
370
         0
390
0
  6
CONTINUOUS
 62
         7
100
AcDbLine
 10
88.212041
 20
74.026691
 30
0.0
 11
87.410579
 21
72.827905
 31
0.0
  0
LINE
  5
26B
100
AcDbEntity
  8
0
370
         0
390
0
  6
CONTINUOUS
 62
         7
100
AcDbLine
 10
87.410579
 20
72.827905
 30
0.0
 11
86.987337
 21
71.443638
 31
0.0
  0
LINE
  5
26C
100
AcDbEntity
  8
0
370
         0
390
0
  6
CONTINUOUS
 62
         7
100
AcDbLine
 10
86.987337
 20
71.443638
 30
0.0
 11
86.854249
 21
70.0
 31
0.0
  0
LINE
  5
26D
100
AcDbEntity
  8
0
370
         0
390
0
  6
CONTINUOUS
 62
         7
100
AcDbLine
 10
86.854249
 20
70.0
 30
0.0
 11
86.987147
 21
68.557367
 31
0.0
  0
LINE
  5
26E
100
AcDbEntity
  8
0
370
         0
390
0
  6
CONTINUOUS
 62
         7
100
AcDbLine
 10
86.987147
 20
68.557367
 30
0.0
 11
87.410459
 21
67.172365
 31
0.0
  0
LINE
  5
26F
100
AcDbEntity
  8
0
370
         0
390
0
  6
CONTINUOUS
 62
         7
100
AcDbLine
 10
87.410459
 20
67.172365
 30
0.0
 11
88.212288
 21
65.97307
 31
0.0
  0
LINE
  5
270
100
AcDbEntity
  8
0
370
         0
390
0
  6
CONTINUOUS
 62
         7
100
AcDbLine
 10
88.212288
 20
65.97307
 30
0.0
 11
89.5
 21
65.390228
 31
0.0
  0
LINE
  5
271
100
AcDbEntity
  8
0
370
         0
390
0
  6
CONTINUOUS
 62
         7
100
AcDbLine
 10
89.5
 20
65.390228
 30
0.0
 11
90.787959
 21
65.973309
 31
0.0
  0
LINE
  5
272
100
AcDbEntity
  8
0
370
         0
390
0
  6
CONTINUOUS
 62
         7
100
AcDbLine
 10
90.787959
 20
65.973309
 30
0.0
 11
91.589421
 21
67.172095
 31
0.0
  0
LINE
  5
273
100
AcDbEntity
  8
0
370
         0
390
0
  6
CONTINUOUS
 62
         7
100
AcDbLine
 10
91.589421
 20
67.172095
 30
0.0
 11
92.012663
 21
68.556362
 31
0.0
  0
LINE
  5
274
100
AcDbEntity
  8
0
370
         0
390
0
  6
CONTINUOUS
 62
         7
100
AcDbLine
 10
92.012663
 20
68.556362
 30
0.0
 11
92.145751
 21
70.0
 31
0.0
  0
LINE
  5
275
100
AcDbEntity
  8
0
370
         0
390
0
  6
CONTINUOUS
 62
         7
100
AcDbLine
 10
92.145751
 20
70.0
 30
0.0
 11
92.012853
 21
71.442633
 31
0.0
  0
LINE
  5
276
100
AcDbEntity
  8
0
370
         0
390
0
  6
CONTINUOUS
 62
         7
100
AcDbLine
 10
92.012853
 20
71.442633
 30
0.0
 11
91.589541
 21
72.827635
 31
0.0
  0
LINE
  5
277
100
AcDbEntity
  8
0
370
         0
390
0
  6
CONTINUOUS
 62
         7
100
AcDbLine
 10
91.589541
 20
72.827635
 30
0.0
 11
90.787712
 21
74.02693
 31
0.0
  0
LINE
  5
278
100
AcDbEntity
  8
0
370
         0
390
0
  6
CONTINUOUS
 62
         7
100
AcDbLine
 10
90.787712
 20
74.02693
 30
0.0
 11
89.5
 21
74.609772
 31
0.0
  0
LINE
  5
279
100
AcDbEntity
  8
0
370
         0
390
0
  6
CONTINUOUS
 62
         7
100
AcDbLine
 10
89.5
 20
81.073393
 30
0.0
 11
90.45558
 21
80.917808
 31
0.0
  0
LINE
  5
27A
100
AcDbEntity
  8
0
370
         0
390
0
  6
CONTINUOUS
 62
         7
100
AcDbLine
 10
90.45558
 20
80.917808
 30
0.0
 11
91.305603
 21
80.453214
 31
0.0
  0
LINE
  5
27B
100
AcDbEntity
  8
0
370
         0
390
0
  6
CONTINUOUS
 62
         7
100
AcDbLine
 10
91.305603
 20
80.453214
 30
0.0
 11
91.917413
 21
79.705208
 31
0.0
  0
LINE
  5
27C
100
AcDbEntity
  8
0
370
         0
390
0
  6
CONTINUOUS
 62
         7
100
AcDbLine
 10
91.917413
 20
79.705208
 30
0.0
 11
92.145751
 21
78.768507
 31
0.0
  0
LINE
  5
27D
100
AcDbEntity
  8
0
370
         0
390
0
  6
CONTINUOUS
 62
         7
100
AcDbLine
 10
92.145751
 20
78.768507
 30
0.0
 11
91.917579
 21
77.832131
 31
0.0
  0
LINE
  5
27E
100
AcDbEntity
  8
0
370
         0
390
0
  6
CONTINUOUS
 62
         7
100
AcDbLine
 10
91.917579
 20
77.832131
 30
0.0
 11
91.305821
 21
77.083977
 31
0.0
  0
LINE
  5
27F
100
AcDbEntity
  8
0
370
         0
390
0
  6
CONTINUOUS
 62
         7
100
AcDbLine
 10
91.305821
 20
77.083977
 30
0.0
 11
90.456288
 21
76.619445
 31
0.0
  0
LINE
  5
280
100
AcDbEntity
  8
0
370
         0
390
0
  6
CONTINUOUS
 62
         7
100
AcDbLine
 10
90.456288
 20
76.619445
 30
0.0
 11
89.5
 21
76.463621
 31
0.0
  0
LINE
  5
281
100
AcDbEntity
  8
0
370
         0
390
0
  6
CONTINUOUS
 62
         7
100
AcDbLine
 10
89.5
 20
76.463621
 30
0.0
 11
88.54442
 21
76.619206
 31
0.0
  0
LINE
  5
282
100
AcDbEntity
  8
0
370
         0
390
0
  6
CONTINUOUS
 62
         7
100
AcDbLine
 10
88.54442
 20
76.619206
 30
0.0
 11
87.694397
 21
77.0838
 31
0.0
  0
LINE
  5
283
100
AcDbEntity
  8
0
370
         0
390
0
  6
CONTINUOUS
 62
         7
100
AcDbLine
 10
87.694397
 20
77.0838
 30
0.0
 11
87.082587
 21
77.831806
 31
0.0
  0
LINE
  5
284
100
AcDbEntity
  8
0
370
         0
390
0
  6
CONTINUOUS
 62
         7
100
AcDbLine
 10
87.082587
 20
77.831806
 30
0.0
 11
86.854249
 21
78.768507
 31
0.0
  0
LINE
  5
285
100
AcDbEntity
  8
0
370
         0
390
0
  6
CONTINUOUS
 62
         7
100
AcDbLine
 10
86.854249
 20
78.768507
 30
0.0
 11
87.082421
 21
79.704883
 31
0.0
  0
LINE
  5
286
100
AcDbEntity
  8
0
370
         0
390
0
  6
CONTINUOUS
 62
         7
100
AcDbLine
 10
87.082421
 20
79.704883
 30
0.0
 11
87.694179
 21
80.453037
 31
0.0
  0
LINE
  5
287
100
AcDbEntity
  8
0
370
         0
390
0
  6
CONTINUOUS
 62
         7
100
AcDbLine
 10
87.694179
 20
80.453037
 30
0.0
 11
88.543712
 21
80.917569
 31
0.0
  0
LINE
  5
288
100
AcDbEntity
  8
0
370
         0
390
0
  6
CONTINUOUS
 62
         7
100
AcDbLine
 10
88.543712
 20
80.917569
 30
0.0
 11
89.5
 21
81.073393
 31
0.0
  0
LINE
  5
289
100
AcDbEntity
  8
0
370
         0
390
0
  6
CONTINUOUS
 62
         7
100
AcDbLine
 10
89.5
 20
179.05468
 30
0.0
 11
88.286588
 21
178.610067
 31
0.0
  0
LINE
  5
28A
100
AcDbEntity
  8
0
370
         0
390
0
  6
CONTINUOUS
 62
         7
100
AcDbLine
 10
88.286588
 20
178.610067
 30
0.0
 11
87.457068
 21
177.599265
 31
0.0
  0
LINE
  5
28B
100
AcDbEntity
  8
0
370
         0
390
0
  6
CONTINUOUS
 62
         7
100
AcDbLine
 10
87.457068
 20
177.599265
 30
0.0
 11
86.99991
 21
176.368856
 31
0.0
  0
LINE
  5
28C
100
AcDbEntity
  8
0
370
         0
390
0
  6
CONTINUOUS
 62
         7
100
AcDbLine
 10
86.99991
 20
176.368856
 30
0.0
 11
86.854249
 21
175.0625
 31
0.0
  0
LINE
  5
28D
100
AcDbEntity
  8
0
370
         0
390
0
  6
CONTINUOUS
 62
         7
100
AcDbLine
 10
86.854249
 20
175.0625
 30
0.0
 11
86.999813
 21
173.756566
 31
0.0
  0
LINE
  5
28E
100
AcDbEntity
  8
0
370
         0
390
0
  6
CONTINUOUS
 62
         7
100
AcDbLine
 10
86.999813
 20
173.756566
 30
0.0
 11
87.45707
 21
172.525732
 31
0.0
  0
LINE
  5
28F
100
AcDbEntity
  8
0
370
         0
390
0
  6
CONTINUOUS
 62
         7
100
AcDbLine
 10
87.45707
 20
172.525732
 30
0.0
 11
88.286775
 21
171.514787
 31
0.0
  0
LINE
  5
290
100
AcDbEntity
  8
0
370
         0
390
0
  6
CONTINUOUS
 62
         7
100
AcDbLine
 10
88.286775
 20
171.514787
 30
0.0
 11
89.5
 21
171.07032
 31
0.0
  0
LINE
  5
291
100
AcDbEntity
  8
0
370
         0
390
0
  6
CONTINUOUS
 62
         7
100
AcDbLine
 10
89.5
 20
171.07032
 30
0.0
 11
90.713412
 21
171.514933
 31
0.0
  0
LINE
  5
292
100
AcDbEntity
  8
0
370
         0
390
0
  6
CONTINUOUS
 62
         7
100
AcDbLine
 10
90.713412
 20
171.514933
 30
0.0
 11
91.542932
 21
172.525735
 31
0.0
  0
LINE
  5
293
100
AcDbEntity
  8
0
370
         0
390
0
  6
CONTINUOUS
 62
         7
100
AcDbLine
 10
91.542932
 20
172.525735
 30
0.0
 11
92.00009
 21
173.756144
 31
0.0
  0
LINE
  5
294
100
AcDbEntity
  8
0
370
         0
390
0
  6
CONTINUOUS
 62
         7
100
AcDbLine
 10
92.00009
 20
173.756144
 30
0.0
 11
92.145751
 21
175.0625
 31
0.0
  0
LINE
  5
295
100
AcDbEntity
  8
0
370
         0
390
0
  6
CONTINUOUS
 62
         7
100
AcDbLine
 10
92.145751
 20
175.0625
 30
0.0
 11
92.000187
 21
176.368434
 31
0.0
  0
LINE
  5
296
100
AcDbEntity
  8
0
370
         0
390
0
  6
CONTINUOUS
 62
         7
100
AcDbLine
 10
92.000187
 20
176.368434
 30
0.0
 11
91.54293
 21
177.599268
 31
0.0
  0
LINE
  5
297
100
AcDbEntity
  8
0
370
         0
390
0
  6
CONTINUOUS
 62
         7
100
AcDbLine
 10
91.54293
 20
177.599268
 30
0.0
 11
90.713225
 21
178.610213
 31
0.0
  0
LINE
  5
298
100
AcDbEntity
  8
0
370
         0
390
0
  6
CONTINUOUS
 62
         7
100
AcDbLine
 10
90.713225
 20
178.610213
 30
0.0
 11
89.5
 21
179.05468
 31
0.0
  0
LINE
  5
299
100
AcDbEntity
  8
0
370
         0
390
0
  6
CONTINUOUS
 62
         7
100
AcDbLine
 10
89.5
 20
160.94532
 30
0.0
 11
88.286588
 21
161.389933
 31
0.0
  0
LINE
  5
29A
100
AcDbEntity
  8
0
370
         0
390
0
  6
CONTINUOUS
 62
         7
100
AcDbLine
 10
88.286588
 20
161.389933
 30
0.0
 11
87.457068
 21
162.400735
 31
0.0
  0
LINE
  5
29B
100
AcDbEntity
  8
0
370
         0
390
0
  6
CONTINUOUS
 62
         7
100
AcDbLine
 10
87.457068
 20
162.400735
 30
0.0
 11
86.99991
 21
163.631144
 31
0.0
  0
LINE
  5
29C
100
AcDbEntity
  8
0
370
         0
390
0
  6
CONTINUOUS
 62
         7
100
AcDbLine
 10
86.99991
 20
163.631144
 30
0.0
 11
86.854249
 21
164.9375
 31
0.0
  0
LINE
  5
29D
100
AcDbEntity
  8
0
370
         0
390
0
  6
CONTINUOUS
 62
         7
100
AcDbLine
 10
86.854249
 20
164.9375
 30
0.0
 11
86.999813
 21
166.243434
 31
0.0
  0
LINE
  5
29E
100
AcDbEntity
  8
0
370
         0
390
0
  6
CONTINUOUS
 62
         7
100
AcDbLine
 10
86.999813
 20
166.243434
 30
0.0
 11
87.45707
 21
167.474268
 31
0.0
  0
LINE
  5
29F
100
AcDbEntity
  8
0
370
         0
390
0
  6
CONTINUOUS
 62
         7
100
AcDbLine
 10
87.45707
 20
167.474268
 30
0.0
 11
88.286775
 21
168.485213
 31
0.0
  0
LINE
  5
2A0
100
AcDbEntity
  8
0
370
         0
390
0
  6
CONTINUOUS
 62
         7
100
AcDbLine
 10
88.286775
 20
168.485213
 30
0.0
 11
89.5
 21
168.92968
 31
0.0
  0
LINE
  5
2A1
100
AcDbEntity
  8
0
370
         0
390
0
  6
CONTINUOUS
 62
         7
100
AcDbLine
 10
89.5
 20
168.92968
 30
0.0
 11
90.713412
 21
168.485067
 31
0.0
  0
LINE
  5
2A2
100
AcDbEntity
  8
0
370
         0
390
0
  6
CONTINUOUS
 62
         7
100
AcDbLine
 10
90.713412
 20
168.485067
 30
0.0
 11
91.542932
 21
167.474265
 31
0.0
  0
LINE
  5
2A3
100
AcDbEntity
  8
0
370
         0
390
0
  6
CONTINUOUS
 62
         7
100
AcDbLine
 10
91.542932
 20
167.474265
 30
0.0
 11
92.00009
 21
166.243856
 31
0.0
  0
LINE
  5
2A4
100
AcDbEntity
  8
0
370
         0
390
0
  6
CONTINUOUS
 62
         7
100
AcDbLine
 10
92.00009
 20
166.243856
 30
0.0
 11
92.145751
 21
164.9375
 31
0.0
  0
LINE
  5
2A5
100
AcDbEntity
  8
0
370
         0
390
0
  6
CONTINUOUS
 62
         7
100
AcDbLine
 10
92.145751
 20
164.9375
 30
0.0
 11
92.000187
 21
163.631566
 31
0.0
  0
LINE
  5
2A6
100
AcDbEntity
  8
0
370
         0
390
0
  6
CONTINUOUS
 62
         7
100
AcDbLine
 10
92.000187
 20
163.631566
 30
0.0
 11
91.54293
 21
162.400732
 31
0.0
  0
LINE
  5
2A7
100
AcDbEntity
  8
0
370
         0
390
0
  6
CONTINUOUS
 62
         7
100
AcDbLine
 10
91.54293
 20
162.400732
 30
0.0
 11
90.713225
 21
161.389787
 31
0.0
  0
LINE
  5
2A8
100
AcDbEntity
  8
0
370
         0
390
0
  6
CONTINUOUS
 62
         7
100
AcDbLine
 10
90.713225
 20
161.389787
 30
0.0
 11
89.5
 21
160.94532
 31
0.0
  0
LINE
  5
2A9
100
AcDbEntity
  8
0
370
         0
390
0
  6
CONTINUOUS
 62
         7
100
AcDbLine
 10
127.75
 20
196.926607
 30
0.0
 11
128.70558
 21
197.082192
 31
0.0
  0
LINE
  5
2AA
100
AcDbEntity
  8
0
370
         0
390
0
  6
CONTINUOUS
 62
         7
100
AcDbLine
 10
128.70558
 20
197.082192
 30
0.0
 11
129.555604
 21
197.546786
 31
0.0
  0
LINE
  5
2AB
100
AcDbEntity
  8
0
370
         0
390
0
  6
CONTINUOUS
 62
         7
100
AcDbLine
 10
129.555604
 20
197.546786
 30
0.0
 11
130.167414
 21
198.294792
 31
0.0
  0
LINE
  5
2AC
100
AcDbEntity
  8
0
370
         0
390
0
  6
CONTINUOUS
 62
         7
100
AcDbLine
 10
130.167414
 20
198.294792
 30
0.0
 11
130.395752
 21
199.231493
 31
0.0
  0
LINE
  5
2AD
100
AcDbEntity
  8
0
370
         0
390
0
  6
CONTINUOUS
 62
         7
100
AcDbLine
 10
130.395752
 20
199.231493
 30
0.0
 11
130.167579
 21
200.167869
 31
0.0
  0
LINE
  5
2AE
100
AcDbEntity
  8
0
370
         0
390
0
  6
CONTINUOUS
 62
         7
100
AcDbLine
 10
130.167579
 20
200.167869
 30
0.0
 11
129.555821
 21
200.916023
 31
0.0
  0
LINE
  5
2AF
100
AcDbEntity
  8
0
370
         0
390
0
  6
CONTINUOUS
 62
         7
100
AcDbLine
 10
129.555821
 20
200.916023
 30
0.0
 11
128.706288
 21
201.380555
 31
0.0
  0
LINE
  5
2B0
100
AcDbEntity
  8
0
370
         0
390
0
  6
CONTINUOUS
 62
         7
100
AcDbLine
 10
128.706288
 20
201.380555
 30
0.0
 11
127.75
 21
201.536379
 31
0.0
  0
LINE
  5
2B1
100
AcDbEntity
  8
0
370
         0
390
0
  6
CONTINUOUS
 62
         7
100
AcDbLine
 10
127.75
 20
201.536379
 30
0.0
 11
126.79442
 21
201.380794
 31
0.0
  0
LINE
  5
2B2
100
AcDbEntity
  8
0
370
         0
390
0
  6
CONTINUOUS
 62
         7
100
AcDbLine
 10
126.79442
 20
201.380794
 30
0.0
 11
125.944396
 21
200.9162
 31
0.0
  0
LINE
  5
2B3
100
AcDbEntity
  8
0
370
         0
390
0
  6
CONTINUOUS
 62
         7
100
AcDbLine
 10
125.944396
 20
200.9162
 30
0.0
 11
125.332586
 21
200.168194
 31
0.0
  0
LINE
  5
2B4
100
AcDbEntity
  8
0
370
         0
390
0
  6
CONTINUOUS
 62
         7
100
AcDbLine
 10
125.332586
 20
200.168194
 30
0.0
 11
125.104248
 21
199.231493
 31
0.0
  0
LINE
  5
2B5
100
AcDbEntity
  8
0
370
         0
390
0
  6
CONTINUOUS
 62
         7
100
AcDbLine
 10
125.104248
 20
199.231493
 30
0.0
 11
125.332421
 21
198.295117
 31
0.0
  0
LINE
  5
2B6
100
AcDbEntity
  8
0
370
         0
390
0
  6
CONTINUOUS
 62
         7
100
AcDbLine
 10
125.332421
 20
198.295117
 30
0.0
 11
125.944179
 21
197.546963
 31
0.0
  0
LINE
  5
2B7
100
AcDbEntity
  8
0
370
         0
390
0
  6
CONTINUOUS
 62
         7
100
AcDbLine
 10
125.944179
 20
197.546963
 30
0.0
 11
126.793712
 21
197.082431
 31
0.0
  0
LINE
  5
2B8
100
AcDbEntity
  8
0
370
         0
390
0
  6
CONTINUOUS
 62
         7
100
AcDbLine
 10
126.793712
 20
197.082431
 30
0.0
 11
127.75
 21
196.926607
 31
0.0
  0
LINE
  5
2B9
100
AcDbEntity
  8
0
370
         0
390
0
  6
CONTINUOUS
 62
         7
100
AcDbLine
 10
127.75
 20
212.609772
 30
0.0
 11
126.462041
 21
212.026691
 31
0.0
  0
LINE
  5
2BA
100
AcDbEntity
  8
0
370
         0
390
0
  6
CONTINUOUS
 62
         7
100
AcDbLine
 10
126.462041
 20
212.026691
 30
0.0
 11
125.660579
 21
210.827905
 31
0.0
  0
LINE
  5
2BB
100
AcDbEntity
  8
0
370
         0
390
0
  6
CONTINUOUS
 62
         7
100
AcDbLine
 10
125.660579
 20
210.827905
 30
0.0
 11
125.237336
 21
209.443638
 31
0.0
  0
LINE
  5
2BC
100
AcDbEntity
  8
0
370
         0
390
0
  6
CONTINUOUS
 62
         7
100
AcDbLine
 10
125.237336
 20
209.443638
 30
0.0
 11
125.104248
 21
208.0
 31
0.0
  0
LINE
  5
2BD
100
AcDbEntity
  8
0
370
         0
390
0
  6
CONTINUOUS
 62
         7
100
AcDbLine
 10
125.104248
 20
208.0
 30
0.0
 11
125.237146
 21
206.557367
 31
0.0
  0
LINE
  5
2BE
100
AcDbEntity
  8
0
370
         0
390
0
  6
CONTINUOUS
 62
         7
100
AcDbLine
 10
125.237146
 20
206.557367
 30
0.0
 11
125.660459
 21
205.172365
 31
0.0
  0
LINE
  5
2BF
100
AcDbEntity
  8
0
370
         0
390
0
  6
CONTINUOUS
 62
         7
100
AcDbLine
 10
125.660459
 20
205.172365
 30
0.0
 11
126.462287
 21
203.97307
 31
0.0
  0
LINE
  5
2C0
100
AcDbEntity
  8
0
370
         0
390
0
  6
CONTINUOUS
 62
         7
100
AcDbLine
 10
126.462287
 20
203.97307
 30
0.0
 11
127.75
 21
203.390228
 31
0.0
  0
LINE
  5
2C1
100
AcDbEntity
  8
0
370
         0
390
0
  6
CONTINUOUS
 62
         7
100
AcDbLine
 10
127.75
 20
203.390228
 30
0.0
 11
129.037959
 21
203.973309
 31
0.0
  0
LINE
  5
2C2
100
AcDbEntity
  8
0
370
         0
390
0
  6
CONTINUOUS
 62
         7
100
AcDbLine
 10
129.037959
 20
203.973309
 30
0.0
 11
129.839421
 21
205.172095
 31
0.0
  0
LINE
  5
2C3
100
AcDbEntity
  8
0
370
         0
390
0
  6
CONTINUOUS
 62
         7
100
AcDbLine
 10
129.839421
 20
205.172095
 30
0.0
 11
130.262664
 21
206.556362
 31
0.0
  0
LINE
  5
2C4
100
AcDbEntity
  8
0
370
         0
390
0
  6
CONTINUOUS
 62
         7
100
AcDbLine
 10
130.262664
 20
206.556362
 30
0.0
 11
130.395752
 21
208.0
 31
0.0
  0
LINE
  5
2C5
100
AcDbEntity
  8
0
370
         0
390
0
  6
CONTINUOUS
 62
         7
100
AcDbLine
 10
130.395752
 20
208.0
 30
0.0
 11
130.262854
 21
209.442633
 31
0.0
  0
LINE
  5
2C6
100
AcDbEntity
  8
0
370
         0
390
0
  6
CONTINUOUS
 62
         7
100
AcDbLine
 10
130.262854
 20
209.442633
 30
0.0
 11
129.839541
 21
210.827635
 31
0.0
  0
LINE
  5
2C7
100
AcDbEntity
  8
0
370
         0
390
0
  6
CONTINUOUS
 62
         7
100
AcDbLine
 10
129.839541
 20
210.827635
 30
0.0
 11
129.037713
 21
212.02693
 31
0.0
  0
LINE
  5
2C8
100
AcDbEntity
  8
0
370
         0
390
0
  6
CONTINUOUS
 62
         7
100
AcDbLine
 10
129.037713
 20
212.02693
 30
0.0
 11
127.75
 21
212.609772
 31
0.0
  0
LINE
  5
2C9
100
AcDbEntity
  8
0
370
         0
390
0
  6
CONTINUOUS
 62
         7
100
AcDbLine
 10
127.75
 20
219.073395
 30
0.0
 11
128.705581
 21
218.91781
 31
0.0
  0
LINE
  5
2CA
100
AcDbEntity
  8
0
370
         0
390
0
  6
CONTINUOUS
 62
         7
100
AcDbLine
 10
128.705581
 20
218.91781
 30
0.0
 11
129.555604
 21
218.453216
 31
0.0
  0
LINE
  5
2CB
100
AcDbEntity
  8
0
370
         0
390
0
  6
CONTINUOUS
 62
         7
100
AcDbLine
 10
129.555604
 20
218.453216
 30
0.0
 11
130.167414
 21
217.705209
 31
0.0
  0
LINE
  5
2CC
100
AcDbEntity
  8
0
370
         0
390
0
  6
CONTINUOUS
 62
         7
100
AcDbLine
 10
130.167414
 20
217.705209
 30
0.0
 11
130.395752
 21
216.768509
 31
0.0
  0
LINE
  5
2CD
100
AcDbEntity
  8
0
370
         0
390
0
  6
CONTINUOUS
 62
         7
100
AcDbLine
 10
130.395752
 20
216.768509
 30
0.0
 11
130.167579
 21
215.832132
 31
0.0
  0
LINE
  5
2CE
100
AcDbEntity
  8
0
370
         0
390
0
  6
CONTINUOUS
 62
         7
100
AcDbLine
 10
130.167579
 20
215.832132
 30
0.0
 11
129.555822
 21
215.083977
 31
0.0
  0
LINE
  5
2CF
100
AcDbEntity
  8
0
370
         0
390
0
  6
CONTINUOUS
 62
         7
100
AcDbLine
 10
129.555822
 20
215.083977
 30
0.0
 11
128.706289
 21
214.619444
 31
0.0
  0
LINE
  5
2D0
100
AcDbEntity
  8
0
370
         0
390
0
  6
CONTINUOUS
 62
         7
100
AcDbLine
 10
128.706289
 20
214.619444
 30
0.0
 11
127.75
 21
214.463619
 31
0.0
  0
LINE
  5
2D1
100
AcDbEntity
  8
0
370
         0
390
0
  6
CONTINUOUS
 62
         7
100
AcDbLine
 10
127.75
 20
214.463619
 30
0.0
 11
126.794419
 21
214.619204
 31
0.0
  0
LINE
  5
2D2
100
AcDbEntity
  8
0
370
         0
390
0
  6
CONTINUOUS
 62
         7
100
AcDbLine
 10
126.794419
 20
214.619204
 30
0.0
 11
125.944396
 21
215.0838
 31
0.0
  0
LINE
  5
2D3
100
AcDbEntity
  8
0
370
         0
390
0
  6
CONTINUOUS
 62
         7
100
AcDbLine
 10
125.944396
 20
215.0838
 30
0.0
 11
125.332587
 21
215.831807
 31
0.0
  0
LINE
  5
2D4
100
AcDbEntity
  8
0
370
         0
390
0
  6
CONTINUOUS
 62
         7
100
AcDbLine
 10
125.332587
 20
215.831807
 30
0.0
 11
125.104248
 21
216.768509
 31
0.0
  0
LINE
  5
2D5
100
AcDbEntity
  8
0
370
         0
390
0
  6
CONTINUOUS
 62
         7
100
AcDbLine
 10
125.104248
 20
216.768509
 30
0.0
 11
125.332421
 21
217.704885
 31
0.0
  0
LINE
  5
2D6
100
AcDbEntity
  8
0
370
         0
390
0
  6
CONTINUOUS
 62
         7
100
AcDbLine
 10
125.332421
 20
217.704885
 30
0.0
 11
125.944179
 21
218.45304
 31
0.0
  0
LINE
  5
2D7
100
AcDbEntity
  8
0
370
         0
390
0
  6
CONTINUOUS
 62
         7
100
AcDbLine
 10
125.944179
 20
218.45304
 30
0.0
 11
126.793713
 21
218.917572
 31
0.0
  0
LINE
  5
2D8
100
AcDbEntity
  8
0
370
         0
390
0
  6
CONTINUOUS
 62
         7
100
AcDbLine
 10
126.793713
 20
218.917572
 30
0.0
 11
127.75
 21
219.073395
 31
0.0
  0
TEXT
  5
2DA
100
AcDbEntity
  8
0
370
         0
390
0
  6
CONTINUOUS
 62
         7
100
AcDbText
 10
190.00001
 20
185.114288
 30
0.0
 40
3.2
  1
75
 50
90.000076
  7
arial_ttf
 11
186.80001
 21
185.1142837554
 31
0.0
100
AcDbText
 73
         3
  0
TEXT
  5
2DB
100
AcDbEntity
  8
0
370
         0
390
0
  6
CONTINUOUS
 62
         7
100
AcDbText
 10
375.614288
 20
219.99999
 30
0.0
 40
3.2
  1
14
  7
arial_ttf
 11
375.614288
 21
223.19999
 31
0.0
100
AcDbText
 73
         3
  0
TEXT
  5
2DC
100
AcDbEntity
  8
0
370
         0
390
0
  6
CONTINUOUS
 62
         7
100
AcDbText
 10
210.00001
 20
240.514282
 30
0.0
 40
3.2
  1
32
 50
90.000076
  7
arial_ttf
 11
206.80001
 21
240.5142777554
 31
0.0
100
AcDbText
 73
         3
  0
TEXT
  5
2DD
100
AcDbEntity
  8
0
370
         0
390
0
  6
CONTINUOUS
 62
         7
100
AcDbText
 10
395.00001
 20
240.514282
 30
0.0
 40
3.2
  1
66
 50
90.000076
  7
arial_ttf
 11
391.80001
 21
240.5142777554
 31
0.0
100
AcDbText
 73
         3
  0
TEXT
  5
2DE
100
AcDbEntity
  8
0
370
         0
390
0
  6
CONTINUOUS
 62
         7
100
AcDbText
 10
113.764282
 20
129.99999
 30
0.0
 40
3.2
  1
131
  7
arial_ttf
 11
113.764282
 21
133.19999
 31
0.0
100
AcDbText
 73
         3
  0
TEXT
  5
2DF
100
AcDbEntity
  8
0
370
         0
390
0
  6
CONTINUOUS
 62
         7
100
AcDbText
 10
124.364288
 20
269.99999
 30
0.0
 40
3.2
  1
95
  7
arial_ttf
 11
124.364288
 21
273.19999
 31
0.0
100
AcDbText
 73
         3
  0
TEXT
  5
2E0
100
AcDbEntity
  8
0
370
         0
390
0
  6
CONTINUOUS
 62
         7
100
AcDbText
 10
95.864288
 20
139.99999
 30
0.0
 40
3.2
  1
53
  7
arial_ttf
 11
95.864288
 21
143.19999
 31
0.0
100
AcDbText
 73
         3
  0
TEXT
  5
2E1
100
AcDbEntity
  8
0
370
         0
390
0
  6
CONTINUOUS
 62
         7
100
AcDbText
 10
200.00001
 20
202.514282
 30
0.0
 40
3.2
  1
150
 50
90.000076
  7
arial_ttf
 11
196.80001
 21
202.5142777554
 31
0.0
100
AcDbText
 73
         3
  0
TEXT
  5
2E2
100
AcDbEntity
  8
0
370
         0
390
0
  6
CONTINUOUS
 62
         7
100
AcDbText
 10
203.264282
 20
119.99999
 30
0.0
 40
3.2
  1
700(654-714)
  7
arial_ttf
 11
203.264282
 21
123.19999
 31
0.0
100
AcDbText
 73
         3
  0
TEXT
  5
2E3
100
AcDbEntity
  8
0
370
         0
390
0
  6
CONTINUOUS
 62
         7
100
AcDbText
 10
283.964
 20
23.50999
 30
0.0
 40
3.2
  1
ｳｴｽﾄ ﾊﾟｲﾌﾟ
  7
arial_ttf
 11
283.964
 21
26.70999
 31
0.0
100
AcDbText
 73
         3
  0
TEXT
  5
2E4
100
AcDbEntity
  8
0
370
         0
390
0
  6
CONTINUOUS
 62
         7
100
AcDbText
 10
283.964
 20
19.50999
 30
0.0
 40
3.2
  1
 Sﾄﾗｯﾌﾟﾊﾟｲﾌﾟ
  7
arial_ttf
 11
283.964
 21
22.70999
 31
0.0
100
AcDbText
 73
         3
  0
TEXT
  5
2E5
100
AcDbEntity
  8
0
370
         0
390
0
  6
CONTINUOUS
 62
         7
100
AcDbText
 10
283.964
 20
15.50999
 30
0.0
 40
3.2
  1
 700mm、排水管100付
  7
arial_ttf
 11
283.964
 21
18.70999
 31
0.0
100
AcDbText
 73
         3
  0
TEXT
  5
2E6
100
AcDbEntity
  8
0
370
         0
390
0
  6
CONTINUOUS
 62
         7
100
AcDbText
 10
317.714
 20
286.75999
 30
0.0
 40
3.2
  1
 3RD ANGLE PROJECTION < MM >
  7
arial_ttf
 11
317.714
 21
289.95999
 31
0.0
100
AcDbText
 73
         3
  0
TEXT
  5
2E7
100
AcDbEntity
  8
0
370
         0
390
0
  6
CONTINUOUS
 62
         7
100
AcDbText
 10
398.2143
 20
25.99999
 30
0.0
 40
2.5
  1
CAD
  7
arial_ttf
 11
398.2143
 21
28.49999
 31
0.0
100
AcDbText
 73
         3
  0
TEXT
  5
2E8
100
AcDbEntity
  8
0
370
         0
390
0
  6
CONTINUOUS
 62
         7
100
AcDbText
 10
267.679
 20
26.19999
 30
0.0
 40
1.5
  1
Scala
  7
arial_ttf
 11
267.679
 21
27.69999
 31
0.0
100
AcDbText
 73
         3
  0
TEXT
  5
2E9
100
AcDbEntity
  8
0
370
         0
390
0
  6
CONTINUOUS
 62
         7
100
AcDbText
 10
11.429
 20
16.44999
 30
0.0
 40
1.5
  1
Name
  7
arial_ttf
 11
11.429
 21
17.94999
 31
0.0
100
AcDbText
 73
         3
  0
TEXT
  5
2EA
100
AcDbEntity
  8
0
370
         0
390
0
  6
CONTINUOUS
 62
         7
100
AcDbText
 10
11.429
 20
11.44999
 30
0.0
 40
1.5
  1
Proof
  7
arial_ttf
 11
11.429
 21
12.94999
 31
0.0
100
AcDbText
 73
         3
  0
TEXT
  5
2EB
100
AcDbEntity
  8
0
370
         0
390
0
  6
CONTINUOUS
 62
         7
100
AcDbText
 10
11.429
 20
26.44999
 30
0.0
 40
1.5
  1
Revisions
  7
arial_ttf
 11
11.429
 21
27.94999
 31
0.0
100
AcDbText
 73
         3
  0
TEXT
  5
2EC
100
AcDbEntity
  8
0
370
         0
390
0
  6
CONTINUOUS
 62
         7
100
AcDbText
 10
268.179
 20
11.24999
 30
0.0
 40
5.0
  1
1:2
  7
arial_ttf
 11
268.179
 21
16.24999
 31
0.0
100
AcDbText
 73
         3
  0
TEXT
  5
2ED
100
AcDbEntity
  8
0
370
         0
390
0
  6
CONTINUOUS
 62
         7
100
AcDbText
 10
357.1786
 20
26.69999
 30
0.0
 40
1.5
  1
Number
  7
arial_ttf
 11
357.1786
 21
28.19999
 31
0.0
100
AcDbText
 73
         3
  0
TEXT
  5
2EE
100
AcDbEntity
  8
0
370
         0
390
0
  6
CONTINUOUS
 62
         7
100
AcDbText
 10
27.929
 20
16.19999
 30
0.0
 40
1.5
  1
Matsumoto
  7
arial_ttf
 11
27.929
 21
17.69999
 31
0.0
100
AcDbText
 73
         3
  0
TEXT
  5
2EF
100
AcDbEntity
  8
0
370
         0
390
0
  6
CONTINUOUS
 62
         7
100
AcDbText
 10
184.929
 20
15.44999
 30
0.0
 40
1.5
  1
Telefon:03-5296-9684
  7
arial_ttf
 11
184.929
 21
16.94999
 31
0.0
100
AcDbText
 73
         3
  0
TEXT
  5
2F0
100
AcDbEntity
  8
0
370
         0
390
0
  6
CONTINUOUS
 62
         7
100
AcDbText
 10
184.929
 20
23.44999
 30
0.0
 40
1.5
  1
Grohe Japan Ltd
  7
arial_ttf
 11
184.929
 21
24.94999
 31
0.0
100
AcDbText
 73
         3
  0
TEXT
  5
2F1
100
AcDbEntity
  8
0
370
         0
390
0
  6
CONTINUOUS
 62
         7
100
AcDbText
 10
184.929
 20
21.44999
 30
0.0
 40
1.5
  1
Sumitomo Gaien Bldg.
  7
arial_ttf
 11
184.929
 21
22.94999
 31
0.0
100
AcDbText
 73
         3
  0
TEXT
  5
2F2
100
AcDbEntity
  8
0
370
         0
390
0
  6
CONTINUOUS
 62
         7
100
AcDbText
 10
184.929
 20
19.44999
 30
0.0
 40
1.5
  1
24,Daikyo-cho
  7
arial_ttf
 11
184.929
 21
20.94999
 31
0.0
100
AcDbText
 73
         3
  0
TEXT
  5
2F3
100
AcDbEntity
  8
0
370
         0
390
0
  6
CONTINUOUS
 62
         7
100
AcDbText
 10
184.929
 20
17.44999
 30
0.0
 40
1.5
  1
Shinjuku-ku,Tokyo 160
  7
arial_ttf
 11
184.929
 21
18.94999
 31
0.0
100
AcDbText
 73
         3
  0
TEXT
  5
2F4
100
AcDbEntity
  8
0
370
         0
390
0
  6
CONTINUOUS
 62
         7
100
AcDbText
 10
28.429
 20
21.19999
 30
0.0
 40
1.5
  1
04.10.10
  7
arial_ttf
 11
28.429
 21
22.69999
 31
0.0
100
AcDbText
 73
         3
  0
TEXT
  5
2F5
100
AcDbEntity
  8
0
370
         0
390
0
  6
CONTINUOUS
 62
         7
100
AcDbText
 10
11.429
 20
21.44999
 30
0.0
 40
1.5
  1
Date
  7
arial_ttf
 11
11.429
 21
22.94999
 31
0.0
100
AcDbText
 73
         3
  0
LINE
  5
2F6
100
AcDbEntity
  8
0
370
         0
390
0
  6
CONTINUOUS
 62
         7
100
AcDbLine
 10
58.5
 20
181.125
 30
0.0
 11
58.5
 21
158.875
 31
0.0
  0
LINE
  5
2F7
100
AcDbEntity
  8
0
370
         0
390
0
  6
CONTINUOUS
 62
         7
100
AcDbLine
 10
64.25
 20
181.125
 30
0.0
 11
64.25
 21
158.875
 31
0.0
  0
LINE
  5
2F8
100
AcDbEntity
  8
0
370
         0
390
0
  6
CONTINUOUS
 62
         7
100
AcDbLine
 10
58.5
 20
158.875
 30
0.0
 11
64.25
 21
158.875
 31
0.0
  0
LINE
  5
2F9
100
AcDbEntity
  8
0
370
         0
390
0
  6
CONTINUOUS
 62
         7
100
AcDbLine
 10
58.5
 20
181.125
 30
0.0
 11
64.25
 21
181.125
 31
0.0
  0
LINE
  5
2FA
100
AcDbEntity
  8
0
370
         0
390
0
  6
CONTINUOUS
 62
         7
100
AcDbLine
 10
61.375
 20
178.085054
 30
0.0
 11
60.371696
 21
177.903686
 31
0.0
  0
LINE
  5
2FB
100
AcDbEntity
  8
0
370
         0
390
0
  6
CONTINUOUS
 62
         7
100
AcDbLine
 10
60.371696
 20
177.903686
 30
0.0
 11
59.501005
 21
177.375163
 31
0.0
  0
LINE
  5
2FC
100
AcDbEntity
  8
0
370
         0
390
0
  6
CONTINUOUS
 62
         7
100
AcDbLine
 10
59.501005
 20
177.375163
 30
0.0
 11
58.897848
 21
176.555422
 31
0.0
  0
LINE
  5
2FD
100
AcDbEntity
  8
0
370
         0
390
0
  6
CONTINUOUS
 62
         7
100
AcDbLine
 10
58.897848
 20
176.555422
 30
0.0
 11
58.680318
 21
175.5625
 31
0.0
  0
LINE
  5
2FE
100
AcDbEntity
  8
0
370
         0
390
0
  6
CONTINUOUS
 62
         7
100
AcDbLine
 10
58.680318
 20
175.5625
 30
0.0
 11
58.897969
 21
174.569313
 31
0.0
  0
LINE
  5
2FF
100
AcDbEntity
  8
0
370
         0
390
0
  6
CONTINUOUS
 62
         7
100
AcDbLine
 10
58.897969
 20
174.569313
 30
0.0
 11
59.501042
 21
173.749804
 31
0.0
  0
LINE
  5
300
100
AcDbEntity
  8
0
370
         0
390
0
  6
CONTINUOUS
 62
         7
100
AcDbLine
 10
59.501042
 20
173.749804
 30
0.0
 11
60.372339
 21
173.221072
 31
0.0
  0
LINE
  5
301
100
AcDbEntity
  8
0
370
         0
390
0
  6
CONTINUOUS
 62
         7
100
AcDbLine
 10
60.372339
 20
173.221072
 30
0.0
 11
61.375
 21
173.039946
 31
0.0
  0
LINE
  5
302
100
AcDbEntity
  8
0
370
         0
390
0
  6
CONTINUOUS
 62
         7
100
AcDbLine
 10
61.375
 20
173.039946
 30
0.0
 11
62.378304
 21
173.221314
 31
0.0
  0
LINE
  5
303
100
AcDbEntity
  8
0
370
         0
390
0
  6
CONTINUOUS
 62
         7
100
AcDbLine
 10
62.378304
 20
173.221314
 30
0.0
 11
63.248995
 21
173.749837
 31
0.0
  0
LINE
  5
304
100
AcDbEntity
  8
0
370
         0
390
0
  6
CONTINUOUS
 62
         7
100
AcDbLine
 10
63.248995
 20
173.749837
 30
0.0
 11
63.852152
 21
174.569578
 31
0.0
  0
LINE
  5
305
100
AcDbEntity
  8
0
370
         0
390
0
  6
CONTINUOUS
 62
         7
100
AcDbLine
 10
63.852152
 20
174.569578
 30
0.0
 11
64.069682
 21
175.5625
 31
0.0
  0
LINE
  5
306
100
AcDbEntity
  8
0
370
         0
390
0
  6
CONTINUOUS
 62
         7
100
AcDbLine
 10
64.069682
 20
175.5625
 30
0.0
 11
63.852031
 21
176.555687
 31
0.0
  0
LINE
  5
307
100
AcDbEntity
  8
0
370
         0
390
0
  6
CONTINUOUS
 62
         7
100
AcDbLine
 10
63.852031
 20
176.555687
 30
0.0
 11
63.248958
 21
177.375196
 31
0.0
  0
LINE
  5
308
100
AcDbEntity
  8
0
370
         0
390
0
  6
CONTINUOUS
 62
         7
100
AcDbLine
 10
63.248958
 20
177.375196
 30
0.0
 11
62.377661
 21
177.903928
 31
0.0
  0
LINE
  5
309
100
AcDbEntity
  8
0
370
         0
390
0
  6
CONTINUOUS
 62
         7
100
AcDbLine
 10
62.377661
 20
177.903928
 30
0.0
 11
61.375
 21
178.085054
 31
0.0
  0
LINE
  5
30A
100
AcDbEntity
  8
0
370
         0
390
0
  6
CONTINUOUS
 62
         7
100
AcDbLine
 10
61.375
 20
161.914946
 30
0.0
 11
60.371696
 21
162.096314
 31
0.0
  0
LINE
  5
30B
100
AcDbEntity
  8
0
370
         0
390
0
  6
CONTINUOUS
 62
         7
100
AcDbLine
 10
60.371696
 20
162.096314
 30
0.0
 11
59.501005
 21
162.624837
 31
0.0
  0
LINE
  5
30C
100
AcDbEntity
  8
0
370
         0
390
0
  6
CONTINUOUS
 62
         7
100
AcDbLine
 10
59.501005
 20
162.624837
 30
0.0
 11
58.897848
 21
163.444578
 31
0.0
  0
LINE
  5
30D
100
AcDbEntity
  8
0
370
         0
390
0
  6
CONTINUOUS
 62
         7
100
AcDbLine
 10
58.897848
 20
163.444578
 30
0.0
 11
58.680318
 21
164.4375
 31
0.0
  0
LINE
  5
30E
100
AcDbEntity
  8
0
370
         0
390
0
  6
CONTINUOUS
 62
         7
100
AcDbLine
 10
58.680318
 20
164.4375
 30
0.0
 11
58.897969
 21
165.430687
 31
0.0
  0
LINE
  5
30F
100
AcDbEntity
  8
0
370
         0
390
0
  6
CONTINUOUS
 62
         7
100
AcDbLine
 10
58.897969
 20
165.430687
 30
0.0
 11
59.501042
 21
166.250196
 31
0.0
  0
LINE
  5
310
100
AcDbEntity
  8
0
370
         0
390
0
  6
CONTINUOUS
 62
         7
100
AcDbLine
 10
59.501042
 20
166.250196
 30
0.0
 11
60.372339
 21
166.778928
 31
0.0
  0
LINE
  5
311
100
AcDbEntity
  8
0
370
         0
390
0
  6
CONTINUOUS
 62
         7
100
AcDbLine
 10
60.372339
 20
166.778928
 30
0.0
 11
61.375
 21
166.960054
 31
0.0
  0
LINE
  5
312
100
AcDbEntity
  8
0
370
         0
390
0
  6
CONTINUOUS
 62
         7
100
AcDbLine
 10
61.375
 20
166.960054
 30
0.0
 11
62.378304
 21
166.778686
 31
0.0
  0
LINE
  5
313
100
AcDbEntity
  8
0
370
         0
390
0
  6
CONTINUOUS
 62
         7
100
AcDbLine
 10
62.378304
 20
166.778686
 30
0.0
 11
63.248995
 21
166.250163
 31
0.0
  0
LINE
  5
314
100
AcDbEntity
  8
0
370
         0
390
0
  6
CONTINUOUS
 62
         7
100
AcDbLine
 10
63.248995
 20
166.250163
 30
0.0
 11
63.852152
 21
165.430422
 31
0.0
  0
LINE
  5
315
100
AcDbEntity
  8
0
370
         0
390
0
  6
CONTINUOUS
 62
         7
100
AcDbLine
 10
63.852152
 20
165.430422
 30
0.0
 11
64.069682
 21
164.4375
 31
0.0
  0
LINE
  5
316
100
AcDbEntity
  8
0
370
         0
390
0
  6
CONTINUOUS
 62
         7
100
AcDbLine
 10
64.069682
 20
164.4375
 30
0.0
 11
63.852031
 21
163.444313
 31
0.0
  0
LINE
  5
317
100
AcDbEntity
  8
0
370
         0
390
0
  6
CONTINUOUS
 62
         7
100
AcDbLine
 10
63.852031
 20
163.444313
 30
0.0
 11
63.248958
 21
162.624804
 31
0.0
  0
LINE
  5
318
100
AcDbEntity
  8
0
370
         0
390
0
  6
CONTINUOUS
 62
         7
100
AcDbLine
 10
63.248958
 20
162.624804
 30
0.0
 11
62.377661
 21
162.096072
 31
0.0
  0
LINE
  5
319
100
AcDbEntity
  8
0
370
         0
390
0
  6
CONTINUOUS
 62
         7
100
AcDbLine
 10
62.377661
 20
162.096072
 30
0.0
 11
61.375
 21
161.914946
 31
0.0
  0
LINE
  5
31A
100
AcDbEntity
  8
0
370
         0
390
0
  6
CONTINUOUS
 62
         7
100
AcDbLine
 10
64.25
 20
178.0
 30
0.0
 11
86.5
 21
178.0
 31
0.0
  0
LINE
  5
31B
100
AcDbEntity
  8
0
370
         0
390
0
  6
CONTINUOUS
 62
         7
100
AcDbLine
 10
64.25
 20
162.0
 30
0.0
 11
86.5
 21
162.0
 31
0.0
  0
LINE
  5
31C
100
AcDbEntity
  8
0
370
         0
390
0
  6
CONTINUOUS
 62
         7
100
AcDbLine
 10
46.177567
 20
159.522507
 30
0.0
 11
46.177567
 21
180.477493
 31
0.0
  0
LINE
  5
31D
100
AcDbEntity
  8
0
370
         0
390
0
  6
CONTINUOUS
 62
         7
100
AcDbLine
 10
46.177567
 20
159.522507
 30
0.0
 11
45.40111
 21
162.420284
 31
0.0
  0
LINE
  5
31E
100
AcDbEntity
  8
0
370
         0
390
0
  6
CONTINUOUS
 62
         7
100
AcDbLine
 10
46.177567
 20
159.522507
 30
0.0
 11
46.954023
 21
162.420284
 31
0.0
  0
LINE
  5
31F
100
AcDbEntity
  8
0
370
         0
390
0
  6
CONTINUOUS
 62
         7
100
AcDbLine
 10
46.177567
 20
180.477493
 30
0.0
 11
46.954023
 21
177.579716
 31
0.0
  0
LINE
  5
320
100
AcDbEntity
  8
0
370
         0
390
0
  6
CONTINUOUS
 62
         7
100
AcDbLine
 10
46.177567
 20
180.477493
 30
0.0
 11
45.40111
 21
177.579716
 31
0.0
  0
LINE
  5
321
100
AcDbEntity
  8
0
370
         0
390
0
  6
CONTINUOUS
 62
         7
100
AcDbLine
 10
58.5
 20
159.522507
 30
0.0
 11
43.891571
 21
159.522507
 31
0.0
  0
LINE
  5
322
100
AcDbEntity
  8
0
370
         0
390
0
  6
CONTINUOUS
 62
         7
100
AcDbLine
 10
58.5
 20
180.477493
 30
0.0
 11
43.891571
 21
180.477493
 31
0.0
  0
TEXT
  5
323
100
AcDbEntity
  8
0
370
         0
390
0
  6
CONTINUOUS
 62
         7
100
AcDbText
 10
46.177577
 20
163.114288
 30
0.0
 40
3.2
  1
G 1-1/4
 50
90.0
  7
arial_ttf
 11
42.977577
 21
163.114288
 31
0.0
100
AcDbText
 73
         3
  0
LINE
  5
324
100
AcDbEntity
  8
0
370
         0
390
0
  6
CONTINUOUS
 62
         7
100
AcDbLine
 10
86.5
 20
130.0
 30
0.0
 11
83.602222
 21
130.776456
 31
0.0
  0
LINE
  5
325
100
AcDbEntity
  8
0
370
         0
390
0
  6
CONTINUOUS
 62
         7
100
AcDbLine
 10
86.5
 20
130.0
 30
0.0
 11
83.602222
 21
129.223544
 31
0.0
  0
LINE
  5
326
100
AcDbEntity
  8
0
370
         0
390
0
  6
CONTINUOUS
 62
         7
100
AcDbLine
 10
86.5
 20
130.0
 30
0.0
 11
58.5
 21
130.0
 31
0.0
  0
LINE
  5
327
100
AcDbEntity
  8
0
370
         0
390
0
  6
CONTINUOUS
 62
         7
100
AcDbLine
 10
58.5
 20
130.0
 30
0.0
 11
61.397778
 21
130.776456
 31
0.0
  0
LINE
  5
328
100
AcDbEntity
  8
0
370
         0
390
0
  6
CONTINUOUS
 62
         7
100
AcDbLine
 10
58.5
 20
130.0
 30
0.0
 11
61.397778
 21
129.223544
 31
0.0
  0
LINE
  5
329
100
AcDbEntity
  8
0
370
         0
390
0
  6
CONTINUOUS
 62
         7
100
AcDbLine
 10
58.5
 20
158.875
 30
0.0
 11
58.5
 21
127.714005
 31
0.0
  0
TEXT
  5
32A
100
AcDbEntity
  8
0
370
         0
390
0
  6
CONTINUOUS
 62
         7
100
AcDbText
 10
69.364288
 20
129.99996
 30
0.0
 40
3.2
  1
15-75
  7
arial_ttf
 11
69.364288
 21
133.19996
 31
0.0
100
AcDbText
 73
         3
  0
LINE
  5
32B
100
AcDbEntity
  8
0
370
         0
390
0
  6
CONTINUOUS
 62
         7
100
AcDbLine
 10
64.25
 20
78.0
 30
0.0
 11
86.5
 21
78.0
 31
0.0
  0
LINE
  5
32C
100
AcDbEntity
  8
0
370
         0
390
0
  6
CONTINUOUS
 62
         7
100
AcDbLine
 10
64.25
 20
62.0
 30
0.0
 11
86.5
 21
62.0
 31
0.0
  0
LINE
  5
32D
100
AcDbEntity
  8
0
370
         0
390
0
  6
CONTINUOUS
 62
         7
100
AcDbLine
 10
64.25
 20
80.741
 30
0.0
 11
64.25
 21
59.259
 31
0.0
  0
LINE
  5
32E
100
AcDbEntity
  8
0
370
         0
390
0
  6
CONTINUOUS
 62
         7
100
AcDbLine
 10
58.5
 20
80.741
 30
0.0
 11
58.5
 21
59.259
 31
0.0
  0
ARC
  5
32F
100
AcDbEntity
  8
0
370
         0
390
0
  6
CONTINUOUS
 62
         7
100
AcDbCircle
 10
61.375
 20
70.0
 30
0.0
 40
11.5
100
AcDbArc
 50
257.531281
 51
282.469033
  0
ARC
  5
330
100
AcDbEntity
  8
0
370
         0
390
0
  6
CONTINUOUS
 62
         7
100
AcDbCircle
 10
59.0
 20
59.259445
 30
0.0
 40
0.5
100
AcDbArc
 50
180.000079
 51
257.531281
  0
ARC
  5
331
100
AcDbEntity
  8
0
370
         0
390
0
  6
CONTINUOUS
 62
         7
100
AcDbCircle
 10
63.75
 20
59.259445
 30
0.0
 40
0.5
100
AcDbArc
 50
282.468719
 51
359.999921
  0
ARC
  5
332
100
AcDbEntity
  8
0
370
         0
390
0
  6
CONTINUOUS
 62
         7
100
AcDbCircle
 10
59.0
 20
80.740555
 30
0.0
 40
0.5
100
AcDbArc
 50
102.468878
 51
180.000079
  0
ARC
  5
333
100
AcDbEntity
  8
0
370
         0
390
0
  6
CONTINUOUS
 62
         7
100
AcDbCircle
 10
61.375
 20
70.0
 30
0.0
 40
11.5
100
AcDbArc
 50
77.531122
 51
102.468878
  0
ARC
  5
334
100
AcDbEntity
  8
0
370
         0
390
0
  6
CONTINUOUS
 62
         7
100
AcDbCircle
 10
63.75
 20
80.740555
 30
0.0
 40
0.5
100
AcDbArc
 50
0.0
 51
77.531122
  0
LINE
  5
335
100
AcDbEntity
  8
0
370
         0
390
0
  6
CONTINUOUS
 62
         7
100
AcDbLine
 10
61.375
 20
62.451758
 30
0.0
 11
60.479862
 21
62.34558
 31
0.0
  0
LINE
  5
336
100
AcDbEntity
  8
0
370
         0
390
0
  6
CONTINUOUS
 62
         7
100
AcDbLine
 10
60.479862
 20
62.34558
 30
0.0
 11
59.642468
 21
62.014065
 31
0.0
  0
LINE
  5
337
100
AcDbEntity
  8
0
370
         0
390
0
  6
CONTINUOUS
 62
         7
100
AcDbLine
 10
59.642468
 20
62.014065
 30
0.0
 11
58.967508
 21
61.421911
 31
0.0
  0
LINE
  5
338
100
AcDbEntity
  8
0
370
         0
390
0
  6
CONTINUOUS
 62
         7
100
AcDbLine
 10
58.967508
 20
61.421911
 30
0.0
 11
58.680318
 21
60.581974
 31
0.0
  0
LINE
  5
339
100
AcDbEntity
  8
0
370
         0
390
0
  6
CONTINUOUS
 62
         7
100
AcDbLine
 10
58.680318
 20
60.581974
 30
0.0
 11
58.9677
 21
59.741772
 31
0.0
  0
LINE
  5
33A
100
AcDbEntity
  8
0
370
         0
390
0
  6
CONTINUOUS
 62
         7
100
AcDbLine
 10
58.9677
 20
59.741772
 30
0.0
 11
59.642027
 21
59.15014
 31
0.0
  0
LINE
  5
33B
100
AcDbEntity
  8
0
370
         0
390
0
  6
CONTINUOUS
 62
         7
100
AcDbLine
 10
59.642027
 20
59.15014
 30
0.0
 11
60.479125
 21
58.818548
 31
0.0
  0
LINE
  5
33C
100
AcDbEntity
  8
0
370
         0
390
0
  6
CONTINUOUS
 62
         7
100
AcDbLine
 10
60.479125
 20
58.818548
 30
0.0
 11
61.375
 21
58.71219
 31
0.0
  0
LINE
  5
33D
100
AcDbEntity
  8
0
370
         0
390
0
  6
CONTINUOUS
 62
         7
100
AcDbLine
 10
61.375
 20
58.71219
 30
0.0
 11
62.270138
 21
58.818368
 31
0.0
  0
LINE
  5
33E
100
AcDbEntity
  8
0
370
         0
390
0
  6
CONTINUOUS
 62
         7
100
AcDbLine
 10
62.270138
 20
58.818368
 30
0.0
 11
63.107532
 21
59.149883
 31
0.0
  0
LINE
  5
33F
100
AcDbEntity
  8
0
370
         0
390
0
  6
CONTINUOUS
 62
         7
100
AcDbLine
 10
63.107532
 20
59.149883
 30
0.0
 11
63.782492
 21
59.742037
 31
0.0
  0
LINE
  5
340
100
AcDbEntity
  8
0
370
         0
390
0
  6
CONTINUOUS
 62
         7
100
AcDbLine
 10
63.782492
 20
59.742037
 30
0.0
 11
64.069682
 21
60.581974
 31
0.0
  0
LINE
  5
341
100
AcDbEntity
  8
0
370
         0
390
0
  6
CONTINUOUS
 62
         7
100
AcDbLine
 10
64.069682
 20
60.581974
 30
0.0
 11
63.7823
 21
61.422176
 31
0.0
  0
LINE
  5
342
100
AcDbEntity
  8
0
370
         0
390
0
  6
CONTINUOUS
 62
         7
100
AcDbLine
 10
63.7823
 20
61.422176
 30
0.0
 11
63.107973
 21
62.013808
 31
0.0
  0
LINE
  5
343
100
AcDbEntity
  8
0
370
         0
390
0
  6
CONTINUOUS
 62
         7
100
AcDbLine
 10
63.107973
 20
62.013808
 30
0.0
 11
62.270875
 21
62.3454
 31
0.0
  0
LINE
  5
344
100
AcDbEntity
  8
0
370
         0
390
0
  6
CONTINUOUS
 62
         7
100
AcDbLine
 10
62.270875
 20
62.3454
 30
0.0
 11
61.375
 21
62.451758
 31
0.0
  0
LINE
  5
345
100
AcDbEntity
  8
0
370
         0
390
0
  6
CONTINUOUS
 62
         7
100
AcDbLine
 10
61.375
 20
73.739569
 30
0.0
 11
60.183858
 21
73.354386
 31
0.0
  0
LINE
  5
346
100
AcDbEntity
  8
0
370
         0
390
0
  6
CONTINUOUS
 62
         7
100
AcDbLine
 10
60.183858
 20
73.354386
 30
0.0
 11
59.325791
 21
72.428401
 31
0.0
  0
LINE
  5
347
100
AcDbEntity
  8
0
370
         0
390
0
  6
CONTINUOUS
 62
         7
100
AcDbLine
 10
59.325791
 20
72.428401
 30
0.0
 11
58.83771
 21
71.259326
 31
0.0
  0
LINE
  5
348
100
AcDbEntity
  8
0
370
         0
390
0
  6
CONTINUOUS
 62
         7
100
AcDbLine
 10
58.83771
 20
71.259326
 30
0.0
 11
58.680318
 21
70.0
 31
0.0
  0
LINE
  5
349
100
AcDbEntity
  8
0
370
         0
390
0
  6
CONTINUOUS
 62
         7
100
AcDbLine
 10
58.680318
 20
70.0
 30
0.0
 11
58.837517
 21
68.741422
 31
0.0
  0
LINE
  5
34A
100
AcDbEntity
  8
0
370
         0
390
0
  6
CONTINUOUS
 62
         7
100
AcDbLine
 10
58.837517
 20
68.741422
 30
0.0
 11
59.325537
 21
67.572012
 31
0.0
  0
LINE
  5
34B
100
AcDbEntity
  8
0
370
         0
390
0
  6
CONTINUOUS
 62
         7
100
AcDbLine
 10
59.325537
 20
67.572012
 30
0.0
 11
60.184208
 21
66.645374
 31
0.0
  0
LINE
  5
34C
100
AcDbEntity
  8
0
370
         0
390
0
  6
CONTINUOUS
 62
         7
100
AcDbLine
 10
60.184208
 20
66.645374
 30
0.0
 11
61.375
 21
66.260431
 31
0.0
  0
LINE
  5
34D
100
AcDbEntity
  8
0
370
         0
390
0
  6
CONTINUOUS
 62
         7
100
AcDbLine
 10
61.375
 20
66.260431
 30
0.0
 11
62.566142
 21
66.645614
 31
0.0
  0
LINE
  5
34E
100
AcDbEntity
  8
0
370
         0
390
0
  6
CONTINUOUS
 62
         7
100
AcDbLine
 10
62.566142
 20
66.645614
 30
0.0
 11
63.424209
 21
67.571599
 31
0.0
  0
LINE
  5
34F
100
AcDbEntity
  8
0
370
         0
390
0
  6
CONTINUOUS
 62
         7
100
AcDbLine
 10
63.424209
 20
67.571599
 30
0.0
 11
63.91229
 21
68.740674
 31
0.0
  0
LINE
  5
350
100
AcDbEntity
  8
0
370
         0
390
0
  6
CONTINUOUS
 62
         7
100
AcDbLine
 10
63.91229
 20
68.740674
 30
0.0
 11
64.069682
 21
70.0
 31
0.0
  0
LINE
  5
351
100
AcDbEntity
  8
0
370
         0
390
0
  6
CONTINUOUS
 62
         7
100
AcDbLine
 10
64.069682
 20
70.0
 30
0.0
 11
63.912483
 21
71.258578
 31
0.0
  0
LINE
  5
352
100
AcDbEntity
  8
0
370
         0
390
0
  6
CONTINUOUS
 62
         7
100
AcDbLine
 10
63.912483
 20
71.258578
 30
0.0
 11
63.424463
 21
72.427988
 31
0.0
  0
LINE
  5
353
100
AcDbEntity
  8
0
370
         0
390
0
  6
CONTINUOUS
 62
         7
100
AcDbLine
 10
63.424463
 20
72.427988
 30
0.0
 11
62.565792
 21
73.354626
 31
0.0
  0
LINE
  5
354
100
AcDbEntity
  8
0
370
         0
390
0
  6
CONTINUOUS
 62
         7
100
AcDbLine
 10
62.565792
 20
73.354626
 30
0.0
 11
61.375
 21
73.739569
 31
0.0
  0
LINE
  5
355
100
AcDbEntity
  8
0
370
         0
390
0
  6
CONTINUOUS
 62
         7
100
AcDbLine
 10
61.375
 20
77.548242
 30
0.0
 11
60.479862
 21
77.65442
 31
0.0
  0
LINE
  5
356
100
AcDbEntity
  8
0
370
         0
390
0
  6
CONTINUOUS
 62
         7
100
AcDbLine
 10
60.479862
 20
77.65442
 30
0.0
 11
59.642468
 21
77.985935
 31
0.0
  0
LINE
  5
357
100
AcDbEntity
  8
0
370
         0
390
0
  6
CONTINUOUS
 62
         7
100
AcDbLine
 10
59.642468
 20
77.985935
 30
0.0
 11
58.967508
 21
78.578089
 31
0.0
  0
LINE
  5
358
100
AcDbEntity
  8
0
370
         0
390
0
  6
CONTINUOUS
 62
         7
100
AcDbLine
 10
58.967508
 20
78.578089
 30
0.0
 11
58.680318
 21
79.418026
 31
0.0
  0
LINE
  5
359
100
AcDbEntity
  8
0
370
         0
390
0
  6
CONTINUOUS
 62
         7
100
AcDbLine
 10
58.680318
 20
79.418026
 30
0.0
 11
58.9677
 21
80.258228
 31
0.0
  0
LINE
  5
35A
100
AcDbEntity
  8
0
370
         0
390
0
  6
CONTINUOUS
 62
         7
100
AcDbLine
 10
58.9677
 20
80.258228
 30
0.0
 11
59.642027
 21
80.84986
 31
0.0
  0
LINE
  5
35B
100
AcDbEntity
  8
0
370
         0
390
0
  6
CONTINUOUS
 62
         7
100
AcDbLine
 10
59.642027
 20
80.84986
 30
0.0
 11
60.479125
 21
81.181452
 31
0.0
  0
LINE
  5
35C
100
AcDbEntity
  8
0
370
         0
390
0
  6
CONTINUOUS
 62
         7
100
AcDbLine
 10
60.479125
 20
81.181452
 30
0.0
 11
61.375
 21
81.28781
 31
0.0
  0
LINE
  5
35D
100
AcDbEntity
  8
0
370
         0
390
0
  6
CONTINUOUS
 62
         7
100
AcDbLine
 10
61.375
 20
81.28781
 30
0.0
 11
62.270138
 21
81.181632
 31
0.0
  0
LINE
  5
35E
100
AcDbEntity
  8
0
370
         0
390
0
  6
CONTINUOUS
 62
         7
100
AcDbLine
 10
62.270138
 20
81.181632
 30
0.0
 11
63.107532
 21
80.850117
 31
0.0
  0
LINE
  5
35F
100
AcDbEntity
  8
0
370
         0
390
0
  6
CONTINUOUS
 62
         7
100
AcDbLine
 10
63.107532
 20
80.850117
 30
0.0
 11
63.782492
 21
80.257963
 31
0.0
  0
LINE
  5
360
100
AcDbEntity
  8
0
370
         0
390
0
  6
CONTINUOUS
 62
         7
100
AcDbLine
 10
63.782492
 20
80.257963
 30
0.0
 11
64.069682
 21
79.418026
 31
0.0
  0
LINE
  5
361
100
AcDbEntity
  8
0
370
         0
390
0
  6
CONTINUOUS
 62
         7
100
AcDbLine
 10
64.069682
 20
79.418026
 30
0.0
 11
63.7823
 21
78.577824
 31
0.0
  0
LINE
  5
362
100
AcDbEntity
  8
0
370
         0
390
0
  6
CONTINUOUS
 62
         7
100
AcDbLine
 10
63.7823
 20
78.577824
 30
0.0
 11
63.107973
 21
77.986192
 31
0.0
  0
LINE
  5
363
100
AcDbEntity
  8
0
370
         0
390
0
  6
CONTINUOUS
 62
         7
100
AcDbLine
 10
63.107973
 20
77.986192
 30
0.0
 11
62.270875
 21
77.6546
 31
0.0
  0
LINE
  5
364
100
AcDbEntity
  8
0
370
         0
390
0
  6
CONTINUOUS
 62
         7
100
AcDbLine
 10
62.270875
 20
77.6546
 30
0.0
 11
61.375
 21
77.548242
 31
0.0
  0
TEXT
  5
365
100
AcDbEntity
  8
0
370
         0
390
0
  6
CONTINUOUS
 62
         7
100
AcDbText
 10
362.9643
 20
19.50999
 30
0.0
 40
3.2
  1
JP1 906 00
  7
arial_ttf
 11
362.9643
 21
22.70999
 31
0.0
100
AcDbText
 73
         3
  0
ENDSEC
  0
SECTION
  2
OBJECTS
  0
DICTIONARY
  5
19
100
AcDbDictionary
280
         0
281
         1
  3
ACAD_GROUP
350
1A
  3
ACAD_MLINESTYLE
350
1B
  3
ACAD_LAYOUT
350
1E
  3
ACAD_PLOTSETTINGS
350
22
  3
ACAD_PLOTSTYLENAME
350
1F
  3
ACAD_WIPEOUT_VARS
350
23
  3
AcDbVariableDictionary
350
366
  0
DICTIONARY
  5
1A
102
{ACAD_REACTORS
330
19
102
}
100
AcDbDictionary
280
         0
281
         1
  0
DICTIONARY
  5
1B
102
{ACAD_REACTORS
330
19
102
}
100
AcDbDictionary
280
         0
281
         1
  3
Standard
350
1C
  0
MLINESTYLE
  5
1C
102
{ACAD_REACTORS
330
1B
102
}
100
AcDbMlineStyle
  2
Standard
 70
         0
  3

 62
         0
 51
90.0
 52
90.0
 71
         2
 49
0.5
 62
       256
  6
ByLayer
 49
-0.5
 62
       256
  6
ByLayer
  0
ACDBDICTIONARYWDFLT
  5
1F
102
{ACAD_REACTORS
330
19
102
}
100
AcDbDictionary
281
         1
  3
Normal
350
1D
100
AcDbDictionaryWithDefault
340
1D
  0
ACDBPLACEHOLDER
  5
1D
102
{ACAD_REACTORS
330
1F
102
}
  0
LAYOUT
  5
20
102
{ACAD_REACTORS
330
1E
102
}
100
AcDbPlotSettings
  1

  2

  4

  6

 40
0.0
 41
0.0
 42
0.0
 43
0.0
 44
0.0
 45
0.0
 46
0.0
 47
0.0
 48
0.0
 49
0.0
140
0.0
141
0.0
142
1.0
143
1.0
 70
      1024
 72
         0
 73
         0
 74
         0
  7

 75
         0
147
1.0
148
0.0
149
0.0
100
AcDbLayout
  1
Model
 70
         0
 71
         0
 10
0.0
 20
0.0
 11
0.0
 21
0.0
 12
0.0
 22
0.0
 32
0.0
 14
0.0
 24
0.0
 34
0.0
 15
0.0
 25
0.0
 35
0.0
146
0.0
 13
0.0
 23
0.0
 33
0.0
 16
0.0
 26
0.0
 36
0.0
 17
0.0
 27
0.0
 37
0.0
 76
         0
330
A
331
0
345
0
346
0
  0
LAYOUT
  5
21
102
{ACAD_REACTORS
330
1E
102
}
100
AcDbPlotSettings
  1

  2

  4

  6

 40
0.0
 41
0.0
 42
0.0
 43
0.0
 44
0.0
 45
0.0
 46
0.0
 47
0.0
 48
0.0
 49
0.0
140
0.0
141
0.0
142
1.0
143
1.0
 70
         0
 72
         0
 73
         0
 74
         0
  7

 75
         0
147
1.0
148
0.0
149
0.0
100
AcDbLayout
  1
Layout1
 70
         0
 71
         0
 10
0.0
 20
0.0
 11
0.0
 21
0.0
 12
0.0
 22
0.0
 32
0.0
 14
0.0
 24
0.0
 34
0.0
 15
0.0
 25
0.0
 35
0.0
146
0.0
 13
0.0
 23
0.0
 33
0.0
 16
0.0
 26
0.0
 36
0.0
 17
0.0
 27
0.0
 37
0.0
 76
         0
330
B
331
0
345
0
346
0
  0
DICTIONARY
  5
1E
102
{ACAD_REACTORS
330
19
102
}
100
AcDbDictionary
280
         0
281
         1
  3
Layout1
350
21
  3
Model
350
20
  0
DICTIONARY
  5
22
102
{ACAD_REACTORS
330
19
102
}
100
AcDbDictionary
280
         0
281
         1
  0
WIPEOUTVARIABLES
  5
23
100
AcDbWipeoutVariables
 70
         1
  0
DICTIONARY
  5
366
100
AcDbDictionary
280
         0
281
         0
  3
DIMASSOC
350
367
  0
DICTIONARYVAR
  5
367
100
DictionaryVariables
280
         0
  1
2
  0
ENDSEC
  0
EOF
