  0
SECTION
  2
HEADER
  9
$ACADVER
  1
AC1015
  9
$ACADMAINTVER
 70
         6
  9
$DWGCODEPAGE
  3
ANSI_932
  9
$INSBASE
 10
0.0
 20
0.0
 30
0.0
  9
$EXTMIN
 10
0.0
 20
0.0
 30
0.0
  9
$EXTMAX
 10
420.0
 20
297.0
 30
0.0
  9
$LIMMIN
 10
0.0
 20
0.0
  9
$LIMMAX
 10
420.0
 20
297.0
  9
$ORTHOMODE
 70
         0
  9
$REGENMODE
 70
         1
  9
$FILLMODE
 70
         1
  9
$QTEXTMODE
 70
         0
  9
$MIRRTEXT
 70
         1
  9
$LTSCALE
 40
25.4
  9
$ATTMODE
 70
         1
  9
$TEXTSIZE
 40
0.2
  9
$TRACEWID
 40
0.05
  9
$TEXTSTYLE
  7
Standard
  9
$CLAYER
  8
0
  9
$CELTYPE
  6
CONTINUOUS
  9
$CECOLOR
 62
       256
  9
$CELTSCALE
 40
1.0
  9
$DISPSILH
 70
         0
  9
$DIMSCALE
 40
1.0
  9
$DIMASZ
 40
0.18
  9
$DIMEXO
 40
0.0625
  9
$DIMDLI
 40
0.38
  9
$DIMRND
 40
0.0
  9
$DIMDLE
 40
0.0
  9
$DIMEXE
 40
0.18
  9
$DIMTP
 40
0.0
  9
$DIMTM
 40
0.0
  9
$DIMTXT
 40
0.18
  9
$DIMCEN
 40
0.09
  9
$DIMTSZ
 40
0.0
  9
$DIMTOL
 70
         0
  9
$DIMLIM
 70
         0
  9
$DIMTIH
 70
         1
  9
$DIMTOH
 70
         1
  9
$DIMSE1
 70
         0
  9
$DIMSE2
 70
         0
  9
$DIMTAD
 70
         0
  9
$DIMZIN
 70
         0
  9
$DIMBLK
  1

  9
$DIMASO
 70
         1
  9
$DIMSHO
 70
         1
  9
$DIMPOST
  1

  9
$DIMAPOST
  1

  9
$DIMALT
 70
         0
  9
$DIMALTD
 70
         2
  9
$DIMALTF
 40
25.4
  9
$DIMLFAC
 40
1.0
  9
$DIMTOFL
 70
         0
  9
$DIMTVP
 40
0.0
  9
$DIMTIX
 70
         0
  9
$DIMSOXD
 70
         0
  9
$DIMSAH
 70
         0
  9
$DIMBLK1
  1

  9
$DIMBLK2
  1

  9
$DIMSTYLE
  2
Standard
  9
$DIMCLRD
 70
         0
  9
$DIMCLRE
 70
         0
  9
$DIMCLRT
 70
         0
  9
$DIMTFAC
 40
1.0
  9
$DIMGAP
 40
0.09
  9
$DIMJUST
 70
         0
  9
$DIMSD1
 70
         0
  9
$DIMSD2
 70
         0
  9
$DIMTOLJ
 70
         1
  9
$DIMTZIN
 70
         0
  9
$DIMALTZ
 70
         0
  9
$DIMALTTZ
 70
         0
  9
$DIMUPT
 70
         0
  9
$DIMDEC
 70
         4
  9
$DIMTDEC
 70
         4
  9
$DIMALTU
 70
         2
  9
$DIMALTTD
 70
         2
  9
$DIMTXSTY
  7
Standard
  9
$DIMAUNIT
 70
         0
  9
$DIMADEC
 70
         0
  9
$DIMALTRND
 40
0.0
  9
$DIMAZIN
 70
         0
  9
$DIMDSEP
 70
         0
  9
$DIMATFIT
 70
         3
  9
$DIMFRAC
 70
         0
  9
$DIMLDRBLK
  1

  9
$DIMLUNIT
 70
         2
  9
$DIMLWD
 70
         0
  9
$DIMLWE
 70
         0
  9
$DIMTMOVE
 70
         0
  9
$LUNITS
 70
         2
  9
$LUPREC
 70
         4
  9
$SKETCHINC
 40
0.1
  9
$FILLETRAD
 40
0.0
  9
$AUNITS
 70
         0
  9
$AUPREC
 70
         0
  9
$MENU
  1
acad
  9
$ELEVATION
 40
0.0
  9
$PELEVATION
 40
0.0
  9
$THICKNESS
 40
0.0
  9
$LIMCHECK
 70
         0
  9
$CHAMFERA
 40
0.0
  9
$CHAMFERB
 40
0.0
  9
$CHAMFERC
 40
0.0
  9
$CHAMFERD
 40
0.0
  9
$SKPOLY
 70
         0
  9
$TDCREATE
 40
0.000000000
  9
$TDUCREATE
 40
0.000000000
  9
$TDUPDATE
 40
0.000000000
  9
$TDUUPDATE
 40
0.000000000
  9
$TDINDWG
 40
0.0000000000
  9
$TDUSRTIMER
 40
0.0000000000
  9
$USRTIMER
 70
         1
  9
$ANGBASE
 50
0.0
  9
$ANGDIR
 70
         0
  9
$PDMODE
 70
         0
  9
$PDSIZE
 40
0.0
  9
$PLINEWID
 40
0.0
  9
$SPLFRAME
 70
         0
  9
$SPLINETYPE
 70
         6
  9
$SPLINESEGS
 70
         8
  9
$HANDSEED
  5
35D
  9
$SURFTAB1
 70
         6
  9
$SURFTAB2
 70
         6
  9
$SURFTYPE
 70
         6
  9
$SURFU
 70
         6
  9
$SURFV
 70
         6
  9
$UCSBASE
  2

  9
$UCSNAME
  2

  9
$UCSORG
 10
0.0
 20
0.0
 30
0.0
  9
$UCSXDIR
 10
1.0
 20
0.0
 30
0.0
  9
$UCSYDIR
 10
0.0
 20
1.0
 30
0.0
  9
$UCSORTHOREF
  2

  9
$UCSORTHOVIEW
 70
         0
  9
$UCSORGTOP
 10
0.0
 20
0.0
 30
0.0
  9
$UCSORGBOTTOM
 10
0.0
 20
0.0
 30
0.0
  9
$UCSORGLEFT
 10
0.0
 20
0.0
 30
0.0
  9
$UCSORGRIGHT
 10
0.0
 20
0.0
 30
0.0
  9
$UCSORGFRONT
 10
0.0
 20
0.0
 30
0.0
  9
$UCSORGBACK
 10
0.0
 20
0.0
 30
0.0
  9
$PUCSBASE
  2

  9
$PUCSNAME
  2

  9
$PUCSORG
 10
0.0
 20
0.0
 30
0.0
  9
$PUCSXDIR
 10
1.0
 20
0.0
 30
0.0
  9
$PUCSYDIR
 10
0.0
 20
1.0
 30
0.0
  9
$PUCSORTHOREF
  2

  9
$PUCSORTHOVIEW
 70
         0
  9
$PUCSORGTOP
 10
0.0
 20
0.0
 30
0.0
  9
$PUCSORGBOTTOM
 10
0.0
 20
0.0
 30
0.0
  9
$PUCSORGLEFT
 10
0.0
 20
0.0
 30
0.0
  9
$PUCSORGRIGHT
 10
0.0
 20
0.0
 30
0.0
  9
$PUCSORGFRONT
 10
0.0
 20
0.0
 30
0.0
  9
$PUCSORGBACK
 10
0.0
 20
0.0
 30
0.0
  9
$USERI1
 70
         0
  9
$USERI2
 70
         0
  9
$USERI3
 70
         0
  9
$USERI4
 70
         0
  9
$USERI5
 70
         0
  9
$USERR1
 40
0.0
  9
$USERR2
 40
0.0
  9
$USERR3
 40
0.0
  9
$USERR4
 40
0.0
  9
$USERR5
 40
0.0
  9
$WORLDVIEW
 70
         1
  9
$SHADEDGE
 70
         3
  9
$SHADEDIF
 70
        70
  9
$TILEMODE
 70
         1
  9
$MAXACTVP
 70
        16
  9
$PINSBASE
 10
0.0
 20
0.0
 30
0.0
  9
$PLIMCHECK
 70
         0
  9
$PEXTMIN
 10
1.0000000000E+20
 20
1.0000000000E+20
 30
1.0000000000E+20
  9
$PEXTMAX
 10
-1.0000000000E+20
 20
-1.0000000000E+20
 30
-1.0000000000E+20
  9
$PLIMMIN
 10
0.0
 20
0.0
  9
$PLIMMAX
 10
12.0
 20
9.0
  9
$UNITMODE
 70
         0
  9
$VISRETAIN
 70
         0
  9
$PLINEGEN
 70
         1
  9
$PSLTSCALE
 70
         0
  9
$TREEDEPTH
 70
      3020
  9
$CMLSTYLE
  2
Standard
  9
$CMLJUST
 70
         0
  9
$CMLSCALE
 40
1.0
  9
$PROXYGRAPHICS
 70
         0
  9
$MEASUREMENT
 70
         0
  9
$CELWEIGHT
370
         0
  9
$ENDCAPS
280
         0
  9
$JOINSTYLE
280
         0
  9
$LWDISPLAY
290
         0
  9
$INSUNITS
 70
         0
  9
$HYPERLINKBASE
  1

  9
$STYLESHEET
  1

  9
$XEDIT
290
         1
  9
$CEPSNTYPE
380
         0
  9
$PSTYLEMODE
290
         1
  9
$FINGERPRINTGUID
  2

  9
$VERSIONGUID
  2

  9
$EXTNAMES
290
         1
  9
$PSVPSCALE
 40
0.0
  0
ENDSEC
  0
SECTION
  2
CLASSES
  0
CLASS
  1
LWPOLYLINE
  2
AcDbPolyline
  3
AutoCAD 2000
 90
        0
280
         0
281
         1
  0
CLASS
  1
IMAGE
  2
AcDbRasterImage
  3
ISM
 90
      127
280
         0
281
         1
  0
CLASS
  1
OLE2FRAME
  2
AcDbOle2Frame
  3
AutoCAD 2000
 90
        0
280
         0
281
         1
  0
CLASS
  1
HATCH
  2
AcDbHatch
  3
AutoCAD 2000
 90
        0
280
         0
281
         1
  0
CLASS
  1
DICTIONARYVAR
  2
AcDbDictionaryVar
  3
AutoCAD 2000
 90
        0
280
         0
281
         0
  0
CLASS
  1
RASTERVARIABLES
  2
AcDbRasterVariables
  3
ISM
 90
        0
280
         0
281
         0
  0
CLASS
  1
IMAGEDEF
  2
AcDbRasterImageDef
  3
ISM
 90
        0
280
         0
281
         0
  0
CLASS
  1
IMAGEDEF_REACTOR
  2
AcDbRasterImageDefReactor
  3
ISM
 90
        1
280
         0
281
         0
  0
CLASS
  1
IDBUFFER
  2
AcDbIdBuffer
  3
AutoCAD 2000
 90
        0
280
         0
281
         0
  0
CLASS
  1
SPATIAL_FILTER
  2
AcDbSpatialFilter
  3
AutoCAD 2000
 90
        0
280
         0
281
         0
  0
CLASS
  1
XRECORD
  2
AcDbXrecord
  3
AutoCAD 2000
 90
        0
280
         0
281
         0
  0
CLASS
  1
SORTENTSTABLE
  2
AcDbSortentsTable
  3
AutoCAD 2000
 90
        0
280
         0
281
         0
  0
CLASS
  1
LAYER_INDEX
  2
AcDbLayerIndex
  3
AutoCAD 2000
 90
        0
280
         0
281
         0
  0
CLASS
  1
SPATIAL_INDEX
  2
AcDbSpatialIndex
  3
AutoCAD 2000
 90
        0
280
         0
281
         0
  0
CLASS
  1
OBJECT_PTR
  2
CAseDLPNTableRecord
  3
"ASE-LPNTableRecord"
 90
        1
280
         0
281
         0
  0
CLASS
  1
LAYOUT
  2
AcDbLayout
  3
AutoCAD 2000
 90
        0
280
         0
281
         0
  0
CLASS
  1
PLOTSETTINGS
  2
AcDbPlotSettings
  3
AutoCAD 2000
 90
        0
280
         0
281
         0
  0
CLASS
  1
ACDBDICTIONARYWDFLT
  2
AcDbDictionaryWithDefault
  3
AutoCAD 2000
 90
        0
280
         0
281
         0
  0
CLASS
  1
ACDBPLACEHOLDER
  2
AcDbPlaceHolder
  3
AutoCAD 2000
 90
        0
280
         0
281
         0
  0
CLASS
  1
VBA_PROJECT
  2
AcDbVbaProject
  3
acadvba
 90
        0
280
         0
281
         0
  0
CLASS
  1
WIPEOUT
  2
AcDbWipeout
  3
WipeOut|AutoCAD Express Tool|expresstools@autodesk.com
 90
      127
280
         0
281
         1
  0
CLASS
  1
WIPEOUTVARIABLES
  2
AcDbWipeoutVariables
  3
WipeOut|AutoCAD Express Tool|expresstools@autodesk.com
 90
        0
280
         0
281
         0
  0
CLASS
  1
RTEXT
  2
RText
  3
RText|AutoCAD Express Tool|expresstools@autodesk.com
 90
        0
280
         0
281
         1
  0
CLASS
  1
ARCALIGNEDTEXT
  2
AcDbArcAlignedText
  3
ATEXT|AutoCAD Express Tool|expresstools@autodesk.com
 90
        0
280
         0
281
         1
  0
ENDSEC
  0
SECTION
  2
TABLES
  0
TABLE
  2
VPORT
  5
7
100
AcDbSymbolTable
 70
         1
  0
VPORT
  5
15
100
AcDbSymbolTableRecord
100
AcDbViewportTableRecord
  2
*ACTIVE
 70
         0
 10
0.0
 20
0.0
 11
1.0
 21
1.0
 12
210.0
 22
148.5
 13
0.0
 23
0.0
 14
1.0
 24
1.0
 15
0.0
 25
0.0
 16
0.0
 26
0.0
 36
1.0
 17
0.0
 27
0.0
 37
0.0
 40
297.0
 41
1.604229
 42
50.0
 43
0.0
 44
0.0
 50
0.0
 51
0.0
 71
         0
 72
       100
 73
         1
 74
         1
 75
         0
 76
         0
 77
         0
 78
         0
281
         0
 65
         0
110
0.0
120
0.0
130
0.0
111
1.0
121
0.0
131
0.0
112
0.0
122
1.0
132
0.0
345
0
346
0
 79
         0
146
0.0
  0
ENDTAB
  0
TABLE
  2
LTYPE
  5
4
100
AcDbSymbolTable
 70
         7
  0
LTYPE
  5
11
100
AcDbSymbolTableRecord
100
AcDbLinetypeTableRecord
  2
ByBlock
 70
        64
  3

 72
        65
 73
         0
 40
0.0
  0
LTYPE
  5
12
100
AcDbSymbolTableRecord
100
AcDbLinetypeTableRecord
  2
ByLayer
 70
        64
  3

 72
        65
 73
         0
 40
0.0
  0
LTYPE
  5
13
100
AcDbSymbolTableRecord
100
AcDbLinetypeTableRecord
  2
CONTINUOUS
 70
         0
  3
Solid line
 72
        65
 73
         0
 40
0.0
  0
LTYPE
  5
28
100
AcDbSymbolTableRecord
100
AcDbLinetypeTableRecord
  2
HIDDEN2
 70
        64
  3
_ _ _ _ _ _ _ _ _ _ _ _ _ _ _ _ _ _ _ _ _ _ _ _
 72
        65
 73
         2
 40
0.1875
 49
0.125
 74
         0
 49
-0.0625
 74
         0
  0
LTYPE
  5
29
100
AcDbSymbolTableRecord
100
AcDbLinetypeTableRecord
  2
CENTER2
 70
        64
  3
___ _ ___ _ ___ _ ___ _ ___ _ ___ _ ___ _ ___ _
 72
        65
 73
         4
 40
1.125
 49
0.75
 74
         0
 49
-0.125
 74
         0
 49
0.125
 74
         0
 49
-0.125
 74
         0
  0
LTYPE
  5
2A
100
AcDbSymbolTableRecord
100
AcDbLinetypeTableRecord
  2
PHANTOM2
 70
        64
  3
___ _ _ ___ _ _ ___ _ _ ___ _ _ ___ _ _ ___ _ _
 72
        65
 73
         6
 40
1.25
 49
0.625
 74
         0
 49
-0.125
 74
         0
 49
0.125
 74
         0
 49
-0.125
 74
         0
 49
0.125
 74
         0
 49
-0.125
 74
         0
  0
LTYPE
  5
2B
100
AcDbSymbolTableRecord
100
AcDbLinetypeTableRecord
  2
DOT2
 70
        64
  3
...............................................
 72
        65
 73
         2
 40
0.125
 49
0.0
 74
         0
 49
-0.125
 74
         0
  0
ENDTAB
  0
TABLE
  2
LAYER
  5
2
100
AcDbSymbolTable
 70
         3
  0
LAYER
  5
14
100
AcDbSymbolTableRecord
100
AcDbLayerTableRecord
  2
0
 70
         0
 62
         7
  6
CONTINUOUS
290
         1
370
        -3
390
0
  0
LAYER
  5
2D
100
AcDbSymbolTableRecord
100
AcDbLayerTableRecord
  2
_TRANSLATION
 70
         0
 62
        -1
  6
CONTINUOUS
290
         1
370
        -3
390
0
  0
LAYER
  5
2F
100
AcDbSymbolTableRecord
100
AcDbLayerTableRecord
  2
DEFAULT
 70
         0
 62
         7
  6
CONTINUOUS
290
         1
370
        -3
390
0
  0
ENDTAB
  0
TABLE
  2
STYLE
  5
3
100
AcDbSymbolTable
 70
         2
  0
STYLE
  5
17
100
AcDbSymbolTableRecord
100
AcDbTextStyleTableRecord
  2
Standard
 70
         0
 40
0.0
 41
1.0
 50
0.0
 71
         0
 42
0.2
  3
txt
  4

  0
STYLE
  5
2C0
100
AcDbSymbolTableRecord
100
AcDbTextStyleTableRecord
  2
arial_ttf
 70
         0
 40
0.0
 41
1.0
 50
0.0
 71
         0
 42
0.2
  3
arial.ttf
  4

1001
ACAD
1000
ＭＳ ゴシック
1071
    32770
  0
ENDTAB
  0
TABLE
  2
VIEW
  5
5
100
AcDbSymbolTable
 70
         0
  0
ENDTAB
  0
TABLE
  2
UCS
  5
6
100
AcDbSymbolTable
 70
         0
  0
ENDTAB
  0
TABLE
  2
APPID
  5
8
100
AcDbSymbolTable
 70
         1
  0
APPID
  5
16
100
AcDbSymbolTableRecord
100
AcDbRegAppTableRecord
  2
ACAD
 70
         0
  0
ENDTAB
  0
TABLE
  2
DIMSTYLE
  5
9
100
AcDbSymbolTable
 70
         1
100
AcDbDimStyleTable
 71
         0
  0
DIMSTYLE
105
18
100
AcDbSymbolTableRecord
100
AcDbDimStyleTableRecord
  2
Standard
 70
         0
  3

  4

 40
1.0
 41
0.18
 42
0.0625
 43
0.38
 44
0.18
 45
0.0
 46
0.0
 47
0.0
 48
0.0
 71
         0
 72
         0
 73
         1
 74
         1
 75
         0
 76
         0
 77
         0
 78
         0
 79
         0
140
0.18
141
0.09
142
0.0
143
25.4
144
1.0
145
0.0
146
1.0
147
0.09
148
0.0
170
         0
171
         2
172
         0
173
         0
174
         0
175
         0
176
         0
177
         0
178
         0
179
         0
271
         4
272
         4
273
         2
274
         2
275
         0
276
         0
277
         2
278
        46
279
         0
280
         0
281
         0
282
         0
283
         1
284
         0
285
         0
286
         0
288
         0
289
         0
340
17
341
0
342
0
343
0
344
0
371
        -2
372
        -2
  0
ENDTAB
  0
TABLE
  2
BLOCK_RECORD
  5
1
100
AcDbSymbolTable
 70
         0
  0
BLOCK_RECORD
  5
A
100
AcDbSymbolTableRecord
100
AcDbBlockTableRecord
  2
*MODEL_SPACE
340
20
  0
BLOCK_RECORD
  5
B
100
AcDbSymbolTableRecord
100
AcDbBlockTableRecord
  2
*PAPER_SPACE
340
21
  0
ENDTAB
  0
ENDSEC
  0
SECTION
  2
BLOCKS
  0
BLOCK
  5
D
100
AcDbEntity
  8
0
390
0
100
AcDbBlockBegin
  2
*MODEL_SPACE
 70
         0
 10
0.0
 20
0.0
 30
0.0
  3
*MODEL_SPACE
  1

  0
ENDBLK
  5
E
100
AcDbEntity
  8
0
390
0
100
AcDbBlockEnd
  0
BLOCK
  5
F
100
AcDbEntity
 67
         1
  8
0
390
0
100
AcDbBlockBegin
  2
*PAPER_SPACE
 70
         0
 10
0.0
 20
0.0
 30
0.0
  3
*PAPER_SPACE
  1

  0
ENDBLK
  5
10
100
AcDbEntity
 67
         1
  8
0
390
0
100
AcDbBlockEnd
  0
ENDSEC
  0
SECTION
  2
ENTITIES
  0
LINE
  5
31
100
AcDbEntity
  8
0
370
         0
390
0
  6
CONTINUOUS
 62
         7
100
AcDbLine
 10
221.0
 20
56.5
 30
0.0
 11
183.0
 21
56.5
 31
0.0
  0
LINE
  5
32
100
AcDbEntity
  8
0
370
         0
390
0
  6
CONTINUOUS
 62
         7
100
AcDbLine
 10
221.0
 20
56.5
 30
0.0
 11
218.102223
 21
55.72354
 31
0.0
  0
LINE
  5
33
100
AcDbEntity
  8
0
370
         0
390
0
  6
CONTINUOUS
 62
         7
100
AcDbLine
 10
221.0
 20
56.5
 30
0.0
 11
218.102221
 21
57.276453
 31
0.0
  0
LINE
  5
34
100
AcDbEntity
  8
0
370
         0
390
0
  6
CONTINUOUS
 62
         7
100
AcDbLine
 10
183.0
 20
56.5
 30
0.0
 11
185.897777
 21
57.27646
 31
0.0
  0
LINE
  5
35
100
AcDbEntity
  8
0
370
         0
390
0
  6
CONTINUOUS
 62
         7
100
AcDbLine
 10
183.0
 20
56.5
 30
0.0
 11
185.897779
 21
55.723547
 31
0.0
  0
LINE
  5
36
100
AcDbEntity
  8
0
370
         0
390
0
  6
CONTINUOUS
 62
         7
100
AcDbLine
 10
221.0
 20
93.5
 30
0.0
 11
221.0
 21
54.214005
 31
0.0
  0
LINE
  5
37
100
AcDbEntity
  8
0
370
         0
390
0
  6
CONTINUOUS
 62
         7
100
AcDbLine
 10
362.5
 20
96.0
 30
0.0
 11
369.5
 21
96.0
 31
0.0
  0
LINE
  5
38
100
AcDbEntity
  8
0
370
         0
390
0
  6
CONTINUOUS
 62
         7
100
AcDbLine
 10
362.5
 20
96.0
 30
0.0
 11
365.397778
 21
96.776456
 31
0.0
  0
LINE
  5
39
100
AcDbEntity
  8
0
370
         0
390
0
  6
CONTINUOUS
 62
         7
100
AcDbLine
 10
362.5
 20
96.0
 30
0.0
 11
365.397778
 21
95.223544
 31
0.0
  0
LINE
  5
3A
100
AcDbEntity
  8
0
370
         0
390
0
  6
CONTINUOUS
 62
         7
100
AcDbLine
 10
369.5
 20
96.0
 30
0.0
 11
366.602222
 21
95.223544
 31
0.0
  0
LINE
  5
3B
100
AcDbEntity
  8
0
370
         0
390
0
  6
CONTINUOUS
 62
         7
100
AcDbLine
 10
369.5
 20
96.0
 30
0.0
 11
366.602222
 21
96.776456
 31
0.0
  0
LINE
  5
3C
100
AcDbEntity
  8
0
370
         0
390
0
  6
CONTINUOUS
 62
         7
100
AcDbLine
 10
362.5
 20
111.5
 30
0.0
 11
362.5
 21
93.714005
 31
0.0
  0
LINE
  5
3D
100
AcDbEntity
  8
0
370
         0
390
0
  6
CONTINUOUS
 62
         7
100
AcDbLine
 10
369.5
 20
105.5
 30
0.0
 11
369.5
 21
93.714005
 31
0.0
  0
LINE
  5
3E
100
AcDbEntity
  8
0
370
         0
390
0
  6
CONTINUOUS
 62
         7
100
AcDbLine
 10
311.5
 20
130.0
 30
0.0
 11
311.5
 21
114.0
 31
0.0
  0
LINE
  5
3F
100
AcDbEntity
  8
0
370
         0
390
0
  6
CONTINUOUS
 62
         7
100
AcDbLine
 10
311.5
 20
130.0
 30
0.0
 11
312.27646
 21
127.102223
 31
0.0
  0
LINE
  5
40
100
AcDbEntity
  8
0
370
         0
390
0
  6
CONTINUOUS
 62
         7
100
AcDbLine
 10
311.5
 20
130.0
 30
0.0
 11
310.723547
 21
127.102221
 31
0.0
  0
LINE
  5
41
100
AcDbEntity
  8
0
370
         0
390
0
  6
CONTINUOUS
 62
         7
100
AcDbLine
 10
311.5
 20
114.0
 30
0.0
 11
310.72354
 21
116.897777
 31
0.0
  0
LINE
  5
42
100
AcDbEntity
  8
0
370
         0
390
0
  6
CONTINUOUS
 62
         7
100
AcDbLine
 10
311.5
 20
114.0
 30
0.0
 11
312.276453
 21
116.897779
 31
0.0
  0
LINE
  5
43
100
AcDbEntity
  8
0
370
         0
390
0
  6
CONTINUOUS
 62
         7
100
AcDbLine
 10
381.5
 20
105.5
 30
0.0
 11
381.5
 21
138.5
 31
0.0
  0
LINE
  5
44
100
AcDbEntity
  8
0
370
         0
390
0
  6
CONTINUOUS
 62
         7
100
AcDbLine
 10
381.5
 20
105.5
 30
0.0
 11
380.723547
 21
108.397779
 31
0.0
  0
LINE
  5
45
100
AcDbEntity
  8
0
370
         0
390
0
  6
CONTINUOUS
 62
         7
100
AcDbLine
 10
381.5
 20
105.5
 30
0.0
 11
382.27646
 21
108.397777
 31
0.0
  0
LINE
  5
46
100
AcDbEntity
  8
0
370
         0
390
0
  6
CONTINUOUS
 62
         7
100
AcDbLine
 10
381.5
 20
138.5
 30
0.0
 11
382.276453
 21
135.602221
 31
0.0
  0
LINE
  5
47
100
AcDbEntity
  8
0
370
         0
390
0
  6
CONTINUOUS
 62
         7
100
AcDbLine
 10
381.5
 20
138.5
 30
0.0
 11
380.72354
 21
135.602223
 31
0.0
  0
LINE
  5
48
100
AcDbEntity
  8
0
370
         0
390
0
  6
CONTINUOUS
 62
         7
100
AcDbLine
 10
369.5
 20
105.5
 30
0.0
 11
383.786003
 21
105.5
 31
0.0
  0
LINE
  5
49
100
AcDbEntity
  8
0
370
         0
390
0
  6
CONTINUOUS
 62
         7
100
AcDbLine
 10
369.5
 20
138.5
 30
0.0
 11
383.786003
 21
138.5
 31
0.0
  0
LINE
  5
4A
100
AcDbEntity
  8
0
370
         0
390
0
  6
CONTINUOUS
 62
         7
100
AcDbLine
 10
143.0
 20
140.0
 30
0.0
 11
143.0
 21
74.5
 31
0.0
  0
LINE
  5
4B
100
AcDbEntity
  8
0
370
         0
390
0
  6
CONTINUOUS
 62
         7
100
AcDbLine
 10
143.0
 20
140.0
 30
0.0
 11
143.776456
 21
137.102222
 31
0.0
  0
LINE
  5
4C
100
AcDbEntity
  8
0
370
         0
390
0
  6
CONTINUOUS
 62
         7
100
AcDbLine
 10
143.0
 20
140.0
 30
0.0
 11
142.223544
 21
137.102222
 31
0.0
  0
LINE
  5
4D
100
AcDbEntity
  8
0
370
         0
390
0
  6
CONTINUOUS
 62
         7
100
AcDbLine
 10
143.0
 20
74.5
 30
0.0
 11
142.223544
 21
77.397778
 31
0.0
  0
LINE
  5
4E
100
AcDbEntity
  8
0
370
         0
390
0
  6
CONTINUOUS
 62
         7
100
AcDbLine
 10
143.0
 20
74.5
 30
0.0
 11
143.776456
 21
77.397778
 31
0.0
  0
LINE
  5
4F
100
AcDbEntity
  8
0
370
         0
390
0
  6
CONTINUOUS
 62
         7
100
AcDbLine
 10
172.875
 20
140.0
 30
0.0
 11
140.713997
 21
140.0
 31
0.0
  0
LINE
  5
50
100
AcDbEntity
  8
0
370
         0
390
0
  6
CONTINUOUS
 62
         7
100
AcDbLine
 10
202.0
 20
74.5
 30
0.0
 11
140.713997
 21
74.5
 31
0.0
  0
LINE
  5
51
100
AcDbEntity
  8
0
370
         0
390
0
  6
CONTINUOUS
 62
         7
100
AcDbLine
 10
283.0
 20
122.0
 30
0.0
 11
283.0
 21
74.5
 31
0.0
  0
LINE
  5
52
100
AcDbEntity
  8
0
370
         0
390
0
  6
CONTINUOUS
 62
         7
100
AcDbLine
 10
283.0
 20
122.0
 30
0.0
 11
283.776456
 21
119.102222
 31
0.0
  0
LINE
  5
53
100
AcDbEntity
  8
0
370
         0
390
0
  6
CONTINUOUS
 62
         7
100
AcDbLine
 10
283.0
 20
122.0
 30
0.0
 11
282.223544
 21
119.102222
 31
0.0
  0
LINE
  5
54
100
AcDbEntity
  8
0
370
         0
390
0
  6
CONTINUOUS
 62
         7
100
AcDbLine
 10
283.0
 20
74.5
 30
0.0
 11
282.223544
 21
77.397778
 31
0.0
  0
LINE
  5
55
100
AcDbEntity
  8
0
370
         0
390
0
  6
CONTINUOUS
 62
         7
100
AcDbLine
 10
283.0
 20
74.5
 30
0.0
 11
283.776456
 21
77.397778
 31
0.0
  0
LINE
  5
56
100
AcDbEntity
  8
0
370
         0
390
0
  6
CONTINUOUS
 62
         7
100
AcDbLine
 10
202.0
 20
74.5
 30
0.0
 11
285.286011
 21
74.5
 31
0.0
  0
LINE
  5
57
100
AcDbEntity
  8
0
370
         0
390
0
  6
CONTINUOUS
 62
         7
100
AcDbLine
 10
153.0
 20
113.5
 30
0.0
 11
153.0
 21
140.0
 31
0.0
  0
LINE
  5
58
100
AcDbEntity
  8
0
370
         0
390
0
  6
CONTINUOUS
 62
         7
100
AcDbLine
 10
153.0
 20
113.5
 30
0.0
 11
152.223544
 21
116.397778
 31
0.0
  0
LINE
  5
59
100
AcDbEntity
  8
0
370
         0
390
0
  6
CONTINUOUS
 62
         7
100
AcDbLine
 10
153.0
 20
113.5
 30
0.0
 11
153.776456
 21
116.397778
 31
0.0
  0
LINE
  5
5A
100
AcDbEntity
  8
0
370
         0
390
0
  6
CONTINUOUS
 62
         7
100
AcDbLine
 10
153.0
 20
140.0
 30
0.0
 11
153.776456
 21
137.102222
 31
0.0
  0
LINE
  5
5B
100
AcDbEntity
  8
0
370
         0
390
0
  6
CONTINUOUS
 62
         7
100
AcDbLine
 10
153.0
 20
140.0
 30
0.0
 11
152.223544
 21
137.102222
 31
0.0
  0
LINE
  5
5C
100
AcDbEntity
  8
0
370
         0
390
0
  6
CONTINUOUS
 62
         7
100
AcDbLine
 10
174.5
 20
113.5
 30
0.0
 11
150.714005
 21
113.5
 31
0.0
  0
LINE
  5
5D
100
AcDbEntity
  8
0
370
         0
390
0
  6
CONTINUOUS
 62
         7
100
AcDbLine
 10
172.875
 20
140.0
 30
0.0
 11
150.714005
 21
140.0
 31
0.0
  0
LINE
  5
5E
100
AcDbEntity
  8
0
370
         0
390
0
  6
CONTINUOUS
 62
         7
100
AcDbLine
 10
183.0
 20
46.5
 30
0.0
 11
392.5
 21
46.5
 31
0.0
  0
LINE
  5
5F
100
AcDbEntity
  8
0
370
         0
390
0
  6
CONTINUOUS
 62
         7
100
AcDbLine
 10
183.0
 20
46.5
 30
0.0
 11
185.897779
 21
47.276453
 31
0.0
  0
LINE
  5
60
100
AcDbEntity
  8
0
370
         0
390
0
  6
CONTINUOUS
 62
         7
100
AcDbLine
 10
183.0
 20
46.5
 30
0.0
 11
185.897777
 21
45.72354
 31
0.0
  0
LINE
  5
61
100
AcDbEntity
  8
0
370
         0
390
0
  6
CONTINUOUS
 62
         7
100
AcDbLine
 10
183.0
 20
93.5
 30
0.0
 11
183.0
 21
44.214005
 31
0.0
  0
LINE
  5
62
100
AcDbEntity
  8
0
370
         0
390
0
  6
CONTINUOUS
 62
         7
100
AcDbLine
 10
410.0
 20
29.75
 30
0.0
 11
410.0
 21
10.0
 31
0.0
  0
LINE
  5
63
100
AcDbEntity
  8
0
370
         0
390
0
  6
CONTINUOUS
 62
         7
100
AcDbLine
 10
10.0
 20
10.0
 30
0.0
 11
25.5
 21
10.0
 31
0.0
  0
LINE
  5
64
100
AcDbEntity
  8
0
370
         0
390
0
  6
CONTINUOUS
 62
         7
100
AcDbLine
 10
10.0
 20
286.0
 30
0.0
 11
10.0
 21
30.25
 31
0.0
  0
LINE
  5
65
100
AcDbEntity
  8
0
370
         0
390
0
  6
CONTINUOUS
 62
         7
100
AcDbLine
 10
236.25
 20
25.75
 30
0.0
 11
238.25
 21
25.75
 31
0.0
  0
LINE
  5
66
100
AcDbEntity
  8
0
370
         0
390
0
  6
CONTINUOUS
 62
         7
100
AcDbLine
 10
236.25
 20
21.75
 30
0.0
 11
237.25
 21
21.75
 31
0.0
  0
LINE
  5
67
100
AcDbEntity
  8
0
370
         0
390
0
  6
CONTINUOUS
 62
         7
100
AcDbLine
 10
235.25
 20
25.3501
 30
0.0
 11
235.25
 21
24.79
 31
0.0
  0
LINE
  5
68
100
AcDbEntity
  8
0
370
         0
390
0
  6
CONTINUOUS
 62
         7
100
AcDbLine
 10
236.25
 20
25.75
 30
0.0
 11
236.25
 21
21.75
 31
0.0
  0
LINE
  5
69
100
AcDbEntity
  8
0
370
         0
390
0
  6
CONTINUOUS
 62
         7
100
AcDbLine
 10
247.25
 20
25.75
 30
0.0
 11
247.25
 21
21.75
 31
0.0
  0
LINE
  5
6A
100
AcDbEntity
  8
0
370
         0
390
0
  6
CONTINUOUS
 62
         7
100
AcDbLine
 10
251.25
 20
25.75
 30
0.0
 11
251.25
 21
21.75
 31
0.0
  0
LINE
  5
6B
100
AcDbEntity
  8
0
370
         0
390
0
  6
CONTINUOUS
 62
         7
100
AcDbLine
 10
252.25
 20
25.75
 30
0.0
 11
252.25
 21
21.75
 31
0.0
  0
LINE
  5
6C
100
AcDbEntity
  8
0
370
         0
390
0
  6
CONTINUOUS
 62
         7
100
AcDbLine
 10
234.25
 20
23.75
 30
0.0
 11
235.25
 21
23.75
 31
0.0
  0
LINE
  5
6D
100
AcDbEntity
  8
0
370
         0
390
0
  6
CONTINUOUS
 62
         7
100
AcDbLine
 10
237.25
 20
25.05
 30
0.0
 11
238.25
 21
25.05
 31
0.0
  0
LINE
  5
6E
100
AcDbEntity
  8
0
370
         0
390
0
  6
CONTINUOUS
 62
         7
100
AcDbLine
 10
248.25
 20
25.75
 30
0.0
 11
248.25
 21
24.1
 31
0.0
  0
LINE
  5
6F
100
AcDbEntity
  8
0
370
         0
390
0
  6
CONTINUOUS
 62
         7
100
AcDbLine
 10
250.25
 20
25.75
 30
0.0
 11
250.25
 21
24.1
 31
0.0
  0
LINE
  5
70
100
AcDbEntity
  8
0
370
         0
390
0
  6
CONTINUOUS
 62
         7
100
AcDbLine
 10
248.25
 20
24.1
 30
0.0
 11
250.25
 21
24.1
 31
0.0
  0
LINE
  5
71
100
AcDbEntity
  8
0
370
         0
390
0
  6
CONTINUOUS
 62
         7
100
AcDbLine
 10
248.25
 20
23.4
 30
0.0
 11
250.25
 21
23.4
 31
0.0
  0
LINE
  5
72
100
AcDbEntity
  8
0
370
         0
390
0
  6
CONTINUOUS
 62
         7
100
AcDbLine
 10
250.25
 20
21.75
 30
0.0
 11
251.25
 21
21.75
 31
0.0
  0
LINE
  5
73
100
AcDbEntity
  8
0
370
         0
390
0
  6
CONTINUOUS
 62
         7
100
AcDbLine
 10
247.25
 20
21.75
 30
0.0
 11
248.25
 21
21.75
 31
0.0
  0
LINE
  5
74
100
AcDbEntity
  8
0
370
         0
390
0
  6
CONTINUOUS
 62
         7
100
AcDbLine
 10
247.25
 20
25.75
 30
0.0
 11
248.25
 21
25.75
 31
0.0
  0
LINE
  5
75
100
AcDbEntity
  8
0
370
         0
390
0
  6
CONTINUOUS
 62
         7
100
AcDbLine
 10
250.25
 20
25.75
 30
0.0
 11
251.25
 21
25.75
 31
0.0
  0
LINE
  5
76
100
AcDbEntity
  8
0
370
         0
390
0
  6
CONTINUOUS
 62
         7
100
AcDbLine
 10
252.25
 20
25.75
 30
0.0
 11
255.4
 21
25.75
 31
0.0
  0
LINE
  5
77
100
AcDbEntity
  8
0
370
         0
390
0
  6
CONTINUOUS
 62
         7
100
AcDbLine
 10
248.25
 20
23.4
 30
0.0
 11
248.25
 21
21.75
 31
0.0
  0
LINE
  5
78
100
AcDbEntity
  8
0
370
         0
390
0
  6
CONTINUOUS
 62
         7
100
AcDbLine
 10
250.25
 20
23.4
 30
0.0
 11
250.25
 21
21.75
 31
0.0
  0
LINE
  5
79
100
AcDbEntity
  8
0
370
         0
390
0
  6
CONTINUOUS
 62
         7
100
AcDbLine
 10
252.25
 20
21.75
 30
0.0
 11
255.75
 21
21.75
 31
0.0
  0
LINE
  5
7A
100
AcDbEntity
  8
0
370
         0
390
0
  6
CONTINUOUS
 62
         7
100
AcDbLine
 10
253.25
 20
24.1
 30
0.0
 11
255.05
 21
24.1
 31
0.0
  0
LINE
  5
7B
100
AcDbEntity
  8
0
370
         0
390
0
  6
CONTINUOUS
 62
         7
100
AcDbLine
 10
253.25
 20
23.4
 30
0.0
 11
255.05
 21
23.4
 31
0.0
  0
LINE
  5
7C
100
AcDbEntity
  8
0
370
         0
390
0
  6
CONTINUOUS
 62
         7
100
AcDbLine
 10
253.25
 20
25.05
 30
0.0
 11
255.4
 21
25.05
 31
0.0
  0
LINE
  5
7D
100
AcDbEntity
  8
0
370
         0
390
0
  6
CONTINUOUS
 62
         7
100
AcDbLine
 10
253.25
 20
22.45
 30
0.0
 11
255.75
 21
22.45
 31
0.0
  0
LINE
  5
7E
100
AcDbEntity
  8
0
370
         0
390
0
  6
CONTINUOUS
 62
         7
100
AcDbLine
 10
253.25
 20
25.05
 30
0.0
 11
253.25
 21
24.1
 31
0.0
  0
LINE
  5
7F
100
AcDbEntity
  8
0
370
         0
390
0
  6
CONTINUOUS
 62
         7
100
AcDbLine
 10
253.25
 20
23.4
 30
0.0
 11
253.25
 21
22.45
 31
0.0
  0
LINE
  5
80
100
AcDbEntity
  8
0
370
         0
390
0
  6
CONTINUOUS
 62
         7
100
AcDbLine
 10
255.05
 20
24.1
 30
0.0
 11
255.05
 21
23.4
 31
0.0
  0
LINE
  5
81
100
AcDbEntity
  8
0
370
         0
390
0
  6
CONTINUOUS
 62
         7
100
AcDbLine
 10
237.25
 20
23.75
 30
0.0
 11
238.25
 21
23.75
 31
0.0
  0
LINE
  5
82
100
AcDbEntity
  8
0
370
         0
390
0
  6
CONTINUOUS
 62
         7
100
AcDbLine
 10
237.25
 20
25.05
 30
0.0
 11
237.25
 21
21.75
 31
0.0
  0
LINE
  5
83
100
AcDbEntity
  8
0
370
         0
390
0
  6
CONTINUOUS
 62
         7
100
AcDbLine
 10
234.25
 20
23.75
 30
0.0
 11
234.25
 21
22.5244
 31
0.0
  0
LINE
  5
84
100
AcDbEntity
  8
0
370
         0
390
0
  6
CONTINUOUS
 62
         7
100
AcDbLine
 10
235.25
 20
23.75
 30
0.0
 11
235.25
 21
22.15
 31
0.0
  0
LINE
  5
85
100
AcDbEntity
  8
0
370
         0
390
0
  6
CONTINUOUS
 62
         7
100
AcDbLine
 10
237.25
 20
23.75
 30
0.0
 11
238.941
 21
21.75
 31
0.0
  0
LINE
  5
86
100
AcDbEntity
  8
0
370
         0
390
0
  6
CONTINUOUS
 62
         7
100
AcDbLine
 10
239.055
 20
23.1641
 30
0.0
 11
240.25
 21
21.75
 31
0.0
  0
LINE
  5
87
100
AcDbEntity
  8
0
370
         0
390
0
  6
CONTINUOUS
 62
         7
100
AcDbLine
 10
238.941
 20
21.75
 30
0.0
 11
240.25
 21
21.75
 31
0.0
  0
LINE
  5
88
100
AcDbEntity
  8
0
370
         0
390
0
  6
CONTINUOUS
 62
         7
100
AcDbLine
 10
410.0
 20
286.0
 30
0.0
 11
410.0
 21
30.25
 31
0.0
  0
LINE
  5
89
100
AcDbEntity
  8
0
370
         0
390
0
  6
CONTINUOUS
 62
         7
100
AcDbLine
 10
10.0
 20
286.0
 30
0.0
 11
410.0
 21
286.0
 31
0.0
  0
LINE
  5
8A
100
AcDbEntity
  8
0
370
         0
390
0
  6
CONTINUOUS
 62
         7
100
AcDbLine
 10
10.0
 20
15.0
 30
0.0
 11
25.5
 21
15.0
 31
0.0
  0
LINE
  5
8B
100
AcDbEntity
  8
0
370
         0
390
0
  6
CONTINUOUS
 62
         7
100
AcDbLine
 10
10.0
 20
20.0
 30
0.0
 11
25.5
 21
20.0
 31
0.0
  0
LINE
  5
8C
100
AcDbEntity
  8
0
370
         0
390
0
  6
CONTINUOUS
 62
         7
100
AcDbLine
 10
10.0
 20
25.0
 30
0.0
 11
25.5
 21
25.0
 31
0.0
  0
LINE
  5
8D
100
AcDbEntity
  8
0
370
         0
390
0
  6
CONTINUOUS
 62
         7
100
AcDbLine
 10
25.5
 20
29.75
 30
0.0
 11
25.5
 21
10.0
 31
0.0
  0
LINE
  5
8E
100
AcDbEntity
  8
0
370
         0
390
0
  6
CONTINUOUS
 62
         7
100
AcDbLine
 10
26.0
 20
29.75
 30
0.0
 11
26.0
 21
10.0
 31
0.0
  0
LINE
  5
8F
100
AcDbEntity
  8
0
370
         0
390
0
  6
CONTINUOUS
 62
         7
100
AcDbLine
 10
175.5
 20
29.75
 30
0.0
 11
175.5
 21
10.0
 31
0.0
  0
LINE
  5
90
100
AcDbEntity
  8
0
370
         0
390
0
  6
CONTINUOUS
 62
         7
100
AcDbLine
 10
176.0
 20
29.75
 30
0.0
 11
176.0
 21
10.0
 31
0.0
  0
LINE
  5
91
100
AcDbEntity
  8
0
370
         0
390
0
  6
CONTINUOUS
 62
         7
100
AcDbLine
 10
26.0
 20
29.75
 30
0.0
 11
136.0
 21
29.75
 31
0.0
  0
LINE
  5
92
100
AcDbEntity
  8
0
370
         0
390
0
  6
CONTINUOUS
 62
         7
100
AcDbLine
 10
266.25
 20
29.75
 30
0.0
 11
281.75
 21
29.75
 31
0.0
  0
LINE
  5
93
100
AcDbEntity
  8
0
370
         0
390
0
  6
CONTINUOUS
 62
         7
100
AcDbLine
 10
266.25
 20
29.75
 30
0.0
 11
266.25
 21
10.0
 31
0.0
  0
LINE
  5
94
100
AcDbEntity
  8
0
370
         0
390
0
  6
CONTINUOUS
 62
         7
100
AcDbLine
 10
282.25
 20
29.75
 30
0.0
 11
355.75
 21
29.75
 31
0.0
  0
LINE
  5
95
100
AcDbEntity
  8
0
370
         0
390
0
  6
CONTINUOUS
 62
         7
100
AcDbLine
 10
281.75
 20
29.75
 30
0.0
 11
281.75
 21
10.0
 31
0.0
  0
LINE
  5
96
100
AcDbEntity
  8
0
370
         0
390
0
  6
CONTINUOUS
 62
         7
100
AcDbLine
 10
282.25
 20
29.75
 30
0.0
 11
282.25
 21
10.0
 31
0.0
  0
LINE
  5
97
100
AcDbEntity
  8
0
370
         0
390
0
  6
CONTINUOUS
 62
         7
100
AcDbLine
 10
355.75
 20
29.75
 30
0.0
 11
355.75
 21
10.0
 31
0.0
  0
LINE
  5
98
100
AcDbEntity
  8
0
370
         0
390
0
  6
CONTINUOUS
 62
         7
100
AcDbLine
 10
356.25
 20
29.75
 30
0.0
 11
356.25
 21
10.0
 31
0.0
  0
LINE
  5
99
100
AcDbEntity
  8
0
370
         0
390
0
  6
CONTINUOUS
 62
         7
100
AcDbLine
 10
356.25
 20
29.75
 30
0.0
 11
410.0
 21
29.75
 31
0.0
  0
LINE
  5
9A
100
AcDbEntity
  8
0
370
         0
390
0
  6
CONTINUOUS
 62
         7
100
AcDbLine
 10
9.5
 20
9.5
 30
0.0
 11
410.5
 21
9.5
 31
0.0
  0
LINE
  5
9B
100
AcDbEntity
  8
0
370
         0
390
0
  6
CONTINUOUS
 62
         7
100
AcDbLine
 10
410.5
 20
286.5
 30
0.0
 11
410.5
 21
9.5
 31
0.0
  0
LINE
  5
9C
100
AcDbEntity
  8
0
370
         0
390
0
  6
CONTINUOUS
 62
         7
100
AcDbLine
 10
9.5
 20
286.5
 30
0.0
 11
9.5
 21
9.5
 31
0.0
  0
LINE
  5
9D
100
AcDbEntity
  8
0
370
         0
390
0
  6
CONTINUOUS
 62
         7
100
AcDbLine
 10
9.5
 20
286.5
 30
0.0
 11
410.5
 21
286.5
 31
0.0
  0
LINE
  5
9E
100
AcDbEntity
  8
0
370
         0
390
0
  6
CONTINUOUS
 62
         7
100
AcDbLine
 10
282.25
 20
10.0
 30
0.0
 11
355.75
 21
10.0
 31
0.0
  0
LINE
  5
9F
100
AcDbEntity
  8
0
370
         0
390
0
  6
CONTINUOUS
 62
         7
100
AcDbLine
 10
266.25
 20
10.0
 30
0.0
 11
281.75
 21
10.0
 31
0.0
  0
LINE
  5
A0
100
AcDbEntity
  8
0
370
         0
390
0
  6
CONTINUOUS
 62
         7
100
AcDbLine
 10
356.25
 20
10.0
 30
0.0
 11
410.0
 21
10.0
 31
0.0
  0
LINE
  5
A1
100
AcDbEntity
  8
0
370
         0
390
0
  6
CONTINUOUS
 62
         7
100
AcDbLine
 10
10.0
 20
30.25
 30
0.0
 11
410.0
 21
30.25
 31
0.0
  0
LINE
  5
A2
100
AcDbEntity
  8
0
370
         0
390
0
  6
CONTINUOUS
 62
         7
100
AcDbLine
 10
265.75
 20
29.75
 30
0.0
 11
265.75
 21
10.0
 31
0.0
  0
LINE
  5
A3
100
AcDbEntity
  8
0
370
         0
390
0
  6
CONTINUOUS
 62
         7
100
AcDbLine
 10
10.0
 20
29.75
 30
0.0
 11
25.5
 21
29.75
 31
0.0
  0
LINE
  5
A4
100
AcDbEntity
  8
0
370
         0
390
0
  6
CONTINUOUS
 62
         7
100
AcDbLine
 10
10.0
 20
29.75
 30
0.0
 11
10.0
 21
10.0
 31
0.0
  0
LINE
  5
A5
100
AcDbEntity
  8
0
370
         0
390
0
  6
CONTINUOUS
 62
         7
100
AcDbLine
 10
255.75
 20
22.45
 30
0.0
 11
255.75
 21
21.75
 31
0.0
  0
LINE
  5
A6
100
AcDbEntity
  8
0
370
         0
390
0
  6
CONTINUOUS
 62
         7
100
AcDbLine
 10
255.4
 20
25.75
 30
0.0
 11
255.4
 21
25.05
 31
0.0
  0
LINE
  5
A7
100
AcDbEntity
  8
0
370
         0
390
0
  6
CONTINUOUS
 62
         7
100
AcDbLine
 10
26.0
 20
10.0
 30
0.0
 11
136.0
 21
10.0
 31
0.0
  0
LINE
  5
A8
100
AcDbEntity
  8
0
370
         0
390
0
  6
CONTINUOUS
 62
         7
100
AcDbLine
 10
176.0
 20
29.75
 30
0.0
 11
265.75
 21
29.75
 31
0.0
  0
LINE
  5
A9
100
AcDbEntity
  8
0
370
         0
390
0
  6
CONTINUOUS
 62
         7
100
AcDbLine
 10
176.0
 20
10.0
 30
0.0
 11
265.75
 21
10.0
 31
0.0
  0
LINE
  5
AA
100
AcDbEntity
  8
0
370
         0
390
0
  6
CONTINUOUS
 62
         7
100
AcDbLine
 10
26.0
 20
25.0
 30
0.0
 11
136.0
 21
25.0
 31
0.0
  0
LINE
  5
AB
100
AcDbEntity
  8
0
370
         0
390
0
  6
CONTINUOUS
 62
         7
100
AcDbLine
 10
39.75
 20
29.75
 30
0.0
 11
39.75
 21
10.0
 31
0.0
  0
LINE
  5
AC
100
AcDbEntity
  8
0
370
         0
390
0
  6
CONTINUOUS
 62
         7
100
AcDbLine
 10
26.0
 20
20.0
 30
0.0
 11
136.0
 21
20.0
 31
0.0
  0
LINE
  5
AD
100
AcDbEntity
  8
0
370
         0
390
0
  6
CONTINUOUS
 62
         7
100
AcDbLine
 10
26.0
 20
15.0
 30
0.0
 11
136.0
 21
15.0
 31
0.0
  0
LINE
  5
AE
100
AcDbEntity
  8
0
370
         0
390
0
  6
CONTINUOUS
 62
         7
100
AcDbLine
 10
136.5
 20
10.0
 30
0.0
 11
175.5
 21
10.0
 31
0.0
  0
LINE
  5
AF
100
AcDbEntity
  8
0
370
         0
390
0
  6
CONTINUOUS
 62
         7
100
AcDbLine
 10
136.5
 20
29.75
 30
0.0
 11
175.5
 21
29.75
 31
0.0
  0
LINE
  5
B0
100
AcDbEntity
  8
0
370
         0
390
0
  6
CONTINUOUS
 62
         7
100
AcDbLine
 10
136.0
 20
29.75
 30
0.0
 11
136.0
 21
10.0
 31
0.0
  0
LINE
  5
B1
100
AcDbEntity
  8
0
370
         0
390
0
  6
CONTINUOUS
 62
         7
100
AcDbLine
 10
53.5
 20
29.75
 30
0.0
 11
53.5
 21
10.0
 31
0.0
  0
LINE
  5
B2
100
AcDbEntity
  8
0
370
         0
390
0
  6
CONTINUOUS
 62
         7
100
AcDbLine
 10
67.25
 20
29.75
 30
0.0
 11
67.25
 21
10.0
 31
0.0
  0
LINE
  5
B3
100
AcDbEntity
  8
0
370
         0
390
0
  6
CONTINUOUS
 62
         7
100
AcDbLine
 10
81.0
 20
29.75
 30
0.0
 11
81.0
 21
10.0
 31
0.0
  0
LINE
  5
B4
100
AcDbEntity
  8
0
370
         0
390
0
  6
CONTINUOUS
 62
         7
100
AcDbLine
 10
94.75
 20
29.75
 30
0.0
 11
94.75
 21
10.0
 31
0.0
  0
LINE
  5
B5
100
AcDbEntity
  8
0
370
         0
390
0
  6
CONTINUOUS
 62
         7
100
AcDbLine
 10
108.5
 20
29.75
 30
0.0
 11
108.5
 21
10.0
 31
0.0
  0
LINE
  5
B6
100
AcDbEntity
  8
0
370
         0
390
0
  6
CONTINUOUS
 62
         7
100
AcDbLine
 10
122.25
 20
29.75
 30
0.0
 11
122.25
 21
10.0
 31
0.0
  0
LINE
  5
B7
100
AcDbEntity
  8
0
370
         0
390
0
  6
CONTINUOUS
 62
         7
100
AcDbLine
 10
136.5
 20
29.75
 30
0.0
 11
136.5
 21
10.0
 31
0.0
  0
LINE
  5
B8
100
AcDbEntity
  8
0
370
         0
390
0
  6
CENTER2
 62
         7
100
AcDbLine
 10
65.0
 20
168.0
 30
0.0
 11
65.0
 21
58.0
 31
0.0
  0
LINE
  5
B9
100
AcDbEntity
  8
0
370
         0
390
0
  6
CONTINUOUS
 62
         7
100
AcDbLine
 10
55.5
 20
134.0
 30
0.0
 11
55.5
 21
133.397
 31
0.0
  0
LINE
  5
BA
100
AcDbEntity
  8
0
370
         0
390
0
  6
CONTINUOUS
 62
         7
100
AcDbLine
 10
55.8969
 20
134.0
 30
0.0
 11
55.8969
 21
133.0
 31
0.0
  0
LINE
  5
BB
100
AcDbEntity
  8
0
370
         0
390
0
  6
CONTINUOUS
 62
         7
100
AcDbLine
 10
55.2292
 20
101.75
 30
0.0
 11
57.0
 21
101.75
 31
0.0
  0
LINE
  5
BC
100
AcDbEntity
  8
0
370
         0
390
0
  6
CONTINUOUS
 62
         7
100
AcDbLine
 10
74.7708
 20
134.0
 30
0.0
 11
55.2292
 21
134.0
 31
0.0
  0
LINE
  5
BD
100
AcDbEntity
  8
0
370
         0
390
0
  6
CONTINUOUS
 62
         7
100
AcDbLine
 10
55.2292
 20
140.0
 30
0.0
 11
74.7708
 21
140.0
 31
0.0
  0
LINE
  5
BE
100
AcDbEntity
  8
0
370
         0
390
0
  6
CONTINUOUS
 62
         7
100
AcDbLine
 10
56.5
 20
132.5
 30
0.0
 11
56.5
 21
113.457
 31
0.0
  0
LINE
  5
BF
100
AcDbEntity
  8
0
370
         0
390
0
  6
CONTINUOUS
 62
         7
100
AcDbLine
 10
55.5
 20
133.397
 30
0.0
 11
55.8969
 21
133.0
 31
0.0
  0
LINE
  5
C0
100
AcDbEntity
  8
0
370
         0
390
0
  6
CONTINUOUS
 62
         7
100
AcDbLine
 10
54.875
 20
101.396
 30
0.0
 11
54.875
 21
96.104
 31
0.0
  0
LINE
  5
C1
100
AcDbEntity
  8
0
370
         0
390
0
  6
CONTINUOUS
 62
         7
100
AcDbLine
 10
74.1031
 20
134.0
 30
0.0
 11
74.1031
 21
133.0
 31
0.0
  0
LINE
  5
C2
100
AcDbEntity
  8
0
370
         0
390
0
  6
CONTINUOUS
 62
         7
100
AcDbLine
 10
74.5
 20
134.0
 30
0.0
 11
74.5
 21
133.397
 31
0.0
  0
LINE
  5
C3
100
AcDbEntity
  8
0
370
         0
390
0
  6
CONTINUOUS
 62
         7
100
AcDbLine
 10
74.7708
 20
95.75
 30
0.0
 11
73.0
 21
95.75
 31
0.0
  0
LINE
  5
C4
100
AcDbEntity
  8
0
370
         0
390
0
  6
CONTINUOUS
 62
         7
100
AcDbLine
 10
74.5
 20
133.397
 30
0.0
 11
74.1031
 21
133.0
 31
0.0
  0
LINE
  5
C5
100
AcDbEntity
  8
0
370
         0
390
0
  6
CONTINUOUS
 62
         7
100
AcDbLine
 10
74.1031
 20
133.0
 30
0.0
 11
55.8969
 21
133.0
 31
0.0
  0
LINE
  5
C6
100
AcDbEntity
  8
0
370
         0
390
0
  6
CONTINUOUS
 62
         7
100
AcDbLine
 10
73.5
 20
132.5
 30
0.0
 11
73.5
 21
113.457
 31
0.0
  0
LINE
  5
C7
100
AcDbEntity
  8
0
370
         0
390
0
  6
CONTINUOUS
 62
         7
100
AcDbLine
 10
56.89
 20
112.957
 30
0.0
 11
73.11
 21
112.957
 31
0.0
  0
LINE
  5
C8
100
AcDbEntity
  8
0
370
         0
390
0
  6
CONTINUOUS
 62
         7
100
AcDbLine
 10
74.5
 20
133.397
 30
0.0
 11
55.5
 21
133.397
 31
0.0
  0
LINE
  5
C9
100
AcDbEntity
  8
0
370
         0
390
0
  6
CONTINUOUS
 62
         7
100
AcDbLine
 10
75.125
 20
101.396
 30
0.0
 11
75.125
 21
96.104
 31
0.0
  0
LINE
  5
CA
100
AcDbEntity
  8
0
370
         0
390
0
  6
CONTINUOUS
 62
         7
100
AcDbLine
 10
57.0
 20
112.75
 30
0.0
 11
57.0
 21
74.5
 31
0.0
  0
LINE
  5
CB
100
AcDbEntity
  8
0
370
         0
390
0
  6
CONTINUOUS
 62
         7
100
AcDbLine
 10
73.0
 20
112.75
 30
0.0
 11
73.0
 21
74.5
 31
0.0
  0
LINE
  5
CC
100
AcDbEntity
  8
0
370
         0
390
0
  6
CENTER2
 62
         7
100
AcDbLine
 10
48.5
 20
74.5
 30
0.0
 11
81.5
 21
74.5
 31
0.0
  0
LINE
  5
CD
100
AcDbEntity
  8
0
370
         0
390
0
  6
CONTINUOUS
 62
         7
100
AcDbLine
 10
73.0
 20
101.75
 30
0.0
 11
74.7708
 21
101.75
 31
0.0
  0
LINE
  5
CE
100
AcDbEntity
  8
0
370
         0
390
0
  6
CONTINUOUS
 62
         7
100
AcDbLine
 10
57.0
 20
95.75
 30
0.0
 11
55.2292
 21
95.75
 31
0.0
  0
LINE
  5
CF
100
AcDbEntity
  8
0
370
         0
390
0
  6
CENTER2
 62
         7
100
AcDbLine
 10
183.0
 20
168.0
 30
0.0
 11
183.0
 21
93.5
 31
0.0
  0
LINE
  5
D0
100
AcDbEntity
  8
0
370
         0
390
0
  6
CONTINUOUS
 62
         7
100
AcDbLine
 10
175.0
 20
112.75
 30
0.0
 11
175.0
 21
93.5
 31
0.0
  0
LINE
  5
D1
100
AcDbEntity
  8
0
370
         0
390
0
  6
CONTINUOUS
 62
         7
100
AcDbLine
 10
191.0
 20
112.75
 30
0.0
 11
191.0
 21
93.5
 31
0.0
  0
LINE
  5
D2
100
AcDbEntity
  8
0
370
         0
390
0
  6
CONTINUOUS
 62
         7
100
AcDbLine
 10
213.0
 20
103.0
 30
0.0
 11
213.0
 21
101.75
 31
0.0
  0
LINE
  5
D3
100
AcDbEntity
  8
0
370
         0
390
0
  6
CONTINUOUS
 62
         7
100
AcDbLine
 10
229.0
 20
103.0
 30
0.0
 11
229.0
 21
101.75
 31
0.0
  0
LINE
  5
D4
100
AcDbEntity
  8
0
370
         0
390
0
  6
CENTER2
 62
         7
100
AcDbLine
 10
221.0
 20
102.75
 30
0.0
 11
221.0
 21
93.5
 31
0.0
  0
LINE
  5
D5
100
AcDbEntity
  8
0
370
         0
390
0
  6
CONTINUOUS
 62
         7
100
AcDbLine
 10
213.0
 20
95.0
 30
0.0
 11
213.0
 21
93.5
 31
0.0
  0
LINE
  5
D6
100
AcDbEntity
  8
0
370
         0
390
0
  6
CONTINUOUS
 62
         7
100
AcDbLine
 10
229.0
 20
95.0
 30
0.0
 11
229.0
 21
93.5
 31
0.0
  0
LINE
  5
D7
100
AcDbEntity
  8
0
370
         0
390
0
  6
CONTINUOUS
 62
         7
100
AcDbLine
 10
173.5
 20
134.0
 30
0.0
 11
173.5
 21
133.397
 31
0.0
  0
LINE
  5
D8
100
AcDbEntity
  8
0
370
         0
390
0
  6
CONTINUOUS
 62
         7
100
AcDbLine
 10
173.897
 20
134.0
 30
0.0
 11
173.897
 21
133.0
 31
0.0
  0
LINE
  5
D9
100
AcDbEntity
  8
0
370
         0
390
0
  6
CONTINUOUS
 62
         7
100
AcDbLine
 10
173.229
 20
140.0
 30
0.0
 11
192.771
 21
140.0
 31
0.0
  0
LINE
  5
DA
100
AcDbEntity
  8
0
370
         0
390
0
  6
CONTINUOUS
 62
         7
100
AcDbLine
 10
230.771
 20
95.75
 30
0.0
 11
211.229
 21
95.75
 31
0.0
  0
LINE
  5
DB
100
AcDbEntity
  8
0
370
         0
390
0
  6
CONTINUOUS
 62
         7
100
AcDbLine
 10
211.229
 20
101.75
 30
0.0
 11
230.771
 21
101.75
 31
0.0
  0
LINE
  5
DC
100
AcDbEntity
  8
0
370
         0
390
0
  6
CONTINUOUS
 62
         7
100
AcDbLine
 10
174.5
 20
132.5
 30
0.0
 11
174.5
 21
113.457
 31
0.0
  0
LINE
  5
DD
100
AcDbEntity
  8
0
370
         0
390
0
  6
CONTINUOUS
 62
         7
100
AcDbLine
 10
173.5
 20
133.397
 30
0.0
 11
173.897
 21
133.0
 31
0.0
  0
LINE
  5
DE
100
AcDbEntity
  8
0
370
         0
390
0
  6
CONTINUOUS
 62
         7
100
AcDbLine
 10
172.875
 20
139.646
 30
0.0
 11
172.875
 21
134.354
 31
0.0
  0
LINE
  5
DF
100
AcDbEntity
  8
0
370
         0
390
0
  6
CONTINUOUS
 62
         7
100
AcDbLine
 10
192.103
 20
134.0
 30
0.0
 11
192.103
 21
133.0
 31
0.0
  0
LINE
  5
E0
100
AcDbEntity
  8
0
370
         0
390
0
  6
CONTINUOUS
 62
         7
100
AcDbLine
 10
192.5
 20
134.0
 30
0.0
 11
192.5
 21
133.397
 31
0.0
  0
LINE
  5
E1
100
AcDbEntity
  8
0
370
         0
390
0
  6
CONTINUOUS
 62
         7
100
AcDbLine
 10
192.771
 20
134.0
 30
0.0
 11
173.229
 21
134.0
 31
0.0
  0
LINE
  5
E2
100
AcDbEntity
  8
0
370
         0
390
0
  6
CONTINUOUS
 62
         7
100
AcDbLine
 10
192.5
 20
133.397
 30
0.0
 11
192.103
 21
133.0
 31
0.0
  0
LINE
  5
E3
100
AcDbEntity
  8
0
370
         0
390
0
  6
CONTINUOUS
 62
         7
100
AcDbLine
 10
192.103
 20
133.0
 30
0.0
 11
173.897
 21
133.0
 31
0.0
  0
LINE
  5
E4
100
AcDbEntity
  8
0
370
         0
390
0
  6
CONTINUOUS
 62
         7
100
AcDbLine
 10
191.5
 20
132.5
 30
0.0
 11
191.5
 21
113.457
 31
0.0
  0
LINE
  5
E5
100
AcDbEntity
  8
0
370
         0
390
0
  6
CONTINUOUS
 62
         7
100
AcDbLine
 10
174.89
 20
112.957
 30
0.0
 11
191.11
 21
112.957
 31
0.0
  0
LINE
  5
E6
100
AcDbEntity
  8
0
370
         0
390
0
  6
CONTINUOUS
 62
         7
100
AcDbLine
 10
192.5
 20
133.397
 30
0.0
 11
173.5
 21
133.397
 31
0.0
  0
LINE
  5
E7
100
AcDbEntity
  8
0
370
         0
390
0
  6
CONTINUOUS
 62
         7
100
AcDbLine
 10
193.125
 20
139.646
 30
0.0
 11
193.125
 21
134.354
 31
0.0
  0
LINE
  5
E8
100
AcDbEntity
  8
0
370
         0
390
0
  6
CENTER2
 62
         7
100
AcDbLine
 10
240.0
 20
122.0
 30
0.0
 11
392.5
 21
122.0
 31
0.0
  0
LINE
  5
E9
100
AcDbEntity
  8
0
370
         0
390
0
  6
CONTINUOUS
 62
         7
100
AcDbLine
 10
392.5
 20
130.0
 30
0.0
 11
392.5
 21
114.0
 31
0.0
  0
LINE
  5
EA
100
AcDbEntity
  8
0
370
         0
390
0
  6
CONTINUOUS
 62
         7
100
AcDbLine
 10
369.5
 20
138.5
 30
0.0
 11
369.5
 21
105.5
 31
0.0
  0
LINE
  5
EB
100
AcDbEntity
  8
0
370
         0
390
0
  6
CONTINUOUS
 62
         7
100
AcDbLine
 10
362.5
 20
132.5
 30
0.0
 11
362.5
 21
111.5
 31
0.0
  0
LINE
  5
EC
100
AcDbEntity
  8
0
370
         0
390
0
  6
CONTINUOUS
 62
         7
100
AcDbLine
 10
368.5
 20
138.5
 30
0.0
 11
369.5
 21
138.5
 31
0.0
  0
LINE
  5
ED
100
AcDbEntity
  8
0
370
         0
390
0
  6
CONTINUOUS
 62
         7
100
AcDbLine
 10
368.5
 20
105.5
 30
0.0
 11
369.5
 21
105.5
 31
0.0
  0
LINE
  5
EE
100
AcDbEntity
  8
0
370
         0
390
0
  6
CONTINUOUS
 62
         7
100
AcDbLine
 10
369.5
 20
114.0
 30
0.0
 11
392.5
 21
114.0
 31
0.0
  0
LINE
  5
EF
100
AcDbEntity
  8
0
370
         0
390
0
  6
CONTINUOUS
 62
         7
100
AcDbLine
 10
369.5
 20
130.0
 30
0.0
 11
392.5
 21
130.0
 31
0.0
  0
LINE
  5
F0
100
AcDbEntity
  8
0
370
         0
390
0
  6
CENTER2
 62
         7
100
AcDbLine
 10
172.875
 20
240.0
 30
0.0
 11
392.5
 21
240.0
 31
0.0
  0
LINE
  5
F1
100
AcDbEntity
  8
0
370
         0
390
0
  6
CENTER2
 62
         7
100
AcDbLine
 10
183.0
 20
251.125
 30
0.0
 11
183.0
 21
228.875
 31
0.0
  0
LINE
  5
F2
100
AcDbEntity
  8
0
370
         0
390
0
  6
CENTER2
 62
         7
100
AcDbLine
 10
221.0
 20
250.125
 30
0.0
 11
221.0
 21
229.875
 31
0.0
  0
LINE
  5
F3
100
AcDbEntity
  8
0
370
         0
390
0
  6
CONTINUOUS
 62
         7
100
AcDbLine
 10
221.0
 20
232.0
 30
0.0
 11
362.5
 21
232.0
 31
0.0
  0
LINE
  5
F4
100
AcDbEntity
  8
0
370
         0
390
0
  6
CONTINUOUS
 62
         7
100
AcDbLine
 10
221.0
 20
248.0
 30
0.0
 11
362.5
 21
248.0
 31
0.0
  0
LINE
  5
F5
100
AcDbEntity
  8
0
370
         0
390
0
  6
CONTINUOUS
 62
         7
100
AcDbLine
 10
193.125
 20
244.61
 30
0.0
 11
193.125
 21
235.39
 31
0.0
  0
LINE
  5
F6
100
AcDbEntity
  8
0
370
         0
390
0
  6
CONTINUOUS
 62
         7
100
AcDbLine
 10
184.07
 20
251.073
 30
0.0
 11
192.055
 21
246.464
 31
0.0
  0
LINE
  5
F7
100
AcDbEntity
  8
0
370
         0
390
0
  6
CONTINUOUS
 62
         7
100
AcDbLine
 10
173.945
 20
246.464
 30
0.0
 11
181.93
 21
251.073
 31
0.0
  0
LINE
  5
F8
100
AcDbEntity
  8
0
370
         0
390
0
  6
CONTINUOUS
 62
         7
100
AcDbLine
 10
172.875
 20
235.39
 30
0.0
 11
172.875
 21
244.61
 31
0.0
  0
LINE
  5
F9
100
AcDbEntity
  8
0
370
         0
390
0
  6
CONTINUOUS
 62
         7
100
AcDbLine
 10
227.464
 20
249.055
 30
0.0
 11
228.073
 21
248.0
 31
0.0
  0
LINE
  5
FA
100
AcDbEntity
  8
0
370
         0
390
0
  6
CONTINUOUS
 62
         7
100
AcDbLine
 10
216.39
 20
250.125
 30
0.0
 11
225.61
 21
250.125
 31
0.0
  0
LINE
  5
FB
100
AcDbEntity
  8
0
370
         0
390
0
  6
CONTINUOUS
 62
         7
100
AcDbLine
 10
209.927
 20
241.07
 30
0.0
 11
214.536
 21
249.055
 31
0.0
  0
LINE
  5
FC
100
AcDbEntity
  8
0
370
         0
390
0
  6
CONTINUOUS
 62
         7
100
AcDbLine
 10
214.536
 20
230.945
 30
0.0
 11
209.927
 21
238.93
 31
0.0
  0
LINE
  5
FD
100
AcDbEntity
  8
0
370
         0
390
0
  6
CONTINUOUS
 62
         7
100
AcDbLine
 10
225.61
 20
229.875
 30
0.0
 11
216.39
 21
229.875
 31
0.0
  0
LINE
  5
FE
100
AcDbEntity
  8
0
370
         0
390
0
  6
CONTINUOUS
 62
         7
100
AcDbLine
 10
228.073
 20
232.0
 30
0.0
 11
227.464
 21
230.945
 31
0.0
  0
LINE
  5
FF
100
AcDbEntity
  8
0
370
         0
390
0
  6
CONTINUOUS
 62
         7
100
AcDbLine
 10
189.394
 20
248.0
 30
0.0
 11
213.927
 21
248.0
 31
0.0
  0
LINE
  5
100
100
AcDbEntity
  8
0
370
         0
390
0
  6
CONTINUOUS
 62
         7
100
AcDbLine
 10
189.394
 20
232.0
 30
0.0
 11
213.927
 21
232.0
 31
0.0
  0
LINE
  5
101
100
AcDbEntity
  8
0
370
         0
390
0
  6
CONTINUOUS
 62
         7
100
AcDbLine
 10
173.945
 20
233.536
 30
0.0
 11
181.93
 21
228.927
 31
0.0
  0
LINE
  5
102
100
AcDbEntity
  8
0
370
         0
390
0
  6
CONTINUOUS
 62
         7
100
AcDbLine
 10
184.07
 20
228.927
 30
0.0
 11
192.055
 21
233.536
 31
0.0
  0
ARC
  5
103
100
AcDbEntity
  8
0
370
         0
390
0
  6
CONTINUOUS
 62
         7
100
AcDbCircle
 10
243.75
 20
19.75
 30
0.0
 40
4.299994
100
AcDbArc
 50
238.085323
 51
301.914526
  0
ARC
  5
104
100
AcDbEntity
  8
0
370
         0
390
0
  6
CONTINUOUS
 62
         7
100
AcDbCircle
 10
239.203583
 20
12.45002
 30
0.0
 40
4.299994
100
AcDbArc
 50
58.085474
 51
120.348677
  0
ARC
  5
105
100
AcDbEntity
  8
0
370
         0
390
0
  6
CONTINUOUS
 62
         7
100
AcDbCircle
 10
248.296417
 20
12.45002
 30
0.0
 40
4.299994
100
AcDbArc
 50
59.651419
 51
121.914677
  0
ARC
  5
106
100
AcDbEntity
  8
0
370
         0
390
0
  6
CONTINUOUS
 62
         7
100
AcDbCircle
 10
234.657166
 20
23.75
 30
0.0
 40
4.299994
100
AcDbArc
 50
236.5292
 51
301.914526
  0
ARC
  5
107
100
AcDbEntity
  8
0
370
         0
390
0
  6
CONTINUOUS
 62
         7
100
AcDbCircle
 10
239.203583
 20
16.45002
 30
0.0
 40
4.299994
100
AcDbArc
 50
58.085474
 51
121.914677
  0
ARC
  5
108
100
AcDbEntity
  8
0
370
         0
390
0
  6
CONTINUOUS
 62
         7
100
AcDbCircle
 10
243.75
 20
23.75
 30
0.0
 40
4.299994
100
AcDbArc
 50
238.085323
 51
301.914526
  0
ARC
  5
109
100
AcDbEntity
  8
0
370
         0
390
0
  6
CONTINUOUS
 62
         7
100
AcDbCircle
 10
248.296417
 20
16.45002
 30
0.0
 40
4.299994
100
AcDbArc
 50
58.085474
 51
121.914677
  0
ARC
  5
10A
100
AcDbEntity
  8
0
370
         0
390
0
  6
CONTINUOUS
 62
         7
100
AcDbCircle
 10
252.842834
 20
23.75
 30
0.0
 40
4.299994
100
AcDbArc
 50
238.085323
 51
303.47065
  0
ARC
  5
10B
100
AcDbEntity
  8
0
370
         0
390
0
  6
CONTINUOUS
 62
         7
100
AcDbCircle
 10
234.657166
 20
21.75
 30
0.0
 40
4.299994
100
AcDbArc
 50
272.157976
 51
301.914526
  0
ARC
  5
10C
100
AcDbEntity
  8
0
370
         0
390
0
  6
CONTINUOUS
 62
         7
100
AcDbCircle
 10
239.203583
 20
14.45002
 30
0.0
 40
4.299994
100
AcDbArc
 50
58.085474
 51
121.914677
  0
ARC
  5
10D
100
AcDbEntity
  8
0
370
         0
390
0
  6
CONTINUOUS
 62
         7
100
AcDbCircle
 10
243.75
 20
21.75
 30
0.0
 40
4.299994
100
AcDbArc
 50
238.085323
 51
301.914526
  0
ARC
  5
10E
100
AcDbEntity
  8
0
370
         0
390
0
  6
CONTINUOUS
 62
         7
100
AcDbCircle
 10
248.296417
 20
14.45002
 30
0.0
 40
4.299994
100
AcDbArc
 50
58.085474
 51
121.914677
  0
ARC
  5
10F
100
AcDbEntity
  8
0
370
         0
390
0
  6
CONTINUOUS
 62
         7
100
AcDbCircle
 10
252.842834
 20
21.75
 30
0.0
 40
4.299994
100
AcDbArc
 50
238.085323
 51
267.84186
  0
ARC
  5
110
100
AcDbEntity
  8
0
370
         0
390
0
  6
CONTINUOUS
 62
         7
100
AcDbCircle
 10
234.657166
 20
23.75
 30
0.0
 40
4.699993
100
AcDbArc
 50
246.373724
 51
301.914526
  0
ARC
  5
111
100
AcDbEntity
  8
0
370
         0
390
0
  6
CONTINUOUS
 62
         7
100
AcDbCircle
 10
239.203583
 20
16.45002
 30
0.0
 40
3.899994
100
AcDbArc
 50
58.085474
 51
121.914677
  0
ARC
  5
112
100
AcDbEntity
  8
0
370
         0
390
0
  6
CONTINUOUS
 62
         7
100
AcDbCircle
 10
243.75
 20
23.75
 30
0.0
 40
4.699993
100
AcDbArc
 50
238.085323
 51
301.914533
  0
ARC
  5
113
100
AcDbEntity
  8
0
370
         0
390
0
  6
CONTINUOUS
 62
         7
100
AcDbCircle
 10
248.296417
 20
16.45002
 30
0.0
 40
3.899994
100
AcDbArc
 50
58.085474
 51
121.91469
  0
ARC
  5
114
100
AcDbEntity
  8
0
370
         0
390
0
  6
CONTINUOUS
 62
         7
100
AcDbCircle
 10
252.842834
 20
23.75
 30
0.0
 40
4.699993
100
AcDbArc
 50
238.085323
 51
293.62614
  0
ARC
  5
115
100
AcDbEntity
  8
0
370
         0
390
0
  6
CONTINUOUS
 62
         7
100
AcDbCircle
 10
234.657166
 20
21.75
 30
0.0
 40
4.699993
100
AcDbArc
 50
278.226529
 51
301.914526
  0
ARC
  5
116
100
AcDbEntity
  8
0
370
         0
390
0
  6
CONTINUOUS
 62
         7
100
AcDbCircle
 10
239.203583
 20
14.45002
 30
0.0
 40
3.899994
100
AcDbArc
 50
58.085474
 51
121.914677
  0
ARC
  5
117
100
AcDbEntity
  8
0
370
         0
390
0
  6
CONTINUOUS
 62
         7
100
AcDbCircle
 10
243.75
 20
21.75
 30
0.0
 40
4.699993
100
AcDbArc
 50
238.085323
 51
301.914533
  0
ARC
  5
118
100
AcDbEntity
  8
0
370
         0
390
0
  6
CONTINUOUS
 62
         7
100
AcDbCircle
 10
248.296417
 20
14.45002
 30
0.0
 40
3.899994
100
AcDbArc
 50
58.085474
 51
121.91469
  0
ARC
  5
119
100
AcDbEntity
  8
0
370
         0
390
0
  6
CONTINUOUS
 62
         7
100
AcDbCircle
 10
252.842834
 20
21.75
 30
0.0
 40
4.699993
100
AcDbArc
 50
238.085323
 51
261.773204
  0
ARC
  5
11A
100
AcDbEntity
  8
0
370
         0
390
0
  6
CONTINUOUS
 62
         7
100
AcDbCircle
 10
239.203583
 20
12.45002
 30
0.0
 40
3.899994
100
AcDbArc
 50
58.085474
 51
115.94581
  0
ARC
  5
11B
100
AcDbEntity
  8
0
370
         0
390
0
  6
CONTINUOUS
 62
         7
100
AcDbCircle
 10
243.75
 20
19.75
 30
0.0
 40
4.699993
100
AcDbArc
 50
238.085323
 51
301.914533
  0
ARC
  5
11C
100
AcDbEntity
  8
0
370
         0
390
0
  6
CONTINUOUS
 62
         7
100
AcDbCircle
 10
248.296417
 20
12.45002
 30
0.0
 40
3.899994
100
AcDbArc
 50
64.052919
 51
121.91469
  0
ARC
  5
11D
100
AcDbEntity
  8
0
370
         0
390
0
  6
CONTINUOUS
 62
         7
100
AcDbCircle
 10
57.875
 20
98.75
 30
0.0
 40
4.0
100
AcDbArc
 50
131.409498
 51
138.59026
  0
ARC
  5
11E
100
AcDbEntity
  8
0
370
         0
390
0
  6
CONTINUOUS
 62
         7
100
AcDbCircle
 10
72.125
 20
137.0
 30
0.0
 40
4.0
100
AcDbArc
 50
311.409655
 51
48.590502
  0
ARC
  5
11F
100
AcDbEntity
  8
0
370
         0
390
0
  6
CONTINUOUS
 62
         7
100
AcDbCircle
 10
57.875
 20
137.0
 30
0.0
 40
4.0
100
AcDbArc
 50
131.409498
 51
228.590345
  0
ARC
  5
120
100
AcDbEntity
  8
0
370
         0
390
0
  6
CONTINUOUS
 62
         7
100
AcDbCircle
 10
56.0
 20
132.5
 30
0.0
 40
0.5
100
AcDbArc
 50
0.000079
 51
90.000157
  0
ARC
  5
121
100
AcDbEntity
  8
0
370
         0
390
0
  6
CONTINUOUS
 62
         7
100
AcDbCircle
 10
57.875
 20
98.75
 30
0.0
 40
4.0
100
AcDbArc
 50
221.409587
 51
228.590348
  0
ARC
  5
122
100
AcDbEntity
  8
0
370
         0
390
0
  6
CONTINUOUS
 62
         7
100
AcDbCircle
 10
72.125
 20
98.75
 30
0.0
 40
4.0
100
AcDbArc
 50
41.40974
 51
48.590502
  0
ARC
  5
123
100
AcDbEntity
  8
0
370
         0
390
0
  6
CONTINUOUS
 62
         7
100
AcDbCircle
 10
72.125
 20
98.75
 30
0.0
 40
4.0
100
AcDbArc
 50
311.409655
 51
318.590417
  0
ARC
  5
124
100
AcDbEntity
  8
0
370
         0
390
0
  6
CONTINUOUS
 62
         7
100
AcDbCircle
 10
74.0
 20
132.5
 30
0.0
 40
0.5
100
AcDbArc
 50
89.999857
 51
179.999928
  0
ARC
  5
125
100
AcDbEntity
  8
0
370
         0
390
0
  6
CONTINUOUS
 62
         7
100
AcDbCircle
 10
56.75
 20
112.75
 30
0.0
 40
0.25
100
AcDbArc
 50
0.000079
 51
70.528911
  0
ARC
  5
126
100
AcDbEntity
  8
0
370
         0
390
0
  6
CONTINUOUS
 62
         7
100
AcDbCircle
 10
57.0
 20
113.457092
 30
0.0
 40
0.5
100
AcDbArc
 50
179.999915
 51
250.528753
  0
ARC
  5
127
100
AcDbEntity
  8
0
370
         0
390
0
  6
CONTINUOUS
 62
         7
100
AcDbCircle
 10
73.0
 20
113.457092
 30
0.0
 40
0.5
100
AcDbArc
 50
289.471245
 51
360.0
  0
ARC
  5
128
100
AcDbEntity
  8
0
370
         0
390
0
  6
CONTINUOUS
 62
         7
100
AcDbCircle
 10
73.25
 20
112.75
 30
0.0
 40
0.25
100
AcDbArc
 50
109.471089
 51
179.999928
  0
ARC
  5
129
100
AcDbEntity
  8
0
370
         0
390
0
  6
CONTINUOUS
 62
         7
100
AcDbCircle
 10
65.0
 20
74.5
 30
0.0
 40
8.0
100
AcDbArc
 50
179.999921
 51
0.000079
  0
ARC
  5
12A
100
AcDbEntity
  8
0
370
         0
390
0
  6
CONTINUOUS
 62
         7
100
AcDbCircle
 10
240.0
 20
103.0
 30
0.0
 40
27.0
100
AcDbArc
 50
90.0
 51
180.000229
  0
ARC
  5
12B
100
AcDbEntity
  8
0
370
         0
390
0
  6
CONTINUOUS
 62
         7
100
AcDbCircle
 10
240.0
 20
103.0
 30
0.0
 40
11.0
100
AcDbArc
 50
90.0
 51
180.000229
  0
ARC
  5
12C
100
AcDbEntity
  8
0
370
         0
390
0
  6
CENTER2
 62
         7
100
AcDbCircle
 10
240.0
 20
103.0
 30
0.0
 40
19.0
100
AcDbArc
 50
90.0
 51
180.000229
  0
ARC
  5
12D
100
AcDbEntity
  8
0
370
         0
390
0
  6
CONTINUOUS
 62
         7
100
AcDbCircle
 10
202.0
 20
93.5
 30
0.0
 40
27.0
100
AcDbArc
 50
179.999915
 51
0.000079
  0
ARC
  5
12E
100
AcDbEntity
  8
0
370
         0
390
0
  6
CONTINUOUS
 62
         7
100
AcDbCircle
 10
202.0
 20
93.5
 30
0.0
 40
11.0
100
AcDbArc
 50
179.999915
 51
0.000079
  0
ARC
  5
12F
100
AcDbEntity
  8
0
370
         0
390
0
  6
CENTER2
 62
         7
100
AcDbCircle
 10
202.0
 20
93.5
 30
0.0
 40
19.0
100
AcDbArc
 50
179.999915
 51
0.000079
  0
ARC
  5
130
100
AcDbEntity
  8
0
370
         0
390
0
  6
CONTINUOUS
 62
         7
100
AcDbCircle
 10
212.0
 20
95.0
 30
0.0
 40
1.0
100
AcDbArc
 50
0.000079
 51
48.590502
  0
ARC
  5
131
100
AcDbEntity
  8
0
370
         0
390
0
  6
CONTINUOUS
 62
         7
100
AcDbCircle
 10
230.0
 20
95.0
 30
0.0
 40
1.0
100
AcDbArc
 50
131.409498
 51
179.999928
  0
ARC
  5
132
100
AcDbEntity
  8
0
370
         0
390
0
  6
CONTINUOUS
 62
         7
100
AcDbCircle
 10
175.875
 20
137.0
 30
0.0
 40
4.0
100
AcDbArc
 50
131.409498
 51
138.59026
  0
ARC
  5
133
100
AcDbEntity
  8
0
370
         0
390
0
  6
CONTINUOUS
 62
         7
100
AcDbCircle
 10
228.125
 20
98.75
 30
0.0
 40
4.0
100
AcDbArc
 50
311.409655
 51
48.590502
  0
ARC
  5
134
100
AcDbEntity
  8
0
370
         0
390
0
  6
CONTINUOUS
 62
         7
100
AcDbCircle
 10
213.875
 20
98.75
 30
0.0
 40
4.0
100
AcDbArc
 50
131.409498
 51
228.590345
  0
ARC
  5
135
100
AcDbEntity
  8
0
370
         0
390
0
  6
CONTINUOUS
 62
         7
100
AcDbCircle
 10
174.0
 20
132.5
 30
0.0
 40
0.5
100
AcDbArc
 50
0.000079
 51
90.000157
  0
ARC
  5
136
100
AcDbEntity
  8
0
370
         0
390
0
  6
CONTINUOUS
 62
         7
100
AcDbCircle
 10
175.875
 20
137.0
 30
0.0
 40
4.0
100
AcDbArc
 50
221.409587
 51
228.590348
  0
ARC
  5
137
100
AcDbEntity
  8
0
370
         0
390
0
  6
CONTINUOUS
 62
         7
100
AcDbCircle
 10
190.125
 20
137.0
 30
0.0
 40
4.0
100
AcDbArc
 50
41.40974
 51
48.590502
  0
ARC
  5
138
100
AcDbEntity
  8
0
370
         0
390
0
  6
CONTINUOUS
 62
         7
100
AcDbCircle
 10
190.125
 20
137.0
 30
0.0
 40
4.0
100
AcDbArc
 50
311.409655
 51
318.590417
  0
ARC
  5
139
100
AcDbEntity
  8
0
370
         0
390
0
  6
CONTINUOUS
 62
         7
100
AcDbCircle
 10
192.0
 20
132.5
 30
0.0
 40
0.5
100
AcDbArc
 50
89.999857
 51
179.999928
  0
ARC
  5
13A
100
AcDbEntity
  8
0
370
         0
390
0
  6
CONTINUOUS
 62
         7
100
AcDbCircle
 10
174.75
 20
112.75
 30
0.0
 40
0.25
100
AcDbArc
 50
0.000079
 51
70.528911
  0
ARC
  5
13B
100
AcDbEntity
  8
0
370
         0
390
0
  6
CONTINUOUS
 62
         7
100
AcDbCircle
 10
175.0
 20
113.457092
 30
0.0
 40
0.5
100
AcDbArc
 50
179.999915
 51
250.528753
  0
ARC
  5
13C
100
AcDbEntity
  8
0
370
         0
390
0
  6
CONTINUOUS
 62
         7
100
AcDbCircle
 10
191.0
 20
113.457092
 30
0.0
 40
0.5
100
AcDbArc
 50
289.471245
 51
360.0
  0
ARC
  5
13D
100
AcDbEntity
  8
0
370
         0
390
0
  6
CONTINUOUS
 62
         7
100
AcDbCircle
 10
191.25
 20
112.75
 30
0.0
 40
0.25
100
AcDbArc
 50
109.471089
 51
179.999928
  0
ARC
  5
13E
100
AcDbEntity
  8
0
370
         0
390
0
  6
CONTINUOUS
 62
         7
100
AcDbCircle
 10
368.5
 20
132.5
 30
0.0
 40
6.0
100
AcDbArc
 50
90.000079
 51
180.000157
  0
ARC
  5
13F
100
AcDbEntity
  8
0
370
         0
390
0
  6
CONTINUOUS
 62
         7
100
AcDbCircle
 10
368.5
 20
111.5
 30
0.0
 40
6.0
100
AcDbArc
 50
180.000143
 51
270.000229
  0
ARC
  5
140
100
AcDbEntity
  8
0
370
         0
390
0
  6
CONTINUOUS
 62
         7
100
AcDbCircle
 10
183.0
 20
240.0
 30
0.0
 40
11.125
100
AcDbArc
 50
324.479161
 51
335.52094
  0
ARC
  5
141
100
AcDbEntity
  8
0
370
         0
390
0
  6
CONTINUOUS
 62
         7
100
AcDbCircle
 10
183.0
 20
240.0
 30
0.0
 40
11.125
100
AcDbArc
 50
24.47921
 51
35.520992
  0
ARC
  5
142
100
AcDbEntity
  8
0
370
         0
390
0
  6
CONTINUOUS
 62
         7
100
AcDbCircle
 10
183.0
 20
240.0
 30
0.0
 40
11.125
100
AcDbArc
 50
84.479269
 51
95.521045
  0
CIRCLE
  5
143
100
AcDbEntity
  8
0
370
         0
390
0
  6
CONTINUOUS
 62
         7
100
AcDbCircle
 10
183.0
 20
240.0
 30
0.0
 40
8.125
  0
ARC
  5
144
100
AcDbEntity
  8
0
370
         0
390
0
  6
CONTINUOUS
 62
         7
100
AcDbCircle
 10
183.0
 20
240.0
 30
0.0
 40
11.125
100
AcDbArc
 50
144.479008
 51
155.520783
  0
ARC
  5
145
100
AcDbEntity
  8
0
370
         0
390
0
  6
CONTINUOUS
 62
         7
100
AcDbCircle
 10
183.0
 20
240.0
 30
0.0
 40
11.125
100
AcDbArc
 50
204.479067
 51
215.520839
  0
ARC
  5
146
100
AcDbEntity
  8
0
370
         0
390
0
  6
CONTINUOUS
 62
         7
100
AcDbCircle
 10
221.0
 20
240.0
 30
0.0
 40
11.125
100
AcDbArc
 50
54.479236
 51
65.521012
  0
ARC
  5
147
100
AcDbEntity
  8
0
370
         0
390
0
  6
CONTINUOUS
 62
         7
100
AcDbCircle
 10
221.0
 20
240.0
 30
0.0
 40
11.125
100
AcDbArc
 50
114.478988
 51
125.520764
  0
ARC
  5
148
100
AcDbEntity
  8
0
370
         0
390
0
  6
CONTINUOUS
 62
         7
100
AcDbCircle
 10
221.0
 20
240.0
 30
0.0
 40
11.125
100
AcDbArc
 50
174.479041
 51
185.520816
  0
ARC
  5
149
100
AcDbEntity
  8
0
370
         0
390
0
  6
CONTINUOUS
 62
         7
100
AcDbCircle
 10
221.0
 20
240.0
 30
0.0
 40
8.125
100
AcDbArc
 50
79.936862
 51
280.063595
  0
ARC
  5
14A
100
AcDbEntity
  8
0
370
         0
390
0
  6
CONTINUOUS
 62
         7
100
AcDbCircle
 10
221.0
 20
240.0
 30
0.0
 40
11.125
100
AcDbArc
 50
234.479083
 51
245.520866
  0
ARC
  5
14B
100
AcDbEntity
  8
0
370
         0
390
0
  6
CONTINUOUS
 62
         7
100
AcDbCircle
 10
221.0
 20
240.0
 30
0.0
 40
11.125
100
AcDbArc
 50
294.479137
 51
305.520914
  0
ARC
  5
14C
100
AcDbEntity
  8
0
370
         0
390
0
  6
CONTINUOUS
 62
         7
100
AcDbCircle
 10
221.0
 20
240.0
 30
0.0
 40
8.0
100
AcDbArc
 50
89.999857
 51
270.0
  0
CIRCLE
  5
14D
100
AcDbEntity
  8
0
370
         0
390
0
  6
CONTINUOUS
 62
         7
100
AcDbCircle
 10
183.0
 20
240.0
 30
0.0
 40
9.770751
  0
ARC
  5
14E
100
AcDbEntity
  8
0
370
         0
390
0
  6
CONTINUOUS
 62
         7
100
AcDbCircle
 10
183.0
 20
240.0
 30
0.0
 40
11.125
100
AcDbArc
 50
264.47911
 51
275.520885
  0
ARC
  5
14F
100
AcDbEntity
  8
0
370
         0
390
0
  6
CONTINUOUS
 62
         7
100
AcDbCircle
 10
221.0
 20
240.0
 30
0.0
 40
9.770751
100
AcDbArc
 50
54.961995
 51
305.038476
  0
LINE
  5
150
100
AcDbEntity
  8
0
370
         0
390
0
  6
CONTINUOUS
 62
         7
100
AcDbLine
 10
250.00362
 20
15.95729
 30
0.0
 11
250.032928
 21
15.969521
 31
0.0
  0
LINE
  5
151
100
AcDbEntity
  8
0
370
         0
390
0
  6
CONTINUOUS
 62
         7
100
AcDbLine
 10
250.032928
 20
15.969521
 30
0.0
 11
250.062208
 21
15.981817
 31
0.0
  0
LINE
  5
152
100
AcDbEntity
  8
0
370
         0
390
0
  6
CONTINUOUS
 62
         7
100
AcDbLine
 10
250.062208
 20
15.981817
 30
0.0
 11
250.091462
 21
15.994178
 31
0.0
  0
LINE
  5
153
100
AcDbEntity
  8
0
370
         0
390
0
  6
CONTINUOUS
 62
         7
100
AcDbLine
 10
250.091462
 20
15.994178
 30
0.0
 11
250.120687
 21
16.006604
 31
0.0
  0
LINE
  5
154
100
AcDbEntity
  8
0
370
         0
390
0
  6
CONTINUOUS
 62
         7
100
AcDbLine
 10
250.120687
 20
16.006604
 30
0.0
 11
250.149885
 21
16.019096
 31
0.0
  0
LINE
  5
155
100
AcDbEntity
  8
0
370
         0
390
0
  6
CONTINUOUS
 62
         7
100
AcDbLine
 10
250.149885
 20
16.019096
 30
0.0
 11
250.179055
 21
16.031652
 31
0.0
  0
LINE
  5
156
100
AcDbEntity
  8
0
370
         0
390
0
  6
CONTINUOUS
 62
         7
100
AcDbLine
 10
250.179055
 20
16.031652
 30
0.0
 11
250.208196
 21
16.044275
 31
0.0
  0
LINE
  5
157
100
AcDbEntity
  8
0
370
         0
390
0
  6
CONTINUOUS
 62
         7
100
AcDbLine
 10
250.208196
 20
16.044275
 30
0.0
 11
250.237309
 21
16.056962
 31
0.0
  0
LINE
  5
158
100
AcDbEntity
  8
0
370
         0
390
0
  6
CONTINUOUS
 62
         7
100
AcDbLine
 10
250.237309
 20
16.056962
 30
0.0
 11
250.266394
 21
16.069716
 31
0.0
  0
LINE
  5
159
100
AcDbEntity
  8
0
370
         0
390
0
  6
CONTINUOUS
 62
         7
100
AcDbLine
 10
250.266394
 20
16.069716
 30
0.0
 11
250.295449
 21
16.082535
 31
0.0
  0
LINE
  5
15A
100
AcDbEntity
  8
0
370
         0
390
0
  6
CONTINUOUS
 62
         7
100
AcDbLine
 10
250.295449
 20
16.082535
 30
0.0
 11
250.324476
 21
16.09542
 31
0.0
  0
LINE
  5
15B
100
AcDbEntity
  8
0
370
         0
390
0
  6
CONTINUOUS
 62
         7
100
AcDbLine
 10
250.324476
 20
16.09542
 30
0.0
 11
250.353473
 21
16.10837
 31
0.0
  0
LINE
  5
15C
100
AcDbEntity
  8
0
370
         0
390
0
  6
CONTINUOUS
 62
         7
100
AcDbLine
 10
250.353473
 20
16.10837
 30
0.0
 11
250.382441
 21
16.121386
 31
0.0
  0
LINE
  5
15D
100
AcDbEntity
  8
0
370
         0
390
0
  6
CONTINUOUS
 62
         7
100
AcDbLine
 10
250.382441
 20
16.121386
 30
0.0
 11
250.411379
 21
16.134469
 31
0.0
  0
LINE
  5
15E
100
AcDbEntity
  8
0
370
         0
390
0
  6
CONTINUOUS
 62
         7
100
AcDbLine
 10
250.411379
 20
16.134469
 30
0.0
 11
250.440287
 21
16.147617
 31
0.0
  0
LINE
  5
15F
100
AcDbEntity
  8
0
370
         0
390
0
  6
CONTINUOUS
 62
         7
100
AcDbLine
 10
250.440287
 20
16.147617
 30
0.0
 11
250.469165
 21
16.160831
 31
0.0
  0
LINE
  5
160
100
AcDbEntity
  8
0
370
         0
390
0
  6
CONTINUOUS
 62
         7
100
AcDbLine
 10
232.2854
 20
20.163522
 30
0.0
 11
232.313538
 21
20.11725
 31
0.0
  0
LINE
  5
161
100
AcDbEntity
  8
0
370
         0
390
0
  6
CONTINUOUS
 62
         7
100
AcDbLine
 10
232.313538
 20
20.11725
 30
0.0
 11
232.341991
 21
20.071164
 31
0.0
  0
LINE
  5
162
100
AcDbEntity
  8
0
370
         0
390
0
  6
CONTINUOUS
 62
         7
100
AcDbLine
 10
232.341991
 20
20.071164
 30
0.0
 11
232.370757
 21
20.025265
 31
0.0
  0
LINE
  5
163
100
AcDbEntity
  8
0
370
         0
390
0
  6
CONTINUOUS
 62
         7
100
AcDbLine
 10
232.370757
 20
20.025265
 30
0.0
 11
232.399834
 21
19.979556
 31
0.0
  0
LINE
  5
164
100
AcDbEntity
  8
0
370
         0
390
0
  6
CONTINUOUS
 62
         7
100
AcDbLine
 10
232.399834
 20
19.979556
 30
0.0
 11
232.429217
 21
19.934036
 31
0.0
  0
LINE
  5
165
100
AcDbEntity
  8
0
370
         0
390
0
  6
CONTINUOUS
 62
         7
100
AcDbLine
 10
232.429217
 20
19.934036
 30
0.0
 11
232.458904
 21
19.888708
 31
0.0
  0
LINE
  5
166
100
AcDbEntity
  8
0
370
         0
390
0
  6
CONTINUOUS
 62
         7
100
AcDbLine
 10
232.458904
 20
19.888708
 30
0.0
 11
232.488893
 21
19.843572
 31
0.0
  0
LINE
  5
167
100
AcDbEntity
  8
0
370
         0
390
0
  6
CONTINUOUS
 62
         7
100
AcDbLine
 10
232.488893
 20
19.843572
 30
0.0
 11
232.519181
 21
19.79863
 31
0.0
  0
LINE
  5
168
100
AcDbEntity
  8
0
370
         0
390
0
  6
CONTINUOUS
 62
         7
100
AcDbLine
 10
232.519181
 20
19.79863
 30
0.0
 11
232.549283
 21
19.754582
 31
0.0
  0
LINE
  5
169
100
AcDbEntity
  8
0
370
         0
390
0
  6
CONTINUOUS
 62
         7
100
AcDbLine
 10
232.549283
 20
19.754582
 30
0.0
 11
232.57968
 21
19.710707
 31
0.0
  0
LINE
  5
16A
100
AcDbEntity
  8
0
370
         0
390
0
  6
CONTINUOUS
 62
         7
100
AcDbLine
 10
232.57968
 20
19.710707
 30
0.0
 11
232.610371
 21
19.667006
 31
0.0
  0
LINE
  5
16B
100
AcDbEntity
  8
0
370
         0
390
0
  6
CONTINUOUS
 62
         7
100
AcDbLine
 10
232.610371
 20
19.667006
 30
0.0
 11
232.641351
 21
19.623482
 31
0.0
  0
LINE
  5
16C
100
AcDbEntity
  8
0
370
         0
390
0
  6
CONTINUOUS
 62
         7
100
AcDbLine
 10
232.641351
 20
19.623482
 30
0.0
 11
232.672619
 21
19.580135
 31
0.0
  0
LINE
  5
16D
100
AcDbEntity
  8
0
370
         0
390
0
  6
CONTINUOUS
 62
         7
100
AcDbLine
 10
232.672619
 20
19.580135
 30
0.0
 11
232.704173
 21
19.536966
 31
0.0
  0
LINE
  5
16E
100
AcDbEntity
  8
0
370
         0
390
0
  6
CONTINUOUS
 62
         7
100
AcDbLine
 10
232.704173
 20
19.536966
 30
0.0
 11
232.736009
 21
19.493978
 31
0.0
  0
LINE
  5
16F
100
AcDbEntity
  8
0
370
         0
390
0
  6
CONTINUOUS
 62
         7
100
AcDbLine
 10
232.736009
 20
19.493978
 30
0.0
 11
232.768126
 21
19.45117
 31
0.0
  0
LINE
  5
170
100
AcDbEntity
  8
0
370
         0
390
0
  6
CONTINUOUS
 62
         7
100
AcDbLine
 10
234.819617
 20
17.452661
 30
0.0
 11
234.850918
 21
17.429731
 31
0.0
  0
LINE
  5
171
100
AcDbEntity
  8
0
370
         0
390
0
  6
CONTINUOUS
 62
         7
100
AcDbLine
 10
234.850918
 20
17.429731
 30
0.0
 11
234.8823
 21
17.406907
 31
0.0
  0
LINE
  5
172
100
AcDbEntity
  8
0
370
         0
390
0
  6
CONTINUOUS
 62
         7
100
AcDbLine
 10
234.8823
 20
17.406907
 30
0.0
 11
234.91376
 21
17.384188
 31
0.0
  0
LINE
  5
173
100
AcDbEntity
  8
0
370
         0
390
0
  6
CONTINUOUS
 62
         7
100
AcDbLine
 10
234.91376
 20
17.384188
 30
0.0
 11
234.9453
 21
17.361574
 31
0.0
  0
LINE
  5
174
100
AcDbEntity
  8
0
370
         0
390
0
  6
CONTINUOUS
 62
         7
100
AcDbLine
 10
234.9453
 20
17.361574
 30
0.0
 11
234.976917
 21
17.339064
 31
0.0
  0
LINE
  5
175
100
AcDbEntity
  8
0
370
         0
390
0
  6
CONTINUOUS
 62
         7
100
AcDbLine
 10
234.976917
 20
17.339064
 30
0.0
 11
235.008612
 21
17.316659
 31
0.0
  0
LINE
  5
176
100
AcDbEntity
  8
0
370
         0
390
0
  6
CONTINUOUS
 62
         7
100
AcDbLine
 10
235.008612
 20
17.316659
 30
0.0
 11
235.040384
 21
17.294359
 31
0.0
  0
LINE
  5
177
100
AcDbEntity
  8
0
370
         0
390
0
  6
CONTINUOUS
 62
         7
100
AcDbLine
 10
235.040384
 20
17.294359
 30
0.0
 11
235.072232
 21
17.272164
 31
0.0
  0
LINE
  5
178
100
AcDbEntity
  8
0
370
         0
390
0
  6
CONTINUOUS
 62
         7
100
AcDbLine
 10
235.072232
 20
17.272164
 30
0.0
 11
235.104155
 21
17.250073
 31
0.0
  0
LINE
  5
179
100
AcDbEntity
  8
0
370
         0
390
0
  6
CONTINUOUS
 62
         7
100
AcDbLine
 10
235.104155
 20
17.250073
 30
0.0
 11
235.136153
 21
17.228087
 31
0.0
  0
LINE
  5
17A
100
AcDbEntity
  8
0
370
         0
390
0
  6
CONTINUOUS
 62
         7
100
AcDbLine
 10
235.136153
 20
17.228087
 30
0.0
 11
235.168225
 21
17.206205
 31
0.0
  0
LINE
  5
17B
100
AcDbEntity
  8
0
370
         0
390
0
  6
CONTINUOUS
 62
         7
100
AcDbLine
 10
235.168225
 20
17.206205
 30
0.0
 11
235.200371
 21
17.184428
 31
0.0
  0
LINE
  5
17C
100
AcDbEntity
  8
0
370
         0
390
0
  6
CONTINUOUS
 62
         7
100
AcDbLine
 10
235.200371
 20
17.184428
 30
0.0
 11
235.232589
 21
17.162756
 31
0.0
  0
LINE
  5
17D
100
AcDbEntity
  8
0
370
         0
390
0
  6
CONTINUOUS
 62
         7
100
AcDbLine
 10
235.232589
 20
17.162756
 30
0.0
 11
235.26488
 21
17.141188
 31
0.0
  0
LINE
  5
17E
100
AcDbEntity
  8
0
370
         0
390
0
  6
CONTINUOUS
 62
         7
100
AcDbLine
 10
235.26488
 20
17.141188
 30
0.0
 11
235.297242
 21
17.119724
 31
0.0
  0
LINE
  5
17F
100
AcDbEntity
  8
0
370
         0
390
0
  6
CONTINUOUS
 62
         7
100
AcDbLine
 10
235.297242
 20
17.119724
 30
0.0
 11
235.328862
 21
17.098898
 31
0.0
  0
LINE
  5
180
100
AcDbEntity
  8
0
370
         0
390
0
  6
CONTINUOUS
 62
         7
100
AcDbLine
 10
237.029973
 20
16.161227
 30
0.0
 11
237.0592
 21
16.147851
 31
0.0
  0
LINE
  5
181
100
AcDbEntity
  8
0
370
         0
390
0
  6
CONTINUOUS
 62
         7
100
AcDbLine
 10
237.0592
 20
16.147851
 30
0.0
 11
237.088471
 21
16.134537
 31
0.0
  0
LINE
  5
182
100
AcDbEntity
  8
0
370
         0
390
0
  6
CONTINUOUS
 62
         7
100
AcDbLine
 10
237.088471
 20
16.134537
 30
0.0
 11
237.117785
 21
16.121285
 31
0.0
  0
LINE
  5
183
100
AcDbEntity
  8
0
370
         0
390
0
  6
CONTINUOUS
 62
         7
100
AcDbLine
 10
237.117785
 20
16.121285
 30
0.0
 11
237.147142
 21
16.108094
 31
0.0
  0
LINE
  5
184
100
AcDbEntity
  8
0
370
         0
390
0
  6
CONTINUOUS
 62
         7
100
AcDbLine
 10
237.147142
 20
16.108094
 30
0.0
 11
237.176542
 21
16.094966
 31
0.0
  0
LINE
  5
185
100
AcDbEntity
  8
0
370
         0
390
0
  6
CONTINUOUS
 62
         7
100
AcDbLine
 10
237.176542
 20
16.094966
 30
0.0
 11
237.205985
 21
16.0819
 31
0.0
  0
LINE
  5
186
100
AcDbEntity
  8
0
370
         0
390
0
  6
CONTINUOUS
 62
         7
100
AcDbLine
 10
237.205985
 20
16.0819
 30
0.0
 11
237.23547
 21
16.068896
 31
0.0
  0
LINE
  5
187
100
AcDbEntity
  8
0
370
         0
390
0
  6
CONTINUOUS
 62
         7
100
AcDbLine
 10
237.23547
 20
16.068896
 30
0.0
 11
237.264997
 21
16.055955
 31
0.0
  0
LINE
  5
188
100
AcDbEntity
  8
0
370
         0
390
0
  6
CONTINUOUS
 62
         7
100
AcDbLine
 10
237.264997
 20
16.055955
 30
0.0
 11
237.294565
 21
16.043075
 31
0.0
  0
LINE
  5
189
100
AcDbEntity
  8
0
370
         0
390
0
  6
CONTINUOUS
 62
         7
100
AcDbLine
 10
237.294565
 20
16.043075
 30
0.0
 11
237.324175
 21
16.030258
 31
0.0
  0
LINE
  5
18A
100
AcDbEntity
  8
0
370
         0
390
0
  6
CONTINUOUS
 62
         7
100
AcDbLine
 10
237.324175
 20
16.030258
 30
0.0
 11
237.353825
 21
16.017504
 31
0.0
  0
LINE
  5
18B
100
AcDbEntity
  8
0
370
         0
390
0
  6
CONTINUOUS
 62
         7
100
AcDbLine
 10
237.353825
 20
16.017504
 30
0.0
 11
237.383517
 21
16.004812
 31
0.0
  0
LINE
  5
18C
100
AcDbEntity
  8
0
370
         0
390
0
  6
CONTINUOUS
 62
         7
100
AcDbLine
 10
237.383517
 20
16.004812
 30
0.0
 11
237.413248
 21
15.992182
 31
0.0
  0
LINE
  5
18D
100
AcDbEntity
  8
0
370
         0
390
0
  6
CONTINUOUS
 62
         7
100
AcDbLine
 10
237.413248
 20
15.992182
 30
0.0
 11
237.44302
 21
15.979616
 31
0.0
  0
LINE
  5
18E
100
AcDbEntity
  8
0
370
         0
390
0
  6
CONTINUOUS
 62
         7
100
AcDbLine
 10
237.44302
 20
15.979616
 30
0.0
 11
237.472831
 21
15.967112
 31
0.0
  0
LINE
  5
18F
100
AcDbEntity
  8
0
370
         0
390
0
  6
CONTINUOUS
 62
         7
100
AcDbLine
 10
237.472831
 20
15.967112
 30
0.0
 11
237.502682
 21
15.95467
 31
0.0
  0
LINE
  5
190
100
AcDbEntity
  8
0
370
         0
390
0
  6
CONTINUOUS
 62
         7
100
AcDbLine
 10
252.170758
 20
17.098648
 30
0.0
 11
252.20322
 21
17.120029
 31
0.0
  0
LINE
  5
191
100
AcDbEntity
  8
0
370
         0
390
0
  6
CONTINUOUS
 62
         7
100
AcDbLine
 10
252.20322
 20
17.120029
 30
0.0
 11
252.235614
 21
17.141516
 31
0.0
  0
LINE
  5
192
100
AcDbEntity
  8
0
370
         0
390
0
  6
CONTINUOUS
 62
         7
100
AcDbLine
 10
252.235614
 20
17.141516
 30
0.0
 11
252.267937
 21
17.163108
 31
0.0
  0
LINE
  5
193
100
AcDbEntity
  8
0
370
         0
390
0
  6
CONTINUOUS
 62
         7
100
AcDbLine
 10
252.267937
 20
17.163108
 30
0.0
 11
252.300189
 21
17.184806
 31
0.0
  0
LINE
  5
194
100
AcDbEntity
  8
0
370
         0
390
0
  6
CONTINUOUS
 62
         7
100
AcDbLine
 10
252.300189
 20
17.184806
 30
0.0
 11
252.332369
 21
17.206609
 31
0.0
  0
LINE
  5
195
100
AcDbEntity
  8
0
370
         0
390
0
  6
CONTINUOUS
 62
         7
100
AcDbLine
 10
252.332369
 20
17.206609
 30
0.0
 11
252.364478
 21
17.228519
 31
0.0
  0
LINE
  5
196
100
AcDbEntity
  8
0
370
         0
390
0
  6
CONTINUOUS
 62
         7
100
AcDbLine
 10
252.364478
 20
17.228519
 30
0.0
 11
252.396514
 21
17.250534
 31
0.0
  0
LINE
  5
197
100
AcDbEntity
  8
0
370
         0
390
0
  6
CONTINUOUS
 62
         7
100
AcDbLine
 10
252.396514
 20
17.250534
 30
0.0
 11
252.428477
 21
17.272656
 31
0.0
  0
LINE
  5
198
100
AcDbEntity
  8
0
370
         0
390
0
  6
CONTINUOUS
 62
         7
100
AcDbLine
 10
252.428477
 20
17.272656
 30
0.0
 11
252.460367
 21
17.294884
 31
0.0
  0
LINE
  5
199
100
AcDbEntity
  8
0
370
         0
390
0
  6
CONTINUOUS
 62
         7
100
AcDbLine
 10
252.460367
 20
17.294884
 30
0.0
 11
252.492182
 21
17.317218
 31
0.0
  0
LINE
  5
19A
100
AcDbEntity
  8
0
370
         0
390
0
  6
CONTINUOUS
 62
         7
100
AcDbLine
 10
252.492182
 20
17.317218
 30
0.0
 11
252.523921
 21
17.339659
 31
0.0
  0
LINE
  5
19B
100
AcDbEntity
  8
0
370
         0
390
0
  6
CONTINUOUS
 62
         7
100
AcDbLine
 10
252.523921
 20
17.339659
 30
0.0
 11
252.555586
 21
17.362206
 31
0.0
  0
LINE
  5
19C
100
AcDbEntity
  8
0
370
         0
390
0
  6
CONTINUOUS
 62
         7
100
AcDbLine
 10
252.555586
 20
17.362206
 30
0.0
 11
252.587174
 21
17.38486
 31
0.0
  0
LINE
  5
19D
100
AcDbEntity
  8
0
370
         0
390
0
  6
CONTINUOUS
 62
         7
100
AcDbLine
 10
252.587174
 20
17.38486
 30
0.0
 11
252.618685
 21
17.407621
 31
0.0
  0
LINE
  5
19E
100
AcDbEntity
  8
0
370
         0
390
0
  6
CONTINUOUS
 62
         7
100
AcDbLine
 10
252.618685
 20
17.407621
 30
0.0
 11
252.650119
 21
17.430489
 31
0.0
  0
LINE
  5
19F
100
AcDbEntity
  8
0
370
         0
390
0
  6
CONTINUOUS
 62
         7
100
AcDbLine
 10
252.650119
 20
17.430489
 30
0.0
 11
252.681475
 21
17.453463
 31
0.0
  0
LINE
  5
1A0
100
AcDbEntity
  8
0
370
         0
390
0
  6
CONTINUOUS
 62
         7
100
AcDbLine
 10
254.726619
 20
19.444218
 30
0.0
 11
254.759275
 21
19.487657
 31
0.0
  0
LINE
  5
1A1
100
AcDbEntity
  8
0
370
         0
390
0
  6
CONTINUOUS
 62
         7
100
AcDbLine
 10
254.759275
 20
19.487657
 30
0.0
 11
254.791656
 21
19.531302
 31
0.0
  0
LINE
  5
1A2
100
AcDbEntity
  8
0
370
         0
390
0
  6
CONTINUOUS
 62
         7
100
AcDbLine
 10
254.791656
 20
19.531302
 30
0.0
 11
254.823759
 21
19.575151
 31
0.0
  0
LINE
  5
1A3
100
AcDbEntity
  8
0
370
         0
390
0
  6
CONTINUOUS
 62
         7
100
AcDbLine
 10
254.823759
 20
19.575151
 30
0.0
 11
254.855582
 21
19.619204
 31
0.0
  0
LINE
  5
1A4
100
AcDbEntity
  8
0
370
         0
390
0
  6
CONTINUOUS
 62
         7
100
AcDbLine
 10
254.855582
 20
19.619204
 30
0.0
 11
254.887121
 21
19.66346
 31
0.0
  0
LINE
  5
1A5
100
AcDbEntity
  8
0
370
         0
390
0
  6
CONTINUOUS
 62
         7
100
AcDbLine
 10
254.887121
 20
19.66346
 30
0.0
 11
254.918374
 21
19.707919
 31
0.0
  0
LINE
  5
1A6
100
AcDbEntity
  8
0
370
         0
390
0
  6
CONTINUOUS
 62
         7
100
AcDbLine
 10
254.918374
 20
19.707919
 30
0.0
 11
254.949339
 21
19.752579
 31
0.0
  0
LINE
  5
1A7
100
AcDbEntity
  8
0
370
         0
390
0
  6
CONTINUOUS
 62
         7
100
AcDbLine
 10
254.949339
 20
19.752579
 30
0.0
 11
254.980012
 21
19.79744
 31
0.0
  0
LINE
  5
1A8
100
AcDbEntity
  8
0
370
         0
390
0
  6
CONTINUOUS
 62
         7
100
AcDbLine
 10
254.980012
 20
19.79744
 30
0.0
 11
255.01039
 21
19.842501
 31
0.0
  0
LINE
  5
1A9
100
AcDbEntity
  8
0
370
         0
390
0
  6
CONTINUOUS
 62
         7
100
AcDbLine
 10
255.01039
 20
19.842501
 30
0.0
 11
255.040471
 21
19.887761
 31
0.0
  0
LINE
  5
1AA
100
AcDbEntity
  8
0
370
         0
390
0
  6
CONTINUOUS
 62
         7
100
AcDbLine
 10
255.040471
 20
19.887761
 30
0.0
 11
255.070251
 21
19.933219
 31
0.0
  0
LINE
  5
1AB
100
AcDbEntity
  8
0
370
         0
390
0
  6
CONTINUOUS
 62
         7
100
AcDbLine
 10
255.070251
 20
19.933219
 30
0.0
 11
255.099729
 21
19.978873
 31
0.0
  0
LINE
  5
1AC
100
AcDbEntity
  8
0
370
         0
390
0
  6
CONTINUOUS
 62
         7
100
AcDbLine
 10
255.099729
 20
19.978873
 30
0.0
 11
255.128901
 21
20.024724
 31
0.0
  0
LINE
  5
1AD
100
AcDbEntity
  8
0
370
         0
390
0
  6
CONTINUOUS
 62
         7
100
AcDbLine
 10
255.128901
 20
20.024724
 30
0.0
 11
255.157764
 21
20.07077
 31
0.0
  0
LINE
  5
1AE
100
AcDbEntity
  8
0
370
         0
390
0
  6
CONTINUOUS
 62
         7
100
AcDbLine
 10
255.157764
 20
20.07077
 30
0.0
 11
255.186315
 21
20.117009
 31
0.0
  0
LINE
  5
1AF
100
AcDbEntity
  8
0
370
         0
390
0
  6
CONTINUOUS
 62
         7
100
AcDbLine
 10
255.186315
 20
20.117009
 30
0.0
 11
255.214552
 21
20.163442
 31
0.0
  0
LINE
  5
1B0
100
AcDbEntity
  8
0
370
         0
390
0
  6
CONTINUOUS
 62
         7
100
AcDbLine
 10
235.250114
 20
24.789958
 30
0.0
 11
235.160551
 21
24.823314
 31
0.0
  0
LINE
  5
1B1
100
AcDbEntity
  8
0
370
         0
390
0
  6
CONTINUOUS
 62
         7
100
AcDbLine
 10
235.160551
 20
24.823314
 30
0.0
 11
235.069982
 21
24.854026
 31
0.0
  0
LINE
  5
1B2
100
AcDbEntity
  8
0
370
         0
390
0
  6
CONTINUOUS
 62
         7
100
AcDbLine
 10
235.069982
 20
24.854026
 30
0.0
 11
234.978561
 21
24.882199
 31
0.0
  0
LINE
  5
1B3
100
AcDbEntity
  8
0
370
         0
390
0
  6
CONTINUOUS
 62
         7
100
AcDbLine
 10
234.978561
 20
24.882199
 30
0.0
 11
234.886554
 21
24.907892
 31
0.0
  0
LINE
  5
1B4
100
AcDbEntity
  8
0
370
         0
390
0
  6
CONTINUOUS
 62
         7
100
AcDbLine
 10
234.886554
 20
24.907892
 30
0.0
 11
234.793198
 21
24.931414
 31
0.0
  0
LINE
  5
1B5
100
AcDbEntity
  8
0
370
         0
390
0
  6
CONTINUOUS
 62
         7
100
AcDbLine
 10
234.793198
 20
24.931414
 30
0.0
 11
234.699885
 21
24.952509
 31
0.0
  0
LINE
  5
1B6
100
AcDbEntity
  8
0
370
         0
390
0
  6
CONTINUOUS
 62
         7
100
AcDbLine
 10
234.699885
 20
24.952509
 30
0.0
 11
234.6061
 21
24.971403
 31
0.0
  0
LINE
  5
1B7
100
AcDbEntity
  8
0
370
         0
390
0
  6
CONTINUOUS
 62
         7
100
AcDbLine
 10
234.6061
 20
24.971403
 30
0.0
 11
234.511908
 21
24.988158
 31
0.0
  0
LINE
  5
1B8
100
AcDbEntity
  8
0
370
         0
390
0
  6
CONTINUOUS
 62
         7
100
AcDbLine
 10
234.511908
 20
24.988158
 30
0.0
 11
234.417367
 21
25.002826
 31
0.0
  0
LINE
  5
1B9
100
AcDbEntity
  8
0
370
         0
390
0
  6
CONTINUOUS
 62
         7
100
AcDbLine
 10
234.417367
 20
25.002826
 30
0.0
 11
234.322528
 21
25.015452
 31
0.0
  0
LINE
  5
1BA
100
AcDbEntity
  8
0
370
         0
390
0
  6
CONTINUOUS
 62
         7
100
AcDbLine
 10
234.322528
 20
25.015452
 30
0.0
 11
234.227443
 21
25.026073
 31
0.0
  0
LINE
  5
1BB
100
AcDbEntity
  8
0
370
         0
390
0
  6
CONTINUOUS
 62
         7
100
AcDbLine
 10
234.227443
 20
25.026073
 30
0.0
 11
234.132156
 21
25.034722
 31
0.0
  0
LINE
  5
1BC
100
AcDbEntity
  8
0
370
         0
390
0
  6
CONTINUOUS
 62
         7
100
AcDbLine
 10
234.132156
 20
25.034722
 30
0.0
 11
234.036712
 21
25.041423
 31
0.0
  0
LINE
  5
1BD
100
AcDbEntity
  8
0
370
         0
390
0
  6
CONTINUOUS
 62
         7
100
AcDbLine
 10
234.036712
 20
25.041423
 30
0.0
 11
233.941153
 21
25.046194
 31
0.0
  0
LINE
  5
1BE
100
AcDbEntity
  8
0
370
         0
390
0
  6
CONTINUOUS
 62
         7
100
AcDbLine
 10
233.941153
 20
25.046194
 30
0.0
 11
233.844859
 21
25.049063
 31
0.0
  0
LINE
  5
1BF
100
AcDbEntity
  8
0
370
         0
390
0
  6
CONTINUOUS
 62
         7
100
AcDbLine
 10
233.844859
 20
25.049063
 30
0.0
 11
233.750015
 21
25.049999
 31
0.0
  0
LINE
  5
1C0
100
AcDbEntity
  8
0
370
         0
390
0
  6
CONTINUOUS
 62
         7
100
AcDbLine
 10
239.054151
 20
23.163933
 30
0.0
 11
239.319047
 21
23.259047
 31
0.0
  0
LINE
  5
1C1
100
AcDbEntity
  8
0
370
         0
390
0
  6
CONTINUOUS
 62
         7
100
AcDbLine
 10
239.319047
 20
23.259047
 30
0.0
 11
239.569742
 21
23.385645
 31
0.0
  0
LINE
  5
1C2
100
AcDbEntity
  8
0
370
         0
390
0
  6
CONTINUOUS
 62
         7
100
AcDbLine
 10
239.569742
 20
23.385645
 30
0.0
 11
239.799775
 21
23.546674
 31
0.0
  0
LINE
  5
1C3
100
AcDbEntity
  8
0
370
         0
390
0
  6
CONTINUOUS
 62
         7
100
AcDbLine
 10
239.799775
 20
23.546674
 30
0.0
 11
239.998618
 21
23.744761
 31
0.0
  0
LINE
  5
1C4
100
AcDbEntity
  8
0
370
         0
390
0
  6
CONTINUOUS
 62
         7
100
AcDbLine
 10
239.998618
 20
23.744761
 30
0.0
 11
240.150868
 21
23.980261
 31
0.0
  0
LINE
  5
1C5
100
AcDbEntity
  8
0
370
         0
390
0
  6
CONTINUOUS
 62
         7
100
AcDbLine
 10
240.150868
 20
23.980261
 30
0.0
 11
240.237133
 21
24.247127
 31
0.0
  0
LINE
  5
1C6
100
AcDbEntity
  8
0
370
         0
390
0
  6
CONTINUOUS
 62
         7
100
AcDbLine
 10
240.237133
 20
24.247127
 30
0.0
 11
240.241218
 21
24.526382
 31
0.0
  0
LINE
  5
1C7
100
AcDbEntity
  8
0
370
         0
390
0
  6
CONTINUOUS
 62
         7
100
AcDbLine
 10
240.241218
 20
24.526382
 30
0.0
 11
240.162694
 21
24.794526
 31
0.0
  0
LINE
  5
1C8
100
AcDbEntity
  8
0
370
         0
390
0
  6
CONTINUOUS
 62
         7
100
AcDbLine
 10
240.162694
 20
24.794526
 30
0.0
 11
240.016236
 21
25.033363
 31
0.0
  0
LINE
  5
1C9
100
AcDbEntity
  8
0
370
         0
390
0
  6
CONTINUOUS
 62
         7
100
AcDbLine
 10
240.016236
 20
25.033363
 30
0.0
 11
239.821523
 21
25.235022
 31
0.0
  0
LINE
  5
1CA
100
AcDbEntity
  8
0
370
         0
390
0
  6
CONTINUOUS
 62
         7
100
AcDbLine
 10
239.821523
 20
25.235022
 30
0.0
 11
239.59467
 21
25.399339
 31
0.0
  0
LINE
  5
1CB
100
AcDbEntity
  8
0
370
         0
390
0
  6
CONTINUOUS
 62
         7
100
AcDbLine
 10
239.59467
 20
25.399339
 30
0.0
 11
239.345766
 21
25.529353
 31
0.0
  0
LINE
  5
1CC
100
AcDbEntity
  8
0
370
         0
390
0
  6
CONTINUOUS
 62
         7
100
AcDbLine
 10
239.345766
 20
25.529353
 30
0.0
 11
239.082616
 21
25.627454
 31
0.0
  0
LINE
  5
1CD
100
AcDbEntity
  8
0
370
         0
390
0
  6
CONTINUOUS
 62
         7
100
AcDbLine
 10
239.082616
 20
25.627454
 30
0.0
 11
238.810181
 21
25.695965
 31
0.0
  0
LINE
  5
1CE
100
AcDbEntity
  8
0
370
         0
390
0
  6
CONTINUOUS
 62
         7
100
AcDbLine
 10
238.810181
 20
25.695965
 30
0.0
 11
238.532136
 21
25.7365
 31
0.0
  0
LINE
  5
1CF
100
AcDbEntity
  8
0
370
         0
390
0
  6
CONTINUOUS
 62
         7
100
AcDbLine
 10
238.532136
 20
25.7365
 30
0.0
 11
238.25
 21
25.75
 31
0.0
  0
LINE
  5
1D0
100
AcDbEntity
  8
0
370
         0
390
0
  6
CONTINUOUS
 62
         7
100
AcDbLine
 10
238.25
 20
23.75
 30
0.0
 11
238.413069
 21
23.758701
 31
0.0
  0
LINE
  5
1D1
100
AcDbEntity
  8
0
370
         0
390
0
  6
CONTINUOUS
 62
         7
100
AcDbLine
 10
238.413069
 20
23.758701
 30
0.0
 11
238.574424
 21
23.785159
 31
0.0
  0
LINE
  5
1D2
100
AcDbEntity
  8
0
370
         0
390
0
  6
CONTINUOUS
 62
         7
100
AcDbLine
 10
238.574424
 20
23.785159
 30
0.0
 11
238.732009
 21
23.830495
 31
0.0
  0
LINE
  5
1D3
100
AcDbEntity
  8
0
370
         0
390
0
  6
CONTINUOUS
 62
         7
100
AcDbLine
 10
238.732009
 20
23.830495
 30
0.0
 11
238.882654
 21
23.896623
 31
0.0
  0
LINE
  5
1D4
100
AcDbEntity
  8
0
370
         0
390
0
  6
CONTINUOUS
 62
         7
100
AcDbLine
 10
238.882654
 20
23.896623
 30
0.0
 11
239.020143
 21
23.985392
 31
0.0
  0
LINE
  5
1D5
100
AcDbEntity
  8
0
370
         0
390
0
  6
CONTINUOUS
 62
         7
100
AcDbLine
 10
239.020143
 20
23.985392
 30
0.0
 11
239.136969
 21
24.099822
 31
0.0
  0
LINE
  5
1D6
100
AcDbEntity
  8
0
370
         0
390
0
  6
CONTINUOUS
 62
         7
100
AcDbLine
 10
239.136969
 20
24.099822
 30
0.0
 11
239.219732
 21
24.241302
 31
0.0
  0
LINE
  5
1D7
100
AcDbEntity
  8
0
370
         0
390
0
  6
CONTINUOUS
 62
         7
100
AcDbLine
 10
239.219732
 20
24.241302
 30
0.0
 11
239.25
 21
24.400013
 31
0.0
  0
LINE
  5
1D8
100
AcDbEntity
  8
0
370
         0
390
0
  6
CONTINUOUS
 62
         7
100
AcDbLine
 10
239.25
 20
24.400013
 30
0.0
 11
239.219498
 21
24.559327
 31
0.0
  0
LINE
  5
1D9
100
AcDbEntity
  8
0
370
         0
390
0
  6
CONTINUOUS
 62
         7
100
AcDbLine
 10
239.219498
 20
24.559327
 30
0.0
 11
239.13762
 21
24.699384
 31
0.0
  0
LINE
  5
1DA
100
AcDbEntity
  8
0
370
         0
390
0
  6
CONTINUOUS
 62
         7
100
AcDbLine
 10
239.13762
 20
24.699384
 30
0.0
 11
239.021152
 21
24.81383
 31
0.0
  0
LINE
  5
1DB
100
AcDbEntity
  8
0
370
         0
390
0
  6
CONTINUOUS
 62
         7
100
AcDbLine
 10
239.021152
 20
24.81383
 30
0.0
 11
238.884068
 21
24.902635
 31
0.0
  0
LINE
  5
1DC
100
AcDbEntity
  8
0
370
         0
390
0
  6
CONTINUOUS
 62
         7
100
AcDbLine
 10
238.884068
 20
24.902635
 30
0.0
 11
238.734303
 21
24.968688
 31
0.0
  0
LINE
  5
1DD
100
AcDbEntity
  8
0
370
         0
390
0
  6
CONTINUOUS
 62
         7
100
AcDbLine
 10
238.734303
 20
24.968688
 30
0.0
 11
238.577066
 21
25.014252
 31
0.0
  0
LINE
  5
1DE
100
AcDbEntity
  8
0
370
         0
390
0
  6
CONTINUOUS
 62
         7
100
AcDbLine
 10
238.577066
 20
25.014252
 30
0.0
 11
238.4155
 21
25.041036
 31
0.0
  0
LINE
  5
1DF
100
AcDbEntity
  8
0
370
         0
390
0
  6
CONTINUOUS
 62
         7
100
AcDbLine
 10
238.4155
 20
25.041036
 30
0.0
 11
238.251951
 21
25.049998
 31
0.0
  0
LINE
  5
1E0
100
AcDbEntity
  8
0
370
         0
390
0
  6
CONTINUOUS
 62
         7
100
AcDbLine
 10
235.249462
 20
25.350328
 30
0.0
 11
234.666883
 21
25.61064
 31
0.0
  0
LINE
  5
1E1
100
AcDbEntity
  8
0
370
         0
390
0
  6
CONTINUOUS
 62
         7
100
AcDbLine
 10
234.666883
 20
25.61064
 30
0.0
 11
234.040767
 21
25.736428
 31
0.0
  0
LINE
  5
1E2
100
AcDbEntity
  8
0
370
         0
390
0
  6
CONTINUOUS
 62
         7
100
AcDbLine
 10
234.040767
 20
25.736428
 30
0.0
 11
233.402567
 21
25.73059
 31
0.0
  0
LINE
  5
1E3
100
AcDbEntity
  8
0
370
         0
390
0
  6
CONTINUOUS
 62
         7
100
AcDbLine
 10
233.402567
 20
25.73059
 30
0.0
 11
232.78004
 21
25.593326
 31
0.0
  0
LINE
  5
1E4
100
AcDbEntity
  8
0
370
         0
390
0
  6
CONTINUOUS
 62
         7
100
AcDbLine
 10
232.78004
 20
25.593326
 30
0.0
 11
232.20228
 21
25.320632
 31
0.0
  0
LINE
  5
1E5
100
AcDbEntity
  8
0
370
         0
390
0
  6
CONTINUOUS
 62
         7
100
AcDbLine
 10
232.20228
 20
25.320632
 30
0.0
 11
231.714053
 21
24.910649
 31
0.0
  0
LINE
  5
1E6
100
AcDbEntity
  8
0
370
         0
390
0
  6
CONTINUOUS
 62
         7
100
AcDbLine
 10
231.714053
 20
24.910649
 30
0.0
 11
231.374153
 21
24.372395
 31
0.0
  0
LINE
  5
1E7
100
AcDbEntity
  8
0
370
         0
390
0
  6
CONTINUOUS
 62
         7
100
AcDbLine
 10
231.374153
 20
24.372395
 30
0.0
 11
231.250015
 21
23.75
 31
0.0
  0
LINE
  5
1E8
100
AcDbEntity
  8
0
370
         0
390
0
  6
CONTINUOUS
 62
         7
100
AcDbLine
 10
231.250015
 20
23.75
 30
0.0
 11
231.374395
 21
23.127013
 31
0.0
  0
LINE
  5
1E9
100
AcDbEntity
  8
0
370
         0
390
0
  6
CONTINUOUS
 62
         7
100
AcDbLine
 10
231.374395
 20
23.127013
 30
0.0
 11
231.714313
 21
22.589059
 31
0.0
  0
LINE
  5
1EA
100
AcDbEntity
  8
0
370
         0
390
0
  6
CONTINUOUS
 62
         7
100
AcDbLine
 10
231.714313
 20
22.589059
 30
0.0
 11
232.202607
 21
22.179161
 31
0.0
  0
LINE
  5
1EB
100
AcDbEntity
  8
0
370
         0
390
0
  6
CONTINUOUS
 62
         7
100
AcDbLine
 10
232.202607
 20
22.179161
 30
0.0
 11
232.779587
 21
21.906826
 31
0.0
  0
LINE
  5
1EC
100
AcDbEntity
  8
0
370
         0
390
0
  6
CONTINUOUS
 62
         7
100
AcDbLine
 10
232.779587
 20
21.906826
 30
0.0
 11
233.403235
 21
21.769335
 31
0.0
  0
LINE
  5
1ED
100
AcDbEntity
  8
0
370
         0
390
0
  6
CONTINUOUS
 62
         7
100
AcDbLine
 10
233.403235
 20
21.769335
 30
0.0
 11
234.04151
 21
21.763642
 31
0.0
  0
LINE
  5
1EE
100
AcDbEntity
  8
0
370
         0
390
0
  6
CONTINUOUS
 62
         7
100
AcDbLine
 10
234.04151
 20
21.763642
 30
0.0
 11
234.666444
 21
21.889221
 31
0.0
  0
LINE
  5
1EF
100
AcDbEntity
  8
0
370
         0
390
0
  6
CONTINUOUS
 62
         7
100
AcDbLine
 10
234.666444
 20
21.889221
 30
0.0
 11
235.249623
 21
22.149769
 31
0.0
  0
LINE
  5
1F0
100
AcDbEntity
  8
0
370
         0
390
0
  6
CONTINUOUS
 62
         7
100
AcDbLine
 10
233.750015
 20
25.049999
 30
0.0
 11
233.444931
 21
25.022826
 31
0.0
  0
LINE
  5
1F1
100
AcDbEntity
  8
0
370
         0
390
0
  6
CONTINUOUS
 62
         7
100
AcDbLine
 10
233.444931
 20
25.022826
 30
0.0
 11
233.149684
 21
24.941343
 31
0.0
  0
LINE
  5
1F2
100
AcDbEntity
  8
0
370
         0
390
0
  6
CONTINUOUS
 62
         7
100
AcDbLine
 10
233.149684
 20
24.941343
 30
0.0
 11
232.874813
 21
24.805776
 31
0.0
  0
LINE
  5
1F3
100
AcDbEntity
  8
0
370
         0
390
0
  6
CONTINUOUS
 62
         7
100
AcDbLine
 10
232.874813
 20
24.805776
 30
0.0
 11
232.632701
 21
24.617363
 31
0.0
  0
LINE
  5
1F4
100
AcDbEntity
  8
0
370
         0
390
0
  6
CONTINUOUS
 62
         7
100
AcDbLine
 10
232.632701
 20
24.617363
 30
0.0
 11
232.438007
 21
24.380129
 31
0.0
  0
LINE
  5
1F5
100
AcDbEntity
  8
0
370
         0
390
0
  6
CONTINUOUS
 62
         7
100
AcDbLine
 10
232.438007
 20
24.380129
 30
0.0
 11
232.306417
 21
24.103131
 31
0.0
  0
LINE
  5
1F6
100
AcDbEntity
  8
0
370
         0
390
0
  6
CONTINUOUS
 62
         7
100
AcDbLine
 10
232.306417
 20
24.103131
 30
0.0
 11
232.251216
 21
23.802016
 31
0.0
  0
LINE
  5
1F7
100
AcDbEntity
  8
0
370
         0
390
0
  6
CONTINUOUS
 62
         7
100
AcDbLine
 10
232.251216
 20
23.802016
 30
0.0
 11
232.278534
 21
23.497707
 31
0.0
  0
LINE
  5
1F8
100
AcDbEntity
  8
0
370
         0
390
0
  6
CONTINUOUS
 62
         7
100
AcDbLine
 10
232.278534
 20
23.497707
 30
0.0
 11
232.385091
 21
23.210867
 31
0.0
  0
LINE
  5
1F9
100
AcDbEntity
  8
0
370
         0
390
0
  6
CONTINUOUS
 62
         7
100
AcDbLine
 10
232.385091
 20
23.210867
 30
0.0
 11
232.559405
 21
22.959268
 31
0.0
  0
LINE
  5
1FA
100
AcDbEntity
  8
0
370
         0
390
0
  6
CONTINUOUS
 62
         7
100
AcDbLine
 10
232.559405
 20
22.959268
 30
0.0
 11
232.786477
 21
22.753676
 31
0.0
  0
LINE
  5
1FB
100
AcDbEntity
  8
0
370
         0
390
0
  6
CONTINUOUS
 62
         7
100
AcDbLine
 10
232.786477
 20
22.753676
 30
0.0
 11
233.051376
 21
22.599616
 31
0.0
  0
LINE
  5
1FC
100
AcDbEntity
  8
0
370
         0
390
0
  6
CONTINUOUS
 62
         7
100
AcDbLine
 10
233.051376
 20
22.599616
 30
0.0
 11
233.341123
 21
22.499233
 31
0.0
  0
LINE
  5
1FD
100
AcDbEntity
  8
0
370
         0
390
0
  6
CONTINUOUS
 62
         7
100
AcDbLine
 10
233.341123
 20
22.499233
 30
0.0
 11
233.6443
 21
22.453233
 31
0.0
  0
LINE
  5
1FE
100
AcDbEntity
  8
0
370
         0
390
0
  6
CONTINUOUS
 62
         7
100
AcDbLine
 10
233.6443
 20
22.453233
 30
0.0
 11
233.950758
 21
22.461695
 31
0.0
  0
LINE
  5
1FF
100
AcDbEntity
  8
0
370
         0
390
0
  6
CONTINUOUS
 62
         7
100
AcDbLine
 10
233.950758
 20
22.461695
 30
0.0
 11
234.250552
 21
22.524514
 31
0.0
  0
LINE
  5
200
100
AcDbEntity
  8
0
370
         0
390
0
  6
CONTINUOUS
 62
         7
100
AcDbLine
 10
243.75
 20
21.75
 30
0.0
 11
244.62414
 21
21.876244
 31
0.0
  0
LINE
  5
201
100
AcDbEntity
  8
0
370
         0
390
0
  6
CONTINUOUS
 62
         7
100
AcDbLine
 10
244.62414
 20
21.876244
 30
0.0
 11
245.418362
 21
22.260503
 31
0.0
  0
LINE
  5
202
100
AcDbEntity
  8
0
370
         0
390
0
  6
CONTINUOUS
 62
         7
100
AcDbLine
 10
245.418362
 20
22.260503
 30
0.0
 11
246.016497
 21
22.906015
 31
0.0
  0
LINE
  5
203
100
AcDbEntity
  8
0
370
         0
390
0
  6
CONTINUOUS
 62
         7
100
AcDbLine
 10
246.016497
 20
22.906015
 30
0.0
 11
246.25
 21
23.75
 31
0.0
  0
LINE
  5
204
100
AcDbEntity
  8
0
370
         0
390
0
  6
CONTINUOUS
 62
         7
100
AcDbLine
 10
246.25
 20
23.75
 30
0.0
 11
246.016399
 21
24.594155
 31
0.0
  0
LINE
  5
205
100
AcDbEntity
  8
0
370
         0
390
0
  6
CONTINUOUS
 62
         7
100
AcDbLine
 10
246.016399
 20
24.594155
 30
0.0
 11
245.418488
 21
25.239406
 31
0.0
  0
LINE
  5
206
100
AcDbEntity
  8
0
370
         0
390
0
  6
CONTINUOUS
 62
         7
100
AcDbLine
 10
245.418488
 20
25.239406
 30
0.0
 11
244.62433
 21
25.623699
 31
0.0
  0
LINE
  5
207
100
AcDbEntity
  8
0
370
         0
390
0
  6
CONTINUOUS
 62
         7
100
AcDbLine
 10
244.62433
 20
25.623699
 30
0.0
 11
243.75
 21
25.75
 31
0.0
  0
LINE
  5
208
100
AcDbEntity
  8
0
370
         0
390
0
  6
CONTINUOUS
 62
         7
100
AcDbLine
 10
243.75
 20
25.75
 30
0.0
 11
242.87586
 21
25.623756
 31
0.0
  0
LINE
  5
209
100
AcDbEntity
  8
0
370
         0
390
0
  6
CONTINUOUS
 62
         7
100
AcDbLine
 10
242.87586
 20
25.623756
 30
0.0
 11
242.081638
 21
25.239497
 31
0.0
  0
LINE
  5
20A
100
AcDbEntity
  8
0
370
         0
390
0
  6
CONTINUOUS
 62
         7
100
AcDbLine
 10
242.081638
 20
25.239497
 30
0.0
 11
241.483503
 21
24.593985
 31
0.0
  0
LINE
  5
20B
100
AcDbEntity
  8
0
370
         0
390
0
  6
CONTINUOUS
 62
         7
100
AcDbLine
 10
241.483503
 20
24.593985
 30
0.0
 11
241.25
 21
23.75
 31
0.0
  0
LINE
  5
20C
100
AcDbEntity
  8
0
370
         0
390
0
  6
CONTINUOUS
 62
         7
100
AcDbLine
 10
241.25
 20
23.75
 30
0.0
 11
241.483601
 21
22.905845
 31
0.0
  0
LINE
  5
20D
100
AcDbEntity
  8
0
370
         0
390
0
  6
CONTINUOUS
 62
         7
100
AcDbLine
 10
241.483601
 20
22.905845
 30
0.0
 11
242.081512
 21
22.260594
 31
0.0
  0
LINE
  5
20E
100
AcDbEntity
  8
0
370
         0
390
0
  6
CONTINUOUS
 62
         7
100
AcDbLine
 10
242.081512
 20
22.260594
 30
0.0
 11
242.87567
 21
21.876301
 31
0.0
  0
LINE
  5
20F
100
AcDbEntity
  8
0
370
         0
390
0
  6
CONTINUOUS
 62
         7
100
AcDbLine
 10
242.87567
 20
21.876301
 30
0.0
 11
243.75
 21
21.75
 31
0.0
  0
LINE
  5
210
100
AcDbEntity
  8
0
370
         0
390
0
  6
CONTINUOUS
 62
         7
100
AcDbLine
 10
243.75
 20
22.450001
 30
0.0
 11
244.290603
 21
22.537365
 31
0.0
  0
LINE
  5
211
100
AcDbEntity
  8
0
370
         0
390
0
  6
CONTINUOUS
 62
         7
100
AcDbLine
 10
244.290603
 20
22.537365
 30
0.0
 11
244.772287
 21
22.798668
 31
0.0
  0
LINE
  5
212
100
AcDbEntity
  8
0
370
         0
390
0
  6
CONTINUOUS
 62
         7
100
AcDbLine
 10
244.772287
 20
22.798668
 30
0.0
 11
245.11992
 21
23.220468
 31
0.0
  0
LINE
  5
213
100
AcDbEntity
  8
0
370
         0
390
0
  6
CONTINUOUS
 62
         7
100
AcDbLine
 10
245.11992
 20
23.220468
 30
0.0
 11
245.25
 21
23.75
 31
0.0
  0
LINE
  5
214
100
AcDbEntity
  8
0
370
         0
390
0
  6
CONTINUOUS
 62
         7
100
AcDbLine
 10
245.25
 20
23.75
 30
0.0
 11
245.120024
 21
24.279329
 31
0.0
  0
LINE
  5
215
100
AcDbEntity
  8
0
370
         0
390
0
  6
CONTINUOUS
 62
         7
100
AcDbLine
 10
245.120024
 20
24.279329
 30
0.0
 11
244.77243
 21
24.701217
 31
0.0
  0
LINE
  5
216
100
AcDbEntity
  8
0
370
         0
390
0
  6
CONTINUOUS
 62
         7
100
AcDbLine
 10
244.77243
 20
24.701217
 30
0.0
 11
244.291073
 21
24.962478
 31
0.0
  0
LINE
  5
217
100
AcDbEntity
  8
0
370
         0
390
0
  6
CONTINUOUS
 62
         7
100
AcDbLine
 10
244.291073
 20
24.962478
 30
0.0
 11
243.75
 21
25.049999
 31
0.0
  0
LINE
  5
218
100
AcDbEntity
  8
0
370
         0
390
0
  6
CONTINUOUS
 62
         7
100
AcDbLine
 10
243.75
 20
25.049999
 30
0.0
 11
243.209397
 21
24.962635
 31
0.0
  0
LINE
  5
219
100
AcDbEntity
  8
0
370
         0
390
0
  6
CONTINUOUS
 62
         7
100
AcDbLine
 10
243.209397
 20
24.962635
 30
0.0
 11
242.727713
 21
24.701332
 31
0.0
  0
LINE
  5
21A
100
AcDbEntity
  8
0
370
         0
390
0
  6
CONTINUOUS
 62
         7
100
AcDbLine
 10
242.727713
 20
24.701332
 30
0.0
 11
242.38008
 21
24.279532
 31
0.0
  0
LINE
  5
21B
100
AcDbEntity
  8
0
370
         0
390
0
  6
CONTINUOUS
 62
         7
100
AcDbLine
 10
242.38008
 20
24.279532
 30
0.0
 11
242.25
 21
23.75
 31
0.0
  0
LINE
  5
21C
100
AcDbEntity
  8
0
370
         0
390
0
  6
CONTINUOUS
 62
         7
100
AcDbLine
 10
242.25
 20
23.75
 30
0.0
 11
242.379976
 21
23.220671
 31
0.0
  0
LINE
  5
21D
100
AcDbEntity
  8
0
370
         0
390
0
  6
CONTINUOUS
 62
         7
100
AcDbLine
 10
242.379976
 20
23.220671
 30
0.0
 11
242.72757
 21
22.798783
 31
0.0
  0
LINE
  5
21E
100
AcDbEntity
  8
0
370
         0
390
0
  6
CONTINUOUS
 62
         7
100
AcDbLine
 10
242.72757
 20
22.798783
 30
0.0
 11
243.208927
 21
22.537522
 31
0.0
  0
LINE
  5
21F
100
AcDbEntity
  8
0
370
         0
390
0
  6
CONTINUOUS
 62
         7
100
AcDbLine
 10
243.208927
 20
22.537522
 30
0.0
 11
243.75
 21
22.450001
 31
0.0
  0
LINE
  5
220
100
AcDbEntity
  8
0
370
         0
390
0
  6
CONTINUOUS
 62
         7
100
AcDbLine
 10
72.999973
 20
96.958319
 30
0.0
 11
73.213283
 21
97.12528
 31
0.0
  0
LINE
  5
221
100
AcDbEntity
  8
0
370
         0
390
0
  6
CONTINUOUS
 62
         7
100
AcDbLine
 10
73.213283
 20
97.12528
 30
0.0
 11
73.411497
 21
97.309912
 31
0.0
  0
LINE
  5
222
100
AcDbEntity
  8
0
370
         0
390
0
  6
CONTINUOUS
 62
         7
100
AcDbLine
 10
73.411497
 20
97.309912
 30
0.0
 11
73.591127
 21
97.512569
 31
0.0
  0
LINE
  5
223
100
AcDbEntity
  8
0
370
         0
390
0
  6
CONTINUOUS
 62
         7
100
AcDbLine
 10
73.591127
 20
97.512569
 30
0.0
 11
73.748026
 21
97.733098
 31
0.0
  0
LINE
  5
224
100
AcDbEntity
  8
0
370
         0
390
0
  6
CONTINUOUS
 62
         7
100
AcDbLine
 10
73.748026
 20
97.733098
 30
0.0
 11
73.877487
 21
97.970514
 31
0.0
  0
LINE
  5
225
100
AcDbEntity
  8
0
370
         0
390
0
  6
CONTINUOUS
 62
         7
100
AcDbLine
 10
73.877487
 20
97.970514
 30
0.0
 11
73.974567
 21
98.222623
 31
0.0
  0
LINE
  5
226
100
AcDbEntity
  8
0
370
         0
390
0
  6
CONTINUOUS
 62
         7
100
AcDbLine
 10
73.974567
 20
98.222623
 30
0.0
 11
74.034717
 21
98.485743
 31
0.0
  0
LINE
  5
227
100
AcDbEntity
  8
0
370
         0
390
0
  6
CONTINUOUS
 62
         7
100
AcDbLine
 10
74.034717
 20
98.485743
 30
0.0
 11
74.054675
 21
98.754336
 31
0.0
  0
LINE
  5
228
100
AcDbEntity
  8
0
370
         0
390
0
  6
CONTINUOUS
 62
         7
100
AcDbLine
 10
74.054675
 20
98.754336
 30
0.0
 11
74.0334
 21
99.022814
 31
0.0
  0
LINE
  5
229
100
AcDbEntity
  8
0
370
         0
390
0
  6
CONTINUOUS
 62
         7
100
AcDbLine
 10
74.0334
 20
99.022814
 30
0.0
 11
73.972134
 21
99.285242
 31
0.0
  0
LINE
  5
22A
100
AcDbEntity
  8
0
370
         0
390
0
  6
CONTINUOUS
 62
         7
100
AcDbLine
 10
73.972134
 20
99.285242
 30
0.0
 11
73.874445
 21
99.535997
 31
0.0
  0
LINE
  5
22B
100
AcDbEntity
  8
0
370
         0
390
0
  6
CONTINUOUS
 62
         7
100
AcDbLine
 10
73.874445
 20
99.535997
 30
0.0
 11
73.744715
 21
99.772157
 31
0.0
  0
LINE
  5
22C
100
AcDbEntity
  8
0
370
         0
390
0
  6
CONTINUOUS
 62
         7
100
AcDbLine
 10
73.744715
 20
99.772157
 30
0.0
 11
73.587857
 21
99.991517
 31
0.0
  0
LINE
  5
22D
100
AcDbEntity
  8
0
370
         0
390
0
  6
CONTINUOUS
 62
         7
100
AcDbLine
 10
73.587857
 20
99.991517
 30
0.0
 11
73.408899
 21
100.192739
 31
0.0
  0
LINE
  5
22E
100
AcDbEntity
  8
0
370
         0
390
0
  6
CONTINUOUS
 62
         7
100
AcDbLine
 10
73.408899
 20
100.192739
 30
0.0
 11
73.211408
 21
100.376316
 31
0.0
  0
LINE
  5
22F
100
AcDbEntity
  8
0
370
         0
390
0
  6
CONTINUOUS
 62
         7
100
AcDbLine
 10
73.211408
 20
100.376316
 30
0.0
 11
72.998837
 21
100.542498
 31
0.0
  0
LINE
  5
230
100
AcDbEntity
  8
0
370
         0
390
0
  6
CONTINUOUS
 62
         7
100
AcDbLine
 10
57.000027
 20
96.958319
 30
0.0
 11
56.786717
 21
97.12528
 31
0.0
  0
LINE
  5
231
100
AcDbEntity
  8
0
370
         0
390
0
  6
CONTINUOUS
 62
         7
100
AcDbLine
 10
56.786717
 20
97.12528
 30
0.0
 11
56.588503
 21
97.309912
 31
0.0
  0
LINE
  5
232
100
AcDbEntity
  8
0
370
         0
390
0
  6
CONTINUOUS
 62
         7
100
AcDbLine
 10
56.588503
 20
97.309912
 30
0.0
 11
56.408873
 21
97.512569
 31
0.0
  0
LINE
  5
233
100
AcDbEntity
  8
0
370
         0
390
0
  6
CONTINUOUS
 62
         7
100
AcDbLine
 10
56.408873
 20
97.512569
 30
0.0
 11
56.251974
 21
97.733098
 31
0.0
  0
LINE
  5
234
100
AcDbEntity
  8
0
370
         0
390
0
  6
CONTINUOUS
 62
         7
100
AcDbLine
 10
56.251974
 20
97.733098
 30
0.0
 11
56.122513
 21
97.970514
 31
0.0
  0
LINE
  5
235
100
AcDbEntity
  8
0
370
         0
390
0
  6
CONTINUOUS
 62
         7
100
AcDbLine
 10
56.122513
 20
97.970514
 30
0.0
 11
56.025433
 21
98.222623
 31
0.0
  0
LINE
  5
236
100
AcDbEntity
  8
0
370
         0
390
0
  6
CONTINUOUS
 62
         7
100
AcDbLine
 10
56.025433
 20
98.222623
 30
0.0
 11
55.965283
 21
98.485743
 31
0.0
  0
LINE
  5
237
100
AcDbEntity
  8
0
370
         0
390
0
  6
CONTINUOUS
 62
         7
100
AcDbLine
 10
55.965283
 20
98.485743
 30
0.0
 11
55.945325
 21
98.754336
 31
0.0
  0
LINE
  5
238
100
AcDbEntity
  8
0
370
         0
390
0
  6
CONTINUOUS
 62
         7
100
AcDbLine
 10
55.945325
 20
98.754336
 30
0.0
 11
55.9666
 21
99.022814
 31
0.0
  0
LINE
  5
239
100
AcDbEntity
  8
0
370
         0
390
0
  6
CONTINUOUS
 62
         7
100
AcDbLine
 10
55.9666
 20
99.022814
 30
0.0
 11
56.027866
 21
99.285242
 31
0.0
  0
LINE
  5
23A
100
AcDbEntity
  8
0
370
         0
390
0
  6
CONTINUOUS
 62
         7
100
AcDbLine
 10
56.027866
 20
99.285242
 30
0.0
 11
56.125555
 21
99.535997
 31
0.0
  0
LINE
  5
23B
100
AcDbEntity
  8
0
370
         0
390
0
  6
CONTINUOUS
 62
         7
100
AcDbLine
 10
56.125555
 20
99.535997
 30
0.0
 11
56.255285
 21
99.772157
 31
0.0
  0
LINE
  5
23C
100
AcDbEntity
  8
0
370
         0
390
0
  6
CONTINUOUS
 62
         7
100
AcDbLine
 10
56.255285
 20
99.772157
 30
0.0
 11
56.412143
 21
99.991517
 31
0.0
  0
LINE
  5
23D
100
AcDbEntity
  8
0
370
         0
390
0
  6
CONTINUOUS
 62
         7
100
AcDbLine
 10
56.412143
 20
99.991517
 30
0.0
 11
56.591101
 21
100.192739
 31
0.0
  0
LINE
  5
23E
100
AcDbEntity
  8
0
370
         0
390
0
  6
CONTINUOUS
 62
         7
100
AcDbLine
 10
56.591101
 20
100.192739
 30
0.0
 11
56.788592
 21
100.376316
 31
0.0
  0
LINE
  5
23F
100
AcDbEntity
  8
0
370
         0
390
0
  6
CONTINUOUS
 62
         7
100
AcDbLine
 10
56.788592
 20
100.376316
 30
0.0
 11
57.001163
 21
100.542498
 31
0.0
  0
LINE
  5
240
100
AcDbEntity
  8
0
370
         0
390
0
  6
CONTINUOUS
 62
         7
100
AcDbLine
 10
53.926607
 20
137.0
 30
0.0
 11
54.082192
 21
136.04442
 31
0.0
  0
LINE
  5
241
100
AcDbEntity
  8
0
370
         0
390
0
  6
CONTINUOUS
 62
         7
100
AcDbLine
 10
54.082192
 20
136.04442
 30
0.0
 11
54.546786
 21
135.194397
 31
0.0
  0
LINE
  5
242
100
AcDbEntity
  8
0
370
         0
390
0
  6
CONTINUOUS
 62
         7
100
AcDbLine
 10
54.546786
 20
135.194397
 30
0.0
 11
55.294792
 21
134.582587
 31
0.0
  0
LINE
  5
243
100
AcDbEntity
  8
0
370
         0
390
0
  6
CONTINUOUS
 62
         7
100
AcDbLine
 10
55.294792
 20
134.582587
 30
0.0
 11
56.231493
 21
134.354249
 31
0.0
  0
LINE
  5
244
100
AcDbEntity
  8
0
370
         0
390
0
  6
CONTINUOUS
 62
         7
100
AcDbLine
 10
56.231493
 20
134.354249
 30
0.0
 11
57.167869
 21
134.582421
 31
0.0
  0
LINE
  5
245
100
AcDbEntity
  8
0
370
         0
390
0
  6
CONTINUOUS
 62
         7
100
AcDbLine
 10
57.167869
 20
134.582421
 30
0.0
 11
57.916023
 21
135.194179
 31
0.0
  0
LINE
  5
246
100
AcDbEntity
  8
0
370
         0
390
0
  6
CONTINUOUS
 62
         7
100
AcDbLine
 10
57.916023
 20
135.194179
 30
0.0
 11
58.380555
 21
136.043712
 31
0.0
  0
LINE
  5
247
100
AcDbEntity
  8
0
370
         0
390
0
  6
CONTINUOUS
 62
         7
100
AcDbLine
 10
58.380555
 20
136.043712
 30
0.0
 11
58.536379
 21
137.0
 31
0.0
  0
LINE
  5
248
100
AcDbEntity
  8
0
370
         0
390
0
  6
CONTINUOUS
 62
         7
100
AcDbLine
 10
58.536379
 20
137.0
 30
0.0
 11
58.380794
 21
137.95558
 31
0.0
  0
LINE
  5
249
100
AcDbEntity
  8
0
370
         0
390
0
  6
CONTINUOUS
 62
         7
100
AcDbLine
 10
58.380794
 20
137.95558
 30
0.0
 11
57.9162
 21
138.805603
 31
0.0
  0
LINE
  5
24A
100
AcDbEntity
  8
0
370
         0
390
0
  6
CONTINUOUS
 62
         7
100
AcDbLine
 10
57.9162
 20
138.805603
 30
0.0
 11
57.168194
 21
139.417413
 31
0.0
  0
LINE
  5
24B
100
AcDbEntity
  8
0
370
         0
390
0
  6
CONTINUOUS
 62
         7
100
AcDbLine
 10
57.168194
 20
139.417413
 30
0.0
 11
56.231493
 21
139.645751
 31
0.0
  0
LINE
  5
24C
100
AcDbEntity
  8
0
370
         0
390
0
  6
CONTINUOUS
 62
         7
100
AcDbLine
 10
56.231493
 20
139.645751
 30
0.0
 11
55.295117
 21
139.417579
 31
0.0
  0
LINE
  5
24D
100
AcDbEntity
  8
0
370
         0
390
0
  6
CONTINUOUS
 62
         7
100
AcDbLine
 10
55.295117
 20
139.417579
 30
0.0
 11
54.546963
 21
138.805821
 31
0.0
  0
LINE
  5
24E
100
AcDbEntity
  8
0
370
         0
390
0
  6
CONTINUOUS
 62
         7
100
AcDbLine
 10
54.546963
 20
138.805821
 30
0.0
 11
54.082431
 21
137.956288
 31
0.0
  0
LINE
  5
24F
100
AcDbEntity
  8
0
370
         0
390
0
  6
CONTINUOUS
 62
         7
100
AcDbLine
 10
54.082431
 20
137.956288
 30
0.0
 11
53.926607
 21
137.0
 31
0.0
  0
LINE
  5
250
100
AcDbEntity
  8
0
370
         0
390
0
  6
CONTINUOUS
 62
         7
100
AcDbLine
 10
69.609772
 20
137.0
 30
0.0
 11
69.026691
 21
138.287959
 31
0.0
  0
LINE
  5
251
100
AcDbEntity
  8
0
370
         0
390
0
  6
CONTINUOUS
 62
         7
100
AcDbLine
 10
69.026691
 20
138.287959
 30
0.0
 11
67.827905
 21
139.089421
 31
0.0
  0
LINE
  5
252
100
AcDbEntity
  8
0
370
         0
390
0
  6
CONTINUOUS
 62
         7
100
AcDbLine
 10
67.827905
 20
139.089421
 30
0.0
 11
66.443638
 21
139.512663
 31
0.0
  0
LINE
  5
253
100
AcDbEntity
  8
0
370
         0
390
0
  6
CONTINUOUS
 62
         7
100
AcDbLine
 10
66.443638
 20
139.512663
 30
0.0
 11
65.0
 21
139.645751
 31
0.0
  0
LINE
  5
254
100
AcDbEntity
  8
0
370
         0
390
0
  6
CONTINUOUS
 62
         7
100
AcDbLine
 10
65.0
 20
139.645751
 30
0.0
 11
63.557367
 21
139.512853
 31
0.0
  0
LINE
  5
255
100
AcDbEntity
  8
0
370
         0
390
0
  6
CONTINUOUS
 62
         7
100
AcDbLine
 10
63.557367
 20
139.512853
 30
0.0
 11
62.172365
 21
139.089541
 31
0.0
  0
LINE
  5
256
100
AcDbEntity
  8
0
370
         0
390
0
  6
CONTINUOUS
 62
         7
100
AcDbLine
 10
62.172365
 20
139.089541
 30
0.0
 11
60.97307
 21
138.287712
 31
0.0
  0
LINE
  5
257
100
AcDbEntity
  8
0
370
         0
390
0
  6
CONTINUOUS
 62
         7
100
AcDbLine
 10
60.97307
 20
138.287712
 30
0.0
 11
60.390228
 21
137.0
 31
0.0
  0
LINE
  5
258
100
AcDbEntity
  8
0
370
         0
390
0
  6
CONTINUOUS
 62
         7
100
AcDbLine
 10
60.390228
 20
137.0
 30
0.0
 11
60.973309
 21
135.712041
 31
0.0
  0
LINE
  5
259
100
AcDbEntity
  8
0
370
         0
390
0
  6
CONTINUOUS
 62
         7
100
AcDbLine
 10
60.973309
 20
135.712041
 30
0.0
 11
62.172095
 21
134.910579
 31
0.0
  0
LINE
  5
25A
100
AcDbEntity
  8
0
370
         0
390
0
  6
CONTINUOUS
 62
         7
100
AcDbLine
 10
62.172095
 20
134.910579
 30
0.0
 11
63.556362
 21
134.487337
 31
0.0
  0
LINE
  5
25B
100
AcDbEntity
  8
0
370
         0
390
0
  6
CONTINUOUS
 62
         7
100
AcDbLine
 10
63.556362
 20
134.487337
 30
0.0
 11
65.0
 21
134.354249
 31
0.0
  0
LINE
  5
25C
100
AcDbEntity
  8
0
370
         0
390
0
  6
CONTINUOUS
 62
         7
100
AcDbLine
 10
65.0
 20
134.354249
 30
0.0
 11
66.442633
 21
134.487147
 31
0.0
  0
LINE
  5
25D
100
AcDbEntity
  8
0
370
         0
390
0
  6
CONTINUOUS
 62
         7
100
AcDbLine
 10
66.442633
 20
134.487147
 30
0.0
 11
67.827635
 21
134.910459
 31
0.0
  0
LINE
  5
25E
100
AcDbEntity
  8
0
370
         0
390
0
  6
CONTINUOUS
 62
         7
100
AcDbLine
 10
67.827635
 20
134.910459
 30
0.0
 11
69.02693
 21
135.712288
 31
0.0
  0
LINE
  5
25F
100
AcDbEntity
  8
0
370
         0
390
0
  6
CONTINUOUS
 62
         7
100
AcDbLine
 10
69.02693
 20
135.712288
 30
0.0
 11
69.609772
 21
137.0
 31
0.0
  0
LINE
  5
260
100
AcDbEntity
  8
0
370
         0
390
0
  6
CONTINUOUS
 62
         7
100
AcDbLine
 10
76.073393
 20
137.0
 30
0.0
 11
75.917808
 21
136.04442
 31
0.0
  0
LINE
  5
261
100
AcDbEntity
  8
0
370
         0
390
0
  6
CONTINUOUS
 62
         7
100
AcDbLine
 10
75.917808
 20
136.04442
 30
0.0
 11
75.453214
 21
135.194397
 31
0.0
  0
LINE
  5
262
100
AcDbEntity
  8
0
370
         0
390
0
  6
CONTINUOUS
 62
         7
100
AcDbLine
 10
75.453214
 20
135.194397
 30
0.0
 11
74.705208
 21
134.582587
 31
0.0
  0
LINE
  5
263
100
AcDbEntity
  8
0
370
         0
390
0
  6
CONTINUOUS
 62
         7
100
AcDbLine
 10
74.705208
 20
134.582587
 30
0.0
 11
73.768507
 21
134.354249
 31
0.0
  0
LINE
  5
264
100
AcDbEntity
  8
0
370
         0
390
0
  6
CONTINUOUS
 62
         7
100
AcDbLine
 10
73.768507
 20
134.354249
 30
0.0
 11
72.832131
 21
134.582421
 31
0.0
  0
LINE
  5
265
100
AcDbEntity
  8
0
370
         0
390
0
  6
CONTINUOUS
 62
         7
100
AcDbLine
 10
72.832131
 20
134.582421
 30
0.0
 11
72.083977
 21
135.194179
 31
0.0
  0
LINE
  5
266
100
AcDbEntity
  8
0
370
         0
390
0
  6
CONTINUOUS
 62
         7
100
AcDbLine
 10
72.083977
 20
135.194179
 30
0.0
 11
71.619445
 21
136.043712
 31
0.0
  0
LINE
  5
267
100
AcDbEntity
  8
0
370
         0
390
0
  6
CONTINUOUS
 62
         7
100
AcDbLine
 10
71.619445
 20
136.043712
 30
0.0
 11
71.463621
 21
137.0
 31
0.0
  0
LINE
  5
268
100
AcDbEntity
  8
0
370
         0
390
0
  6
CONTINUOUS
 62
         7
100
AcDbLine
 10
71.463621
 20
137.0
 30
0.0
 11
71.619206
 21
137.95558
 31
0.0
  0
LINE
  5
269
100
AcDbEntity
  8
0
370
         0
390
0
  6
CONTINUOUS
 62
         7
100
AcDbLine
 10
71.619206
 20
137.95558
 30
0.0
 11
72.0838
 21
138.805603
 31
0.0
  0
LINE
  5
26A
100
AcDbEntity
  8
0
370
         0
390
0
  6
CONTINUOUS
 62
         7
100
AcDbLine
 10
72.0838
 20
138.805603
 30
0.0
 11
72.831806
 21
139.417413
 31
0.0
  0
LINE
  5
26B
100
AcDbEntity
  8
0
370
         0
390
0
  6
CONTINUOUS
 62
         7
100
AcDbLine
 10
72.831806
 20
139.417413
 30
0.0
 11
73.768507
 21
139.645751
 31
0.0
  0
LINE
  5
26C
100
AcDbEntity
  8
0
370
         0
390
0
  6
CONTINUOUS
 62
         7
100
AcDbLine
 10
73.768507
 20
139.645751
 30
0.0
 11
74.704883
 21
139.417579
 31
0.0
  0
LINE
  5
26D
100
AcDbEntity
  8
0
370
         0
390
0
  6
CONTINUOUS
 62
         7
100
AcDbLine
 10
74.704883
 20
139.417579
 30
0.0
 11
75.453037
 21
138.805821
 31
0.0
  0
LINE
  5
26E
100
AcDbEntity
  8
0
370
         0
390
0
  6
CONTINUOUS
 62
         7
100
AcDbLine
 10
75.453037
 20
138.805821
 30
0.0
 11
75.917569
 21
137.956288
 31
0.0
  0
LINE
  5
26F
100
AcDbEntity
  8
0
370
         0
390
0
  6
CONTINUOUS
 62
         7
100
AcDbLine
 10
75.917569
 20
137.956288
 30
0.0
 11
76.073393
 21
137.0
 31
0.0
  0
LINE
  5
270
100
AcDbEntity
  8
0
370
         0
390
0
  6
CONTINUOUS
 62
         7
100
AcDbLine
 10
192.05468
 20
137.0
 30
0.0
 11
191.610067
 21
138.213412
 31
0.0
  0
LINE
  5
271
100
AcDbEntity
  8
0
370
         0
390
0
  6
CONTINUOUS
 62
         7
100
AcDbLine
 10
191.610067
 20
138.213412
 30
0.0
 11
190.599265
 21
139.042932
 31
0.0
  0
LINE
  5
272
100
AcDbEntity
  8
0
370
         0
390
0
  6
CONTINUOUS
 62
         7
100
AcDbLine
 10
190.599265
 20
139.042932
 30
0.0
 11
189.368856
 21
139.50009
 31
0.0
  0
LINE
  5
273
100
AcDbEntity
  8
0
370
         0
390
0
  6
CONTINUOUS
 62
         7
100
AcDbLine
 10
189.368856
 20
139.50009
 30
0.0
 11
188.0625
 21
139.645751
 31
0.0
  0
LINE
  5
274
100
AcDbEntity
  8
0
370
         0
390
0
  6
CONTINUOUS
 62
         7
100
AcDbLine
 10
188.0625
 20
139.645751
 30
0.0
 11
186.756566
 21
139.500187
 31
0.0
  0
LINE
  5
275
100
AcDbEntity
  8
0
370
         0
390
0
  6
CONTINUOUS
 62
         7
100
AcDbLine
 10
186.756566
 20
139.500187
 30
0.0
 11
185.525732
 21
139.04293
 31
0.0
  0
LINE
  5
276
100
AcDbEntity
  8
0
370
         0
390
0
  6
CONTINUOUS
 62
         7
100
AcDbLine
 10
185.525732
 20
139.04293
 30
0.0
 11
184.514787
 21
138.213225
 31
0.0
  0
LINE
  5
277
100
AcDbEntity
  8
0
370
         0
390
0
  6
CONTINUOUS
 62
         7
100
AcDbLine
 10
184.514787
 20
138.213225
 30
0.0
 11
184.07032
 21
137.0
 31
0.0
  0
LINE
  5
278
100
AcDbEntity
  8
0
370
         0
390
0
  6
CONTINUOUS
 62
         7
100
AcDbLine
 10
184.07032
 20
137.0
 30
0.0
 11
184.514933
 21
135.786588
 31
0.0
  0
LINE
  5
279
100
AcDbEntity
  8
0
370
         0
390
0
  6
CONTINUOUS
 62
         7
100
AcDbLine
 10
184.514933
 20
135.786588
 30
0.0
 11
185.525735
 21
134.957068
 31
0.0
  0
LINE
  5
27A
100
AcDbEntity
  8
0
370
         0
390
0
  6
CONTINUOUS
 62
         7
100
AcDbLine
 10
185.525735
 20
134.957068
 30
0.0
 11
186.756144
 21
134.49991
 31
0.0
  0
LINE
  5
27B
100
AcDbEntity
  8
0
370
         0
390
0
  6
CONTINUOUS
 62
         7
100
AcDbLine
 10
186.756144
 20
134.49991
 30
0.0
 11
188.0625
 21
134.354249
 31
0.0
  0
LINE
  5
27C
100
AcDbEntity
  8
0
370
         0
390
0
  6
CONTINUOUS
 62
         7
100
AcDbLine
 10
188.0625
 20
134.354249
 30
0.0
 11
189.368434
 21
134.499813
 31
0.0
  0
LINE
  5
27D
100
AcDbEntity
  8
0
370
         0
390
0
  6
CONTINUOUS
 62
         7
100
AcDbLine
 10
189.368434
 20
134.499813
 30
0.0
 11
190.599268
 21
134.95707
 31
0.0
  0
LINE
  5
27E
100
AcDbEntity
  8
0
370
         0
390
0
  6
CONTINUOUS
 62
         7
100
AcDbLine
 10
190.599268
 20
134.95707
 30
0.0
 11
191.610213
 21
135.786775
 31
0.0
  0
LINE
  5
27F
100
AcDbEntity
  8
0
370
         0
390
0
  6
CONTINUOUS
 62
         7
100
AcDbLine
 10
191.610213
 20
135.786775
 30
0.0
 11
192.05468
 21
137.0
 31
0.0
  0
LINE
  5
280
100
AcDbEntity
  8
0
370
         0
390
0
  6
CONTINUOUS
 62
         7
100
AcDbLine
 10
173.94532
 20
137.0
 30
0.0
 11
174.389933
 21
138.213412
 31
0.0
  0
LINE
  5
281
100
AcDbEntity
  8
0
370
         0
390
0
  6
CONTINUOUS
 62
         7
100
AcDbLine
 10
174.389933
 20
138.213412
 30
0.0
 11
175.400735
 21
139.042932
 31
0.0
  0
LINE
  5
282
100
AcDbEntity
  8
0
370
         0
390
0
  6
CONTINUOUS
 62
         7
100
AcDbLine
 10
175.400735
 20
139.042932
 30
0.0
 11
176.631144
 21
139.50009
 31
0.0
  0
LINE
  5
283
100
AcDbEntity
  8
0
370
         0
390
0
  6
CONTINUOUS
 62
         7
100
AcDbLine
 10
176.631144
 20
139.50009
 30
0.0
 11
177.9375
 21
139.645751
 31
0.0
  0
LINE
  5
284
100
AcDbEntity
  8
0
370
         0
390
0
  6
CONTINUOUS
 62
         7
100
AcDbLine
 10
177.9375
 20
139.645751
 30
0.0
 11
179.243434
 21
139.500187
 31
0.0
  0
LINE
  5
285
100
AcDbEntity
  8
0
370
         0
390
0
  6
CONTINUOUS
 62
         7
100
AcDbLine
 10
179.243434
 20
139.500187
 30
0.0
 11
180.474268
 21
139.04293
 31
0.0
  0
LINE
  5
286
100
AcDbEntity
  8
0
370
         0
390
0
  6
CONTINUOUS
 62
         7
100
AcDbLine
 10
180.474268
 20
139.04293
 30
0.0
 11
181.485213
 21
138.213225
 31
0.0
  0
LINE
  5
287
100
AcDbEntity
  8
0
370
         0
390
0
  6
CONTINUOUS
 62
         7
100
AcDbLine
 10
181.485213
 20
138.213225
 30
0.0
 11
181.92968
 21
137.0
 31
0.0
  0
LINE
  5
288
100
AcDbEntity
  8
0
370
         0
390
0
  6
CONTINUOUS
 62
         7
100
AcDbLine
 10
181.92968
 20
137.0
 30
0.0
 11
181.485067
 21
135.786588
 31
0.0
  0
LINE
  5
289
100
AcDbEntity
  8
0
370
         0
390
0
  6
CONTINUOUS
 62
         7
100
AcDbLine
 10
181.485067
 20
135.786588
 30
0.0
 11
180.474265
 21
134.957068
 31
0.0
  0
LINE
  5
28A
100
AcDbEntity
  8
0
370
         0
390
0
  6
CONTINUOUS
 62
         7
100
AcDbLine
 10
180.474265
 20
134.957068
 30
0.0
 11
179.243856
 21
134.49991
 31
0.0
  0
LINE
  5
28B
100
AcDbEntity
  8
0
370
         0
390
0
  6
CONTINUOUS
 62
         7
100
AcDbLine
 10
179.243856
 20
134.49991
 30
0.0
 11
177.9375
 21
134.354249
 31
0.0
  0
LINE
  5
28C
100
AcDbEntity
  8
0
370
         0
390
0
  6
CONTINUOUS
 62
         7
100
AcDbLine
 10
177.9375
 20
134.354249
 30
0.0
 11
176.631566
 21
134.499813
 31
0.0
  0
LINE
  5
28D
100
AcDbEntity
  8
0
370
         0
390
0
  6
CONTINUOUS
 62
         7
100
AcDbLine
 10
176.631566
 20
134.499813
 30
0.0
 11
175.400732
 21
134.95707
 31
0.0
  0
LINE
  5
28E
100
AcDbEntity
  8
0
370
         0
390
0
  6
CONTINUOUS
 62
         7
100
AcDbLine
 10
175.400732
 20
134.95707
 30
0.0
 11
174.389787
 21
135.786775
 31
0.0
  0
LINE
  5
28F
100
AcDbEntity
  8
0
370
         0
390
0
  6
CONTINUOUS
 62
         7
100
AcDbLine
 10
174.389787
 20
135.786775
 30
0.0
 11
173.94532
 21
137.0
 31
0.0
  0
LINE
  5
290
100
AcDbEntity
  8
0
370
         0
390
0
  6
CONTINUOUS
 62
         7
100
AcDbLine
 10
209.926607
 20
98.75
 30
0.0
 11
210.082192
 21
97.79442
 31
0.0
  0
LINE
  5
291
100
AcDbEntity
  8
0
370
         0
390
0
  6
CONTINUOUS
 62
         7
100
AcDbLine
 10
210.082192
 20
97.79442
 30
0.0
 11
210.546786
 21
96.944396
 31
0.0
  0
LINE
  5
292
100
AcDbEntity
  8
0
370
         0
390
0
  6
CONTINUOUS
 62
         7
100
AcDbLine
 10
210.546786
 20
96.944396
 30
0.0
 11
211.294792
 21
96.332586
 31
0.0
  0
LINE
  5
293
100
AcDbEntity
  8
0
370
         0
390
0
  6
CONTINUOUS
 62
         7
100
AcDbLine
 10
211.294792
 20
96.332586
 30
0.0
 11
212.231493
 21
96.104248
 31
0.0
  0
LINE
  5
294
100
AcDbEntity
  8
0
370
         0
390
0
  6
CONTINUOUS
 62
         7
100
AcDbLine
 10
212.231493
 20
96.104248
 30
0.0
 11
213.167869
 21
96.332421
 31
0.0
  0
LINE
  5
295
100
AcDbEntity
  8
0
370
         0
390
0
  6
CONTINUOUS
 62
         7
100
AcDbLine
 10
213.167869
 20
96.332421
 30
0.0
 11
213.916023
 21
96.944179
 31
0.0
  0
LINE
  5
296
100
AcDbEntity
  8
0
370
         0
390
0
  6
CONTINUOUS
 62
         7
100
AcDbLine
 10
213.916023
 20
96.944179
 30
0.0
 11
214.380555
 21
97.793712
 31
0.0
  0
LINE
  5
297
100
AcDbEntity
  8
0
370
         0
390
0
  6
CONTINUOUS
 62
         7
100
AcDbLine
 10
214.380555
 20
97.793712
 30
0.0
 11
214.536379
 21
98.75
 31
0.0
  0
LINE
  5
298
100
AcDbEntity
  8
0
370
         0
390
0
  6
CONTINUOUS
 62
         7
100
AcDbLine
 10
214.536379
 20
98.75
 30
0.0
 11
214.380794
 21
99.70558
 31
0.0
  0
LINE
  5
299
100
AcDbEntity
  8
0
370
         0
390
0
  6
CONTINUOUS
 62
         7
100
AcDbLine
 10
214.380794
 20
99.70558
 30
0.0
 11
213.9162
 21
100.555604
 31
0.0
  0
LINE
  5
29A
100
AcDbEntity
  8
0
370
         0
390
0
  6
CONTINUOUS
 62
         7
100
AcDbLine
 10
213.9162
 20
100.555604
 30
0.0
 11
213.168194
 21
101.167414
 31
0.0
  0
LINE
  5
29B
100
AcDbEntity
  8
0
370
         0
390
0
  6
CONTINUOUS
 62
         7
100
AcDbLine
 10
213.168194
 20
101.167414
 30
0.0
 11
212.231493
 21
101.395752
 31
0.0
  0
LINE
  5
29C
100
AcDbEntity
  8
0
370
         0
390
0
  6
CONTINUOUS
 62
         7
100
AcDbLine
 10
212.231493
 20
101.395752
 30
0.0
 11
211.295117
 21
101.167579
 31
0.0
  0
LINE
  5
29D
100
AcDbEntity
  8
0
370
         0
390
0
  6
CONTINUOUS
 62
         7
100
AcDbLine
 10
211.295117
 20
101.167579
 30
0.0
 11
210.546963
 21
100.555821
 31
0.0
  0
LINE
  5
29E
100
AcDbEntity
  8
0
370
         0
390
0
  6
CONTINUOUS
 62
         7
100
AcDbLine
 10
210.546963
 20
100.555821
 30
0.0
 11
210.082431
 21
99.706288
 31
0.0
  0
LINE
  5
29F
100
AcDbEntity
  8
0
370
         0
390
0
  6
CONTINUOUS
 62
         7
100
AcDbLine
 10
210.082431
 20
99.706288
 30
0.0
 11
209.926607
 21
98.75
 31
0.0
  0
LINE
  5
2A0
100
AcDbEntity
  8
0
370
         0
390
0
  6
CONTINUOUS
 62
         7
100
AcDbLine
 10
225.609772
 20
98.75
 30
0.0
 11
225.026691
 21
100.037959
 31
0.0
  0
LINE
  5
2A1
100
AcDbEntity
  8
0
370
         0
390
0
  6
CONTINUOUS
 62
         7
100
AcDbLine
 10
225.026691
 20
100.037959
 30
0.0
 11
223.827905
 21
100.839421
 31
0.0
  0
LINE
  5
2A2
100
AcDbEntity
  8
0
370
         0
390
0
  6
CONTINUOUS
 62
         7
100
AcDbLine
 10
223.827905
 20
100.839421
 30
0.0
 11
222.443638
 21
101.262664
 31
0.0
  0
LINE
  5
2A3
100
AcDbEntity
  8
0
370
         0
390
0
  6
CONTINUOUS
 62
         7
100
AcDbLine
 10
222.443638
 20
101.262664
 30
0.0
 11
221.0
 21
101.395752
 31
0.0
  0
LINE
  5
2A4
100
AcDbEntity
  8
0
370
         0
390
0
  6
CONTINUOUS
 62
         7
100
AcDbLine
 10
221.0
 20
101.395752
 30
0.0
 11
219.557367
 21
101.262854
 31
0.0
  0
LINE
  5
2A5
100
AcDbEntity
  8
0
370
         0
390
0
  6
CONTINUOUS
 62
         7
100
AcDbLine
 10
219.557367
 20
101.262854
 30
0.0
 11
218.172365
 21
100.839541
 31
0.0
  0
LINE
  5
2A6
100
AcDbEntity
  8
0
370
         0
390
0
  6
CONTINUOUS
 62
         7
100
AcDbLine
 10
218.172365
 20
100.839541
 30
0.0
 11
216.97307
 21
100.037713
 31
0.0
  0
LINE
  5
2A7
100
AcDbEntity
  8
0
370
         0
390
0
  6
CONTINUOUS
 62
         7
100
AcDbLine
 10
216.97307
 20
100.037713
 30
0.0
 11
216.390228
 21
98.75
 31
0.0
  0
LINE
  5
2A8
100
AcDbEntity
  8
0
370
         0
390
0
  6
CONTINUOUS
 62
         7
100
AcDbLine
 10
216.390228
 20
98.75
 30
0.0
 11
216.973309
 21
97.462041
 31
0.0
  0
LINE
  5
2A9
100
AcDbEntity
  8
0
370
         0
390
0
  6
CONTINUOUS
 62
         7
100
AcDbLine
 10
216.973309
 20
97.462041
 30
0.0
 11
218.172095
 21
96.660579
 31
0.0
  0
LINE
  5
2AA
100
AcDbEntity
  8
0
370
         0
390
0
  6
CONTINUOUS
 62
         7
100
AcDbLine
 10
218.172095
 20
96.660579
 30
0.0
 11
219.556362
 21
96.237336
 31
0.0
  0
LINE
  5
2AB
100
AcDbEntity
  8
0
370
         0
390
0
  6
CONTINUOUS
 62
         7
100
AcDbLine
 10
219.556362
 20
96.237336
 30
0.0
 11
221.0
 21
96.104248
 31
0.0
  0
LINE
  5
2AC
100
AcDbEntity
  8
0
370
         0
390
0
  6
CONTINUOUS
 62
         7
100
AcDbLine
 10
221.0
 20
96.104248
 30
0.0
 11
222.442633
 21
96.237146
 31
0.0
  0
LINE
  5
2AD
100
AcDbEntity
  8
0
370
         0
390
0
  6
CONTINUOUS
 62
         7
100
AcDbLine
 10
222.442633
 20
96.237146
 30
0.0
 11
223.827635
 21
96.660459
 31
0.0
  0
LINE
  5
2AE
100
AcDbEntity
  8
0
370
         0
390
0
  6
CONTINUOUS
 62
         7
100
AcDbLine
 10
223.827635
 20
96.660459
 30
0.0
 11
225.02693
 21
97.462287
 31
0.0
  0
LINE
  5
2AF
100
AcDbEntity
  8
0
370
         0
390
0
  6
CONTINUOUS
 62
         7
100
AcDbLine
 10
225.02693
 20
97.462287
 30
0.0
 11
225.609772
 21
98.75
 31
0.0
  0
LINE
  5
2B0
100
AcDbEntity
  8
0
370
         0
390
0
  6
CONTINUOUS
 62
         7
100
AcDbLine
 10
232.073395
 20
98.75
 30
0.0
 11
231.91781
 21
97.794419
 31
0.0
  0
LINE
  5
2B1
100
AcDbEntity
  8
0
370
         0
390
0
  6
CONTINUOUS
 62
         7
100
AcDbLine
 10
231.91781
 20
97.794419
 30
0.0
 11
231.453216
 21
96.944396
 31
0.0
  0
LINE
  5
2B2
100
AcDbEntity
  8
0
370
         0
390
0
  6
CONTINUOUS
 62
         7
100
AcDbLine
 10
231.453216
 20
96.944396
 30
0.0
 11
230.705209
 21
96.332586
 31
0.0
  0
LINE
  5
2B3
100
AcDbEntity
  8
0
370
         0
390
0
  6
CONTINUOUS
 62
         7
100
AcDbLine
 10
230.705209
 20
96.332586
 30
0.0
 11
229.768509
 21
96.104248
 31
0.0
  0
LINE
  5
2B4
100
AcDbEntity
  8
0
370
         0
390
0
  6
CONTINUOUS
 62
         7
100
AcDbLine
 10
229.768509
 20
96.104248
 30
0.0
 11
228.832132
 21
96.332421
 31
0.0
  0
LINE
  5
2B5
100
AcDbEntity
  8
0
370
         0
390
0
  6
CONTINUOUS
 62
         7
100
AcDbLine
 10
228.832132
 20
96.332421
 30
0.0
 11
228.083977
 21
96.944178
 31
0.0
  0
LINE
  5
2B6
100
AcDbEntity
  8
0
370
         0
390
0
  6
CONTINUOUS
 62
         7
100
AcDbLine
 10
228.083977
 20
96.944178
 30
0.0
 11
227.619444
 21
97.793711
 31
0.0
  0
LINE
  5
2B7
100
AcDbEntity
  8
0
370
         0
390
0
  6
CONTINUOUS
 62
         7
100
AcDbLine
 10
227.619444
 20
97.793711
 30
0.0
 11
227.463619
 21
98.75
 31
0.0
  0
LINE
  5
2B8
100
AcDbEntity
  8
0
370
         0
390
0
  6
CONTINUOUS
 62
         7
100
AcDbLine
 10
227.463619
 20
98.75
 30
0.0
 11
227.619204
 21
99.705581
 31
0.0
  0
LINE
  5
2B9
100
AcDbEntity
  8
0
370
         0
390
0
  6
CONTINUOUS
 62
         7
100
AcDbLine
 10
227.619204
 20
99.705581
 30
0.0
 11
228.0838
 21
100.555604
 31
0.0
  0
LINE
  5
2BA
100
AcDbEntity
  8
0
370
         0
390
0
  6
CONTINUOUS
 62
         7
100
AcDbLine
 10
228.0838
 20
100.555604
 30
0.0
 11
228.831807
 21
101.167413
 31
0.0
  0
LINE
  5
2BB
100
AcDbEntity
  8
0
370
         0
390
0
  6
CONTINUOUS
 62
         7
100
AcDbLine
 10
228.831807
 20
101.167413
 30
0.0
 11
229.768509
 21
101.395752
 31
0.0
  0
LINE
  5
2BC
100
AcDbEntity
  8
0
370
         0
390
0
  6
CONTINUOUS
 62
         7
100
AcDbLine
 10
229.768509
 20
101.395752
 30
0.0
 11
230.704885
 21
101.167579
 31
0.0
  0
LINE
  5
2BD
100
AcDbEntity
  8
0
370
         0
390
0
  6
CONTINUOUS
 62
         7
100
AcDbLine
 10
230.704885
 20
101.167579
 30
0.0
 11
231.45304
 21
100.555821
 31
0.0
  0
LINE
  5
2BE
100
AcDbEntity
  8
0
370
         0
390
0
  6
CONTINUOUS
 62
         7
100
AcDbLine
 10
231.45304
 20
100.555821
 30
0.0
 11
231.917572
 21
99.706287
 31
0.0
  0
LINE
  5
2BF
100
AcDbEntity
  8
0
370
         0
390
0
  6
CONTINUOUS
 62
         7
100
AcDbLine
 10
231.917572
 20
99.706287
 30
0.0
 11
232.073395
 21
98.75
 31
0.0
  0
TEXT
  5
2C1
100
AcDbEntity
  8
0
370
         0
390
0
  6
CONTINUOUS
 62
         7
100
AcDbText
 10
198.114288
 20
56.49999
 30
0.0
 40
3.2
  1
75
 50
0.000076
  7
arial_ttf
 11
198.1142837554
 21
59.69999
 31
0.0
100
AcDbText
 73
         3
  0
TEXT
  5
2C2
100
AcDbEntity
  8
0
370
         0
390
0
  6
CONTINUOUS
 62
         7
100
AcDbText
 10
362.114288
 20
95.99999
 30
0.0
 40
3.2
  1
14
  7
arial_ttf
 11
362.114288
 21
99.19999
 31
0.0
100
AcDbText
 73
         3
  0
TEXT
  5
2C3
100
AcDbEntity
  8
0
370
         0
390
0
  6
CONTINUOUS
 62
         7
100
AcDbText
 10
311.50001
 20
116.514282
 30
0.0
 40
3.2
  1
32
 50
90.000076
  7
arial_ttf
 11
308.30001
 21
116.5142777554
 31
0.0
100
AcDbText
 73
         3
  0
TEXT
  5
2C4
100
AcDbEntity
  8
0
370
         0
390
0
  6
CONTINUOUS
 62
         7
100
AcDbText
 10
381.50001
 20
116.514282
 30
0.0
 40
3.2
  1
66
 50
90.000076
  7
arial_ttf
 11
378.30001
 21
116.5142777554
 31
0.0
100
AcDbText
 73
         3
  0
TEXT
  5
2C5
100
AcDbEntity
  8
0
370
         0
390
0
  6
CONTINUOUS
 62
         7
100
AcDbText
 10
143.00001
 20
106.4520716364
 30
0.0
 40
3.2
  1
131
 50
90.0
  7
arial_ttf
 11
139.80001
 21
106.4520716364
 31
0.0
100
AcDbText
 73
         3
  0
TEXT
  5
2C6
100
AcDbEntity
  8
0
370
         0
390
0
  6
CONTINUOUS
 62
         7
100
AcDbText
 10
283.00001
 20
97.9466110909
 30
0.0
 40
3.2
  1
95
 50
90.0
  7
arial_ttf
 11
279.80001
 21
97.9466110909
 31
0.0
100
AcDbText
 73
         3
  0
TEXT
  5
2C7
100
AcDbEntity
  8
0
370
         0
390
0
  6
CONTINUOUS
 62
         7
100
AcDbText
 10
153.00001
 20
126.4466110909
 30
0.0
 40
3.2
  1
53
 50
90.0
  7
arial_ttf
 11
149.80001
 21
126.4466110909
 31
0.0
100
AcDbText
 73
         3
  0
TEXT
  5
2C8
100
AcDbEntity
  8
0
370
         0
390
0
  6
CONTINUOUS
 62
         7
100
AcDbText
 10
283.964
 20
23.50999
 30
0.0
 40
3.2
  1
ｳｴｽﾄ ﾊﾟｲﾌﾟ
  7
arial_ttf
 11
283.964
 21
26.70999
 31
0.0
100
AcDbText
 73
         3
  0
TEXT
  5
2C9
100
AcDbEntity
  8
0
370
         0
390
0
  6
CONTINUOUS
 62
         7
100
AcDbText
 10
283.964
 20
19.50999
 30
0.0
 40
3.2
  1
 Pﾄﾗｯﾌﾟﾊﾟｲﾌﾟ
  7
arial_ttf
 11
283.964
 21
22.70999
 31
0.0
100
AcDbText
 73
         3
  0
TEXT
  5
2CA
100
AcDbEntity
  8
0
370
         0
390
0
  6
CONTINUOUS
 62
         7
100
AcDbText
 10
283.964
 20
15.50999
 30
0.0
 40
3.2
  1
 350mm、排水管100付
  7
arial_ttf
 11
283.964
 21
18.70999
 31
0.0
100
AcDbText
 73
         3
  0
TEXT
  5
2CB
100
AcDbEntity
  8
0
370
         0
390
0
  6
CONTINUOUS
 62
         7
100
AcDbText
 10
317.714
 20
286.75999
 30
0.0
 40
3.2
  1
 3RD ANGLE PROJECTION < MM >
  7
arial_ttf
 11
317.714
 21
289.95999
 31
0.0
100
AcDbText
 73
         3
  0
TEXT
  5
2CC
100
AcDbEntity
  8
0
370
         0
390
0
  6
CONTINUOUS
 62
         7
100
AcDbText
 10
398.2143
 20
25.99999
 30
0.0
 40
2.5
  1
CAD
  7
arial_ttf
 11
398.2143
 21
28.49999
 31
0.0
100
AcDbText
 73
         3
  0
TEXT
  5
2CD
100
AcDbEntity
  8
0
370
         0
390
0
  6
CONTINUOUS
 62
         7
100
AcDbText
 10
267.679
 20
26.19999
 30
0.0
 40
1.5
  1
Scala
  7
arial_ttf
 11
267.679
 21
27.69999
 31
0.0
100
AcDbText
 73
         3
  0
TEXT
  5
2CE
100
AcDbEntity
  8
0
370
         0
390
0
  6
CONTINUOUS
 62
         7
100
AcDbText
 10
11.429
 20
16.44999
 30
0.0
 40
1.5
  1
Name
  7
arial_ttf
 11
11.429
 21
17.94999
 31
0.0
100
AcDbText
 73
         3
  0
TEXT
  5
2CF
100
AcDbEntity
  8
0
370
         0
390
0
  6
CONTINUOUS
 62
         7
100
AcDbText
 10
11.429
 20
11.44999
 30
0.0
 40
1.5
  1
Proof
  7
arial_ttf
 11
11.429
 21
12.94999
 31
0.0
100
AcDbText
 73
         3
  0
TEXT
  5
2D0
100
AcDbEntity
  8
0
370
         0
390
0
  6
CONTINUOUS
 62
         7
100
AcDbText
 10
11.429
 20
26.44999
 30
0.0
 40
1.5
  1
Revisions
  7
arial_ttf
 11
11.429
 21
27.94999
 31
0.0
100
AcDbText
 73
         3
  0
TEXT
  5
2D1
100
AcDbEntity
  8
0
370
         0
390
0
  6
CONTINUOUS
 62
         7
100
AcDbText
 10
268.179
 20
11.24999
 30
0.0
 40
5.0
  1
1:2
  7
arial_ttf
 11
268.179
 21
16.24999
 31
0.0
100
AcDbText
 73
         3
  0
TEXT
  5
2D2
100
AcDbEntity
  8
0
370
         0
390
0
  6
CONTINUOUS
 62
         7
100
AcDbText
 10
357.1786
 20
26.69999
 30
0.0
 40
1.5
  1
Number
  7
arial_ttf
 11
357.1786
 21
28.19999
 31
0.0
100
AcDbText
 73
         3
  0
TEXT
  5
2D3
100
AcDbEntity
  8
0
370
         0
390
0
  6
CONTINUOUS
 62
         7
100
AcDbText
 10
184.929
 20
15.44999
 30
0.0
 40
1.5
  1
Telefon:03-5296-9684
  7
arial_ttf
 11
184.929
 21
16.94999
 31
0.0
100
AcDbText
 73
         3
  0
TEXT
  5
2D4
100
AcDbEntity
  8
0
370
         0
390
0
  6
CONTINUOUS
 62
         7
100
AcDbText
 10
184.929
 20
23.44999
 30
0.0
 40
1.5
  1
Grohe Japan Ltd
  7
arial_ttf
 11
184.929
 21
24.94999
 31
0.0
100
AcDbText
 73
         3
  0
TEXT
  5
2D5
100
AcDbEntity
  8
0
370
         0
390
0
  6
CONTINUOUS
 62
         7
100
AcDbText
 10
184.929
 20
21.44999
 30
0.0
 40
1.5
  1
Sumitomo Gaien Bldg.
  7
arial_ttf
 11
184.929
 21
22.94999
 31
0.0
100
AcDbText
 73
         3
  0
TEXT
  5
2D6
100
AcDbEntity
  8
0
370
         0
390
0
  6
CONTINUOUS
 62
         7
100
AcDbText
 10
184.929
 20
19.44999
 30
0.0
 40
1.5
  1
24,Daikyo-cho
  7
arial_ttf
 11
184.929
 21
20.94999
 31
0.0
100
AcDbText
 73
         3
  0
TEXT
  5
2D7
100
AcDbEntity
  8
0
370
         0
390
0
  6
CONTINUOUS
 62
         7
100
AcDbText
 10
184.929
 20
17.44999
 30
0.0
 40
1.5
  1
Shinjuku-ku,Tokyo 160
  7
arial_ttf
 11
184.929
 21
18.94999
 31
0.0
100
AcDbText
 73
         3
  0
TEXT
  5
2D8
100
AcDbEntity
  8
0
370
         0
390
0
  6
CONTINUOUS
 62
         7
100
AcDbText
 10
11.429
 20
21.44999
 30
0.0
 40
1.5
  1
Date
  7
arial_ttf
 11
11.429
 21
22.94999
 31
0.0
100
AcDbText
 73
         3
  0
LINE
  5
2D9
100
AcDbEntity
  8
0
370
         0
390
0
  6
CONTINUOUS
 62
         7
100
AcDbLine
 10
194.125
 20
168.0
 30
0.0
 11
171.875
 21
168.0
 31
0.0
  0
LINE
  5
2DA
100
AcDbEntity
  8
0
370
         0
390
0
  6
CONTINUOUS
 62
         7
100
AcDbLine
 10
194.125
 20
162.25
 30
0.0
 11
171.875
 21
162.25
 31
0.0
  0
LINE
  5
2DB
100
AcDbEntity
  8
0
370
         0
390
0
  6
CONTINUOUS
 62
         7
100
AcDbLine
 10
171.875
 20
168.0
 30
0.0
 11
171.875
 21
162.25
 31
0.0
  0
LINE
  5
2DC
100
AcDbEntity
  8
0
370
         0
390
0
  6
CONTINUOUS
 62
         7
100
AcDbLine
 10
194.125
 20
168.0
 30
0.0
 11
194.125
 21
162.25
 31
0.0
  0
LINE
  5
2DD
100
AcDbEntity
  8
0
370
         0
390
0
  6
CONTINUOUS
 62
         7
100
AcDbLine
 10
191.085054
 20
165.125
 30
0.0
 11
190.903686
 21
166.128304
 31
0.0
  0
LINE
  5
2DE
100
AcDbEntity
  8
0
370
         0
390
0
  6
CONTINUOUS
 62
         7
100
AcDbLine
 10
190.903686
 20
166.128304
 30
0.0
 11
190.375163
 21
166.998995
 31
0.0
  0
LINE
  5
2DF
100
AcDbEntity
  8
0
370
         0
390
0
  6
CONTINUOUS
 62
         7
100
AcDbLine
 10
190.375163
 20
166.998995
 30
0.0
 11
189.555422
 21
167.602152
 31
0.0
  0
LINE
  5
2E0
100
AcDbEntity
  8
0
370
         0
390
0
  6
CONTINUOUS
 62
         7
100
AcDbLine
 10
189.555422
 20
167.602152
 30
0.0
 11
188.5625
 21
167.819682
 31
0.0
  0
LINE
  5
2E1
100
AcDbEntity
  8
0
370
         0
390
0
  6
CONTINUOUS
 62
         7
100
AcDbLine
 10
188.5625
 20
167.819682
 30
0.0
 11
187.569313
 21
167.602031
 31
0.0
  0
LINE
  5
2E2
100
AcDbEntity
  8
0
370
         0
390
0
  6
CONTINUOUS
 62
         7
100
AcDbLine
 10
187.569313
 20
167.602031
 30
0.0
 11
186.749804
 21
166.998958
 31
0.0
  0
LINE
  5
2E3
100
AcDbEntity
  8
0
370
         0
390
0
  6
CONTINUOUS
 62
         7
100
AcDbLine
 10
186.749804
 20
166.998958
 30
0.0
 11
186.221072
 21
166.127661
 31
0.0
  0
LINE
  5
2E4
100
AcDbEntity
  8
0
370
         0
390
0
  6
CONTINUOUS
 62
         7
100
AcDbLine
 10
186.221072
 20
166.127661
 30
0.0
 11
186.039946
 21
165.125
 31
0.0
  0
LINE
  5
2E5
100
AcDbEntity
  8
0
370
         0
390
0
  6
CONTINUOUS
 62
         7
100
AcDbLine
 10
186.039946
 20
165.125
 30
0.0
 11
186.221314
 21
164.121696
 31
0.0
  0
LINE
  5
2E6
100
AcDbEntity
  8
0
370
         0
390
0
  6
CONTINUOUS
 62
         7
100
AcDbLine
 10
186.221314
 20
164.121696
 30
0.0
 11
186.749837
 21
163.251005
 31
0.0
  0
LINE
  5
2E7
100
AcDbEntity
  8
0
370
         0
390
0
  6
CONTINUOUS
 62
         7
100
AcDbLine
 10
186.749837
 20
163.251005
 30
0.0
 11
187.569578
 21
162.647848
 31
0.0
  0
LINE
  5
2E8
100
AcDbEntity
  8
0
370
         0
390
0
  6
CONTINUOUS
 62
         7
100
AcDbLine
 10
187.569578
 20
162.647848
 30
0.0
 11
188.5625
 21
162.430318
 31
0.0
  0
LINE
  5
2E9
100
AcDbEntity
  8
0
370
         0
390
0
  6
CONTINUOUS
 62
         7
100
AcDbLine
 10
188.5625
 20
162.430318
 30
0.0
 11
189.555687
 21
162.647969
 31
0.0
  0
LINE
  5
2EA
100
AcDbEntity
  8
0
370
         0
390
0
  6
CONTINUOUS
 62
         7
100
AcDbLine
 10
189.555687
 20
162.647969
 30
0.0
 11
190.375196
 21
163.251042
 31
0.0
  0
LINE
  5
2EB
100
AcDbEntity
  8
0
370
         0
390
0
  6
CONTINUOUS
 62
         7
100
AcDbLine
 10
190.375196
 20
163.251042
 30
0.0
 11
190.903928
 21
164.122339
 31
0.0
  0
LINE
  5
2EC
100
AcDbEntity
  8
0
370
         0
390
0
  6
CONTINUOUS
 62
         7
100
AcDbLine
 10
190.903928
 20
164.122339
 30
0.0
 11
191.085054
 21
165.125
 31
0.0
  0
LINE
  5
2ED
100
AcDbEntity
  8
0
370
         0
390
0
  6
CONTINUOUS
 62
         7
100
AcDbLine
 10
174.914946
 20
165.125
 30
0.0
 11
175.096314
 21
166.128304
 31
0.0
  0
LINE
  5
2EE
100
AcDbEntity
  8
0
370
         0
390
0
  6
CONTINUOUS
 62
         7
100
AcDbLine
 10
175.096314
 20
166.128304
 30
0.0
 11
175.624837
 21
166.998995
 31
0.0
  0
LINE
  5
2EF
100
AcDbEntity
  8
0
370
         0
390
0
  6
CONTINUOUS
 62
         7
100
AcDbLine
 10
175.624837
 20
166.998995
 30
0.0
 11
176.444578
 21
167.602152
 31
0.0
  0
LINE
  5
2F0
100
AcDbEntity
  8
0
370
         0
390
0
  6
CONTINUOUS
 62
         7
100
AcDbLine
 10
176.444578
 20
167.602152
 30
0.0
 11
177.4375
 21
167.819682
 31
0.0
  0
LINE
  5
2F1
100
AcDbEntity
  8
0
370
         0
390
0
  6
CONTINUOUS
 62
         7
100
AcDbLine
 10
177.4375
 20
167.819682
 30
0.0
 11
178.430687
 21
167.602031
 31
0.0
  0
LINE
  5
2F2
100
AcDbEntity
  8
0
370
         0
390
0
  6
CONTINUOUS
 62
         7
100
AcDbLine
 10
178.430687
 20
167.602031
 30
0.0
 11
179.250196
 21
166.998958
 31
0.0
  0
LINE
  5
2F3
100
AcDbEntity
  8
0
370
         0
390
0
  6
CONTINUOUS
 62
         7
100
AcDbLine
 10
179.250196
 20
166.998958
 30
0.0
 11
179.778928
 21
166.127661
 31
0.0
  0
LINE
  5
2F4
100
AcDbEntity
  8
0
370
         0
390
0
  6
CONTINUOUS
 62
         7
100
AcDbLine
 10
179.778928
 20
166.127661
 30
0.0
 11
179.960054
 21
165.125
 31
0.0
  0
LINE
  5
2F5
100
AcDbEntity
  8
0
370
         0
390
0
  6
CONTINUOUS
 62
         7
100
AcDbLine
 10
179.960054
 20
165.125
 30
0.0
 11
179.778686
 21
164.121696
 31
0.0
  0
LINE
  5
2F6
100
AcDbEntity
  8
0
370
         0
390
0
  6
CONTINUOUS
 62
         7
100
AcDbLine
 10
179.778686
 20
164.121696
 30
0.0
 11
179.250163
 21
163.251005
 31
0.0
  0
LINE
  5
2F7
100
AcDbEntity
  8
0
370
         0
390
0
  6
CONTINUOUS
 62
         7
100
AcDbLine
 10
179.250163
 20
163.251005
 30
0.0
 11
178.430422
 21
162.647848
 31
0.0
  0
LINE
  5
2F8
100
AcDbEntity
  8
0
370
         0
390
0
  6
CONTINUOUS
 62
         7
100
AcDbLine
 10
178.430422
 20
162.647848
 30
0.0
 11
177.4375
 21
162.430318
 31
0.0
  0
LINE
  5
2F9
100
AcDbEntity
  8
0
370
         0
390
0
  6
CONTINUOUS
 62
         7
100
AcDbLine
 10
177.4375
 20
162.430318
 30
0.0
 11
176.444313
 21
162.647969
 31
0.0
  0
LINE
  5
2FA
100
AcDbEntity
  8
0
370
         0
390
0
  6
CONTINUOUS
 62
         7
100
AcDbLine
 10
176.444313
 20
162.647969
 30
0.0
 11
175.624804
 21
163.251042
 31
0.0
  0
LINE
  5
2FB
100
AcDbEntity
  8
0
370
         0
390
0
  6
CONTINUOUS
 62
         7
100
AcDbLine
 10
175.624804
 20
163.251042
 30
0.0
 11
175.096072
 21
164.122339
 31
0.0
  0
LINE
  5
2FC
100
AcDbEntity
  8
0
370
         0
390
0
  6
CONTINUOUS
 62
         7
100
AcDbLine
 10
175.096072
 20
164.122339
 30
0.0
 11
174.914946
 21
165.125
 31
0.0
  0
LINE
  5
2FD
100
AcDbEntity
  8
0
370
         0
390
0
  6
CONTINUOUS
 62
         7
100
AcDbLine
 10
191.0
 20
162.25
 30
0.0
 11
191.0
 21
140.0
 31
0.0
  0
LINE
  5
2FE
100
AcDbEntity
  8
0
370
         0
390
0
  6
CONTINUOUS
 62
         7
100
AcDbLine
 10
175.0
 20
162.25
 30
0.0
 11
175.0
 21
140.0
 31
0.0
  0
LINE
  5
2FF
100
AcDbEntity
  8
0
370
         0
390
0
  6
CONTINUOUS
 62
         7
100
AcDbLine
 10
172.522507
 20
180.322433
 30
0.0
 11
193.477493
 21
180.322433
 31
0.0
  0
LINE
  5
300
100
AcDbEntity
  8
0
370
         0
390
0
  6
CONTINUOUS
 62
         7
100
AcDbLine
 10
172.522507
 20
180.322433
 30
0.0
 11
175.420284
 21
181.09889
 31
0.0
  0
LINE
  5
301
100
AcDbEntity
  8
0
370
         0
390
0
  6
CONTINUOUS
 62
         7
100
AcDbLine
 10
172.522507
 20
180.322433
 30
0.0
 11
175.420284
 21
179.545977
 31
0.0
  0
LINE
  5
302
100
AcDbEntity
  8
0
370
         0
390
0
  6
CONTINUOUS
 62
         7
100
AcDbLine
 10
193.477493
 20
180.322433
 30
0.0
 11
190.579716
 21
179.545977
 31
0.0
  0
LINE
  5
303
100
AcDbEntity
  8
0
370
         0
390
0
  6
CONTINUOUS
 62
         7
100
AcDbLine
 10
193.477493
 20
180.322433
 30
0.0
 11
190.579716
 21
181.09889
 31
0.0
  0
LINE
  5
304
100
AcDbEntity
  8
0
370
         0
390
0
  6
CONTINUOUS
 62
         7
100
AcDbLine
 10
172.522507
 20
168.0
 30
0.0
 11
172.522507
 21
182.608429
 31
0.0
  0
LINE
  5
305
100
AcDbEntity
  8
0
370
         0
390
0
  6
CONTINUOUS
 62
         7
100
AcDbLine
 10
193.477493
 20
168.0
 30
0.0
 11
193.477493
 21
182.608429
 31
0.0
  0
TEXT
  5
306
100
AcDbEntity
  8
0
370
         0
390
0
  6
CONTINUOUS
 62
         7
100
AcDbText
 10
176.114288
 20
180.322423
 30
0.0
 40
3.2
  1
G 1-1/4
  7
arial_ttf
 11
176.114288
 21
183.522423
 31
0.0
100
AcDbText
 73
         3
  0
LINE
  5
307
100
AcDbEntity
  8
0
370
         0
390
0
  6
CONTINUOUS
 62
         7
100
AcDbLine
 10
143.0
 20
140.0
 30
0.0
 11
143.776456
 21
142.897778
 31
0.0
  0
LINE
  5
308
100
AcDbEntity
  8
0
370
         0
390
0
  6
CONTINUOUS
 62
         7
100
AcDbLine
 10
143.0
 20
140.0
 30
0.0
 11
142.223544
 21
142.897778
 31
0.0
  0
LINE
  5
309
100
AcDbEntity
  8
0
370
         0
390
0
  6
CONTINUOUS
 62
         7
100
AcDbLine
 10
143.0
 20
140.0
 30
0.0
 11
143.0
 21
168.0
 31
0.0
  0
LINE
  5
30A
100
AcDbEntity
  8
0
370
         0
390
0
  6
CONTINUOUS
 62
         7
100
AcDbLine
 10
143.0
 20
168.0
 30
0.0
 11
143.776456
 21
165.102222
 31
0.0
  0
LINE
  5
30B
100
AcDbEntity
  8
0
370
         0
390
0
  6
CONTINUOUS
 62
         7
100
AcDbLine
 10
143.0
 20
168.0
 30
0.0
 11
142.223544
 21
165.102222
 31
0.0
  0
LINE
  5
30C
100
AcDbEntity
  8
0
370
         0
390
0
  6
CONTINUOUS
 62
         7
100
AcDbLine
 10
171.875
 20
168.0
 30
0.0
 11
140.714005
 21
168.0
 31
0.0
  0
TEXT
  5
30D
100
AcDbEntity
  8
0
370
         0
390
0
  6
CONTINUOUS
 62
         7
100
AcDbText
 10
143.00004
 20
144.8583951216
 30
0.0
 40
3.2
  1
15-75
 50
90.0
  7
arial_ttf
 11
139.80004
 21
144.8583951216
 31
0.0
100
AcDbText
 73
         3
  0
LINE
  5
30E
100
AcDbEntity
  8
0
370
         0
390
0
  6
CONTINUOUS
 62
         7
100
AcDbLine
 10
73.0
 20
162.25
 30
0.0
 11
73.0
 21
140.0
 31
0.0
  0
LINE
  5
30F
100
AcDbEntity
  8
0
370
         0
390
0
  6
CONTINUOUS
 62
         7
100
AcDbLine
 10
57.0
 20
162.25
 30
0.0
 11
57.0
 21
140.0
 31
0.0
  0
LINE
  5
310
100
AcDbEntity
  8
0
370
         0
390
0
  6
CONTINUOUS
 62
         7
100
AcDbLine
 10
75.741
 20
162.25
 30
0.0
 11
54.259
 21
162.25
 31
0.0
  0
LINE
  5
311
100
AcDbEntity
  8
0
370
         0
390
0
  6
CONTINUOUS
 62
         7
100
AcDbLine
 10
75.741
 20
168.0
 30
0.0
 11
54.259
 21
168.0
 31
0.0
  0
ARC
  5
312
100
AcDbEntity
  8
0
370
         0
390
0
  6
CONTINUOUS
 62
         7
100
AcDbCircle
 10
65.0
 20
165.125
 30
0.0
 40
11.5
100
AcDbArc
 50
167.531281
 51
192.469033
  0
ARC
  5
313
100
AcDbEntity
  8
0
370
         0
390
0
  6
CONTINUOUS
 62
         7
100
AcDbCircle
 10
54.259445
 20
167.5
 30
0.0
 40
0.5
100
AcDbArc
 50
90.000079
 51
167.531281
  0
ARC
  5
314
100
AcDbEntity
  8
0
370
         0
390
0
  6
CONTINUOUS
 62
         7
100
AcDbCircle
 10
54.259445
 20
162.75
 30
0.0
 40
0.5
100
AcDbArc
 50
192.468719
 51
269.999921
  0
ARC
  5
315
100
AcDbEntity
  8
0
370
         0
390
0
  6
CONTINUOUS
 62
         7
100
AcDbCircle
 10
75.740555
 20
167.5
 30
0.0
 40
0.5
100
AcDbArc
 50
12.468878
 51
90.000079
  0
ARC
  5
316
100
AcDbEntity
  8
0
370
         0
390
0
  6
CONTINUOUS
 62
         7
100
AcDbCircle
 10
65.0
 20
165.125
 30
0.0
 40
11.5
100
AcDbArc
 50
347.531122
 51
12.468878
  0
ARC
  5
317
100
AcDbEntity
  8
0
370
         0
390
0
  6
CONTINUOUS
 62
         7
100
AcDbCircle
 10
75.740555
 20
162.75
 30
0.0
 40
0.5
100
AcDbArc
 50
270.0
 51
347.531122
  0
LINE
  5
318
100
AcDbEntity
  8
0
370
         0
390
0
  6
CONTINUOUS
 62
         7
100
AcDbLine
 10
57.451758
 20
165.125
 30
0.0
 11
57.34558
 21
166.020138
 31
0.0
  0
LINE
  5
319
100
AcDbEntity
  8
0
370
         0
390
0
  6
CONTINUOUS
 62
         7
100
AcDbLine
 10
57.34558
 20
166.020138
 30
0.0
 11
57.014065
 21
166.857532
 31
0.0
  0
LINE
  5
31A
100
AcDbEntity
  8
0
370
         0
390
0
  6
CONTINUOUS
 62
         7
100
AcDbLine
 10
57.014065
 20
166.857532
 30
0.0
 11
56.421911
 21
167.532492
 31
0.0
  0
LINE
  5
31B
100
AcDbEntity
  8
0
370
         0
390
0
  6
CONTINUOUS
 62
         7
100
AcDbLine
 10
56.421911
 20
167.532492
 30
0.0
 11
55.581974
 21
167.819682
 31
0.0
  0
LINE
  5
31C
100
AcDbEntity
  8
0
370
         0
390
0
  6
CONTINUOUS
 62
         7
100
AcDbLine
 10
55.581974
 20
167.819682
 30
0.0
 11
54.741772
 21
167.5323
 31
0.0
  0
LINE
  5
31D
100
AcDbEntity
  8
0
370
         0
390
0
  6
CONTINUOUS
 62
         7
100
AcDbLine
 10
54.741772
 20
167.5323
 30
0.0
 11
54.15014
 21
166.857973
 31
0.0
  0
LINE
  5
31E
100
AcDbEntity
  8
0
370
         0
390
0
  6
CONTINUOUS
 62
         7
100
AcDbLine
 10
54.15014
 20
166.857973
 30
0.0
 11
53.818548
 21
166.020875
 31
0.0
  0
LINE
  5
31F
100
AcDbEntity
  8
0
370
         0
390
0
  6
CONTINUOUS
 62
         7
100
AcDbLine
 10
53.818548
 20
166.020875
 30
0.0
 11
53.71219
 21
165.125
 31
0.0
  0
LINE
  5
320
100
AcDbEntity
  8
0
370
         0
390
0
  6
CONTINUOUS
 62
         7
100
AcDbLine
 10
53.71219
 20
165.125
 30
0.0
 11
53.818368
 21
164.229862
 31
0.0
  0
LINE
  5
321
100
AcDbEntity
  8
0
370
         0
390
0
  6
CONTINUOUS
 62
         7
100
AcDbLine
 10
53.818368
 20
164.229862
 30
0.0
 11
54.149883
 21
163.392468
 31
0.0
  0
LINE
  5
322
100
AcDbEntity
  8
0
370
         0
390
0
  6
CONTINUOUS
 62
         7
100
AcDbLine
 10
54.149883
 20
163.392468
 30
0.0
 11
54.742037
 21
162.717508
 31
0.0
  0
LINE
  5
323
100
AcDbEntity
  8
0
370
         0
390
0
  6
CONTINUOUS
 62
         7
100
AcDbLine
 10
54.742037
 20
162.717508
 30
0.0
 11
55.581974
 21
162.430318
 31
0.0
  0
LINE
  5
324
100
AcDbEntity
  8
0
370
         0
390
0
  6
CONTINUOUS
 62
         7
100
AcDbLine
 10
55.581974
 20
162.430318
 30
0.0
 11
56.422176
 21
162.7177
 31
0.0
  0
LINE
  5
325
100
AcDbEntity
  8
0
370
         0
390
0
  6
CONTINUOUS
 62
         7
100
AcDbLine
 10
56.422176
 20
162.7177
 30
0.0
 11
57.013808
 21
163.392027
 31
0.0
  0
LINE
  5
326
100
AcDbEntity
  8
0
370
         0
390
0
  6
CONTINUOUS
 62
         7
100
AcDbLine
 10
57.013808
 20
163.392027
 30
0.0
 11
57.3454
 21
164.229125
 31
0.0
  0
LINE
  5
327
100
AcDbEntity
  8
0
370
         0
390
0
  6
CONTINUOUS
 62
         7
100
AcDbLine
 10
57.3454
 20
164.229125
 30
0.0
 11
57.451758
 21
165.125
 31
0.0
  0
LINE
  5
328
100
AcDbEntity
  8
0
370
         0
390
0
  6
CONTINUOUS
 62
         7
100
AcDbLine
 10
68.739569
 20
165.125
 30
0.0
 11
68.354386
 21
166.316142
 31
0.0
  0
LINE
  5
329
100
AcDbEntity
  8
0
370
         0
390
0
  6
CONTINUOUS
 62
         7
100
AcDbLine
 10
68.354386
 20
166.316142
 30
0.0
 11
67.428401
 21
167.174209
 31
0.0
  0
LINE
  5
32A
100
AcDbEntity
  8
0
370
         0
390
0
  6
CONTINUOUS
 62
         7
100
AcDbLine
 10
67.428401
 20
167.174209
 30
0.0
 11
66.259326
 21
167.66229
 31
0.0
  0
LINE
  5
32B
100
AcDbEntity
  8
0
370
         0
390
0
  6
CONTINUOUS
 62
         7
100
AcDbLine
 10
66.259326
 20
167.66229
 30
0.0
 11
65.0
 21
167.819682
 31
0.0
  0
LINE
  5
32C
100
AcDbEntity
  8
0
370
         0
390
0
  6
CONTINUOUS
 62
         7
100
AcDbLine
 10
65.0
 20
167.819682
 30
0.0
 11
63.741422
 21
167.662483
 31
0.0
  0
LINE
  5
32D
100
AcDbEntity
  8
0
370
         0
390
0
  6
CONTINUOUS
 62
         7
100
AcDbLine
 10
63.741422
 20
167.662483
 30
0.0
 11
62.572012
 21
167.174463
 31
0.0
  0
LINE
  5
32E
100
AcDbEntity
  8
0
370
         0
390
0
  6
CONTINUOUS
 62
         7
100
AcDbLine
 10
62.572012
 20
167.174463
 30
0.0
 11
61.645374
 21
166.315792
 31
0.0
  0
LINE
  5
32F
100
AcDbEntity
  8
0
370
         0
390
0
  6
CONTINUOUS
 62
         7
100
AcDbLine
 10
61.645374
 20
166.315792
 30
0.0
 11
61.260431
 21
165.125
 31
0.0
  0
LINE
  5
330
100
AcDbEntity
  8
0
370
         0
390
0
  6
CONTINUOUS
 62
         7
100
AcDbLine
 10
61.260431
 20
165.125
 30
0.0
 11
61.645614
 21
163.933858
 31
0.0
  0
LINE
  5
331
100
AcDbEntity
  8
0
370
         0
390
0
  6
CONTINUOUS
 62
         7
100
AcDbLine
 10
61.645614
 20
163.933858
 30
0.0
 11
62.571599
 21
163.075791
 31
0.0
  0
LINE
  5
332
100
AcDbEntity
  8
0
370
         0
390
0
  6
CONTINUOUS
 62
         7
100
AcDbLine
 10
62.571599
 20
163.075791
 30
0.0
 11
63.740674
 21
162.58771
 31
0.0
  0
LINE
  5
333
100
AcDbEntity
  8
0
370
         0
390
0
  6
CONTINUOUS
 62
         7
100
AcDbLine
 10
63.740674
 20
162.58771
 30
0.0
 11
65.0
 21
162.430318
 31
0.0
  0
LINE
  5
334
100
AcDbEntity
  8
0
370
         0
390
0
  6
CONTINUOUS
 62
         7
100
AcDbLine
 10
65.0
 20
162.430318
 30
0.0
 11
66.258578
 21
162.587517
 31
0.0
  0
LINE
  5
335
100
AcDbEntity
  8
0
370
         0
390
0
  6
CONTINUOUS
 62
         7
100
AcDbLine
 10
66.258578
 20
162.587517
 30
0.0
 11
67.427988
 21
163.075537
 31
0.0
  0
LINE
  5
336
100
AcDbEntity
  8
0
370
         0
390
0
  6
CONTINUOUS
 62
         7
100
AcDbLine
 10
67.427988
 20
163.075537
 30
0.0
 11
68.354626
 21
163.934208
 31
0.0
  0
LINE
  5
337
100
AcDbEntity
  8
0
370
         0
390
0
  6
CONTINUOUS
 62
         7
100
AcDbLine
 10
68.354626
 20
163.934208
 30
0.0
 11
68.739569
 21
165.125
 31
0.0
  0
LINE
  5
338
100
AcDbEntity
  8
0
370
         0
390
0
  6
CONTINUOUS
 62
         7
100
AcDbLine
 10
72.548242
 20
165.125
 30
0.0
 11
72.65442
 21
166.020138
 31
0.0
  0
LINE
  5
339
100
AcDbEntity
  8
0
370
         0
390
0
  6
CONTINUOUS
 62
         7
100
AcDbLine
 10
72.65442
 20
166.020138
 30
0.0
 11
72.985935
 21
166.857532
 31
0.0
  0
LINE
  5
33A
100
AcDbEntity
  8
0
370
         0
390
0
  6
CONTINUOUS
 62
         7
100
AcDbLine
 10
72.985935
 20
166.857532
 30
0.0
 11
73.578089
 21
167.532492
 31
0.0
  0
LINE
  5
33B
100
AcDbEntity
  8
0
370
         0
390
0
  6
CONTINUOUS
 62
         7
100
AcDbLine
 10
73.578089
 20
167.532492
 30
0.0
 11
74.418026
 21
167.819682
 31
0.0
  0
LINE
  5
33C
100
AcDbEntity
  8
0
370
         0
390
0
  6
CONTINUOUS
 62
         7
100
AcDbLine
 10
74.418026
 20
167.819682
 30
0.0
 11
75.258228
 21
167.5323
 31
0.0
  0
LINE
  5
33D
100
AcDbEntity
  8
0
370
         0
390
0
  6
CONTINUOUS
 62
         7
100
AcDbLine
 10
75.258228
 20
167.5323
 30
0.0
 11
75.84986
 21
166.857973
 31
0.0
  0
LINE
  5
33E
100
AcDbEntity
  8
0
370
         0
390
0
  6
CONTINUOUS
 62
         7
100
AcDbLine
 10
75.84986
 20
166.857973
 30
0.0
 11
76.181452
 21
166.020875
 31
0.0
  0
LINE
  5
33F
100
AcDbEntity
  8
0
370
         0
390
0
  6
CONTINUOUS
 62
         7
100
AcDbLine
 10
76.181452
 20
166.020875
 30
0.0
 11
76.28781
 21
165.125
 31
0.0
  0
LINE
  5
340
100
AcDbEntity
  8
0
370
         0
390
0
  6
CONTINUOUS
 62
         7
100
AcDbLine
 10
76.28781
 20
165.125
 30
0.0
 11
76.181632
 21
164.229862
 31
0.0
  0
LINE
  5
341
100
AcDbEntity
  8
0
370
         0
390
0
  6
CONTINUOUS
 62
         7
100
AcDbLine
 10
76.181632
 20
164.229862
 30
0.0
 11
75.850117
 21
163.392468
 31
0.0
  0
LINE
  5
342
100
AcDbEntity
  8
0
370
         0
390
0
  6
CONTINUOUS
 62
         7
100
AcDbLine
 10
75.850117
 20
163.392468
 30
0.0
 11
75.257963
 21
162.717508
 31
0.0
  0
LINE
  5
343
100
AcDbEntity
  8
0
370
         0
390
0
  6
CONTINUOUS
 62
         7
100
AcDbLine
 10
75.257963
 20
162.717508
 30
0.0
 11
74.418026
 21
162.430318
 31
0.0
  0
LINE
  5
344
100
AcDbEntity
  8
0
370
         0
390
0
  6
CONTINUOUS
 62
         7
100
AcDbLine
 10
74.418026
 20
162.430318
 30
0.0
 11
73.577824
 21
162.7177
 31
0.0
  0
LINE
  5
345
100
AcDbEntity
  8
0
370
         0
390
0
  6
CONTINUOUS
 62
         7
100
AcDbLine
 10
73.577824
 20
162.7177
 30
0.0
 11
72.986192
 21
163.392027
 31
0.0
  0
LINE
  5
346
100
AcDbEntity
  8
0
370
         0
390
0
  6
CONTINUOUS
 62
         7
100
AcDbLine
 10
72.986192
 20
163.392027
 30
0.0
 11
72.6546
 21
164.229125
 31
0.0
  0
LINE
  5
347
100
AcDbEntity
  8
0
370
         0
390
0
  6
CONTINUOUS
 62
         7
100
AcDbLine
 10
72.6546
 20
164.229125
 30
0.0
 11
72.548242
 21
165.125
 31
0.0
  0
LINE
  5
348
100
AcDbEntity
  8
0
370
         0
390
0
  6
CONTINUOUS
 62
         7
100
AcDbLine
 10
362.5
 20
130.0
 30
0.0
 11
240.0
 21
130.0
 31
0.0
  0
LINE
  5
349
100
AcDbEntity
  8
0
370
         0
390
0
  6
CONTINUOUS
 62
         7
100
AcDbLine
 10
362.5
 20
114.0
 30
0.0
 11
240.0
 21
114.0
 31
0.0
  0
ARC
  5
34A
100
AcDbEntity
  8
0
370
         0
390
0
  6
CONTINUOUS
 62
         7
100
AcDbCircle
 10
65.0
 20
74.5
 30
0.0
 40
16.5
100
AcDbArc
 50
119.002493
 51
60.997664
  0
LINE
  5
34B
100
AcDbEntity
  8
0
370
         0
390
0
  6
CONTINUOUS
 62
         7
100
AcDbLine
 10
392.5
 20
46.5
 30
0.0
 11
389.602221
 21
45.723547
 31
0.0
  0
LINE
  5
34C
100
AcDbEntity
  8
0
370
         0
390
0
  6
CONTINUOUS
 62
         7
100
AcDbLine
 10
392.5
 20
46.5
 30
0.0
 11
389.602223
 21
47.27646
 31
0.0
  0
LINE
  5
34D
100
AcDbEntity
  8
0
370
         0
390
0
  6
CONTINUOUS
 62
         7
100
AcDbLine
 10
392.5
 20
114.0
 30
0.0
 11
392.5
 21
44.214005
 31
0.0
  0
TEXT
  5
34E
100
AcDbEntity
  8
0
370
         0
390
0
  6
CONTINUOUS
 62
         7
100
AcDbText
 10
282.264282
 20
46.49999
 30
0.0
 40
3.2
  1
425
 50
0.000076
  7
arial_ttf
 11
282.2642777554
 21
49.69999
 31
0.0
100
AcDbText
 73
         3
  0
LINE
  5
34F
100
AcDbEntity
  8
0
370
         0
390
0
  6
CONTINUOUS
 62
         7
100
AcDbLine
 10
392.5
 20
248.0
 30
0.0
 11
392.5
 21
232.0
 31
0.0
  0
LINE
  5
350
100
AcDbEntity
  8
0
370
         0
390
0
  6
CONTINUOUS
 62
         7
100
AcDbLine
 10
369.5
 20
256.5
 30
0.0
 11
369.5
 21
223.5
 31
0.0
  0
LINE
  5
351
100
AcDbEntity
  8
0
370
         0
390
0
  6
CONTINUOUS
 62
         7
100
AcDbLine
 10
362.5
 20
250.5
 30
0.0
 11
362.5
 21
229.5
 31
0.0
  0
LINE
  5
352
100
AcDbEntity
  8
0
370
         0
390
0
  6
CONTINUOUS
 62
         7
100
AcDbLine
 10
368.5
 20
256.5
 30
0.0
 11
369.5
 21
256.5
 31
0.0
  0
LINE
  5
353
100
AcDbEntity
  8
0
370
         0
390
0
  6
CONTINUOUS
 62
         7
100
AcDbLine
 10
368.5
 20
223.5
 30
0.0
 11
369.5
 21
223.5
 31
0.0
  0
LINE
  5
354
100
AcDbEntity
  8
0
370
         0
390
0
  6
CONTINUOUS
 62
         7
100
AcDbLine
 10
369.5
 20
232.0
 30
0.0
 11
392.5
 21
232.0
 31
0.0
  0
LINE
  5
355
100
AcDbEntity
  8
0
370
         0
390
0
  6
CONTINUOUS
 62
         7
100
AcDbLine
 10
369.5
 20
248.0
 30
0.0
 11
392.5
 21
248.0
 31
0.0
  0
ARC
  5
356
100
AcDbEntity
  8
0
370
         0
390
0
  6
CONTINUOUS
 62
         7
100
AcDbCircle
 10
368.5
 20
250.5
 30
0.0
 40
6.0
100
AcDbArc
 50
90.000079
 51
180.000157
  0
ARC
  5
357
100
AcDbEntity
  8
0
370
         0
390
0
  6
CONTINUOUS
 62
         7
100
AcDbCircle
 10
368.5
 20
229.5
 30
0.0
 40
6.0
100
AcDbArc
 50
180.000143
 51
270.000229
  0
TEXT
  5
358
100
AcDbEntity
  8
0
370
         0
390
0
  6
CONTINUOUS
 62
         7
100
AcDbText
 10
27.929
 20
16.19999
 30
0.0
 40
1.5
  1
Matsumoto
  7
arial_ttf
 11
27.929
 21
17.69999
 31
0.0
100
AcDbText
 73
         3
  0
TEXT
  5
359
100
AcDbEntity
  8
0
370
         0
390
0
  6
CONTINUOUS
 62
         7
100
AcDbText
 10
28.429
 20
21.19999
 30
0.0
 40
1.5
  1
04.10.10
  7
arial_ttf
 11
28.429
 21
22.69999
 31
0.0
100
AcDbText
 73
         3
  0
TEXT
  5
35A
100
AcDbEntity
  8
0
370
         0
390
0
  6
CONTINUOUS
 62
         7
100
AcDbText
 10
362.9643
 20
19.50999
 30
0.0
 40
3.2
  1
JP1 907 00
  7
arial_ttf
 11
362.9643
 21
22.70999
 31
0.0
100
AcDbText
 73
         3
  0
ENDSEC
  0
SECTION
  2
OBJECTS
  0
DICTIONARY
  5
19
100
AcDbDictionary
280
         0
281
         1
  3
ACAD_GROUP
350
1A
  3
ACAD_MLINESTYLE
350
1B
  3
ACAD_LAYOUT
350
1E
  3
ACAD_PLOTSETTINGS
350
22
  3
ACAD_PLOTSTYLENAME
350
1F
  3
ACAD_WIPEOUT_VARS
350
23
  3
AcDbVariableDictionary
350
35B
  0
DICTIONARY
  5
1A
102
{ACAD_REACTORS
330
19
102
}
100
AcDbDictionary
280
         0
281
         1
  0
DICTIONARY
  5
1B
102
{ACAD_REACTORS
330
19
102
}
100
AcDbDictionary
280
         0
281
         1
  3
Standard
350
1C
  0
MLINESTYLE
  5
1C
102
{ACAD_REACTORS
330
1B
102
}
100
AcDbMlineStyle
  2
Standard
 70
         0
  3

 62
         0
 51
90.0
 52
90.0
 71
         2
 49
0.5
 62
       256
  6
ByLayer
 49
-0.5
 62
       256
  6
ByLayer
  0
ACDBDICTIONARYWDFLT
  5
1F
102
{ACAD_REACTORS
330
19
102
}
100
AcDbDictionary
281
         1
  3
Normal
350
1D
100
AcDbDictionaryWithDefault
340
1D
  0
ACDBPLACEHOLDER
  5
1D
102
{ACAD_REACTORS
330
1F
102
}
  0
LAYOUT
  5
20
102
{ACAD_REACTORS
330
1E
102
}
100
AcDbPlotSettings
  1

  2

  4

  6

 40
0.0
 41
0.0
 42
0.0
 43
0.0
 44
0.0
 45
0.0
 46
0.0
 47
0.0
 48
0.0
 49
0.0
140
0.0
141
0.0
142
1.0
143
1.0
 70
      1024
 72
         0
 73
         0
 74
         0
  7

 75
         0
147
1.0
148
0.0
149
0.0
100
AcDbLayout
  1
Model
 70
         0
 71
         0
 10
0.0
 20
0.0
 11
0.0
 21
0.0
 12
0.0
 22
0.0
 32
0.0
 14
0.0
 24
0.0
 34
0.0
 15
0.0
 25
0.0
 35
0.0
146
0.0
 13
0.0
 23
0.0
 33
0.0
 16
0.0
 26
0.0
 36
0.0
 17
0.0
 27
0.0
 37
0.0
 76
         0
330
A
331
0
345
0
346
0
  0
LAYOUT
  5
21
102
{ACAD_REACTORS
330
1E
102
}
100
AcDbPlotSettings
  1

  2

  4

  6

 40
0.0
 41
0.0
 42
0.0
 43
0.0
 44
0.0
 45
0.0
 46
0.0
 47
0.0
 48
0.0
 49
0.0
140
0.0
141
0.0
142
1.0
143
1.0
 70
         0
 72
         0
 73
         0
 74
         0
  7

 75
         0
147
1.0
148
0.0
149
0.0
100
AcDbLayout
  1
Layout1
 70
         0
 71
         0
 10
0.0
 20
0.0
 11
0.0
 21
0.0
 12
0.0
 22
0.0
 32
0.0
 14
0.0
 24
0.0
 34
0.0
 15
0.0
 25
0.0
 35
0.0
146
0.0
 13
0.0
 23
0.0
 33
0.0
 16
0.0
 26
0.0
 36
0.0
 17
0.0
 27
0.0
 37
0.0
 76
         0
330
B
331
0
345
0
346
0
  0
DICTIONARY
  5
1E
102
{ACAD_REACTORS
330
19
102
}
100
AcDbDictionary
280
         0
281
         1
  3
Layout1
350
21
  3
Model
350
20
  0
DICTIONARY
  5
22
102
{ACAD_REACTORS
330
19
102
}
100
AcDbDictionary
280
         0
281
         1
  0
WIPEOUTVARIABLES
  5
23
100
AcDbWipeoutVariables
 70
         1
  0
DICTIONARY
  5
35B
100
AcDbDictionary
280
         0
281
         0
  3
DIMASSOC
350
35C
  0
DICTIONARYVAR
  5
35C
100
DictionaryVariables
280
         0
  1
2
  0
ENDSEC
  0
EOF
