  0
SECTION
  2
HEADER
  9
$ACADVER
  1
AC1009
  9
$INSBASE
 10
0.0
 20
0.0
 30
0.0
  9
$EXTMIN
 10
-4.7012099999999988
 20
-21.070999999999991
 30
0.0
  9
$EXTMAX
 10
205.30099999999999
 20
275.93099999999993
 30
0.0
  9
$LIMMIN
 10
0.0
 20
0.0
  9
$LIMMAX
 10
12.0
 20
9.0
  9
$ORTHOMODE
 70
     0
  9
$REGENMODE
 70
     1
  9
$FILLMODE
 70
     1
  9
$QTEXTMODE
 70
     0
  9
$MIRRTEXT
 70
     1
  9
$DRAGMODE
 70
     2
  9
$LTSCALE
 40
1.0
  9
$OSMODE
 70
    37
  9
$ATTMODE
 70
     1
  9
$TEXTSIZE
 40
0.0
  9
$TRACEWID
 40
0.05
  9
$TEXTSTYLE
  7
STANDARD
  9
$CLAYER
  8
0
  9
$CELTYPE
  6
CONTINUOUS
  9
$CECOLOR
 62
   256
  9
$DIMSCALE
 40
1.0
  9
$DIMASZ
 40
0.18
  9
$DIMEXO
 40
0.0625
  9
$DIMDLI
 40
0.38
  9
$DIMRND
 40
0.0
  9
$DIMDLE
 40
0.0
  9
$DIMEXE
 40
0.18
  9
$DIMTP
 40
0.0
  9
$DIMTM
 40
0.0
  9
$DIMTXT
 40
0.18
  9
$DIMCEN
 40
0.09
  9
$DIMTSZ
 40
0.0
  9
$DIMTOL
 70
     0
  9
$DIMLIM
 70
     0
  9
$DIMTIH
 70
     1
  9
$DIMTOH
 70
     1
  9
$DIMSE1
 70
     0
  9
$DIMSE2
 70
     0
  9
$DIMTAD
 70
     0
  9
$DIMZIN
 70
     0
  9
$DIMBLK
  1

  9
$DIMASO
 70
     1
  9
$DIMSHO
 70
     1
  9
$DIMPOST
  1

  9
$DIMAPOST
  1

  9
$DIMALT
 70
     0
  9
$DIMALTD
 70
     2
  9
$DIMALTF
 40
25.399999999999999
  9
$DIMLFAC
 40
1.0
  9
$DIMTOFL
 70
     0
  9
$DIMTVP
 40
0.0
  9
$DIMTIX
 70
     0
  9
$DIMSOXD
 70
     0
  9
$DIMSAH
 70
     0
  9
$DIMBLK1
  1

  9
$DIMBLK2
  1

  9
$DIMSTYLE
  2
STANDARD
  9
$DIMCLRD
 70
     0
  9
$DIMCLRE
 70
     0
  9
$DIMCLRT
 70
     0
  9
$DIMTFAC
 40
1.0
  9
$DIMGAP
 40
0.09
  9
$LUNITS
 70
     2
  9
$LUPREC
 70
     4
  9
$SKETCHINC
 40
0.1
  9
$FILLETRAD
 40
0.0
  9
$AUNITS
 70
     0
  9
$AUPREC
 70
     0
  9
$MENU
  1
.
  9
$ELEVATION
 40
0.0
  9
$PELEVATION
 40
0.0
  9
$THICKNESS
 40
0.0
  9
$LIMCHECK
 70
     0
  9
$BLIPMODE
 70
     0
  9
$CHAMFERA
 40
0.0
  9
$CHAMFERB
 40
0.0
  9
$SKPOLY
 70
     0
  9
$TDCREATE
 40
2444972.375
  9
$TDUPDATE
 40
2455980.3579929741
  9
$TDINDWG
 40
0.0000079745
  9
$TDUSRTIMER
 40
0.0000079745
  9
$USRTIMER
 70
     1
  9
$ANGBASE
 50
0.0
  9
$ANGDIR
 70
     0
  9
$PDMODE
 70
     0
  9
$PDSIZE
 40
0.0
  9
$PLINEWID
 40
0.0
  9
$COORDS
 70
     1
  9
$SPLFRAME
 70
     0
  9
$SPLINETYPE
 70
     6
  9
$SPLINESEGS
 70
     8
  9
$ATTDIA
 70
     0
  9
$ATTREQ
 70
     1
  9
$HANDLING
 70
     1
  9
$HANDSEED
  5
278
  9
$SURFTAB1
 70
     6
  9
$SURFTAB2
 70
     6
  9
$SURFTYPE
 70
     6
  9
$SURFU
 70
     6
  9
$SURFV
 70
     6
  9
$UCSNAME
  2

  9
$UCSORG
 10
0.0
 20
0.0
 30
0.0
  9
$UCSXDIR
 10
1.0
 20
0.0
 30
0.0
  9
$UCSYDIR
 10
0.0
 20
1.0
 30
0.0
  9
$PUCSNAME
  2

  9
$PUCSORG
 10
0.0
 20
0.0
 30
0.0
  9
$PUCSXDIR
 10
1.0
 20
0.0
 30
0.0
  9
$PUCSYDIR
 10
0.0
 20
1.0
 30
0.0
  9
$USERI1
 70
     0
  9
$USERI2
 70
     0
  9
$USERI3
 70
     0
  9
$USERI4
 70
     0
  9
$USERI5
 70
     0
  9
$USERR1
 40
0.0
  9
$USERR2
 40
0.0
  9
$USERR3
 40
0.0
  9
$USERR4
 40
0.0
  9
$USERR5
 40
0.0
  9
$WORLDVIEW
 70
     1
  9
$SHADEDGE
 70
     3
  9
$SHADEDIF
 70
    70
  9
$TILEMODE
 70
     1
  9
$MAXACTVP
 70
    48
  9
$PLIMCHECK
 70
     0
  9
$PEXTMIN
 10
1.0000000000000000E+020
 20
1.0000000000000000E+020
 30
1.0000000000000000E+020
  9
$PEXTMAX
 10
-1.0000000000000000E+020
 20
-1.0000000000000000E+020
 30
-1.0000000000000000E+020
  9
$PLIMMIN
 10
0.0
 20
0.0
  9
$PLIMMAX
 10
12.0
 20
9.0
  9
$UNITMODE
 70
     0
  9
$VISRETAIN
 70
     1
  9
$PLINEGEN
 70
     0
  9
$PSLTSCALE
 70
     1
  0
ENDSEC
  0
SECTION
  2
TABLES
  0
TABLE
  2
VPORT
 70
     2
  0
VPORT
  2
*ACTIVE
 70
     0
 10
0.0
 20
0.0
 11
1.0
 21
1.0
 12
205.31019906752431
 22
127.42999999999989
 13
0.0
 23
0.0
 14
1.0
 24
1.0
 15
0.0
 25
0.0
 16
0.0
 26
0.0
 36
1.0
 17
0.0
 27
0.0
 37
0.0
 40
299.24634760705283
 41
2.2894736842105261
 42
50.0
 43
0.0
 44
0.0
 50
0.0
 51
0.0
 71
     0
 72
   100
 73
     1
 74
     1
 75
     0
 76
     0
 77
     0
 78
     0
  0
ENDTAB
  0
TABLE
  2
LTYPE
 70
     3
  0
LTYPE
  2
CONTINUOUS
 70
     0
  3
Solid line
 72
    65
 73
     0
 40
0.0
  0
LTYPE
  2
AIGENLINE001
 70
     0
  3
generate AI->DXF Converter
 72
    65
 73
     2
 40
1.5522299999999991
 49
0.776115
 49
-0.776115
  0
LTYPE
  2
AIGENLINE002
 70
     0
  3
generate AI->DXF Converter
 72
    65
 73
     4
 40
5.8561449999999988
 49
3.5278
 49
-0.776115
 49
0.776115
 49
-0.776115
  0
ENDTAB
  0
TABLE
  2
LAYER
 70
     2
  0
LAYER
  2
0
 70
     0
 62
     7
  6
CONTINUOUS
  0
LAYER
  2
_________2
 70
     0
 62
     7
  6
CONTINUOUS
  0
ENDTAB
  0
TABLE
  2
STYLE
 70
     1
  0
STYLE
  2
STANDARD
 70
     0
 40
0.0
 41
0.0
 50
0.0
 71
     0
 42
0.0
  3
TXT
  4
EXTFONT.SHX
  0
ENDTAB
  0
TABLE
  2
VIEW
 70
     0
  0
ENDTAB
  0
TABLE
  2
UCS
 70
     0
  0
ENDTAB
  0
TABLE
  2
APPID
 70
     1
  0
APPID
  2
ACAD
 70
     0
  0
ENDTAB
  0
TABLE
  2
DIMSTYLE
 70
     1
  0
DIMSTYLE
  2
STANDARD
 70
     0
  3

  4

  5

  6

  7

 40
1.0
 41
0.18
 42
0.0625
 43
0.38
 44
0.18
 45
0.0
 46
0.0
 47
0.0
 48
0.0
140
0.18
141
0.09
142
0.0
143
25.399999999999999
144
1.0
145
0.0
146
1.0
147
0.09
 71
     0
 72
     0
 73
     1
 74
     1
 75
     0
 76
     0
 77
     0
 78
     0
170
     0
171
     2
172
     0
173
     0
174
     0
175
     0
176
     0
177
     0
178
     0
  0
ENDTAB
  0
ENDSEC
  0
SECTION
  2
BLOCKS
  0
BLOCK
  8
0
  2
$MODEL_SPACE
 70
     0
 10
0.0
 20
0.0
 30
0.0
  3
$MODEL_SPACE
  1

  0
ENDBLK
  5
1A
  8
0
  0
BLOCK
 67
     1
  8
0
  2
$PAPER_SPACE
 70
     0
 10
0.0
 20
0.0
 30
0.0
  3
$PAPER_SPACE
  1

  0
ENDBLK
  5
17
 67
     1
  8
0
  0
ENDSEC
  0
SECTION
  2
ENTITIES
  0
TEXT
  5
23
  8
0
 62
     7
 10
81.967134999999985
 20
173.91099999999989
 30
0.0
 40
3.0923400000000001
  1
600
 41
0.5
 72
     1
 11
83.771000000000001
 21
173.91099999999989
 31
0.0
  0
TEXT
  5
24
  8
0
 62
     7
 10
81.709440000000001
 20
184.50200000000001
 30
0.0
 40
3.0923400000000001
  1
622
 41
0.5
 72
     1
 11
83.771000000000001
 21
184.50200000000001
 31
0.0
  0
TEXT
  5
25
  8
0
 62
     7
 10
49.275796
 20
159.88900000000001
 30
0.0
 40
3.0923400000000001
  1
（%%c6×45 樹脂プラグ付）
 41
0.5
 72
     2
 11
71.746799999999993
 21
159.88900000000001
 31
0.0
  0
TEXT
  5
26
  8
0
 62
     7
 10
42.214952999999987
 20
164.93000000000001
 30
0.0
 40
3.0923400000000001
  1
%%c4×50 SUS十字穴付丸頭木ネジ
 41
0.5
 72
     2
 11
71.746799999999993
 21
164.93000000000001
 31
0.0
  0
TEXT
  5
27
  8
0
 62
     7
 10
174.995
 20
114.23944
 30
0.0
 40
3.0923400000000001
  1
17
 50
90.0
 41
0.5
 72
     2
 11
174.995
 21
116.301
 31
0.0
  0
TEXT
  5
28
  8
0
 62
     7
 10
152.7299999999999
 20
106.985525
 30
0.0
 40
3.0923400000000001
  1
33
 50
90.0
 41
0.5
 72
     1
 11
152.7299999999999
 21
108.274
 31
0.0
  0
TEXT
  5
29
  8
0
 62
     7
 10
152.7299999999999
 20
147.8043725
 30
0.0
 40
3.0923400000000001
  1
60
 50
90.0
 41
0.5
 72
     1
 11
152.7299999999999
 21
148.964
 31
0.0
  0
LINE
  5
2A
  8
0
 62
     7
 10
143.41399999999999
 20
154.05000000000001
 30
0.0
 11
143.63699999999989
 21
153.76300000000001
 31
0.0
  0
LINE
  5
2B
  8
0
 62
     7
 10
143.63699999999989
 20
153.76300000000001
 30
0.0
 11
143.54300000000001
 21
153.76300000000001
 31
0.0
  0
LINE
  5
2C
  8
0
 62
     7
 10
143.54300000000001
 20
153.76300000000001
 30
0.0
 11
143.3239999999999
 21
154.0449999999999
 31
0.0
  0
LINE
  5
2D
  8
0
 62
     7
 10
143.3239999999999
 20
154.0449999999999
 30
0.0
 11
143.3239999999999
 21
153.76300000000001
 31
0.0
  0
LINE
  5
2E
  8
0
 62
     7
 10
143.3239999999999
 20
153.76300000000001
 30
0.0
 11
143.24700000000001
 21
153.76300000000001
 31
0.0
  0
LINE
  5
2F
  8
0
 62
     7
 10
143.24700000000001
 20
153.76300000000001
 30
0.0
 11
143.24700000000001
 21
154.35900000000001
 31
0.0
  0
LINE
  5
30
  8
0
 62
     7
 10
143.24700000000001
 20
154.35900000000001
 30
0.0
 11
143.3239999999999
 21
154.35900000000001
 31
0.0
  0
LINE
  5
31
  8
0
 62
     7
 10
143.3239999999999
 20
154.35900000000001
 30
0.0
 11
143.3239999999999
 21
154.054
 31
0.0
  0
LINE
  5
32
  8
0
 62
     7
 10
143.3239999999999
 20
154.054
 30
0.0
 11
143.548
 21
154.35900000000001
 31
0.0
  0
LINE
  5
33
  8
0
 62
     7
 10
143.548
 20
154.35900000000001
 30
0.0
 11
143.64099999999991
 21
154.35900000000001
 31
0.0
  0
LINE
  5
34
  8
0
 62
     7
 10
143.64099999999991
 20
154.35900000000001
 30
0.0
 11
143.41399999999999
 21
154.05000000000001
 31
0.0
  0
LINE
  5
35
  8
0
 62
     7
 10
143.7649999999999
 20
154.28100000000001
 30
0.0
 11
144.0689999999999
 21
154.28100000000001
 31
0.0
  0
LINE
  5
36
  8
0
 62
     7
 10
144.0689999999999
 20
154.28100000000001
 30
0.0
 11
144.0689999999999
 21
154.35900000000001
 31
0.0
  0
LINE
  5
37
  8
0
 62
     7
 10
144.0689999999999
 20
154.35900000000001
 30
0.0
 11
143.68600000000001
 21
154.35900000000001
 31
0.0
  0
LINE
  5
38
  8
0
 62
     7
 10
143.68600000000001
 20
154.35900000000001
 30
0.0
 11
143.68600000000001
 21
153.76300000000001
 31
0.0
  0
LINE
  5
39
  8
0
 62
     7
 10
143.68600000000001
 20
153.76300000000001
 30
0.0
 11
144.0689999999999
 21
153.76300000000001
 31
0.0
  0
LINE
  5
3A
  8
0
 62
     7
 10
144.0689999999999
 20
153.76300000000001
 30
0.0
 11
144.0689999999999
 21
153.84
 31
0.0
  0
LINE
  5
3B
  8
0
 62
     7
 10
144.0689999999999
 20
153.84
 30
0.0
 11
143.7649999999999
 21
153.84
 31
0.0
  0
LINE
  5
3C
  8
0
 62
     7
 10
143.7649999999999
 20
153.84
 30
0.0
 11
143.7649999999999
 21
154.05799999999999
 31
0.0
  0
LINE
  5
3D
  8
0
 62
     7
 10
143.7649999999999
 20
154.05799999999999
 30
0.0
 11
144.0689999999999
 21
154.05799999999999
 31
0.0
  0
LINE
  5
3E
  8
0
 62
     7
 10
144.0689999999999
 20
154.05799999999999
 30
0.0
 11
144.0689999999999
 21
154.1339999999999
 31
0.0
  0
LINE
  5
3F
  8
0
 62
     7
 10
144.0689999999999
 20
154.1339999999999
 30
0.0
 11
143.7649999999999
 21
154.1339999999999
 31
0.0
  0
LINE
  5
40
  8
0
 62
     7
 10
143.7649999999999
 20
154.1339999999999
 30
0.0
 11
143.7649999999999
 21
154.28100000000001
 31
0.0
  0
LINE
  5
41
  8
0
 62
     7
 10
144.20699999999999
 20
154.35900000000001
 30
0.0
 11
144.13
 21
154.35900000000001
 31
0.0
  0
LINE
  5
42
  8
0
 62
     7
 10
144.13
 20
154.35900000000001
 30
0.0
 11
144.13
 21
153.983
 31
0.0
  0
LINE
  5
43
  8
0
 62
     7
 10
144.13
 20
153.983
 30
0.0
 11
144.14299999999989
 21
153.90799999999999
 31
0.0
  0
LINE
  5
44
  8
0
 62
     7
 10
144.14299999999989
 20
153.90799999999999
 30
0.0
 11
144.18199999999999
 21
153.84200000000001
 31
0.0
  0
LINE
  5
45
  8
0
 62
     7
 10
144.18199999999999
 20
153.84200000000001
 30
0.0
 11
144.239
 21
153.79300000000001
 31
0.0
  0
LINE
  5
46
  8
0
 62
     7
 10
144.239
 20
153.79300000000001
 30
0.0
 11
144.31
 21
153.767
 31
0.0
  0
LINE
  5
47
  8
0
 62
     7
 10
144.31
 20
153.767
 30
0.0
 11
144.38699999999989
 21
153.767
 31
0.0
  0
LINE
  5
48
  8
0
 62
     7
 10
144.38699999999989
 20
153.767
 30
0.0
 11
144.458
 21
153.79300000000001
 31
0.0
  0
LINE
  5
49
  8
0
 62
     7
 10
144.458
 20
153.79300000000001
 30
0.0
 11
144.518
 21
153.84200000000001
 31
0.0
  0
LINE
  5
4A
  8
0
 62
     7
 10
144.518
 20
153.84200000000001
 30
0.0
 11
144.554
 21
153.90799999999999
 31
0.0
  0
LINE
  5
4B
  8
0
 62
     7
 10
144.554
 20
153.90799999999999
 30
0.0
 11
144.5679999999999
 21
153.983
 31
0.0
  0
LINE
  5
4C
  8
0
 62
     7
 10
144.5679999999999
 20
153.983
 30
0.0
 11
144.5679999999999
 21
154.35900000000001
 31
0.0
  0
LINE
  5
4D
  8
0
 62
     7
 10
144.5679999999999
 20
154.35900000000001
 30
0.0
 11
144.49100000000001
 21
154.35900000000001
 31
0.0
  0
LINE
  5
4E
  8
0
 62
     7
 10
144.49100000000001
 20
154.35900000000001
 30
0.0
 11
144.49100000000001
 21
153.983
 31
0.0
  0
LINE
  5
4F
  8
0
 62
     7
 10
144.49100000000001
 20
153.983
 30
0.0
 11
144.48099999999991
 21
153.929
 31
0.0
  0
LINE
  5
50
  8
0
 62
     7
 10
144.48099999999991
 20
153.929
 30
0.0
 11
144.4499999999999
 21
153.88200000000001
 31
0.0
  0
LINE
  5
51
  8
0
 62
     7
 10
144.4499999999999
 20
153.88200000000001
 30
0.0
 11
144.40299999999991
 21
153.852
 31
0.0
  0
LINE
  5
52
  8
0
 62
     7
 10
144.40299999999991
 20
153.852
 30
0.0
 11
144.34999999999999
 21
153.84
 31
0.0
  0
LINE
  5
53
  8
0
 62
     7
 10
144.34999999999999
 20
153.84
 30
0.0
 11
144.2949999999999
 21
153.852
 31
0.0
  0
LINE
  5
54
  8
0
 62
     7
 10
144.2949999999999
 20
153.852
 30
0.0
 11
144.24799999999991
 21
153.88200000000001
 31
0.0
  0
LINE
  5
55
  8
0
 62
     7
 10
144.24799999999991
 20
153.88200000000001
 30
0.0
 11
144.21700000000001
 21
153.929
 31
0.0
  0
LINE
  5
56
  8
0
 62
     7
 10
144.21700000000001
 20
153.929
 30
0.0
 11
144.20699999999999
 21
153.983
 31
0.0
  0
LINE
  5
57
  8
0
 62
     7
 10
144.20699999999999
 20
153.983
 30
0.0
 11
144.20699999999999
 21
154.35900000000001
 31
0.0
  0
LINE
  5
58
  8
0
 62
     7
 10
145.01400000000001
 20
154.24799999999991
 30
0.0
 11
144.94200000000001
 21
154.274
 31
0.0
  0
LINE
  5
59
  8
0
 62
     7
 10
144.94200000000001
 20
154.274
 30
0.0
 11
144.864
 21
154.274
 31
0.0
  0
LINE
  5
5A
  8
0
 62
     7
 10
144.864
 20
154.274
 30
0.0
 11
144.79300000000001
 21
154.24700000000001
 31
0.0
  0
LINE
  5
5B
  8
0
 62
     7
 10
144.79300000000001
 20
154.24700000000001
 30
0.0
 11
144.7359999999999
 21
154.19799999999989
 31
0.0
  0
LINE
  5
5C
  8
0
 62
     7
 10
144.7359999999999
 20
154.19799999999989
 30
0.0
 11
144.69799999999989
 21
154.12999999999991
 31
0.0
  0
LINE
  5
5D
  8
0
 62
     7
 10
144.69799999999989
 20
154.12999999999991
 30
0.0
 11
144.68499999999989
 21
154.05500000000001
 31
0.0
  0
LINE
  5
5E
  8
0
 62
     7
 10
144.68499999999989
 20
154.05500000000001
 30
0.0
 11
144.6999999999999
 21
153.9789999999999
 31
0.0
  0
LINE
  5
5F
  8
0
 62
     7
 10
144.6999999999999
 20
153.9789999999999
 30
0.0
 11
144.74000000000001
 21
153.9139999999999
 31
0.0
  0
LINE
  5
60
  8
0
 62
     7
 10
144.74000000000001
 20
153.9139999999999
 30
0.0
 11
144.79900000000001
 21
153.86600000000001
 31
0.0
  0
LINE
  5
61
  8
0
 62
     7
 10
144.79900000000001
 20
153.86600000000001
 30
0.0
 11
144.84
 21
153.8479999999999
 31
0.0
  0
LINE
  5
62
  8
0
 62
     7
 10
144.84
 20
153.8479999999999
 30
0.0
 11
144.8839999999999
 21
153.84
 31
0.0
  0
LINE
  5
63
  8
0
 62
     7
 10
144.8839999999999
 20
153.84
 30
0.0
 11
144.92899999999989
 21
153.84
 31
0.0
  0
LINE
  5
64
  8
0
 62
     7
 10
144.92899999999989
 20
153.84
 30
0.0
 11
144.9729999999999
 21
153.84999999999991
 31
0.0
  0
LINE
  5
65
  8
0
 62
     7
 10
144.9729999999999
 20
153.84999999999991
 30
0.0
 11
145.01400000000001
 21
153.86799999999999
 31
0.0
  0
LINE
  5
66
  8
0
 62
     7
 10
145.01400000000001
 20
153.86799999999999
 30
0.0
 11
145.05199999999999
 21
153.80199999999999
 31
0.0
  0
LINE
  5
67
  8
0
 62
     7
 10
145.05199999999999
 20
153.80199999999999
 30
0.0
 11
144.96600000000001
 21
153.76900000000001
 31
0.0
  0
LINE
  5
68
  8
0
 62
     7
 10
144.96600000000001
 20
153.76900000000001
 30
0.0
 11
144.87100000000001
 21
153.76400000000001
 31
0.0
  0
LINE
  5
69
  8
0
 62
     7
 10
144.87100000000001
 20
153.76400000000001
 30
0.0
 11
144.78200000000001
 21
153.7879999999999
 31
0.0
  0
LINE
  5
6A
  8
0
 62
     7
 10
144.78200000000001
 20
153.7879999999999
 30
0.0
 11
144.70500000000001
 21
153.84
 31
0.0
  0
LINE
  5
6B
  8
0
 62
     7
 10
144.70500000000001
 20
153.84
 30
0.0
 11
144.64599999999999
 21
153.9129999999999
 31
0.0
  0
LINE
  5
6C
  8
0
 62
     7
 10
144.64599999999999
 20
153.9129999999999
 30
0.0
 11
144.61399999999989
 21
154.0
 31
0.0
  0
LINE
  5
6D
  8
0
 62
     7
 10
144.61399999999989
 20
154.0
 30
0.0
 11
144.61199999999999
 21
154.0929999999999
 31
0.0
  0
LINE
  5
6E
  8
0
 62
     7
 10
144.61199999999999
 20
154.0929999999999
 30
0.0
 11
144.63699999999989
 21
154.18299999999999
 31
0.0
  0
LINE
  5
6F
  8
0
 62
     7
 10
144.63699999999989
 20
154.18299999999999
 30
0.0
 11
144.68899999999991
 21
154.25999999999999
 31
0.0
  0
LINE
  5
70
  8
0
 62
     7
 10
144.68899999999991
 20
154.25999999999999
 30
0.0
 11
144.762
 21
154.31700000000001
 31
0.0
  0
LINE
  5
71
  8
0
 62
     7
 10
144.762
 20
154.31700000000001
 30
0.0
 11
144.8189999999999
 21
154.34100000000001
 31
0.0
  0
LINE
  5
72
  8
0
 62
     7
 10
144.8189999999999
 20
154.34100000000001
 30
0.0
 11
144.87799999999999
 21
154.35299999999989
 31
0.0
  0
LINE
  5
73
  8
0
 62
     7
 10
144.87799999999999
 20
154.35299999999989
 30
0.0
 11
144.9379999999999
 21
154.352
 31
0.0
  0
LINE
  5
74
  8
0
 62
     7
 10
144.9379999999999
 20
154.352
 30
0.0
 11
144.99700000000001
 21
154.339
 31
0.0
  0
LINE
  5
75
  8
0
 62
     7
 10
144.99700000000001
 20
154.339
 30
0.0
 11
145.05199999999999
 21
154.31499999999991
 31
0.0
  0
LINE
  5
76
  8
0
 62
     7
 10
145.05199999999999
 20
154.31499999999991
 30
0.0
 11
145.01400000000001
 21
154.24799999999991
 31
0.0
  0
LINE
  5
77
  8
0
 62
     7
 10
145.4859999999999
 20
154.1329999999999
 30
0.0
 11
145.4489999999999
 21
154.19900000000001
 31
0.0
  0
LINE
  5
78
  8
0
 62
     7
 10
145.4489999999999
 20
154.19900000000001
 30
0.0
 11
145.39099999999999
 21
154.24799999999991
 31
0.0
  0
LINE
  5
79
  8
0
 62
     7
 10
145.39099999999999
 20
154.24799999999991
 30
0.0
 11
145.3179999999999
 21
154.274
 31
0.0
  0
LINE
  5
7A
  8
0
 62
     7
 10
145.3179999999999
 20
154.274
 30
0.0
 11
145.24299999999991
 21
154.274
 31
0.0
  0
LINE
  5
7B
  8
0
 62
     7
 10
145.24299999999991
 20
154.274
 30
0.0
 11
145.1699999999999
 21
154.24799999999991
 31
0.0
  0
LINE
  5
7C
  8
0
 62
     7
 10
145.1699999999999
 20
154.24799999999991
 30
0.0
 11
145.113
 21
154.19900000000001
 31
0.0
  0
LINE
  5
7D
  8
0
 62
     7
 10
145.113
 20
154.19900000000001
 30
0.0
 11
145.07499999999999
 21
154.1329999999999
 31
0.0
  0
LINE
  5
7E
  8
0
 62
     7
 10
145.07499999999999
 20
154.1329999999999
 30
0.0
 11
145.06200000000001
 21
154.05899999999991
 31
0.0
  0
LINE
  5
7F
  8
0
 62
     7
 10
145.06200000000001
 20
154.05899999999991
 30
0.0
 11
145.07499999999999
 21
153.983
 31
0.0
  0
LINE
  5
80
  8
0
 62
     7
 10
145.07499999999999
 20
153.983
 30
0.0
 11
145.113
 21
153.917
 31
0.0
  0
LINE
  5
81
  8
0
 62
     7
 10
145.113
 20
153.917
 30
0.0
 11
145.17199999999991
 21
153.869
 31
0.0
  0
LINE
  5
82
  8
0
 62
     7
 10
145.17199999999991
 20
153.869
 30
0.0
 11
145.24299999999991
 21
153.8429999999999
 31
0.0
  0
LINE
  5
83
  8
0
 62
     7
 10
145.24299999999991
 20
153.8429999999999
 30
0.0
 11
145.3179999999999
 21
153.8429999999999
 31
0.0
  0
LINE
  5
84
  8
0
 62
     7
 10
145.3179999999999
 20
153.8429999999999
 30
0.0
 11
145.39099999999999
 21
153.869
 31
0.0
  0
LINE
  5
85
  8
0
 62
     7
 10
145.39099999999999
 20
153.869
 30
0.0
 11
145.4489999999999
 21
153.917
 31
0.0
  0
LINE
  5
86
  8
0
 62
     7
 10
145.4489999999999
 20
153.917
 30
0.0
 11
145.4859999999999
 21
153.983
 31
0.0
  0
LINE
  5
87
  8
0
 62
     7
 10
145.4859999999999
 20
153.983
 30
0.0
 11
145.499
 21
154.05899999999991
 31
0.0
  0
LINE
  5
88
  8
0
 62
     7
 10
145.499
 20
154.05899999999991
 30
0.0
 11
145.4859999999999
 21
154.1329999999999
 31
0.0
  0
LINE
  5
89
  8
0
 62
     7
 10
145.577
 20
154.05899999999991
 30
0.0
 11
145.56100000000001
 21
153.96700000000001
 31
0.0
  0
LINE
  5
8A
  8
0
 62
     7
 10
145.56100000000001
 20
153.96700000000001
 30
0.0
 11
145.52000000000001
 21
153.8839999999999
 31
0.0
  0
LINE
  5
8B
  8
0
 62
     7
 10
145.52000000000001
 20
153.8839999999999
 30
0.0
 11
145.45599999999999
 21
153.8179999999999
 31
0.0
  0
LINE
  5
8C
  8
0
 62
     7
 10
145.45599999999999
 20
153.8179999999999
 30
0.0
 11
145.37299999999999
 21
153.77699999999999
 31
0.0
  0
LINE
  5
8D
  8
0
 62
     7
 10
145.37299999999999
 20
153.77699999999999
 30
0.0
 11
145.28100000000001
 21
153.76199999999989
 31
0.0
  0
LINE
  5
8E
  8
0
 62
     7
 10
145.28100000000001
 20
153.76199999999989
 30
0.0
 11
145.18899999999991
 21
153.77699999999999
 31
0.0
  0
LINE
  5
8F
  8
0
 62
     7
 10
145.18899999999991
 20
153.77699999999999
 30
0.0
 11
145.107
 21
153.8179999999999
 31
0.0
  0
LINE
  5
90
  8
0
 62
     7
 10
145.107
 20
153.8179999999999
 30
0.0
 11
145.042
 21
153.8839999999999
 31
0.0
  0
LINE
  5
91
  8
0
 62
     7
 10
145.042
 20
153.8839999999999
 30
0.0
 11
145.0
 21
153.96700000000001
 31
0.0
  0
LINE
  5
92
  8
0
 62
     7
 10
145.0
 20
153.96700000000001
 30
0.0
 11
144.98400000000001
 21
154.05899999999991
 31
0.0
  0
LINE
  5
93
  8
0
 62
     7
 10
144.98400000000001
 20
154.05899999999991
 30
0.0
 11
145.0
 21
154.15000000000001
 31
0.0
  0
LINE
  5
94
  8
0
 62
     7
 10
145.0
 20
154.15000000000001
 30
0.0
 11
145.042
 21
154.232
 31
0.0
  0
LINE
  5
95
  8
0
 62
     7
 10
145.042
 20
154.232
 30
0.0
 11
145.107
 21
154.298
 31
0.0
  0
LINE
  5
96
  8
0
 62
     7
 10
145.107
 20
154.298
 30
0.0
 11
145.18899999999991
 21
154.339
 31
0.0
  0
LINE
  5
97
  8
0
 62
     7
 10
145.18899999999991
 20
154.339
 30
0.0
 11
145.28100000000001
 21
154.3539999999999
 31
0.0
  0
LINE
  5
98
  8
0
 62
     7
 10
145.28100000000001
 20
154.3539999999999
 30
0.0
 11
145.37299999999999
 21
154.339
 31
0.0
  0
LINE
  5
99
  8
0
 62
     7
 10
145.37299999999999
 20
154.339
 30
0.0
 11
145.45599999999999
 21
154.298
 31
0.0
  0
LINE
  5
9A
  8
0
 62
     7
 10
145.45599999999999
 20
154.298
 30
0.0
 11
145.52000000000001
 21
154.232
 31
0.0
  0
LINE
  5
9B
  8
0
 62
     7
 10
145.52000000000001
 20
154.232
 30
0.0
 11
145.56100000000001
 21
154.15000000000001
 31
0.0
  0
LINE
  5
9C
  8
0
 62
     7
 10
145.56100000000001
 20
154.15000000000001
 30
0.0
 11
145.577
 21
154.05899999999991
 31
0.0
  0
LINE
  5
9D
  8
0
 62
     7
 10
23.781099999999991
 20
184.387
 30
0.0
 11
21.569400000000002
 21
183.79499999999999
 31
0.0
  0
LINE
  5
9E
  8
0
 62
     7
 10
21.569400000000002
 20
183.79499999999999
 30
0.0
 11
23.781099999999991
 21
183.20199999999991
 31
0.0
  0
LINE
  5
9F
  8
0
 62
     7
 10
23.781099999999991
 20
183.20199999999991
 30
0.0
 11
23.781099999999991
 21
184.387
 31
0.0
  0
LINE
  5
A0
  8
0
 62
     7
 10
143.761
 20
183.2169999999999
 30
0.0
 11
145.97200000000001
 21
183.809
 31
0.0
  0
LINE
  5
A1
  8
0
 62
     7
 10
145.97200000000001
 20
183.809
 30
0.0
 11
143.761
 21
184.40199999999999
 31
0.0
  0
LINE
  5
A2
  8
0
 62
     7
 10
143.761
 20
184.40199999999999
 30
0.0
 11
143.761
 21
183.2169999999999
 31
0.0
  0
LINE
  5
A3
  8
0
 62
     7
 10
21.570399999999989
 20
183.80199999999999
 30
0.0
 11
145.971
 21
183.80199999999999
 31
0.0
  0
LINE
  5
A4
  8
0
  6
AIGENLINE002
 62
     7
 10
143.761
 20
105.434
 30
0.0
 11
143.761
 21
111.2579999999999
 31
0.0
  0
LINE
  5
A5
  8
0
  6
AIGENLINE002
 62
     7
 10
142.5149999999999
 20
106.5739999999999
 30
0.0
 11
145.06800000000001
 21
106.5739999999999
 31
0.0
  0
LINE
  5
A6
  8
0
  6
AIGENLINE002
 62
     7
 10
142.5149999999999
 20
109.9739999999999
 30
0.0
 11
145.06800000000001
 21
109.9739999999999
 31
0.0
  0
LINE
  5
A7
  8
0
  6
AIGENLINE002
 62
     7
 10
22.460599999999989
 20
106.5739999999999
 30
0.0
 11
25.0138
 21
106.5739999999999
 31
0.0
  0
LINE
  5
A8
  8
0
  6
AIGENLINE002
 62
     7
 10
22.460599999999989
 20
109.9739999999999
 30
0.0
 11
25.0138
 21
109.9739999999999
 31
0.0
  0
LINE
  5
A9
  8
0
  6
AIGENLINE002
 62
     7
 10
23.780100000000001
 20
105.4159999999999
 30
0.0
 11
23.780100000000001
 21
111.0659999999999
 31
0.0
  0
LINE
  5
AA
  8
0
 62
     7
 10
25.9908
 20
173.79599999999991
 30
0.0
 11
23.779099999999989
 21
173.20299999999989
 31
0.0
  0
LINE
  5
AB
  8
0
 62
     7
 10
23.779099999999989
 20
173.20299999999989
 30
0.0
 11
25.9908
 21
172.61099999999999
 31
0.0
  0
LINE
  5
AC
  8
0
 62
     7
 10
25.9908
 20
172.61099999999999
 30
0.0
 11
25.9908
 21
173.79599999999991
 31
0.0
  0
LINE
  5
AD
  8
0
 62
     7
 10
141.55099999999999
 20
172.625
 30
0.0
 11
143.76300000000001
 21
173.2179999999999
 31
0.0
  0
LINE
  5
AE
  8
0
 62
     7
 10
143.76300000000001
 20
173.2179999999999
 30
0.0
 11
141.55099999999999
 21
173.81
 31
0.0
  0
LINE
  5
AF
  8
0
 62
     7
 10
141.55099999999999
 20
173.81
 30
0.0
 11
141.55099999999999
 21
172.625
 31
0.0
  0
LINE
  5
B0
  8
0
 62
     7
 10
23.780100000000001
 20
173.2109999999999
 30
0.0
 11
143.761
 21
173.2109999999999
 31
0.0
  0
ARC
  5
B1
  8
0
 62
     7
 10
33.720967000000002
 20
146.10379
 30
0.0
 40
0.059273
 50
10.734597000000001
 51
90.320471999999995
  0
LINE
  5
B2
  8
0
 62
     7
 10
33.72059999999999
 20
142.964
 30
0.0
 11
33.76339999999999
 21
142.97999999999999
 31
0.0
  0
ARC
  5
B3
  8
0
 62
     7
 10
133.82260400000001
 20
146.10112299999989
 30
0.0
 40
0.061949
 50
91.070948999999985
 51
167.21699599999999
  0
LINE
  5
B4
  8
0
 62
     7
 10
133.779
 20
142.97999999999999
 30
0.0
 11
133.82099999999991
 21
142.964
 31
0.0
  0
ARC
  5
B5
  8
0
 62
     7
 10
22.594546999999999
 20
143.79198199999999
 30
0.0
 40
0.8288909999999999
 50
182.967681
 51
268.02877199999989
  0
ARC
  5
B6
  8
0
 62
     7
 10
144.945694
 20
143.79460900000001
 30
0.0
 40
0.8315569999999999
 50
272.04431899999992
 51
356.8605839999999
  0
ARC
  5
B7
  8
0
 62
     7
 10
33.073523999999999
 20
153.42808999999991
 30
0.0
 40
7.269677999999999
 50
183.04226
 51
267.95048300000002
  0
ARC
  5
B8
  8
0
 62
     7
 10
134.46835599999989
 20
153.42830699999999
 30
0.0
 40
7.2698910000000003
 50
272.04834799999998
 51
356.95612999999992
  0
ARC
  5
B9
  8
0
 62
     7
 10
33.724400000000003
 20
111.331928
 30
0.0
 40
0.056181
 50
359.78878700000001
 51
47.06859399999999
  0
ARC
  5
BA
  8
0
 62
     7
 10
33.720279999999988
 20
111.33187700000001
 30
0.0
 40
0.059099
 50
44.176515999999999
 51
89.989663000000007
  0
ARC
  5
BB
  8
0
 62
     7
 10
33.718795
 20
105.219735
 30
0.0
 40
0.062371
 50
271.37407999999999
 51
346.91390399999989
  0
ARC
  5
BC
  8
0
 62
     7
 10
133.821754
 20
105.21775599999999
 30
0.0
 40
0.060943
 50
179.75628699999999
 51
224.16483599999989
  0
ARC
  5
BD
  8
0
 62
     7
 10
133.82100600000001
 20
105.2178659999999
 30
0.0
 40
0.060485
 50
224.733543
 51
269.76452899999998
  0
ARC
  5
BE
  8
0
 62
     7
 10
133.821977
 20
111.3298209999999
 30
0.0
 40
0.061168
 50
91.142708999999996
 51
167.80218199999999
  0
ARC
  5
BF
  8
0
  6
AIGENLINE001
 62
     7
 10
23.629542999999991
 20
106.57401299999999
 30
0.0
 40
0.5002310000000002
 50
90.0
 51
179.99996999999991
  0
ARC
  5
C0
  8
0
  6
AIGENLINE001
 62
     7
 10
23.648815999999989
 20
106.593287
 30
0.0
 40
0.5198610000000001
 50
182.12465
 51
267.87537999999989
  0
ARC
  5
C1
  8
0
  6
AIGENLINE001
 62
     7
 10
23.92278099999999
 20
106.58543899999989
 30
0.0
 40
0.511707
 50
270.80355800000001
 51
329.35158699999999
  0
ARC
  5
C2
  8
0
  6
AIGENLINE001
 62
     7
 10
23.917594999999999
 20
106.574358
 30
0.0
 40
0.5106640000000001
 50
330.71790299999992
 51
29.28209699999999
  0
ARC
  5
C3
  8
0
  6
AIGENLINE001
 62
     7
 10
23.924151999999989
 20
106.564243
 30
0.0
 40
0.510034
 50
30.633572000000001
 51
89.347906999999978
  0
ARC
  5
C4
  8
0
  6
AIGENLINE001
 62
     7
 10
23.799367
 20
109.84341000000001
 30
0.0
 40
0.5198610000000001
 50
182.12465
 51
267.87537999999989
  0
ARC
  5
C5
  8
0
  6
AIGENLINE001
 62
     7
 10
23.760961999999999
 20
109.8425549999999
 30
0.0
 40
0.5190010000000001
 50
272.11262499999992
 51
357.96635900000001
  0
ARC
  5
C6
  8
0
  6
AIGENLINE001
 62
     7
 10
23.761084
 20
110.1055409999999
 30
0.0
 40
0.5189
 50
2.0995180000000002
 51
87.900471999999993
  0
ARC
  5
C7
  8
0
  6
AIGENLINE001
 62
     7
 10
23.799085000000002
 20
110.1048449999999
 30
0.0
 40
0.5195960000000001
 50
92.094594000000015
 51
177.82640199999989
  0
ARC
  5
C8
  8
0
  6
AIGENLINE001
 62
     7
 10
143.63018
 20
106.5556399999999
 30
0.0
 40
0.5189560000000001
 50
92.107979000000014
 51
177.97096499999989
  0
ARC
  5
C9
  8
0
  6
AIGENLINE001
 62
     7
 10
143.63083299999991
 20
106.5930399999999
 30
0.0
 40
0.519632
 50
182.098342
 51
267.82271400000002
  0
ARC
  5
CA
  8
0
  6
AIGENLINE001
 62
     7
 10
143.90631499999989
 20
106.58022
 30
0.0
 40
0.5064570000000001
 50
270.50923499999999
 51
329.6854689999999
  0
ARC
  5
CB
  8
0
  6
AIGENLINE001
 62
     7
 10
143.90152699999999
 20
106.574358
 30
0.0
 40
0.507687
 50
330.52931199999989
 51
29.470687999999988
  0
ARC
  5
CC
  8
0
  6
AIGENLINE001
 62
     7
 10
143.90565000000001
 20
106.5659509999999
 30
0.0
 40
0.50832
 50
30.524377000000001
 51
89.417597000000001
  0
ARC
  5
CD
  8
0
  6
AIGENLINE001
 62
     7
 10
143.78037299999991
 20
109.84321199999999
 30
0.0
 40
0.519656
 50
182.1036169999999
 51
267.89641199999988
  0
ARC
  5
CE
  8
0
  6
AIGENLINE001
 62
     7
 10
143.742166
 20
109.8425549999999
 30
0.0
 40
0.5190010000000001
 50
272.11262499999992
 51
357.96635900000001
  0
ARC
  5
CF
  8
0
  6
AIGENLINE001
 62
     7
 10
143.74228799999989
 20
110.1055409999999
 30
0.0
 40
0.5189
 50
2.0995180000000002
 51
87.900471999999993
  0
ARC
  5
D0
  8
0
  6
AIGENLINE001
 62
     7
 10
143.780294
 20
110.10484
 30
0.0
 40
0.519601
 50
92.095127000000019
 51
177.8258689999999
  0
LINE
  5
D1
  8
0
 62
     7
 10
176.2879999999999
 20
104.36199999999999
 30
0.0
 11
175.69499999999991
 21
106.5739999999999
 31
0.0
  0
LINE
  5
D2
  8
0
 62
     7
 10
175.69499999999991
 20
106.5739999999999
 30
0.0
 11
175.10299999999989
 21
104.36199999999999
 31
0.0
  0
LINE
  5
D3
  8
0
 62
     7
 10
175.10299999999989
 20
104.36199999999999
 30
0.0
 11
176.2879999999999
 21
104.36199999999999
 31
0.0
  0
LINE
  5
D4
  8
0
 62
     7
 10
175.10299999999989
 20
112.18600000000001
 30
0.0
 11
175.69499999999991
 21
109.9739999999999
 31
0.0
  0
LINE
  5
D5
  8
0
 62
     7
 10
175.69499999999991
 20
109.9739999999999
 30
0.0
 11
176.2879999999999
 21
112.18600000000001
 31
0.0
  0
LINE
  5
D6
  8
0
 62
     7
 10
176.2879999999999
 20
112.18600000000001
 30
0.0
 11
175.10299999999989
 21
112.18600000000001
 31
0.0
  0
LINE
  5
D7
  8
0
 62
     7
 10
175.69499999999991
 20
116.301
 30
0.0
 11
175.69499999999991
 21
102.94799999999989
 31
0.0
  0
LINE
  5
D8
  8
0
 62
     7
 10
154.0149999999999
 20
152.7529999999999
 30
0.0
 11
153.42299999999989
 21
154.96499999999989
 31
0.0
  0
LINE
  5
D9
  8
0
 62
     7
 10
153.42299999999989
 20
154.96499999999989
 30
0.0
 11
152.83000000000001
 21
152.7529999999999
 31
0.0
  0
LINE
  5
DA
  8
0
 62
     7
 10
152.83000000000001
 20
152.7529999999999
 30
0.0
 11
154.0149999999999
 21
152.7529999999999
 31
0.0
  0
LINE
  5
DB
  8
0
 62
     7
 10
152.845
 20
145.17400000000001
 30
0.0
 11
153.43700000000001
 21
142.96299999999991
 31
0.0
  0
LINE
  5
DC
  8
0
 62
     7
 10
153.43700000000001
 20
142.96299999999991
 30
0.0
 11
154.03
 21
145.17400000000001
 31
0.0
  0
LINE
  5
DD
  8
0
 62
     7
 10
154.03
 20
145.17400000000001
 30
0.0
 11
152.845
 21
145.17400000000001
 31
0.0
  0
LINE
  5
DE
  8
0
 62
     7
 10
153.42999999999989
 20
154.964
 30
0.0
 11
153.42999999999989
 21
142.964
 31
0.0
  0
LINE
  5
DF
  8
0
 62
     7
 10
21.7668
 20
143.74899999999991
 30
0.0
 11
21.570399999999989
 21
154.964
 31
0.0
  0
LINE
  5
E0
  8
0
 62
     7
 10
25.7803
 20
154.964
 30
0.0
 11
25.8217
 21
152.6109999999999
 31
0.0
  0
LINE
  5
E1
  8
0
 62
     7
 10
33.7806
 20
146.1629999999999
 30
0.0
 11
33.7806
 21
142.964
 31
0.0
  0
LINE
  5
E2
  8
0
 62
     7
 10
33.7806
 20
142.964
 30
0.0
 11
133.76099999999991
 21
142.964
 31
0.0
  0
LINE
  5
E3
  8
0
 62
     7
 10
146.55199999999999
 20
142.964
 30
0.0
 11
154.12999999999991
 21
142.964
 31
0.0
  0
LINE
  5
E4
  8
0
 62
     7
 10
144.97599999999991
 20
142.964
 30
0.0
 11
133.82099999999991
 21
142.964
 31
0.0
  0
LINE
  5
E5
  8
0
 62
     7
 10
22.565999999999999
 20
142.964
 30
0.0
 11
33.72059999999999
 21
142.964
 31
0.0
  0
LINE
  5
E6
  8
0
 62
     7
 10
33.7806
 20
146.1629999999999
 30
0.0
 11
133.76099999999991
 21
146.1629999999999
 31
0.0
  0
LINE
  5
E7
  8
0
 62
     7
 10
134.72799999999989
 20
146.1629999999999
 30
0.0
 11
133.82099999999991
 21
146.1629999999999
 31
0.0
  0
LINE
  5
E8
  8
0
 62
     7
 10
32.813499999999991
 20
146.1629999999999
 30
0.0
 11
33.72059999999999
 21
146.1629999999999
 31
0.0
  0
LINE
  5
E9
  8
0
 62
     7
 10
146.92199999999991
 20
154.964
 30
0.0
 11
154.12999999999991
 21
154.964
 31
0.0
  0
LINE
  5
EA
  8
0
 62
     7
 10
141.762
 20
154.964
 30
0.0
 11
145.971
 21
154.964
 31
0.0
  0
LINE
  5
EB
  8
0
 62
     7
 10
21.570399999999989
 20
154.964
 30
0.0
 11
25.7803
 21
154.964
 31
0.0
  0
LINE
  5
EC
  8
0
 62
     7
 10
133.76099999999991
 20
146.1629999999999
 30
0.0
 11
133.76099999999991
 21
142.964
 31
0.0
  0
LINE
  5
ED
  8
0
 62
     7
 10
141.721
 20
152.6109999999999
 30
0.0
 11
141.762
 21
154.964
 31
0.0
  0
LINE
  5
EE
  8
0
 62
     7
 10
145.77600000000001
 20
143.74899999999991
 30
0.0
 11
145.971
 21
154.964
 31
0.0
  0
LINE
  5
EF
  8
0
 62
     7
 10
158.149
 20
104.9739999999999
 30
0.0
 11
158.149
 21
111.5739999999999
 31
0.0
  0
LINE
  5
F0
  8
0
 62
     7
 10
170.14899999999989
 20
104.9739999999999
 30
0.0
 11
170.14899999999989
 21
111.5739999999999
 31
0.0
  0
LINE
  5
F1
  8
0
 62
     7
 10
158.149
 20
111.5739999999999
 30
0.0
 11
170.14899999999989
 21
111.5739999999999
 31
0.0
  0
LINE
  5
F2
  8
0
 62
     7
 10
158.149
 20
104.9739999999999
 30
0.0
 11
170.14899999999989
 21
104.9739999999999
 31
0.0
  0
LINE
  5
F3
  8
0
 62
     7
 10
152.845
 20
107.1839999999999
 30
0.0
 11
153.43700000000001
 21
104.973
 31
0.0
  0
LINE
  5
F4
  8
0
 62
     7
 10
153.43700000000001
 20
104.973
 30
0.0
 11
154.03
 21
107.1839999999999
 31
0.0
  0
LINE
  5
F5
  8
0
 62
     7
 10
154.03
 20
107.1839999999999
 30
0.0
 11
152.845
 21
107.1839999999999
 31
0.0
  0
LINE
  5
F6
  8
0
 62
     7
 10
154.0149999999999
 20
109.3639999999999
 30
0.0
 11
153.42299999999989
 21
111.57599999999999
 31
0.0
  0
LINE
  5
F7
  8
0
 62
     7
 10
153.42299999999989
 20
111.57599999999999
 30
0.0
 11
152.83000000000001
 21
109.3639999999999
 31
0.0
  0
LINE
  5
F8
  8
0
 62
     7
 10
152.83000000000001
 20
109.3639999999999
 30
0.0
 11
154.0149999999999
 21
109.3639999999999
 31
0.0
  0
LINE
  5
F9
  8
0
 62
     7
 10
153.42999999999989
 20
104.9739999999999
 30
0.0
 11
153.42999999999989
 21
111.5739999999999
 31
0.0
  0
LINE
  5
FA
  8
0
 62
     7
 10
145.971
 20
155.6639999999999
 30
0.0
 11
145.971
 21
184.50200000000001
 31
0.0
  0
LINE
  5
FB
  8
0
 62
     7
 10
21.570399999999989
 20
184.50200000000001
 30
0.0
 11
21.570399999999989
 21
155.6639999999999
 31
0.0
  0
LINE
  5
FC
  8
0
 62
     7
 10
145.971
 20
105.17399999999989
 30
0.0
 11
145.971
 21
111.3739999999999
 31
0.0
  0
LINE
  5
FD
  8
0
 62
     7
 10
145.971
 20
111.3739999999999
 30
0.0
 11
145.9679999999999
 21
111.40600000000001
 31
0.0
  0
LINE
  5
FE
  8
0
 62
     7
 10
145.9679999999999
 20
111.40600000000001
 30
0.0
 11
145.96100000000001
 21
111.43600000000001
 31
0.0
  0
LINE
  5
FF
  8
0
 62
     7
 10
145.96100000000001
 20
111.43600000000001
 30
0.0
 11
145.94999999999999
 21
111.465
 31
0.0
  0
LINE
  5
100
  8
0
 62
     7
 10
145.94999999999999
 20
111.465
 30
0.0
 11
145.93199999999999
 21
111.492
 31
0.0
  0
LINE
  5
101
  8
0
 62
     7
 10
145.93199999999999
 20
111.492
 30
0.0
 11
145.91200000000001
 21
111.51600000000001
 31
0.0
  0
LINE
  5
102
  8
0
 62
     7
 10
145.91200000000001
 20
111.51600000000001
 30
0.0
 11
145.88800000000001
 21
111.536
 31
0.0
  0
LINE
  5
103
  8
0
 62
     7
 10
145.88800000000001
 20
111.536
 30
0.0
 11
145.86199999999991
 21
111.55200000000001
 31
0.0
  0
LINE
  5
104
  8
0
 62
     7
 10
145.86199999999991
 20
111.55200000000001
 30
0.0
 11
145.83299999999991
 21
111.565
 31
0.0
  0
LINE
  5
105
  8
0
 62
     7
 10
145.83299999999991
 20
111.565
 30
0.0
 11
145.80199999999999
 21
111.572
 31
0.0
  0
LINE
  5
106
  8
0
 62
     7
 10
145.80199999999999
 20
111.572
 30
0.0
 11
145.77099999999999
 21
111.5739999999999
 31
0.0
  0
LINE
  5
107
  8
0
  6
AIGENLINE001
 62
     7
 10
144.26099999999991
 20
110.125
 30
0.0
 11
144.26099999999991
 21
109.824
 31
0.0
  0
LINE
  5
108
  8
0
 62
     7
 10
143.761
 20
173.91099999999989
 30
0.0
 11
143.761
 21
167.50599999999989
 31
0.0
  0
LINE
  5
109
  8
0
 62
     7
 10
23.780100000000001
 20
173.91099999999989
 30
0.0
 11
23.780100000000001
 21
167.50599999999989
 31
0.0
  0
LINE
  5
10A
  8
0
  6
AIGENLINE001
 62
     7
 10
143.26099999999991
 20
109.824
 30
0.0
 11
143.26099999999991
 21
110.125
 31
0.0
  0
LINE
  5
10B
  8
0
 62
     7
 10
133.76099999999991
 20
105.163
 30
0.0
 11
133.76099999999991
 21
111.387
 31
0.0
  0
LINE
  5
10C
  8
0
 62
     7
 10
141.785
 20
105.0389999999999
 30
0.0
 11
141.7889999999999
 21
105.038
 31
0.0
  0
LINE
  5
10D
  8
0
 62
     7
 10
141.7889999999999
 20
105.038
 30
0.0
 11
141.792
 21
105.03700000000001
 31
0.0
  0
LINE
  5
10E
  8
0
 62
     7
 10
141.792
 20
105.03700000000001
 30
0.0
 11
141.79599999999991
 21
105.03700000000001
 31
0.0
  0
LINE
  5
10F
  8
0
 62
     7
 10
141.79599999999991
 20
105.03700000000001
 30
0.0
 11
141.798
 21
105.0359999999999
 31
0.0
  0
LINE
  5
110
  8
0
 62
     7
 10
141.798
 20
105.0359999999999
 30
0.0
 11
141.80099999999999
 21
105.0359999999999
 31
0.0
  0
LINE
  5
111
  8
0
 62
     7
 10
141.80099999999999
 20
105.0359999999999
 30
0.0
 11
141.80399999999989
 21
105.0349999999999
 31
0.0
  0
LINE
  5
112
  8
0
 62
     7
 10
141.80399999999989
 20
105.0349999999999
 30
0.0
 11
141.80600000000001
 21
105.0349999999999
 31
0.0
  0
LINE
  5
113
  8
0
 62
     7
 10
141.80600000000001
 20
105.0349999999999
 30
0.0
 11
141.809
 21
105.0349999999999
 31
0.0
  0
LINE
  5
114
  8
0
 62
     7
 10
21.770199999999999
 20
111.5739999999999
 30
0.0
 11
21.738499999999991
 21
111.572
 31
0.0
  0
LINE
  5
115
  8
0
 62
     7
 10
21.738499999999991
 20
111.572
 30
0.0
 11
21.708200000000001
 21
111.565
 31
0.0
  0
LINE
  5
116
  8
0
 62
     7
 10
21.708200000000001
 20
111.565
 30
0.0
 11
21.679600000000001
 21
111.55200000000001
 31
0.0
  0
LINE
  5
117
  8
0
 62
     7
 10
21.679600000000001
 20
111.55200000000001
 30
0.0
 11
21.6524
 21
111.536
 31
0.0
  0
LINE
  5
118
  8
0
 62
     7
 10
21.6524
 20
111.536
 30
0.0
 11
21.629000000000001
 21
111.51600000000001
 31
0.0
  0
LINE
  5
119
  8
0
 62
     7
 10
21.629000000000001
 20
111.51600000000001
 30
0.0
 11
21.6083
 21
111.492
 31
0.0
  0
LINE
  5
11A
  8
0
 62
     7
 10
21.6083
 20
111.492
 30
0.0
 11
21.592099999999991
 21
111.465
 31
0.0
  0
LINE
  5
11B
  8
0
 62
     7
 10
21.592099999999991
 20
111.465
 30
0.0
 11
21.579999999999991
 21
111.43600000000001
 31
0.0
  0
LINE
  5
11C
  8
0
 62
     7
 10
21.579999999999991
 20
111.43600000000001
 30
0.0
 11
21.572500000000002
 21
111.40600000000001
 31
0.0
  0
LINE
  5
11D
  8
0
 62
     7
 10
21.572500000000002
 20
111.40600000000001
 30
0.0
 11
21.570399999999989
 21
111.3739999999999
 31
0.0
  0
LINE
  5
11E
  8
0
 62
     7
 10
141.809
 20
105.0349999999999
 30
0.0
 11
141.81399999999999
 21
105.0349999999999
 31
0.0
  0
LINE
  5
11F
  8
0
 62
     7
 10
141.81399999999999
 20
105.0349999999999
 30
0.0
 11
141.816
 21
105.03399999999991
 31
0.0
  0
LINE
  5
120
  8
0
 62
     7
 10
141.816
 20
105.03399999999991
 30
0.0
 11
141.8179999999999
 21
105.03399999999991
 31
0.0
  0
LINE
  5
121
  8
0
 62
     7
 10
141.8179999999999
 20
105.03399999999991
 30
0.0
 11
141.82199999999989
 21
105.03399999999991
 31
0.0
  0
LINE
  5
122
  8
0
 62
     7
 10
141.82199999999989
 20
105.03399999999991
 30
0.0
 11
141.8239999999999
 21
105.0329999999999
 31
0.0
  0
LINE
  5
123
  8
0
 62
     7
 10
141.8239999999999
 20
105.0329999999999
 30
0.0
 11
141.82699999999991
 21
105.0329999999999
 31
0.0
  0
LINE
  5
124
  8
0
 62
     7
 10
141.82699999999991
 20
105.0329999999999
 30
0.0
 11
141.82900000000001
 21
105.0329999999999
 31
0.0
  0
LINE
  5
125
  8
0
 62
     7
 10
141.82900000000001
 20
105.0329999999999
 30
0.0
 11
141.83099999999999
 21
105.0329999999999
 31
0.0
  0
LINE
  5
126
  8
0
 62
     7
 10
141.83099999999999
 20
105.0329999999999
 30
0.0
 11
141.83500000000001
 21
105.0329999999999
 31
0.0
  0
LINE
  5
127
  8
0
 62
     7
 10
141.83500000000001
 20
105.0329999999999
 30
0.0
 11
141.83699999999999
 21
105.0329999999999
 31
0.0
  0
LINE
  5
128
  8
0
 62
     7
 10
141.83699999999999
 20
105.0329999999999
 30
0.0
 11
141.84200000000001
 21
105.032
 31
0.0
  0
LINE
  5
129
  8
0
 62
     7
 10
141.744
 20
105.042
 30
0.0
 11
141.785
 21
105.03700000000001
 31
0.0
  0
LINE
  5
12A
  8
0
 62
     7
 10
32.8917
 20
111.39100000000001
 30
0.0
 11
32.546500000000002
 21
111.39100000000001
 31
0.0
  0
LINE
  5
12B
  8
0
 62
     7
 10
32.546500000000002
 20
111.39100000000001
 30
0.0
 11
32.142800000000001
 21
111.392
 31
0.0
  0
LINE
  5
12C
  8
0
 62
     7
 10
32.142800000000001
 20
111.392
 30
0.0
 11
31.733499999999999
 21
111.39399999999991
 31
0.0
  0
LINE
  5
12D
  8
0
 62
     7
 10
31.733499999999999
 20
111.39399999999991
 30
0.0
 11
31.311499999999992
 21
111.396
 31
0.0
  0
LINE
  5
12E
  8
0
 62
     7
 10
31.311499999999992
 20
111.396
 30
0.0
 11
30.870799999999999
 21
111.399
 31
0.0
  0
LINE
  5
12F
  8
0
 62
     7
 10
30.870799999999999
 20
111.399
 30
0.0
 11
30.415700000000001
 21
111.40299999999991
 31
0.0
  0
LINE
  5
130
  8
0
 62
     7
 10
30.415700000000001
 20
111.40299999999991
 30
0.0
 11
29.942699999999999
 21
111.4079999999999
 31
0.0
  0
LINE
  5
131
  8
0
 62
     7
 10
29.942699999999999
 20
111.4079999999999
 30
0.0
 11
29.461400000000001
 21
111.413
 31
0.0
  0
LINE
  5
132
  8
0
 62
     7
 10
29.461400000000001
 20
111.413
 30
0.0
 11
28.975300000000001
 21
111.419
 31
0.0
  0
LINE
  5
133
  8
0
 62
     7
 10
28.975300000000001
 20
111.419
 30
0.0
 11
28.497800000000002
 21
111.426
 31
0.0
  0
LINE
  5
134
  8
0
 62
     7
 10
28.497800000000002
 20
111.426
 30
0.0
 11
28.035499999999988
 21
111.434
 31
0.0
  0
LINE
  5
135
  8
0
 62
     7
 10
28.035499999999988
 20
111.434
 30
0.0
 11
27.602499999999999
 21
111.443
 31
0.0
  0
LINE
  5
136
  8
0
 62
     7
 10
27.602499999999999
 20
111.443
 30
0.0
 11
27.2104
 21
111.452
 31
0.0
  0
LINE
  5
137
  8
0
 62
     7
 10
27.2104
 20
111.452
 30
0.0
 11
26.860700000000001
 21
111.461
 31
0.0
  0
LINE
  5
138
  8
0
 62
     7
 10
26.860700000000001
 20
111.461
 30
0.0
 11
26.556899999999992
 21
111.47
 31
0.0
  0
LINE
  5
139
  8
0
 62
     7
 10
26.556899999999992
 20
111.47
 30
0.0
 11
26.299499999999998
 21
111.48
 31
0.0
  0
LINE
  5
13A
  8
0
 62
     7
 10
26.299499999999998
 20
111.48
 30
0.0
 11
26.087299999999988
 21
111.4889999999999
 31
0.0
  0
LINE
  5
13B
  8
0
 62
     7
 10
26.087299999999988
 20
111.4889999999999
 30
0.0
 11
25.919499999999999
 21
111.49799999999991
 31
0.0
  0
LINE
  5
13C
  8
0
 62
     7
 10
25.919499999999999
 20
111.49799999999991
 30
0.0
 11
25.796500000000002
 21
111.50700000000001
 31
0.0
  0
LINE
  5
13D
  8
0
 62
     7
 10
146.471
 20
111.5739999999999
 30
0.0
 11
154.12999999999991
 21
111.5739999999999
 31
0.0
  0
LINE
  5
13E
  8
0
 62
     7
 10
24.4863
 20
111.5739999999999
 30
0.0
 11
21.770199999999999
 21
111.5739999999999
 31
0.0
  0
LINE
  5
13F
  8
0
 62
     7
 10
145.77099999999999
 20
111.5739999999999
 30
0.0
 11
143.054
 21
111.5739999999999
 31
0.0
  0
LINE
  5
140
  8
0
 62
     7
 10
33.720300000000002
 20
111.39100000000001
 30
0.0
 11
32.8917
 21
111.39100000000001
 31
0.0
  0
LINE
  5
141
  8
0
 62
     7
 10
134.65000000000001
 20
111.39100000000001
 30
0.0
 11
133.82099999999991
 21
111.39100000000001
 31
0.0
  0
LINE
  5
142
  8
0
 62
     7
 10
133.76099999999991
 20
111.387
 30
0.0
 11
33.7806
 21
111.387
 31
0.0
  0
LINE
  5
143
  8
0
 62
     7
 10
25.796199999999999
 20
105.042
 30
0.0
 11
25.918099999999999
 21
105.0499999999999
 31
0.0
  0
LINE
  5
144
  8
0
 62
     7
 10
25.918099999999999
 20
105.0499999999999
 30
0.0
 11
26.085599999999999
 21
105.0599999999999
 31
0.0
  0
LINE
  5
145
  8
0
 62
     7
 10
26.085599999999999
 20
105.0599999999999
 30
0.0
 11
26.2971
 21
105.069
 31
0.0
  0
LINE
  5
146
  8
0
 62
     7
 10
26.2971
 20
105.069
 30
0.0
 11
26.5548
 21
105.07899999999989
 31
0.0
  0
LINE
  5
147
  8
0
 62
     7
 10
26.5548
 20
105.07899999999989
 30
0.0
 11
26.858000000000001
 21
105.08799999999999
 31
0.0
  0
LINE
  5
148
  8
0
 62
     7
 10
26.858000000000001
 20
105.08799999999999
 30
0.0
 11
27.20699999999999
 21
105.09699999999999
 31
0.0
  0
LINE
  5
149
  8
0
 62
     7
 10
27.20699999999999
 20
105.09699999999999
 30
0.0
 11
27.599
 21
105.10599999999999
 31
0.0
  0
LINE
  5
14A
  8
0
 62
     7
 10
27.599
 20
105.10599999999999
 30
0.0
 11
28.032099999999989
 21
105.11499999999999
 31
0.0
  0
LINE
  5
14B
  8
0
 62
     7
 10
28.032099999999989
 20
105.11499999999999
 30
0.0
 11
28.4937
 21
105.122
 31
0.0
  0
LINE
  5
14C
  8
0
 62
     7
 10
28.4937
 20
105.122
 30
0.0
 11
28.971499999999988
 21
105.12899999999991
 31
0.0
  0
LINE
  5
14D
  8
0
 62
     7
 10
28.971499999999988
 20
105.12899999999991
 30
0.0
 11
29.456600000000002
 21
105.13500000000001
 31
0.0
  0
LINE
  5
14E
  8
0
 62
     7
 10
29.456600000000002
 20
105.13500000000001
 30
0.0
 11
29.938600000000001
 21
105.142
 31
0.0
  0
LINE
  5
14F
  8
0
 62
     7
 10
29.938600000000001
 20
105.142
 30
0.0
 11
30.410900000000002
 21
105.146
 31
0.0
  0
LINE
  5
150
  8
0
 62
     7
 10
30.410900000000002
 20
105.146
 30
0.0
 11
30.86699999999999
 21
105.149
 31
0.0
  0
LINE
  5
151
  8
0
 62
     7
 10
30.86699999999999
 20
105.149
 30
0.0
 11
31.307300000000001
 21
105.15299999999991
 31
0.0
  0
LINE
  5
152
  8
0
 62
     7
 10
31.307300000000001
 20
105.15299999999991
 30
0.0
 11
31.729399999999998
 21
105.1549999999999
 31
0.0
  0
LINE
  5
153
  8
0
 62
     7
 10
31.729399999999998
 20
105.1549999999999
 30
0.0
 11
32.139000000000003
 21
105.15600000000001
 31
0.0
  0
LINE
  5
154
  8
0
 62
     7
 10
32.139000000000003
 20
105.15600000000001
 30
0.0
 11
32.542400000000001
 21
105.157
 31
0.0
  0
LINE
  5
155
  8
0
 62
     7
 10
32.542400000000001
 20
105.157
 30
0.0
 11
32.8917
 21
105.157
 31
0.0
  0
LINE
  5
156
  8
0
 62
     7
 10
25.7318
 20
105.0349999999999
 30
0.0
 11
25.796199999999999
 21
105.042
 31
0.0
  0
LINE
  5
157
  8
0
 62
     7
 10
25.7318
 20
105.0349999999999
 30
0.0
 11
25.734500000000001
 21
105.0349999999999
 31
0.0
  0
LINE
  5
158
  8
0
 62
     7
 10
25.734500000000001
 20
105.0349999999999
 30
0.0
 11
25.7376
 21
105.0349999999999
 31
0.0
  0
LINE
  5
159
  8
0
 62
     7
 10
25.7376
 20
105.0349999999999
 30
0.0
 11
25.739699999999999
 21
105.0359999999999
 31
0.0
  0
LINE
  5
15A
  8
0
 62
     7
 10
25.739699999999999
 20
105.0359999999999
 30
0.0
 11
25.742799999999988
 21
105.0359999999999
 31
0.0
  0
LINE
  5
15B
  8
0
 62
     7
 10
25.742799999999988
 20
105.0359999999999
 30
0.0
 11
25.7455
 21
105.03700000000001
 31
0.0
  0
LINE
  5
15C
  8
0
 62
     7
 10
25.7455
 20
105.03700000000001
 30
0.0
 11
25.748999999999999
 21
105.03700000000001
 31
0.0
  0
LINE
  5
15D
  8
0
 62
     7
 10
25.748999999999999
 20
105.03700000000001
 30
0.0
 11
25.751699999999989
 21
105.038
 31
0.0
  0
LINE
  5
15E
  8
0
 62
     7
 10
25.751699999999989
 20
105.038
 30
0.0
 11
25.755199999999999
 21
105.0389999999999
 31
0.0
  0
LINE
  5
15F
  8
0
 62
     7
 10
25.7318
 20
111.514
 30
0.0
 11
25.727299999999989
 21
111.514
 31
0.0
  0
LINE
  5
160
  8
0
 62
     7
 10
25.727299999999989
 20
111.514
 30
0.0
 11
25.724900000000002
 21
111.514
 31
0.0
  0
LINE
  5
161
  8
0
 62
     7
 10
25.724900000000002
 20
111.514
 30
0.0
 11
25.722100000000001
 21
111.514
 31
0.0
  0
LINE
  5
162
  8
0
 62
     7
 10
25.722100000000001
 20
111.514
 30
0.0
 11
25.7197
 21
111.515
 31
0.0
  0
LINE
  5
163
  8
0
 62
     7
 10
25.7197
 20
111.515
 30
0.0
 11
25.716899999999999
 21
111.515
 31
0.0
  0
LINE
  5
164
  8
0
 62
     7
 10
25.716899999999999
 20
111.515
 30
0.0
 11
25.714500000000001
 21
111.515
 31
0.0
  0
LINE
  5
165
  8
0
 62
     7
 10
25.714500000000001
 20
111.515
 30
0.0
 11
25.7121
 21
111.51600000000001
 31
0.0
  0
LINE
  5
166
  8
0
 62
     7
 10
25.7121
 20
111.51600000000001
 30
0.0
 11
25.709399999999999
 21
111.51600000000001
 31
0.0
  0
LINE
  5
167
  8
0
 62
     7
 10
25.709399999999999
 20
111.51600000000001
 30
0.0
 11
25.706600000000002
 21
111.51600000000001
 31
0.0
  0
LINE
  5
168
  8
0
 62
     7
 10
25.706600000000002
 20
111.51600000000001
 30
0.0
 11
25.7042
 21
111.51600000000001
 31
0.0
  0
LINE
  5
169
  8
0
 62
     7
 10
25.7042
 20
111.51600000000001
 30
0.0
 11
25.6983
 21
111.51600000000001
 31
0.0
  0
LINE
  5
16A
  8
0
 62
     7
 10
25.796500000000002
 20
111.50700000000001
 30
0.0
 11
25.7559
 21
111.511
 31
0.0
  0
LINE
  5
16B
  8
0
 62
     7
 10
25.6983
 20
111.51600000000001
 30
0.0
 11
24.4863
 21
111.5739999999999
 31
0.0
  0
LINE
  5
16C
  8
0
 62
     7
 10
141.84200000000001
 20
105.032
 30
0.0
 11
143.054
 21
104.9739999999999
 31
0.0
  0
LINE
  5
16D
  8
0
 62
     7
 10
134.65000000000001
 20
105.157
 30
0.0
 11
134.99499999999989
 21
105.157
 31
0.0
  0
LINE
  5
16E
  8
0
 62
     7
 10
134.99499999999989
 20
105.157
 30
0.0
 11
135.399
 21
105.15600000000001
 31
0.0
  0
LINE
  5
16F
  8
0
 62
     7
 10
135.399
 20
105.15600000000001
 30
0.0
 11
135.80699999999999
 21
105.1549999999999
 31
0.0
  0
LINE
  5
170
  8
0
 62
     7
 10
135.80699999999999
 20
105.1549999999999
 30
0.0
 11
136.2289999999999
 21
105.15299999999991
 31
0.0
  0
LINE
  5
171
  8
0
 62
     7
 10
136.2289999999999
 20
105.15299999999991
 30
0.0
 11
136.6699999999999
 21
105.15000000000001
 31
0.0
  0
LINE
  5
172
  8
0
 62
     7
 10
136.6699999999999
 20
105.15000000000001
 30
0.0
 11
137.126
 21
105.146
 31
0.0
  0
LINE
  5
173
  8
0
 62
     7
 10
137.126
 20
105.146
 30
0.0
 11
137.5979999999999
 21
105.142
 31
0.0
  0
LINE
  5
174
  8
0
 62
     7
 10
137.5979999999999
 20
105.142
 30
0.0
 11
138.08000000000001
 21
105.13500000000001
 31
0.0
  0
LINE
  5
175
  8
0
 62
     7
 10
138.08000000000001
 20
105.13500000000001
 30
0.0
 11
138.565
 21
105.12899999999991
 31
0.0
  0
LINE
  5
176
  8
0
 62
     7
 10
138.565
 20
105.12899999999991
 30
0.0
 11
139.0439999999999
 21
105.122
 31
0.0
  0
LINE
  5
177
  8
0
 62
     7
 10
139.0439999999999
 20
105.122
 30
0.0
 11
139.50499999999991
 21
105.11499999999999
 31
0.0
  0
LINE
  5
178
  8
0
 62
     7
 10
139.50499999999991
 20
105.11499999999999
 30
0.0
 11
139.93899999999991
 21
105.10599999999999
 31
0.0
  0
LINE
  5
179
  8
0
 62
     7
 10
139.93899999999991
 20
105.10599999999999
 30
0.0
 11
140.33099999999999
 21
105.09699999999999
 31
0.0
  0
LINE
  5
17A
  8
0
 62
     7
 10
140.33099999999999
 20
105.09699999999999
 30
0.0
 11
140.68100000000001
 21
105.08799999999999
 31
0.0
  0
LINE
  5
17B
  8
0
 62
     7
 10
140.68100000000001
 20
105.08799999999999
 30
0.0
 11
140.98400000000001
 21
105.07899999999989
 31
0.0
  0
LINE
  5
17C
  8
0
 62
     7
 10
140.98400000000001
 20
105.07899999999989
 30
0.0
 11
141.24199999999999
 21
105.069
 31
0.0
  0
LINE
  5
17D
  8
0
 62
     7
 10
141.24199999999999
 20
105.069
 30
0.0
 11
141.45400000000001
 21
105.0599999999999
 31
0.0
  0
LINE
  5
17E
  8
0
 62
     7
 10
141.45400000000001
 20
105.0599999999999
 30
0.0
 11
141.62100000000001
 21
105.0499999999999
 31
0.0
  0
LINE
  5
17F
  8
0
 62
     7
 10
141.62100000000001
 20
105.0499999999999
 30
0.0
 11
141.744
 21
105.042
 31
0.0
  0
LINE
  5
180
  8
0
  6
AIGENLINE001
 62
     7
 10
143.61099999999999
 20
107.074
 30
0.0
 11
143.911
 21
107.074
 31
0.0
  0
LINE
  5
181
  8
0
  6
AIGENLINE001
 62
     7
 10
23.6295
 20
107.074
 30
0.0
 11
23.93
 21
107.074
 31
0.0
  0
LINE
  5
182
  8
0
  6
AIGENLINE001
 62
     7
 10
23.93
 20
106.074
 30
0.0
 11
23.6295
 21
106.074
 31
0.0
  0
LINE
  5
183
  8
0
  6
AIGENLINE001
 62
     7
 10
143.911
 20
106.074
 30
0.0
 11
143.61099999999999
 21
106.074
 31
0.0
  0
LINE
  5
184
  8
0
 62
     7
 10
133.76099999999991
 20
105.163
 30
0.0
 11
33.7806
 21
105.163
 31
0.0
  0
LINE
  5
185
  8
0
 62
     7
 10
133.82099999999991
 20
105.157
 30
0.0
 11
134.65000000000001
 21
105.157
 31
0.0
  0
LINE
  5
186
  8
0
 62
     7
 10
32.8917
 20
105.157
 30
0.0
 11
33.720300000000002
 21
105.157
 31
0.0
  0
LINE
  5
187
  8
0
 62
     7
 10
146.471
 20
104.9739999999999
 30
0.0
 11
154.12999999999991
 21
104.9739999999999
 31
0.0
  0
LINE
  5
188
  8
0
 62
     7
 10
143.054
 20
104.9739999999999
 30
0.0
 11
145.77099999999999
 21
104.9739999999999
 31
0.0
  0
LINE
  5
189
  8
0
 62
     7
 10
21.770199999999999
 20
104.9739999999999
 30
0.0
 11
24.4863
 21
104.9739999999999
 31
0.0
  0
LINE
  5
18A
  8
0
 62
     7
 10
141.84499999999991
 20
111.51600000000001
 30
0.0
 11
143.054
 21
111.5739999999999
 31
0.0
  0
LINE
  5
18B
  8
0
 62
     7
 10
25.695599999999999
 20
105.032
 30
0.0
 11
24.4863
 21
104.9739999999999
 31
0.0
  0
LINE
  5
18C
  8
0
 62
     7
 10
141.84499999999991
 20
111.51600000000001
 30
0.0
 11
141.839
 21
111.51600000000001
 31
0.0
  0
LINE
  5
18D
  8
0
 62
     7
 10
25.695599999999999
 20
105.032
 30
0.0
 11
25.7011
 21
105.032
 31
0.0
  0
LINE
  5
18E
  8
0
 62
     7
 10
25.7011
 20
105.032
 30
0.0
 11
25.706600000000002
 21
105.0329999999999
 31
0.0
  0
LINE
  5
18F
  8
0
 62
     7
 10
141.839
 20
111.51600000000001
 30
0.0
 11
141.83500000000001
 21
111.51600000000001
 31
0.0
  0
LINE
  5
190
  8
0
 62
     7
 10
25.706600000000002
 20
105.0329999999999
 30
0.0
 11
25.709399999999999
 21
105.0329999999999
 31
0.0
  0
LINE
  5
191
  8
0
 62
     7
 10
25.709399999999999
 20
105.0329999999999
 30
0.0
 11
25.7121
 21
105.0329999999999
 31
0.0
  0
LINE
  5
192
  8
0
 62
     7
 10
25.7121
 20
105.0329999999999
 30
0.0
 11
25.714500000000001
 21
105.0329999999999
 31
0.0
  0
LINE
  5
193
  8
0
 62
     7
 10
25.714500000000001
 20
105.0329999999999
 30
0.0
 11
25.716899999999999
 21
105.0329999999999
 31
0.0
  0
LINE
  5
194
  8
0
 62
     7
 10
25.716899999999999
 20
105.0329999999999
 30
0.0
 11
25.7197
 21
105.03399999999991
 31
0.0
  0
LINE
  5
195
  8
0
 62
     7
 10
25.7197
 20
105.03399999999991
 30
0.0
 11
25.722100000000001
 21
105.03399999999991
 31
0.0
  0
LINE
  5
196
  8
0
 62
     7
 10
25.722100000000001
 20
105.03399999999991
 30
0.0
 11
25.724900000000002
 21
105.03399999999991
 31
0.0
  0
LINE
  5
197
  8
0
 62
     7
 10
25.724900000000002
 20
105.03399999999991
 30
0.0
 11
25.727299999999989
 21
105.0349999999999
 31
0.0
  0
LINE
  5
198
  8
0
 62
     7
 10
25.727299999999989
 20
105.0349999999999
 30
0.0
 11
25.729299999999991
 21
105.0349999999999
 31
0.0
  0
LINE
  5
199
  8
0
 62
     7
 10
25.729299999999991
 20
105.0349999999999
 30
0.0
 11
25.7318
 21
105.0349999999999
 31
0.0
  0
LINE
  5
19A
  8
0
 62
     7
 10
141.83500000000001
 20
111.51600000000001
 30
0.0
 11
141.83099999999999
 21
111.51600000000001
 31
0.0
  0
LINE
  5
19B
  8
0
 62
     7
 10
141.83099999999999
 20
111.51600000000001
 30
0.0
 11
141.82900000000001
 21
111.51600000000001
 31
0.0
  0
LINE
  5
19C
  8
0
 62
     7
 10
141.82900000000001
 20
111.51600000000001
 30
0.0
 11
141.82699999999991
 21
111.515
 31
0.0
  0
LINE
  5
19D
  8
0
 62
     7
 10
141.82699999999991
 20
111.515
 30
0.0
 11
141.8239999999999
 21
111.515
 31
0.0
  0
LINE
  5
19E
  8
0
 62
     7
 10
141.8239999999999
 20
111.515
 30
0.0
 11
141.82199999999989
 21
111.515
 31
0.0
  0
LINE
  5
19F
  8
0
 62
     7
 10
141.82199999999989
 20
111.515
 30
0.0
 11
141.8179999999999
 21
111.514
 31
0.0
  0
LINE
  5
1A0
  8
0
 62
     7
 10
141.8179999999999
 20
111.514
 30
0.0
 11
141.816
 21
111.514
 31
0.0
  0
LINE
  5
1A1
  8
0
 62
     7
 10
141.816
 20
111.514
 30
0.0
 11
141.81399999999999
 21
111.514
 31
0.0
  0
LINE
  5
1A2
  8
0
 62
     7
 10
141.81399999999999
 20
111.514
 30
0.0
 11
141.81100000000001
 21
111.514
 31
0.0
  0
LINE
  5
1A3
  8
0
 62
     7
 10
141.81100000000001
 20
111.514
 30
0.0
 11
141.809
 21
111.514
 31
0.0
  0
LINE
  5
1A4
  8
0
 62
     7
 10
141.745
 20
111.50700000000001
 30
0.0
 11
141.62200000000001
 21
111.49799999999991
 31
0.0
  0
LINE
  5
1A5
  8
0
 62
     7
 10
141.62200000000001
 20
111.49799999999991
 30
0.0
 11
141.45500000000001
 21
111.48999999999999
 31
0.0
  0
LINE
  5
1A6
  8
0
 62
     7
 10
141.45500000000001
 20
111.48999999999999
 30
0.0
 11
141.24299999999999
 21
111.48
 31
0.0
  0
LINE
  5
1A7
  8
0
 62
     7
 10
141.24299999999999
 20
111.48
 30
0.0
 11
140.9859999999999
 21
111.47
 31
0.0
  0
LINE
  5
1A8
  8
0
 62
     7
 10
140.9859999999999
 20
111.47
 30
0.0
 11
140.684
 21
111.461
 31
0.0
  0
LINE
  5
1A9
  8
0
 62
     7
 10
140.684
 20
111.461
 30
0.0
 11
140.33299999999991
 21
111.452
 31
0.0
  0
LINE
  5
1AA
  8
0
 62
     7
 10
140.33299999999991
 20
111.452
 30
0.0
 11
139.94200000000001
 21
111.443
 31
0.0
  0
LINE
  5
1AB
  8
0
 62
     7
 10
139.94200000000001
 20
111.443
 30
0.0
 11
139.5089999999999
 21
111.434
 31
0.0
  0
LINE
  5
1AC
  8
0
 62
     7
 10
139.5089999999999
 20
111.434
 30
0.0
 11
139.047
 21
111.426
 31
0.0
  0
LINE
  5
1AD
  8
0
 62
     7
 10
139.047
 20
111.426
 30
0.0
 11
138.56999999999991
 21
111.419
 31
0.0
  0
LINE
  5
1AE
  8
0
 62
     7
 10
138.56999999999991
 20
111.419
 30
0.0
 11
138.084
 21
111.413
 31
0.0
  0
LINE
  5
1AF
  8
0
 62
     7
 10
138.084
 20
111.413
 30
0.0
 11
137.60299999999989
 21
111.4079999999999
 31
0.0
  0
LINE
  5
1B0
  8
0
 62
     7
 10
137.60299999999989
 20
111.4079999999999
 30
0.0
 11
137.12899999999991
 21
111.40299999999991
 31
0.0
  0
LINE
  5
1B1
  8
0
 62
     7
 10
137.12899999999991
 20
111.40299999999991
 30
0.0
 11
136.673
 21
111.399
 31
0.0
  0
LINE
  5
1B2
  8
0
 62
     7
 10
136.673
 20
111.399
 30
0.0
 11
136.23400000000001
 21
111.396
 31
0.0
  0
LINE
  5
1B3
  8
0
 62
     7
 10
136.23400000000001
 20
111.396
 30
0.0
 11
135.81100000000001
 21
111.39399999999991
 31
0.0
  0
LINE
  5
1B4
  8
0
 62
     7
 10
135.81100000000001
 20
111.39399999999991
 30
0.0
 11
135.40199999999999
 21
111.392
 31
0.0
  0
LINE
  5
1B5
  8
0
 62
     7
 10
135.40199999999999
 20
111.392
 30
0.0
 11
134.99799999999991
 21
111.392
 31
0.0
  0
LINE
  5
1B6
  8
0
 62
     7
 10
134.99799999999991
 20
111.392
 30
0.0
 11
134.65000000000001
 21
111.39100000000001
 31
0.0
  0
LINE
  5
1B7
  8
0
 62
     7
 10
141.809
 20
111.514
 30
0.0
 11
141.745
 21
111.50700000000001
 31
0.0
  0
LINE
  5
1B8
  8
0
 62
     7
 10
141.809
 20
111.514
 30
0.0
 11
141.80600000000001
 21
111.514
 31
0.0
  0
LINE
  5
1B9
  8
0
 62
     7
 10
141.80600000000001
 20
111.514
 30
0.0
 11
141.80399999999989
 21
111.51299999999991
 31
0.0
  0
LINE
  5
1BA
  8
0
 62
     7
 10
141.80399999999989
 20
111.51299999999991
 30
0.0
 11
141.80099999999999
 21
111.51299999999991
 31
0.0
  0
LINE
  5
1BB
  8
0
 62
     7
 10
141.80099999999999
 20
111.51299999999991
 30
0.0
 11
141.798
 21
111.512
 31
0.0
  0
LINE
  5
1BC
  8
0
 62
     7
 10
141.798
 20
111.512
 30
0.0
 11
141.79599999999991
 21
111.512
 31
0.0
  0
LINE
  5
1BD
  8
0
 62
     7
 10
141.79599999999991
 20
111.512
 30
0.0
 11
141.792
 21
111.511
 31
0.0
  0
LINE
  5
1BE
  8
0
 62
     7
 10
141.792
 20
111.511
 30
0.0
 11
141.7889999999999
 21
111.511
 31
0.0
  0
LINE
  5
1BF
  8
0
 62
     7
 10
141.7889999999999
 20
111.511
 30
0.0
 11
141.785
 21
111.50999999999991
 31
0.0
  0
LINE
  5
1C0
  8
0
 62
     7
 10
25.755199999999999
 20
111.50999999999991
 30
0.0
 11
25.751699999999989
 21
111.511
 31
0.0
  0
LINE
  5
1C1
  8
0
 62
     7
 10
25.751699999999989
 20
111.511
 30
0.0
 11
25.748999999999999
 21
111.511
 31
0.0
  0
LINE
  5
1C2
  8
0
 62
     7
 10
25.748999999999999
 20
111.511
 30
0.0
 11
25.7455
 21
111.512
 31
0.0
  0
LINE
  5
1C3
  8
0
 62
     7
 10
25.7455
 20
111.512
 30
0.0
 11
25.742799999999988
 21
111.512
 31
0.0
  0
LINE
  5
1C4
  8
0
 62
     7
 10
25.742799999999988
 20
111.512
 30
0.0
 11
25.739699999999999
 21
111.51299999999991
 31
0.0
  0
LINE
  5
1C5
  8
0
 62
     7
 10
25.739699999999999
 20
111.51299999999991
 30
0.0
 11
25.7376
 21
111.51299999999991
 31
0.0
  0
LINE
  5
1C6
  8
0
 62
     7
 10
25.7376
 20
111.51299999999991
 30
0.0
 11
25.734500000000001
 21
111.514
 31
0.0
  0
LINE
  5
1C7
  8
0
 62
     7
 10
25.734500000000001
 20
111.514
 30
0.0
 11
25.7318
 21
111.514
 31
0.0
  0
LINE
  5
1C8
  8
0
 62
     7
 10
145.77099999999999
 20
104.9739999999999
 30
0.0
 11
145.80199999999999
 21
104.977
 31
0.0
  0
LINE
  5
1C9
  8
0
 62
     7
 10
145.80199999999999
 20
104.977
 30
0.0
 11
145.83299999999991
 21
104.9839999999999
 31
0.0
  0
LINE
  5
1CA
  8
0
 62
     7
 10
145.83299999999991
 20
104.9839999999999
 30
0.0
 11
145.86199999999991
 21
104.996
 31
0.0
  0
LINE
  5
1CB
  8
0
 62
     7
 10
145.86199999999991
 20
104.996
 30
0.0
 11
145.88800000000001
 21
105.0119999999999
 31
0.0
  0
LINE
  5
1CC
  8
0
 62
     7
 10
145.88800000000001
 20
105.0119999999999
 30
0.0
 11
145.91200000000001
 21
105.0329999999999
 31
0.0
  0
LINE
  5
1CD
  8
0
 62
     7
 10
145.91200000000001
 20
105.0329999999999
 30
0.0
 11
145.93199999999999
 21
105.0559999999999
 31
0.0
  0
LINE
  5
1CE
  8
0
 62
     7
 10
145.93199999999999
 20
105.0559999999999
 30
0.0
 11
145.94999999999999
 21
105.0839999999999
 31
0.0
  0
LINE
  5
1CF
  8
0
 62
     7
 10
145.94999999999999
 20
105.0839999999999
 30
0.0
 11
145.96100000000001
 21
105.11199999999999
 31
0.0
  0
LINE
  5
1D0
  8
0
 62
     7
 10
145.96100000000001
 20
105.11199999999999
 30
0.0
 11
145.9679999999999
 21
105.1429999999999
 31
0.0
  0
LINE
  5
1D1
  8
0
 62
     7
 10
145.9679999999999
 20
105.1429999999999
 30
0.0
 11
145.971
 21
105.17399999999989
 31
0.0
  0
LINE
  5
1D2
  8
0
 62
     7
 10
33.7806
 20
105.163
 30
0.0
 11
33.7806
 21
111.387
 31
0.0
  0
LINE
  5
1D3
  8
0
  6
AIGENLINE001
 62
     7
 10
24.279599999999999
 20
110.125
 30
0.0
 11
24.279599999999999
 21
109.824
 31
0.0
  0
LINE
  5
1D4
  8
0
  6
AIGENLINE001
 62
     7
 10
23.279900000000001
 20
109.824
 30
0.0
 11
23.279900000000001
 21
110.125
 31
0.0
  0
LINE
  5
1D5
  8
0
 62
     7
 10
21.570399999999989
 20
111.3739999999999
 30
0.0
 11
21.570399999999989
 21
105.17399999999989
 31
0.0
  0
LINE
  5
1D6
  8
0
 62
     7
 10
21.570399999999989
 20
105.17399999999989
 30
0.0
 11
21.572500000000002
 21
105.1429999999999
 31
0.0
  0
LINE
  5
1D7
  8
0
 62
     7
 10
21.572500000000002
 20
105.1429999999999
 30
0.0
 11
21.579999999999991
 21
105.113
 31
0.0
  0
LINE
  5
1D8
  8
0
 62
     7
 10
21.579999999999991
 20
105.113
 30
0.0
 11
21.592099999999991
 21
105.0839999999999
 31
0.0
  0
LINE
  5
1D9
  8
0
 62
     7
 10
21.592099999999991
 20
105.0839999999999
 30
0.0
 11
21.6083
 21
105.0559999999999
 31
0.0
  0
LINE
  5
1DA
  8
0
 62
     7
 10
21.6083
 20
105.0559999999999
 30
0.0
 11
21.629000000000001
 21
105.0329999999999
 31
0.0
  0
LINE
  5
1DB
  8
0
 62
     7
 10
21.629000000000001
 20
105.0329999999999
 30
0.0
 11
21.6524
 21
105.0119999999999
 31
0.0
  0
LINE
  5
1DC
  8
0
 62
     7
 10
21.6524
 20
105.0119999999999
 30
0.0
 11
21.679600000000001
 21
104.996
 31
0.0
  0
LINE
  5
1DD
  8
0
 62
     7
 10
21.679600000000001
 20
104.996
 30
0.0
 11
21.708200000000001
 21
104.9839999999999
 31
0.0
  0
LINE
  5
1DE
  8
0
 62
     7
 10
21.708200000000001
 20
104.9839999999999
 30
0.0
 11
21.738499999999991
 21
104.977
 31
0.0
  0
LINE
  5
1DF
  8
0
 62
     7
 10
21.738499999999991
 20
104.977
 30
0.0
 11
21.770199999999999
 21
104.9739999999999
 31
0.0
  0
LINE
  5
1E0
  8
0
 62
     7
 10
25.288
 20
159.74100000000001
 30
0.0
 11
24.180099999999999
 21
157.73699999999991
 31
0.0
  0
LINE
  5
1E1
  8
0
 62
     7
 10
24.180099999999999
 20
157.73699999999991
 30
0.0
 11
26.1417
 21
158.9189999999999
 31
0.0
  0
LINE
  5
1E2
  8
0
 62
     7
 10
26.1417
 20
158.9189999999999
 30
0.0
 11
25.288
 21
159.74100000000001
 31
0.0
  0
LINE
  5
1E3
  8
0
 62
     7
 10
24.175899999999999
 20
157.74299999999991
 30
0.0
 11
30.0991
 21
163.88099999999989
 31
0.0
  0
LINE
  5
1E4
  8
0
 62
     7
 10
30.0991
 20
163.88099999999989
 30
0.0
 11
71.746799999999993
 21
163.88099999999989
 31
0.0
  0
LINE
  5
1E5
  8
0
 62
     7
 10
170.14899999999989
 20
106.7949999999999
 30
0.0
 11
170.14899999999989
 21
106.5739999999999
 31
0.0
  0
LINE
  5
1E6
  8
0
 62
     7
 10
170.14899999999989
 20
106.5739999999999
 30
0.0
 11
170.14899999999989
 21
106.3539999999999
 31
0.0
  0
LINE
  5
1E7
  8
0
  6
AIGENLINE002
 62
     7
 10
169.464
 20
106.5739999999999
 30
0.0
 11
181.9909999999999
 21
106.5739999999999
 31
0.0
  0
LINE
  5
1E8
  8
0
 62
     7
 10
170.14899999999989
 20
106.7949999999999
 30
0.0
 11
180.239
 21
106.7949999999999
 31
0.0
  0
LINE
  5
1E9
  8
0
 62
     7
 10
170.14899999999989
 20
106.3539999999999
 30
0.0
 11
180.239
 21
106.3539999999999
 31
0.0
  0
LINE
  5
1EA
  8
0
 62
     7
 10
179.59700000000001
 20
106.9739999999999
 30
0.0
 11
179.97200000000001
 21
106.17399999999989
 31
0.0
  0
LINE
  5
1EB
  8
0
 62
     7
 10
178.715
 20
106.9739999999999
 30
0.0
 11
179.09
 21
106.17399999999989
 31
0.0
  0
LINE
  5
1EC
  8
0
 62
     7
 10
177.834
 20
106.9739999999999
 30
0.0
 11
178.20999999999989
 21
106.17399999999989
 31
0.0
  0
LINE
  5
1ED
  8
0
 62
     7
 10
176.953
 20
106.9739999999999
 30
0.0
 11
177.32799999999989
 21
106.17399999999989
 31
0.0
  0
LINE
  5
1EE
  8
0
 62
     7
 10
176.072
 20
106.9739999999999
 30
0.0
 11
176.447
 21
106.17399999999989
 31
0.0
  0
LINE
  5
1EF
  8
0
 62
     7
 10
175.19
 20
106.9739999999999
 30
0.0
 11
175.56599999999989
 21
106.17399999999989
 31
0.0
  0
LINE
  5
1F0
  8
0
 62
     7
 10
174.309
 20
106.9739999999999
 30
0.0
 11
174.685
 21
106.17399999999989
 31
0.0
  0
LINE
  5
1F1
  8
0
 62
     7
 10
173.429
 20
106.9739999999999
 30
0.0
 11
173.80399999999989
 21
106.17399999999989
 31
0.0
  0
LINE
  5
1F2
  8
0
 62
     7
 10
172.547
 20
106.9739999999999
 30
0.0
 11
172.923
 21
106.17399999999989
 31
0.0
  0
LINE
  5
1F3
  8
0
 62
     7
 10
180.239
 20
106.7949999999999
 30
0.0
 11
181.149
 21
106.5739999999999
 31
0.0
  0
LINE
  5
1F4
  8
0
 62
     7
 10
181.149
 20
106.5739999999999
 30
0.0
 11
180.239
 21
106.3539999999999
 31
0.0
  0
LINE
  5
1F5
  8
0
 62
     7
 10
172.149
 20
106.7949999999999
 30
0.0
 11
172.149
 21
106.3539999999999
 31
0.0
  0
LINE
  5
1F6
  8
0
 62
     7
 10
143.541
 20
154.964
 30
0.0
 11
143.761
 21
154.964
 31
0.0
  0
LINE
  5
1F7
  8
0
 62
     7
 10
143.761
 20
154.964
 30
0.0
 11
143.982
 21
154.964
 31
0.0
  0
LINE
  5
1F8
  8
0
  6
AIGENLINE002
 62
     7
 10
143.761
 20
154.61299999999989
 30
0.0
 11
143.761
 21
166.8059999999999
 31
0.0
  0
LINE
  5
1F9
  8
0
 62
     7
 10
143.541
 20
154.964
 30
0.0
 11
143.541
 21
165.054
 31
0.0
  0
LINE
  5
1FA
  8
0
 62
     7
 10
143.982
 20
154.964
 30
0.0
 11
143.982
 21
165.054
 31
0.0
  0
LINE
  5
1FB
  8
0
 62
     7
 10
143.36199999999991
 20
164.41099999999989
 30
0.0
 11
144.16200000000001
 21
164.78700000000001
 31
0.0
  0
LINE
  5
1FC
  8
0
 62
     7
 10
143.36199999999991
 20
163.52999999999989
 30
0.0
 11
144.16200000000001
 21
163.905
 31
0.0
  0
LINE
  5
1FD
  8
0
 62
     7
 10
143.36199999999991
 20
162.64899999999989
 30
0.0
 11
144.16200000000001
 21
163.024
 31
0.0
  0
LINE
  5
1FE
  8
0
 62
     7
 10
143.36199999999991
 20
161.768
 30
0.0
 11
144.16200000000001
 21
162.143
 31
0.0
  0
LINE
  5
1FF
  8
0
 62
     7
 10
143.36199999999991
 20
160.88599999999991
 30
0.0
 11
144.16200000000001
 21
161.26199999999989
 31
0.0
  0
LINE
  5
200
  8
0
 62
     7
 10
143.36199999999991
 20
160.006
 30
0.0
 11
144.16200000000001
 21
160.381
 31
0.0
  0
LINE
  5
201
  8
0
 62
     7
 10
143.36199999999991
 20
159.12399999999991
 30
0.0
 11
144.16200000000001
 21
159.49899999999991
 31
0.0
  0
LINE
  5
202
  8
0
 62
     7
 10
143.36199999999991
 20
158.24299999999999
 30
0.0
 11
144.16200000000001
 21
158.619
 31
0.0
  0
LINE
  5
203
  8
0
 62
     7
 10
143.36199999999991
 20
157.36199999999999
 30
0.0
 11
144.16200000000001
 21
157.73699999999991
 31
0.0
  0
LINE
  5
204
  8
0
 62
     7
 10
143.541
 20
165.054
 30
0.0
 11
143.761
 21
165.964
 31
0.0
  0
LINE
  5
205
  8
0
 62
     7
 10
143.761
 20
165.964
 30
0.0
 11
143.982
 21
165.054
 31
0.0
  0
LINE
  5
206
  8
0
 62
     7
 10
143.541
 20
156.96399999999991
 30
0.0
 11
143.982
 21
156.96399999999991
 31
0.0
  0
LINE
  5
207
  8
0
 62
     7
 10
23.5596
 20
154.964
 30
0.0
 11
23.780100000000001
 21
154.964
 31
0.0
  0
LINE
  5
208
  8
0
 62
     7
 10
23.780100000000001
 20
154.964
 30
0.0
 11
24.0002
 21
154.964
 31
0.0
  0
LINE
  5
209
  8
0
  6
AIGENLINE002
 62
     7
 10
23.780100000000001
 20
154.279
 30
0.0
 11
23.780100000000001
 21
166.8059999999999
 31
0.0
  0
LINE
  5
20A
  8
0
 62
     7
 10
23.5596
 20
154.964
 30
0.0
 11
23.5596
 21
165.054
 31
0.0
  0
LINE
  5
20B
  8
0
 62
     7
 10
24.0002
 20
154.964
 30
0.0
 11
24.0002
 21
165.054
 31
0.0
  0
LINE
  5
20C
  8
0
 62
     7
 10
23.379799999999989
 20
164.41099999999989
 30
0.0
 11
24.180099999999999
 21
164.78700000000001
 31
0.0
  0
LINE
  5
20D
  8
0
 62
     7
 10
23.379799999999989
 20
163.52999999999989
 30
0.0
 11
24.180099999999999
 21
163.905
 31
0.0
  0
LINE
  5
20E
  8
0
 62
     7
 10
23.379799999999989
 20
162.64899999999989
 30
0.0
 11
24.180099999999999
 21
163.024
 31
0.0
  0
LINE
  5
20F
  8
0
 62
     7
 10
23.379799999999989
 20
161.768
 30
0.0
 11
24.180099999999999
 21
162.143
 31
0.0
  0
LINE
  5
210
  8
0
 62
     7
 10
23.379799999999989
 20
160.88599999999991
 30
0.0
 11
24.180099999999999
 21
161.26199999999989
 31
0.0
  0
LINE
  5
211
  8
0
 62
     7
 10
23.379799999999989
 20
160.006
 30
0.0
 11
24.180099999999999
 21
160.381
 31
0.0
  0
LINE
  5
212
  8
0
 62
     7
 10
23.379799999999989
 20
159.12399999999991
 30
0.0
 11
24.180099999999999
 21
159.49899999999991
 31
0.0
  0
LINE
  5
213
  8
0
 62
     7
 10
23.379799999999989
 20
158.24299999999999
 30
0.0
 11
24.180099999999999
 21
158.619
 31
0.0
  0
LINE
  5
214
  8
0
 62
     7
 10
23.379799999999989
 20
157.36199999999999
 30
0.0
 11
24.180099999999999
 21
157.73699999999991
 31
0.0
  0
LINE
  5
215
  8
0
 62
     7
 10
23.5596
 20
165.054
 30
0.0
 11
23.780100000000001
 21
165.964
 31
0.0
  0
LINE
  5
216
  8
0
 62
     7
 10
23.780100000000001
 20
165.964
 30
0.0
 11
24.0002
 21
165.054
 31
0.0
  0
LINE
  5
217
  8
0
 62
     7
 10
23.5596
 20
156.96399999999991
 30
0.0
 11
24.0002
 21
156.96399999999991
 31
0.0
  0
LINE
  5
218
  8
0
 62
     7
 10
170.14899999999989
 20
110.19499999999989
 30
0.0
 11
170.14899999999989
 21
109.9739999999999
 31
0.0
  0
LINE
  5
219
  8
0
 62
     7
 10
170.14899999999989
 20
109.9739999999999
 30
0.0
 11
170.14899999999989
 21
109.75399999999991
 31
0.0
  0
LINE
  5
21A
  8
0
  6
AIGENLINE002
 62
     7
 10
169.464
 20
109.9739999999999
 30
0.0
 11
181.9909999999999
 21
109.9739999999999
 31
0.0
  0
LINE
  5
21B
  8
0
 62
     7
 10
170.14899999999989
 20
110.19499999999989
 30
0.0
 11
180.239
 21
110.19499999999989
 31
0.0
  0
LINE
  5
21C
  8
0
 62
     7
 10
170.14899999999989
 20
109.75399999999991
 30
0.0
 11
180.239
 21
109.75399999999991
 31
0.0
  0
LINE
  5
21D
  8
0
 62
     7
 10
179.59700000000001
 20
110.3739999999999
 30
0.0
 11
179.97200000000001
 21
109.5739999999999
 31
0.0
  0
LINE
  5
21E
  8
0
 62
     7
 10
178.715
 20
110.3739999999999
 30
0.0
 11
179.09
 21
109.5739999999999
 31
0.0
  0
LINE
  5
21F
  8
0
 62
     7
 10
177.834
 20
110.3739999999999
 30
0.0
 11
178.20999999999989
 21
109.5739999999999
 31
0.0
  0
LINE
  5
220
  8
0
 62
     7
 10
176.953
 20
110.3739999999999
 30
0.0
 11
177.32799999999989
 21
109.5739999999999
 31
0.0
  0
LINE
  5
221
  8
0
 62
     7
 10
176.072
 20
110.3739999999999
 30
0.0
 11
176.447
 21
109.5739999999999
 31
0.0
  0
LINE
  5
222
  8
0
 62
     7
 10
175.19
 20
110.3739999999999
 30
0.0
 11
175.56599999999989
 21
109.5739999999999
 31
0.0
  0
LINE
  5
223
  8
0
 62
     7
 10
174.309
 20
110.3739999999999
 30
0.0
 11
174.685
 21
109.5739999999999
 31
0.0
  0
LINE
  5
224
  8
0
 62
     7
 10
173.429
 20
110.3739999999999
 30
0.0
 11
173.80399999999989
 21
109.5739999999999
 31
0.0
  0
LINE
  5
225
  8
0
 62
     7
 10
172.547
 20
110.3739999999999
 30
0.0
 11
172.923
 21
109.5739999999999
 31
0.0
  0
LINE
  5
226
  8
0
 62
     7
 10
180.239
 20
110.19499999999989
 30
0.0
 11
181.149
 21
109.9739999999999
 31
0.0
  0
LINE
  5
227
  8
0
 62
     7
 10
181.149
 20
109.9739999999999
 30
0.0
 11
180.239
 21
109.75399999999991
 31
0.0
  0
LINE
  5
228
  8
0
 62
     7
 10
172.149
 20
110.19499999999989
 30
0.0
 11
172.149
 21
109.75399999999991
 31
0.0
  0
TEXT
  5
229
  8
_________2
 62
     7
 10
109.179
 20
24.226099999999999
 30
0.0
 40
3.9357000000000002
  1
エディション11 タオルバー（600サイズ）
 41
0.5
  0
LINE
  5
22A
  8
_________2
 62
     7
 10
205.30099999999999
 20
127.411
 30
0.0
 11
183.55099999999999
 21
127.411
 31
0.0
  0
LINE
  5
22B
  8
_________2
 62
     7
 10
100.2999999999999
 20
-4.0910799999999998
 30
0.0
 11
100.2999999999999
 21
-21.070999999999991
 31
0.0
  0
LINE
  5
22C
  8
_________2
 62
     7
 10
100.2999999999999
 20
275.93099999999993
 30
0.0
 11
100.2999999999999
 21
258.911
 31
0.0
  0
LINE
  5
22D
  8
_________2
 62
     7
 10
17.049199999999988
 20
127.411
 30
0.0
 11
-4.7012099999999988
 21
127.411
 31
0.0
  0
LINE
  5
22E
  8
_________2
 62
     7
 10
76.740700000000004
 20
29.8047
 30
0.0
 11
74.554400000000001
 21
29.8047
 31
0.0
  0
LINE
  5
22F
  8
_________2
 62
     7
 10
77.2333
 20
29.8047
 30
0.0
 11
76.981099999999984
 21
29.8047
 31
0.0
  0
LINE
  5
230
  8
_________2
 62
     7
 10
77.725999999999999
 20
29.8047
 30
0.0
 11
80.650899999999993
 21
29.8047
 31
0.0
  0
LINE
  5
231
  8
_________2
 62
     7
 10
77.2333
 20
29.8047
 30
0.0
 11
77.485500000000002
 21
29.8047
 31
0.0
  0
LINE
  5
232
  8
_________2
 62
     7
 10
70.837100000000007
 20
29.8047
 30
0.0
 11
68.650199999999998
 21
29.8047
 31
0.0
  0
LINE
  5
233
  8
_________2
 62
     7
 10
71.329099999999997
 20
29.8047
 30
0.0
 11
71.077600000000004
 21
29.8047
 31
0.0
  0
LINE
  5
234
  8
_________2
 62
     7
 10
71.329099999999997
 20
30.2974
 30
0.0
 11
71.329099999999997
 21
32.484400000000001
 31
0.0
  0
LINE
  5
235
  8
_________2
 62
     7
 10
71.329099999999997
 20
29.8047
 30
0.0
 11
71.329099999999997
 21
30.057300000000001
 31
0.0
  0
LINE
  5
236
  8
_________2
 62
     7
 10
71.821700000000007
 20
29.8047
 30
0.0
 11
74.008700000000005
 21
29.8047
 31
0.0
  0
LINE
  5
237
  8
_________2
 62
     7
 10
71.329099999999997
 20
29.8047
 30
0.0
 11
71.581299999999985
 21
29.8047
 31
0.0
  0
LINE
  5
238
  8
_________2
 62
     7
 10
71.329099999999997
 20
29.312799999999999
 30
0.0
 11
71.329099999999997
 21
27.126200000000001
 31
0.0
  0
LINE
  5
239
  8
_________2
 62
     7
 10
71.329099999999997
 20
29.8047
 30
0.0
 11
71.329099999999997
 21
29.5532
 31
0.0
  0
LINE
  5
23A
  8
_________2
 62
     7
 10
75.040199999999999
 20
28.5852
 30
0.0
 11
80.218199999999996
 21
27.720400000000001
 31
0.0
  0
LINE
  5
23B
  8
_________2
 62
     7
 10
75.040199999999999
 20
31.024699999999999
 30
0.0
 11
80.218199999999996
 21
31.8901
 31
0.0
  0
LINE
  5
23C
  8
_________2
 62
     7
 10
80.218199999999996
 20
27.720400000000001
 30
0.0
 11
80.218199999999996
 21
31.8901
 31
0.0
  0
LINE
  5
23D
  8
_________2
 62
     7
 10
75.040199999999999
 20
28.5852
 30
0.0
 11
75.040199999999999
 21
31.024699999999999
 31
0.0
  0
ARC
  5
23E
  8
_________2
 62
     7
 10
71.282501999999994
 20
29.757801000000001
 30
0.0
 40
1.267714
 50
2.1220840000000001
 51
87.894083999999992
  0
ARC
  5
23F
  8
_________2
 62
     7
 10
71.375640000000004
 20
29.758545999999999
 30
0.0
 40
1.2669680000000001
 50
92.105782999999988
 51
177.91037
  0
ARC
  5
240
  8
_________2
 62
     7
 10
71.376013999999998
 20
29.851671
 30
0.0
 40
1.2673680000000001
 50
182.12203600000001
 51
267.877993
  0
ARC
  5
241
  8
_________2
 62
     7
 10
71.282195999999999
 20
29.852347999999999
 30
0.0
 40
1.2680439999999991
 50
272.11916400000001
 51
357.84848499999993
  0
ARC
  5
242
  8
_________2
 62
     7
 10
71.248716999999985
 20
29.724731999999989
 30
0.0
 40
2.1668310000000002
 50
2.1161439999999989
 51
87.874379000000005
  0
ARC
  5
243
  8
_________2
 62
     7
 10
71.408756000000011
 20
29.726146
 30
0.0
 40
2.165392999999999
 50
92.108508999999998
 51
177.91986499999999
  0
ARC
  5
244
  8
_________2
 62
     7
 10
71.409094999999994
 20
29.884751999999999
 30
0.0
 40
2.1657829999999998
 50
182.117133
 51
267.88289700000001
  0
ARC
  5
245
  8
_________2
 62
     7
 10
71.249115000000003
 20
29.885429999999989
 30
0.0
 40
2.1664590000000001
 50
272.11546800000002
 51
357.86560400000002
  0
TEXT
  5
246
  8
_________2
 62
     7
 10
104.605
 20
1.6794899999999999
 30
0.0
 40
3.0923400000000001
  1
図番
 41
0.5
  0
LINE
  5
247
  8
_________2
 62
     7
 10
103.55
 20
5.9087199999999989
 30
0.0
 11
183.55099999999999
 21
5.9087199999999989
 31
0.0
  0
TEXT
  5
248
  8
_________2
 62
     7
 10
104.605
 20
11.679299999999991
 30
0.0
 40
3.0923400000000001
  1
品番
 41
0.5
  0
TEXT
  5
249
  8
_________2
 62
     7
 10
104.605
 20
31.8184
 30
0.0
 40
3.0923400000000001
  1
名称
 41
0.5
  0
TEXT
  5
24A
  8
_________2
 62
     7
 10
91.844758333333345
 20
26.822299999999998
 30
0.0
 40
3.6545800000000002
  1
mm
 41
0.5
 72
     1
 11
93.367500000000007
 21
26.822299999999998
 31
0.0
  0
TEXT
  5
24B
  8
_________2
 62
     7
 10
85.642899999999983
 20
31.8184
 30
0.0
 40
3.0923400000000001
  1
単位
 41
0.5
  0
TEXT
  5
24C
  8
_________2
 62
     7
 10
85.642899999999983
 20
19.410799999999991
 30
0.0
 40
3.0923400000000001
  1
尺度
 41
0.5
  0
TEXT
  5
24D
  8
_________2
 62
     7
 10
90.548458666666676
 20
13.218199999999991
 30
0.0
 40
3.6545800000000002
  1
1 ： 5
 41
0.5
 72
     1
 11
93.959400000000016
 21
13.218199999999991
 31
0.0
  0
TEXT
  5
24E
  8
_________2
 62
     7
 10
135.67859999999999
 20
9.1082000000000001
 30
0.0
 40
3.9357000000000002
  1
KC11101-60
 41
0.5
 72
     1
 11
143.55000000000001
 21
9.1082000000000001
 31
0.0
  0
TEXT
  5
24F
  8
_________2
 62
     7
 10
135.67859999999999
 20
-0.8926299999999999
 30
0.0
 40
3.9357000000000002
  1
KC11101-60
 41
0.5
 72
     1
 11
143.55000000000001
 21
-0.8926299999999999
 31
0.0
  0
TEXT
  5
250
  8
_________2
 62
     7
 10
39.364090666666669
 20
13.603400000000001
 30
0.0
 40
3.6545800000000002
  1
石原
 41
0.5
 72
     1
 11
41.313200000000002
 21
13.603400000000001
 31
0.0
  0
TEXT
  5
251
  8
_________2
 62
     7
 10
20.790090666666661
 20
13.603400000000001
 30
0.0
 40
3.6545800000000002
  1
菅原
 41
0.5
 72
     1
 11
22.73919999999999
 21
13.603400000000001
 31
0.0
  0
TEXT
  5
252
  8
_________2
 62
     7
 10
67.785399999999996
 20
13.218199999999991
 30
0.0
 40
3.6545800000000002
  1
11.10.25
 41
0.5
  0
TEXT
  5
253
  8
_________2
 62
     7
 10
66.592699999999994
 20
19.410799999999991
 30
0.0
 40
3.0923400000000001
  1
日付
 41
0.5
  0
TEXT
  5
254
  8
_________2
 62
     7
 10
29.638999999999999
 20
19.410799999999991
 30
0.0
 40
3.0923400000000001
  1
検図
 41
0.5
  0
TEXT
  5
255
  8
_________2
 62
     7
 10
18.020700000000001
 20
5.21143
 30
0.0
 40
3.0923400000000001
  1
備考
 41
0.5
  0
TEXT
  5
256
  8
_________2
 62
     7
 10
18.020700000000001
 20
19.410799999999991
 30
0.0
 40
3.0923400000000001
  1
製図
 41
0.5
  0
TEXT
  5
257
  8
_________2
 62
     7
 10
23.788165333333328
 20
27.936800000000002
 30
0.0
 40
4.4979399999999989
  1
セラトレーディング株式会社
 41
0.5
 72
     1
 11
41.180199999999999
 21
27.936800000000002
 31
0.0
  0
LINE
  5
258
  8
_________2
 62
     7
 10
183.55099999999999
 20
-4.0910799999999998
 30
0.0
 11
17.049199999999988
 21
-4.0910799999999998
 31
0.0
  0
LINE
  5
259
  8
_________2
 62
     7
 10
17.049199999999988
 20
-4.0910799999999998
 30
0.0
 11
17.049199999999988
 21
258.911
 31
0.0
  0
LINE
  5
25A
  8
_________2
 62
     7
 10
17.049199999999988
 20
258.911
 30
0.0
 11
183.55099999999999
 21
258.911
 31
0.0
  0
LINE
  5
25B
  8
_________2
 62
     7
 10
183.55099999999999
 20
258.911
 30
0.0
 11
183.55099999999999
 21
-4.0910799999999998
 31
0.0
  0
LINE
  5
25C
  8
_________2
 62
     7
 10
65.549599999999998
 20
9.4092999999999982
 30
0.0
 11
65.549599999999998
 21
35.909100000000002
 31
0.0
  0
LINE
  5
25D
  8
_________2
 62
     7
 10
84.549400000000006
 20
9.4092999999999982
 30
0.0
 11
84.549400000000006
 21
35.909100000000002
 31
0.0
  0
LINE
  5
25E
  8
_________2
 62
     7
 10
103.55
 20
-4.0910799999999998
 30
0.0
 11
103.55
 21
35.909100000000002
 31
0.0
  0
LINE
  5
25F
  8
_________2
 62
     7
 10
28.548999999999999
 20
9.4092999999999982
 30
0.0
 11
28.548999999999999
 21
23.409199999999998
 31
0.0
  0
LINE
  5
260
  8
_________2
 62
     7
 10
17.049199999999988
 20
9.4092999999999982
 30
0.0
 11
103.55
 21
9.4092999999999982
 31
0.0
  0
LINE
  5
261
  8
_________2
 62
     7
 10
17.049199999999988
 20
23.409199999999998
 30
0.0
 11
103.55
 21
23.409199999999998
 31
0.0
  0
LINE
  5
262
  8
_________2
 62
     7
 10
103.55
 20
15.9085
 30
0.0
 11
183.55099999999999
 21
15.9085
 31
0.0
  0
LINE
  5
263
  8
_________2
 62
     7
 10
17.049199999999988
 20
35.909100000000002
 30
0.0
 11
183.55099999999999
 21
35.909100000000002
 31
0.0
  0
ENDSEC
  0
EOF
