  0
SECTION
  2
HEADER
  9
$ACADVER
  1
AC1009
  9
$INSBASE
 10
0.0
 20
0.0
 30
0.0
  9
$EXTMIN
 10
-4.7012099999999988
 20
-21.071000000000002
 30
0.0
  9
$EXTMAX
 10
205.30099999999999
 20
275.93099999999998
 30
0.0
  9
$LIMMIN
 10
0.0
 20
0.0
  9
$LIMMAX
 10
12.0
 20
9.0
  9
$ORTHOMODE
 70
     0
  9
$REGENMODE
 70
     1
  9
$FILLMODE
 70
     1
  9
$QTEXTMODE
 70
     0
  9
$MIRRTEXT
 70
     1
  9
$DRAGMODE
 70
     2
  9
$LTSCALE
 40
1.0
  9
$OSMODE
 70
    37
  9
$ATTMODE
 70
     1
  9
$TEXTSIZE
 40
0.0
  9
$TRACEWID
 40
0.05
  9
$TEXTSTYLE
  7
STANDARD
  9
$CLAYER
  8
0
  9
$CELTYPE
  6
CONTINUOUS
  9
$CECOLOR
 62
   256
  9
$DIMSCALE
 40
1.0
  9
$DIMASZ
 40
0.18
  9
$DIMEXO
 40
0.0625
  9
$DIMDLI
 40
0.38
  9
$DIMRND
 40
0.0
  9
$DIMDLE
 40
0.0
  9
$DIMEXE
 40
0.18
  9
$DIMTP
 40
0.0
  9
$DIMTM
 40
0.0
  9
$DIMTXT
 40
0.18
  9
$DIMCEN
 40
0.09
  9
$DIMTSZ
 40
0.0
  9
$DIMTOL
 70
     0
  9
$DIMLIM
 70
     0
  9
$DIMTIH
 70
     1
  9
$DIMTOH
 70
     1
  9
$DIMSE1
 70
     0
  9
$DIMSE2
 70
     0
  9
$DIMTAD
 70
     0
  9
$DIMZIN
 70
     0
  9
$DIMBLK
  1

  9
$DIMASO
 70
     1
  9
$DIMSHO
 70
     1
  9
$DIMPOST
  1

  9
$DIMAPOST
  1

  9
$DIMALT
 70
     0
  9
$DIMALTD
 70
     2
  9
$DIMALTF
 40
25.399999999999999
  9
$DIMLFAC
 40
1.0
  9
$DIMTOFL
 70
     0
  9
$DIMTVP
 40
0.0
  9
$DIMTIX
 70
     0
  9
$DIMSOXD
 70
     0
  9
$DIMSAH
 70
     0
  9
$DIMBLK1
  1

  9
$DIMBLK2
  1

  9
$DIMSTYLE
  2
STANDARD
  9
$DIMCLRD
 70
     0
  9
$DIMCLRE
 70
     0
  9
$DIMCLRT
 70
     0
  9
$DIMTFAC
 40
1.0
  9
$DIMGAP
 40
0.09
  9
$LUNITS
 70
     2
  9
$LUPREC
 70
     4
  9
$SKETCHINC
 40
0.1
  9
$FILLETRAD
 40
0.0
  9
$AUNITS
 70
     0
  9
$AUPREC
 70
     0
  9
$MENU
  1
.
  9
$ELEVATION
 40
0.0
  9
$PELEVATION
 40
0.0
  9
$THICKNESS
 40
0.0
  9
$LIMCHECK
 70
     0
  9
$BLIPMODE
 70
     0
  9
$CHAMFERA
 40
0.0
  9
$CHAMFERB
 40
0.0
  9
$SKPOLY
 70
     0
  9
$TDCREATE
 40
2444972.375
  9
$TDUPDATE
 40
2459327.2068398269
  9
$TDINDWG
 40
0.0000337037
  9
$TDUSRTIMER
 40
0.0000337037
  9
$USRTIMER
 70
     1
  9
$ANGBASE
 50
0.0
  9
$ANGDIR
 70
     0
  9
$PDMODE
 70
     0
  9
$PDSIZE
 40
0.0
  9
$PLINEWID
 40
0.0
  9
$COORDS
 70
     1
  9
$SPLFRAME
 70
     0
  9
$SPLINETYPE
 70
     6
  9
$SPLINESEGS
 70
     8
  9
$ATTDIA
 70
     1
  9
$ATTREQ
 70
     1
  9
$HANDLING
 70
     1
  9
$HANDSEED
  5
373
  9
$SURFTAB1
 70
     6
  9
$SURFTAB2
 70
     6
  9
$SURFTYPE
 70
     6
  9
$SURFU
 70
     6
  9
$SURFV
 70
     6
  9
$UCSNAME
  2

  9
$UCSORG
 10
0.0
 20
0.0
 30
0.0
  9
$UCSXDIR
 10
1.0
 20
0.0
 30
0.0
  9
$UCSYDIR
 10
0.0
 20
1.0
 30
0.0
  9
$PUCSNAME
  2

  9
$PUCSORG
 10
0.0
 20
0.0
 30
0.0
  9
$PUCSXDIR
 10
1.0
 20
0.0
 30
0.0
  9
$PUCSYDIR
 10
0.0
 20
1.0
 30
0.0
  9
$USERI1
 70
     0
  9
$USERI2
 70
     0
  9
$USERI3
 70
     0
  9
$USERI4
 70
     0
  9
$USERI5
 70
     0
  9
$USERR1
 40
0.0
  9
$USERR2
 40
0.0
  9
$USERR3
 40
0.0
  9
$USERR4
 40
0.0
  9
$USERR5
 40
0.0
  9
$WORLDVIEW
 70
     1
  9
$SHADEDGE
 70
     3
  9
$SHADEDIF
 70
    70
  9
$TILEMODE
 70
     1
  9
$MAXACTVP
 70
    48
  9
$PLIMCHECK
 70
     0
  9
$PEXTMIN
 10
1.0000000000000000E+020
 20
1.0000000000000000E+020
 30
1.0000000000000000E+020
  9
$PEXTMAX
 10
-1.0000000000000000E+020
 20
-1.0000000000000000E+020
 30
-1.0000000000000000E+020
  9
$PLIMMIN
 10
0.0
 20
0.0
  9
$PLIMMAX
 10
12.0
 20
9.0
  9
$UNITMODE
 70
     0
  9
$VISRETAIN
 70
     1
  9
$PLINEGEN
 70
     0
  9
$PSLTSCALE
 70
     1
  0
ENDSEC
  0
SECTION
  2
TABLES
  0
TABLE
  2
VPORT
 70
     1
  0
VPORT
  2
*ACTIVE
 70
     0
 10
0.0
 20
0.0
 11
1.0
 21
1.0
 12
160.69091382592819
 22
127.42999999999989
 13
0.0
 23
0.0
 14
1.0
 24
1.0
 15
0.0
 25
0.0
 16
0.0
 26
0.0
 36
1.0
 17
0.0
 27
0.0
 37
0.0
 40
279.01067487875491
 41
2.0982367758186391
 42
50.0
 43
0.0
 44
0.0
 50
0.0
 51
0.0
 71
     0
 72
   100
 73
     1
 74
     1
 75
     0
 76
     0
 77
     0
 78
     0
  0
ENDTAB
  0
TABLE
  2
LTYPE
 70
     3
  0
LTYPE
  2
CONTINUOUS
 70
     0
  3
Solid line
 72
    65
 73
     0
 40
0.0
  0
LTYPE
  2
AIGENLINE001
 70
     0
  3
generate AI->DXF Converter
 72
    65
 73
     2
 40
1.5522299999999991
 49
0.776115
 49
-0.776115
  0
LTYPE
  2
AIGENLINE002
 70
     0
  3
generate AI->DXF Converter
 72
    65
 73
     4
 40
5.8561449999999988
 49
3.5278
 49
-0.776115
 49
0.776115
 49
-0.776115
  0
ENDTAB
  0
TABLE
  2
LAYER
 70
     4
  0
LAYER
  2
0
 70
     0
 62
     7
  6
CONTINUOUS
  0
LAYER
  2
____
 70
     0
 62
     7
  6
CONTINUOUS
  0
LAYER
  2
_________1
 70
     0
 62
     7
  6
CONTINUOUS
  0
LAYER
  2
_________2
 70
     0
 62
     7
  6
CONTINUOUS
  0
ENDTAB
  0
TABLE
  2
STYLE
 70
     1
  0
STYLE
  2
STANDARD
 70
     0
 40
0.0
 41
0.0
 50
0.0
 71
     0
 42
0.0
  3
TXT
  4
EXTFONT.SHX
  0
ENDTAB
  0
TABLE
  2
VIEW
 70
     0
  0
ENDTAB
  0
TABLE
  2
UCS
 70
     0
  0
ENDTAB
  0
TABLE
  2
APPID
 70
     3
  0
APPID
  2
ACAD
 70
     0
  0
APPID
  2
ACAD_NAV_VCDISPLAY
 70
     0
  0
APPID
  2
ACAD_MLEADERVER
 70
     0
  0
ENDTAB
  0
TABLE
  2
DIMSTYLE
 70
     1
  0
DIMSTYLE
  2
STANDARD
 70
     0
  3

  4

  5

  6

  7

 40
1.0
 41
0.18
 42
0.0625
 43
0.38
 44
0.18
 45
0.0
 46
0.0
 47
0.0
 48
0.0
140
0.18
141
0.09
142
0.0
143
25.399999999999999
144
1.0
145
0.0
146
1.0
147
0.09
 71
     0
 72
     0
 73
     1
 74
     1
 75
     0
 76
     0
 77
     0
 78
     0
170
     0
171
     2
172
     0
173
     0
174
     0
175
     0
176
     0
177
     0
178
     0
  0
ENDTAB
  0
ENDSEC
  0
SECTION
  2
BLOCKS
  0
BLOCK
  8
0
  2
$MODEL_SPACE
 70
     0
 10
0.0
 20
0.0
 30
0.0
  3
$MODEL_SPACE
  1

  0
ENDBLK
  5
1A
  8
0
  0
BLOCK
 67
     1
  8
0
  2
$PAPER_SPACE
 70
     0
 10
0.0
 20
0.0
 30
0.0
  3
$PAPER_SPACE
  1

  0
ENDBLK
  5
17
 67
     1
  8
0
  0
BLOCK
  8
_________1
  2
AIGNBL02010002
 70
     0
 10
0.0
 20
0.0
 30
0.0
  3
AIGNBL02010002
  1

  0
LINE
  5
27
  8
_________1
 62
     7
 10
145.48599999999999
 20
154.13300000000001
 30
0.0
 11
145.44900000000001
 21
154.19900000000001
 31
0.0
  0
LINE
  5
28
  8
_________1
 62
     7
 10
145.44900000000001
 20
154.19900000000001
 30
0.0
 11
145.39099999999999
 21
154.24799999999999
 31
0.0
  0
LINE
  5
29
  8
_________1
 62
     7
 10
145.39099999999999
 20
154.24799999999999
 30
0.0
 11
145.31800000000001
 21
154.274
 31
0.0
  0
LINE
  5
2A
  8
_________1
 62
     7
 10
145.31800000000001
 20
154.274
 30
0.0
 11
145.24299999999999
 21
154.274
 31
0.0
  0
LINE
  5
2B
  8
_________1
 62
     7
 10
145.24299999999999
 20
154.274
 30
0.0
 11
145.16999999999999
 21
154.24799999999999
 31
0.0
  0
LINE
  5
2C
  8
_________1
 62
     7
 10
145.16999999999999
 20
154.24799999999999
 30
0.0
 11
145.113
 21
154.19900000000001
 31
0.0
  0
LINE
  5
2D
  8
_________1
 62
     7
 10
145.113
 20
154.19900000000001
 30
0.0
 11
145.07499999999999
 21
154.13300000000001
 31
0.0
  0
LINE
  5
2E
  8
_________1
 62
     7
 10
145.07499999999999
 20
154.13300000000001
 30
0.0
 11
145.06200000000001
 21
154.059
 31
0.0
  0
LINE
  5
2F
  8
_________1
 62
     7
 10
145.06200000000001
 20
154.059
 30
0.0
 11
145.07499999999999
 21
153.983
 31
0.0
  0
LINE
  5
30
  8
_________1
 62
     7
 10
145.07499999999999
 20
153.983
 30
0.0
 11
145.113
 21
153.917
 31
0.0
  0
LINE
  5
31
  8
_________1
 62
     7
 10
145.113
 20
153.917
 30
0.0
 11
145.172
 21
153.869
 31
0.0
  0
LINE
  5
32
  8
_________1
 62
     7
 10
145.172
 20
153.869
 30
0.0
 11
145.24299999999999
 21
153.84299999999999
 31
0.0
  0
LINE
  5
33
  8
_________1
 62
     7
 10
145.24299999999999
 20
153.84299999999999
 30
0.0
 11
145.31800000000001
 21
153.84299999999999
 31
0.0
  0
LINE
  5
34
  8
_________1
 62
     7
 10
145.31800000000001
 20
153.84299999999999
 30
0.0
 11
145.39099999999999
 21
153.869
 31
0.0
  0
LINE
  5
35
  8
_________1
 62
     7
 10
145.39099999999999
 20
153.869
 30
0.0
 11
145.44900000000001
 21
153.917
 31
0.0
  0
LINE
  5
36
  8
_________1
 62
     7
 10
145.44900000000001
 20
153.917
 30
0.0
 11
145.48599999999999
 21
153.983
 31
0.0
  0
LINE
  5
37
  8
_________1
 62
     7
 10
145.48599999999999
 20
153.983
 30
0.0
 11
145.499
 21
154.059
 31
0.0
  0
LINE
  5
38
  8
_________1
 62
     7
 10
145.499
 20
154.059
 30
0.0
 11
145.48599999999999
 21
154.13300000000001
 31
0.0
  0
LINE
  5
39
  8
_________1
 62
     7
 10
145.577
 20
154.059
 30
0.0
 11
145.56100000000001
 21
153.96700000000001
 31
0.0
  0
LINE
  5
3A
  8
_________1
 62
     7
 10
145.56100000000001
 20
153.96700000000001
 30
0.0
 11
145.52000000000001
 21
153.88399999999999
 31
0.0
  0
LINE
  5
3B
  8
_________1
 62
     7
 10
145.52000000000001
 20
153.88399999999999
 30
0.0
 11
145.45599999999999
 21
153.81800000000001
 31
0.0
  0
LINE
  5
3C
  8
_________1
 62
     7
 10
145.45599999999999
 20
153.81800000000001
 30
0.0
 11
145.37299999999999
 21
153.77699999999999
 31
0.0
  0
LINE
  5
3D
  8
_________1
 62
     7
 10
145.37299999999999
 20
153.77699999999999
 30
0.0
 11
145.28100000000001
 21
153.762
 31
0.0
  0
LINE
  5
3E
  8
_________1
 62
     7
 10
145.28100000000001
 20
153.762
 30
0.0
 11
145.18899999999999
 21
153.77699999999999
 31
0.0
  0
LINE
  5
3F
  8
_________1
 62
     7
 10
145.18899999999999
 20
153.77699999999999
 30
0.0
 11
145.107
 21
153.81800000000001
 31
0.0
  0
LINE
  5
40
  8
_________1
 62
     7
 10
145.107
 20
153.81800000000001
 30
0.0
 11
145.042
 21
153.88399999999999
 31
0.0
  0
LINE
  5
41
  8
_________1
 62
     7
 10
145.042
 20
153.88399999999999
 30
0.0
 11
145.0
 21
153.96700000000001
 31
0.0
  0
LINE
  5
42
  8
_________1
 62
     7
 10
145.0
 20
153.96700000000001
 30
0.0
 11
144.98400000000001
 21
154.059
 31
0.0
  0
LINE
  5
43
  8
_________1
 62
     7
 10
144.98400000000001
 20
154.059
 30
0.0
 11
145.0
 21
154.15000000000001
 31
0.0
  0
LINE
  5
44
  8
_________1
 62
     7
 10
145.0
 20
154.15000000000001
 30
0.0
 11
145.042
 21
154.232
 31
0.0
  0
LINE
  5
45
  8
_________1
 62
     7
 10
145.042
 20
154.232
 30
0.0
 11
145.107
 21
154.298
 31
0.0
  0
LINE
  5
46
  8
_________1
 62
     7
 10
145.107
 20
154.298
 30
0.0
 11
145.18899999999999
 21
154.339
 31
0.0
  0
LINE
  5
47
  8
_________1
 62
     7
 10
145.18899999999999
 20
154.339
 30
0.0
 11
145.28100000000001
 21
154.35400000000001
 31
0.0
  0
LINE
  5
48
  8
_________1
 62
     7
 10
145.28100000000001
 20
154.35400000000001
 30
0.0
 11
145.37299999999999
 21
154.339
 31
0.0
  0
LINE
  5
49
  8
_________1
 62
     7
 10
145.37299999999999
 20
154.339
 30
0.0
 11
145.45599999999999
 21
154.298
 31
0.0
  0
LINE
  5
4A
  8
_________1
 62
     7
 10
145.45599999999999
 20
154.298
 30
0.0
 11
145.52000000000001
 21
154.232
 31
0.0
  0
LINE
  5
4B
  8
_________1
 62
     7
 10
145.52000000000001
 20
154.232
 30
0.0
 11
145.56100000000001
 21
154.15000000000001
 31
0.0
  0
LINE
  5
4C
  8
_________1
 62
     7
 10
145.56100000000001
 20
154.15000000000001
 30
0.0
 11
145.577
 21
154.059
 31
0.0
  0
ENDBLK
  5
4D
  8
_________1
  0
BLOCK
  8
_________1
  2
AIGNBL02010003
 70
     0
 10
0.0
 20
0.0
 30
0.0
  3
AIGNBL02010003
  1

  0
LINE
  5
50
  8
_________1
 62
     7
 10
23.781099999999999
 20
184.387
 30
0.0
 11
21.569400000000002
 21
183.79499999999999
 31
0.0
  0
LINE
  5
51
  8
_________1
 62
     7
 10
21.569400000000002
 20
183.79499999999999
 30
0.0
 11
23.781099999999999
 21
183.202
 31
0.0
  0
LINE
  5
52
  8
_________1
 62
     7
 10
23.781099999999999
 20
183.202
 30
0.0
 11
23.781099999999999
 21
184.387
 31
0.0
  0
LINE
  5
53
  8
_________1
 62
     7
 10
143.761
 20
183.21700000000001
 30
0.0
 11
145.97200000000001
 21
183.809
 31
0.0
  0
LINE
  5
54
  8
_________1
 62
     7
 10
145.97200000000001
 20
183.809
 30
0.0
 11
143.761
 21
184.40199999999999
 31
0.0
  0
LINE
  5
55
  8
_________1
 62
     7
 10
143.761
 20
184.40199999999999
 30
0.0
 11
143.761
 21
183.21700000000001
 31
0.0
  0
LINE
  5
56
  8
_________1
 62
     7
 10
21.570399999999999
 20
183.80199999999999
 30
0.0
 11
145.971
 21
183.80199999999999
 31
0.0
  0
ENDBLK
  5
57
  8
_________1
  0
BLOCK
  8
_________1
  2
AIGNBL02010004
 70
     0
 10
0.0
 20
0.0
 30
0.0
  3
AIGNBL02010004
  1

  0
LINE
  5
5A
  8
_________1
 62
     7
 10
25.9908
 20
173.79599999999999
 30
0.0
 11
23.7791
 21
173.203
 31
0.0
  0
LINE
  5
5B
  8
_________1
 62
     7
 10
23.7791
 20
173.203
 30
0.0
 11
25.9908
 21
172.61099999999999
 31
0.0
  0
LINE
  5
5C
  8
_________1
 62
     7
 10
25.9908
 20
172.61099999999999
 30
0.0
 11
25.9908
 21
173.79599999999999
 31
0.0
  0
LINE
  5
5D
  8
_________1
 62
     7
 10
141.55099999999999
 20
172.625
 30
0.0
 11
143.76300000000001
 21
173.21799999999999
 31
0.0
  0
LINE
  5
5E
  8
_________1
 62
     7
 10
143.76300000000001
 20
173.21799999999999
 30
0.0
 11
141.55099999999999
 21
173.81
 31
0.0
  0
LINE
  5
5F
  8
_________1
 62
     7
 10
141.55099999999999
 20
173.81
 30
0.0
 11
141.55099999999999
 21
172.625
 31
0.0
  0
LINE
  5
60
  8
_________1
 62
     7
 10
23.780100000000001
 20
173.21100000000001
 30
0.0
 11
143.761
 21
173.21100000000001
 31
0.0
  0
ENDBLK
  5
61
  8
_________1
  0
BLOCK
  8
_________1
  2
AIGNBL02010005
 70
     0
 10
0.0
 20
0.0
 30
0.0
  3
AIGNBL02010005
  1

  0
ARC
  5
64
  8
_________1
 62
     7
 10
33.726224999999999
 20
111.332719
 30
0.0
 40
0.054364
 50
358.94787700000001
 51
47.909503000000001
  0
ARC
  5
65
  8
_________1
 62
     7
 10
33.720408999999997
 20
111.332182
 30
0.0
 40
0.058795
 50
44.051088999999997
 51
90.115091000000007
  0
ENDBLK
  5
66
  8
_________1
  0
BLOCK
  8
_________1
  2
AIGNBL02010006
 70
     0
 10
0.0
 20
0.0
 30
0.0
  3
AIGNBL02010006
  1

  0
ARC
  5
69
  8
_________1
 62
     7
 10
133.82257300000001
 20
105.218087
 30
0.0
 40
0.061761
 50
180.066012
 51
223.85515100000001
  0
ARC
  5
6A
  8
_________1
 62
     7
 10
133.821496
 20
105.219036
 30
0.0
 40
0.061659
 50
225.185047
 51
269.31302499999998
  0
ENDBLK
  5
6B
  8
_________1
  0
BLOCK
  8
_________1
  2
AIGNBL02010007
 70
     0
 10
0.0
 20
0.0
 30
0.0
  3
AIGNBL02010007
  1

  0
ARC
  5
6E
  8
_________1
  6
AIGENLINE001
 62
     7
 10
23.629543000000002
 20
106.57401299999999
 30
0.0
 40
0.5002310000000002
 50
90.0
 51
179.99996999999999
  0
ARC
  5
6F
  8
_________1
  6
AIGENLINE001
 62
     7
 10
23.648883000000001
 20
106.59335400000001
 30
0.0
 40
0.5199310000000001
 50
182.131823
 51
267.86820699999998
  0
ENDBLK
  5
70
  8
_________1
  0
BLOCK
  8
_________1
  2
AIGNBL02010008
 70
     0
 10
0.0
 20
0.0
 30
0.0
  3
AIGNBL02010008
  1

  0
ARC
  5
73
  8
_________1
  6
AIGENLINE001
 62
     7
 10
23.922584000000001
 20
106.585778
 30
0.0
 40
0.5120490000000001
 50
270.82498099999998
 51
329.33016400000002
  0
ARC
  5
74
  8
_________1
  6
AIGENLINE001
 62
     7
 10
23.917148999999998
 20
106.574358
 30
0.0
 40
0.5110540000000001
 50
330.74238800000001
 51
29.257612000000002
  0
ARC
  5
75
  8
_________1
  6
AIGENLINE001
 62
     7
 10
23.923614000000001
 20
106.563311
 30
0.0
 40
0.510973
 50
30.692727000000001
 51
89.288752000000002
  0
ENDBLK
  5
76
  8
_________1
  0
BLOCK
  8
_________1
  2
AIGNBL02010009
 70
     0
 10
0.0
 20
0.0
 30
0.0
  3
AIGNBL02010009
  1

  0
ARC
  5
79
  8
_________1
  6
AIGENLINE001
 62
     7
 10
23.799434999999999
 20
109.843478
 30
0.0
 40
0.5199310000000001
 50
182.131823
 51
267.86820699999998
  0
ARC
  5
7A
  8
_________1
  6
AIGENLINE001
 62
     7
 10
23.760736000000001
 20
109.84278
 30
0.0
 40
0.5192350000000001
 50
272.1366470000001
 51
357.94233800000001
  0
ENDBLK
  5
7B
  8
_________1
  0
BLOCK
  8
_________1
  2
AIGNBL0201000A
 70
     0
 10
0.0
 20
0.0
 30
0.0
  3
AIGNBL0201000A
  1

  0
ARC
  5
7E
  8
_________1
  6
AIGENLINE001
 62
     7
 10
23.761196000000002
 20
110.105653
 30
0.0
 40
0.5187840000000001
 50
2.087610999999999
 51
87.912379000000001
  0
ARC
  5
7F
  8
_________1
  6
AIGENLINE001
 62
     7
 10
23.799371000000001
 20
110.10455899999999
 30
0.0
 40
0.5198920000000001
 50
92.124884999999992
 51
177.796111
  0
ENDBLK
  5
80
  8
_________1
  0
BLOCK
  8
_________1
  2
AIGNBL0201000B
 70
     0
 10
0.0
 20
0.0
 30
0.0
  3
AIGNBL0201000B
  1

  0
ARC
  5
83
  8
_________1
  6
AIGENLINE001
 62
     7
 10
143.63045
 20
106.55537
 30
0.0
 40
0.5192350000000001
 50
92.136610000000005
 51
177.94233500000001
  0
ARC
  5
84
  8
_________1
  6
AIGENLINE001
 62
     7
 10
143.63109900000001
 20
106.593306
 30
0.0
 40
0.5199080000000002
 50
182.126555
 51
267.79450100000003
  0
ENDBLK
  5
85
  8
_________1
  0
BLOCK
  8
_________1
  2
AIGNBL0201000C
 70
     0
 10
0.0
 20
0.0
 30
0.0
  3
AIGNBL0201000C
  1

  0
ARC
  5
88
  8
_________1
  6
AIGENLINE001
 62
     7
 10
143.90637100000001
 20
106.580124
 30
0.0
 40
0.506361
 50
270.50306999999998
 51
329.69163400000002
  0
ARC
  5
89
  8
_________1
  6
AIGENLINE001
 62
     7
 10
143.899867
 20
106.574358
 30
0.0
 40
0.509133
 50
330.62124299999999
 51
29.378757
  0
ARC
  5
8A
  8
_________1
  6
AIGENLINE001
 62
     7
 10
143.90449000000001
 20
106.563945
 30
0.0
 40
0.510339
 50
30.652273999999998
 51
89.289699999999996
  0
ENDBLK
  5
8B
  8
_________1
  0
BLOCK
  8
_________1
  2
AIGNBL0201000D
 70
     0
 10
0.0
 20
0.0
 30
0.0
  3
AIGNBL0201000D
  1

  0
ARC
  5
8E
  8
_________1
  6
AIGENLINE001
 62
     7
 10
143.78063899999989
 20
109.843478
 30
0.0
 40
0.5199310000000001
 50
182.131823
 51
267.86820699999998
  0
ARC
  5
8F
  8
_________1
  6
AIGENLINE001
 62
     7
 10
143.74194
 20
109.84278
 30
0.0
 40
0.5192350000000001
 50
272.1366470000001
 51
357.94233800000001
  0
ENDBLK
  5
90
  8
_________1
  0
BLOCK
  8
_________1
  2
AIGNBL0201000E
 70
     0
 10
0.0
 20
0.0
 30
0.0
  3
AIGNBL0201000E
  1

  0
ARC
  5
93
  8
_________1
  6
AIGENLINE001
 62
     7
 10
143.742009
 20
110.105262
 30
0.0
 40
0.51919
 50
2.1291720000000001
 51
87.870818000000014
  0
ARC
  5
94
  8
_________1
  6
AIGENLINE001
 62
     7
 10
143.78057000000001
 20
110.104564
 30
0.0
 40
0.519887
 50
92.124339000000006
 51
177.79665700000001
  0
ENDBLK
  5
95
  8
_________1
  0
BLOCK
  8
_________1
  2
AIGNBL0201000F
 70
     0
 10
0.0
 20
0.0
 30
0.0
  3
AIGNBL0201000F
  1

  0
LINE
  5
98
  8
_________1
 62
     7
 10
176.28800000000001
 20
104.36199999999999
 30
0.0
 11
175.69499999999999
 21
106.574
 31
0.0
  0
LINE
  5
99
  8
_________1
 62
     7
 10
175.69499999999999
 20
106.574
 30
0.0
 11
175.10300000000001
 21
104.36199999999999
 31
0.0
  0
LINE
  5
9A
  8
_________1
 62
     7
 10
175.10300000000001
 20
104.36199999999999
 30
0.0
 11
176.28800000000001
 21
104.36199999999999
 31
0.0
  0
LINE
  5
9B
  8
_________1
 62
     7
 10
175.10300000000001
 20
112.18600000000001
 30
0.0
 11
175.69499999999999
 21
109.974
 31
0.0
  0
LINE
  5
9C
  8
_________1
 62
     7
 10
175.69499999999999
 20
109.974
 30
0.0
 11
176.28800000000001
 21
112.18600000000001
 31
0.0
  0
LINE
  5
9D
  8
_________1
 62
     7
 10
176.28800000000001
 20
112.18600000000001
 30
0.0
 11
175.10300000000001
 21
112.18600000000001
 31
0.0
  0
LINE
  5
9E
  8
_________1
 62
     7
 10
175.69499999999999
 20
116.301
 30
0.0
 11
175.69499999999999
 21
102.94799999999999
 31
0.0
  0
ENDBLK
  5
9F
  8
_________1
  0
BLOCK
  8
_________1
  2
AIGNBL02010010
 70
     0
 10
0.0
 20
0.0
 30
0.0
  3
AIGNBL02010010
  1

  0
LINE
  5
A2
  8
_________1
 62
     7
 10
154.01499999999999
 20
152.75299999999999
 30
0.0
 11
153.423
 21
154.965
 31
0.0
  0
LINE
  5
A3
  8
_________1
 62
     7
 10
153.423
 20
154.965
 30
0.0
 11
152.83000000000001
 21
152.75299999999999
 31
0.0
  0
LINE
  5
A4
  8
_________1
 62
     7
 10
152.83000000000001
 20
152.75299999999999
 30
0.0
 11
154.01499999999999
 21
152.75299999999999
 31
0.0
  0
LINE
  5
A5
  8
_________1
 62
     7
 10
152.845
 20
145.17400000000001
 30
0.0
 11
153.43700000000001
 21
142.96299999999999
 31
0.0
  0
LINE
  5
A6
  8
_________1
 62
     7
 10
153.43700000000001
 20
142.96299999999999
 30
0.0
 11
154.03
 21
145.17400000000001
 31
0.0
  0
LINE
  5
A7
  8
_________1
 62
     7
 10
154.03
 20
145.17400000000001
 30
0.0
 11
152.845
 21
145.17400000000001
 31
0.0
  0
LINE
  5
A8
  8
_________1
 62
     7
 10
153.43000000000001
 20
154.964
 30
0.0
 11
153.43000000000001
 21
142.964
 31
0.0
  0
ENDBLK
  5
A9
  8
_________1
  0
BLOCK
  8
_________1
  2
AIGNBL02010011
 70
     0
 10
0.0
 20
0.0
 30
0.0
  3
AIGNBL02010011
  1

  0
LINE
  5
AC
  8
_________1
 62
     7
 10
152.845
 20
107.184
 30
0.0
 11
153.43700000000001
 21
104.973
 31
0.0
  0
LINE
  5
AD
  8
_________1
 62
     7
 10
153.43700000000001
 20
104.973
 30
0.0
 11
154.03
 21
107.184
 31
0.0
  0
LINE
  5
AE
  8
_________1
 62
     7
 10
154.03
 20
107.184
 30
0.0
 11
152.845
 21
107.184
 31
0.0
  0
LINE
  5
AF
  8
_________1
 62
     7
 10
154.01499999999999
 20
109.364
 30
0.0
 11
153.423
 21
111.57599999999999
 31
0.0
  0
LINE
  5
B0
  8
_________1
 62
     7
 10
153.423
 20
111.57599999999999
 30
0.0
 11
152.83000000000001
 21
109.364
 31
0.0
  0
LINE
  5
B1
  8
_________1
 62
     7
 10
152.83000000000001
 20
109.364
 30
0.0
 11
154.01499999999999
 21
109.364
 31
0.0
  0
LINE
  5
B2
  8
_________1
 62
     7
 10
153.43000000000001
 20
104.974
 30
0.0
 11
153.43000000000001
 21
111.574
 31
0.0
  0
ENDBLK
  5
B3
  8
_________1
  0
BLOCK
  8
_________1
  2
AIGNBL02010012
 70
     0
 10
0.0
 20
0.0
 30
0.0
  3
AIGNBL02010012
  1

  0
LINE
  5
B6
  8
_________1
 62
     7
 10
25.288
 20
159.74100000000001
 30
0.0
 11
24.180099999999999
 21
157.73699999999999
 31
0.0
  0
LINE
  5
B7
  8
_________1
 62
     7
 10
24.180099999999999
 20
157.73699999999999
 30
0.0
 11
26.1417
 21
158.91900000000001
 31
0.0
  0
LINE
  5
B8
  8
_________1
 62
     7
 10
26.1417
 20
158.91900000000001
 30
0.0
 11
25.288
 21
159.74100000000001
 31
0.0
  0
LINE
  5
B9
  8
_________1
 62
     7
 10
24.175899999999999
 20
157.74299999999999
 30
0.0
 11
30.0991
 21
163.88099999999989
 31
0.0
  0
ENDBLK
  5
BA
  8
_________1
  0
BLOCK
  8
_________1
  2
AIGNBL02010013
 70
     0
 10
0.0
 20
0.0
 30
0.0
  3
AIGNBL02010013
  1

  0
LINE
  5
BD
  8
_________1
 62
     7
 10
30.0991
 20
163.88099999999989
 30
0.0
 11
68.7012
 21
163.88099999999989
 31
0.0
  0
ENDBLK
  5
BE
  8
_________1
  0
BLOCK
  8
_________1
  2
AIGNBL02010014
 70
     0
 10
0.0
 20
0.0
 30
0.0
  3
AIGNBL02010014
  1

  0
LINE
  5
C1
  8
_________1
 62
     7
 10
143.541
 20
154.964
 30
0.0
 11
143.761
 21
154.964
 31
0.0
  0
LINE
  5
C2
  8
_________1
 62
     7
 10
143.761
 20
154.964
 30
0.0
 11
143.982
 21
154.964
 31
0.0
  0
LINE
  5
C3
  8
_________1
  6
AIGENLINE002
 62
     7
 10
143.761
 20
154.613
 30
0.0
 11
143.761
 21
166.80600000000001
 31
0.0
  0
LINE
  5
C4
  8
_________1
 62
     7
 10
143.541
 20
154.964
 30
0.0
 11
143.541
 21
165.054
 31
0.0
  0
LINE
  5
C5
  8
_________1
 62
     7
 10
143.982
 20
154.964
 30
0.0
 11
143.982
 21
165.054
 31
0.0
  0
LINE
  5
C6
  8
_________1
 62
     7
 10
143.36199999999999
 20
164.41099999999989
 30
0.0
 11
144.16200000000001
 21
164.78700000000001
 31
0.0
  0
LINE
  5
C7
  8
_________1
 62
     7
 10
143.36199999999999
 20
163.53
 30
0.0
 11
144.16200000000001
 21
163.905
 31
0.0
  0
LINE
  5
C8
  8
_________1
 62
     7
 10
143.36199999999999
 20
162.649
 30
0.0
 11
144.16200000000001
 21
163.024
 31
0.0
  0
LINE
  5
C9
  8
_________1
 62
     7
 10
143.36199999999999
 20
161.768
 30
0.0
 11
144.16200000000001
 21
162.143
 31
0.0
  0
LINE
  5
CA
  8
_________1
 62
     7
 10
143.36199999999999
 20
160.886
 30
0.0
 11
144.16200000000001
 21
161.262
 31
0.0
  0
LINE
  5
CB
  8
_________1
 62
     7
 10
143.36199999999999
 20
160.006
 30
0.0
 11
144.16200000000001
 21
160.381
 31
0.0
  0
LINE
  5
CC
  8
_________1
 62
     7
 10
143.36199999999999
 20
159.124
 30
0.0
 11
144.16200000000001
 21
159.499
 31
0.0
  0
LINE
  5
CD
  8
_________1
 62
     7
 10
143.36199999999999
 20
158.24299999999999
 30
0.0
 11
144.16200000000001
 21
158.619
 31
0.0
  0
LINE
  5
CE
  8
_________1
 62
     7
 10
143.36199999999999
 20
157.36199999999999
 30
0.0
 11
144.16200000000001
 21
157.73699999999999
 31
0.0
  0
LINE
  5
CF
  8
_________1
 62
     7
 10
143.541
 20
165.054
 30
0.0
 11
143.761
 21
165.964
 31
0.0
  0
LINE
  5
D0
  8
_________1
 62
     7
 10
143.761
 20
165.964
 30
0.0
 11
143.982
 21
165.054
 31
0.0
  0
LINE
  5
D1
  8
_________1
 62
     7
 10
143.541
 20
156.964
 30
0.0
 11
143.982
 21
156.964
 31
0.0
  0
ENDBLK
  5
D2
  8
_________1
  0
BLOCK
  8
_________1
  2
AIGNBL02010015
 70
     0
 10
0.0
 20
0.0
 30
0.0
  3
AIGNBL02010015
  1

  0
LINE
  5
D5
  8
_________1
 62
     7
 10
23.5596
 20
154.964
 30
0.0
 11
23.780100000000001
 21
154.964
 31
0.0
  0
LINE
  5
D6
  8
_________1
 62
     7
 10
23.780100000000001
 20
154.964
 30
0.0
 11
24.0002
 21
154.964
 31
0.0
  0
LINE
  5
D7
  8
_________1
  6
AIGENLINE002
 62
     7
 10
23.780100000000001
 20
154.279
 30
0.0
 11
23.780100000000001
 21
166.80600000000001
 31
0.0
  0
LINE
  5
D8
  8
_________1
 62
     7
 10
23.5596
 20
154.964
 30
0.0
 11
23.5596
 21
165.054
 31
0.0
  0
LINE
  5
D9
  8
_________1
 62
     7
 10
24.0002
 20
154.964
 30
0.0
 11
24.0002
 21
165.054
 31
0.0
  0
LINE
  5
DA
  8
_________1
 62
     7
 10
23.379799999999999
 20
164.41099999999989
 30
0.0
 11
24.180099999999999
 21
164.78700000000001
 31
0.0
  0
LINE
  5
DB
  8
_________1
 62
     7
 10
23.379799999999999
 20
163.53
 30
0.0
 11
24.180099999999999
 21
163.905
 31
0.0
  0
LINE
  5
DC
  8
_________1
 62
     7
 10
23.379799999999999
 20
162.649
 30
0.0
 11
24.180099999999999
 21
163.024
 31
0.0
  0
LINE
  5
DD
  8
_________1
 62
     7
 10
23.379799999999999
 20
161.768
 30
0.0
 11
24.180099999999999
 21
162.143
 31
0.0
  0
LINE
  5
DE
  8
_________1
 62
     7
 10
23.379799999999999
 20
160.886
 30
0.0
 11
24.180099999999999
 21
161.262
 31
0.0
  0
LINE
  5
DF
  8
_________1
 62
     7
 10
23.379799999999999
 20
160.006
 30
0.0
 11
24.180099999999999
 21
160.381
 31
0.0
  0
LINE
  5
E0
  8
_________1
 62
     7
 10
23.379799999999999
 20
159.124
 30
0.0
 11
24.180099999999999
 21
159.499
 31
0.0
  0
LINE
  5
E1
  8
_________1
 62
     7
 10
23.379799999999999
 20
158.24299999999999
 30
0.0
 11
24.180099999999999
 21
158.619
 31
0.0
  0
LINE
  5
E2
  8
_________1
 62
     7
 10
23.379799999999999
 20
157.36199999999999
 30
0.0
 11
24.180099999999999
 21
157.73699999999999
 31
0.0
  0
LINE
  5
E3
  8
_________1
 62
     7
 10
23.5596
 20
165.054
 30
0.0
 11
23.780100000000001
 21
165.964
 31
0.0
  0
LINE
  5
E4
  8
_________1
 62
     7
 10
23.780100000000001
 20
165.964
 30
0.0
 11
24.0002
 21
165.054
 31
0.0
  0
LINE
  5
E5
  8
_________1
 62
     7
 10
23.5596
 20
156.964
 30
0.0
 11
24.0002
 21
156.964
 31
0.0
  0
ENDBLK
  5
E6
  8
_________1
  0
BLOCK
  8
_________1
  2
AIGNBL02010016
 70
     0
 10
0.0
 20
0.0
 30
0.0
  3
AIGNBL02010016
  1

  0
LINE
  5
E9
  8
_________1
 62
     7
 10
170.149
 20
110.19499999999999
 30
0.0
 11
170.149
 21
109.974
 31
0.0
  0
LINE
  5
EA
  8
_________1
 62
     7
 10
170.149
 20
109.974
 30
0.0
 11
170.149
 21
109.754
 31
0.0
  0
LINE
  5
EB
  8
_________1
  6
AIGENLINE002
 62
     7
 10
169.464
 20
109.974
 30
0.0
 11
181.99100000000001
 21
109.974
 31
0.0
  0
LINE
  5
EC
  8
_________1
 62
     7
 10
170.149
 20
110.19499999999999
 30
0.0
 11
180.239
 21
110.19499999999999
 31
0.0
  0
LINE
  5
ED
  8
_________1
 62
     7
 10
170.149
 20
109.754
 30
0.0
 11
180.239
 21
109.754
 31
0.0
  0
LINE
  5
EE
  8
_________1
 62
     7
 10
179.59700000000001
 20
110.374
 30
0.0
 11
179.97200000000001
 21
109.574
 31
0.0
  0
LINE
  5
EF
  8
_________1
 62
     7
 10
178.715
 20
110.374
 30
0.0
 11
179.09
 21
109.574
 31
0.0
  0
LINE
  5
F0
  8
_________1
 62
     7
 10
177.834
 20
110.374
 30
0.0
 11
178.21000000000001
 21
109.574
 31
0.0
  0
LINE
  5
F1
  8
_________1
 62
     7
 10
176.953
 20
110.374
 30
0.0
 11
177.328
 21
109.574
 31
0.0
  0
LINE
  5
F2
  8
_________1
 62
     7
 10
176.072
 20
110.374
 30
0.0
 11
176.447
 21
109.574
 31
0.0
  0
LINE
  5
F3
  8
_________1
 62
     7
 10
175.19
 20
110.374
 30
0.0
 11
175.56599999999989
 21
109.574
 31
0.0
  0
LINE
  5
F4
  8
_________1
 62
     7
 10
174.309
 20
110.374
 30
0.0
 11
174.685
 21
109.574
 31
0.0
  0
LINE
  5
F5
  8
_________1
 62
     7
 10
173.429
 20
110.374
 30
0.0
 11
173.804
 21
109.574
 31
0.0
  0
LINE
  5
F6
  8
_________1
 62
     7
 10
172.547
 20
110.374
 30
0.0
 11
172.923
 21
109.574
 31
0.0
  0
LINE
  5
F7
  8
_________1
 62
     7
 10
180.239
 20
110.19499999999999
 30
0.0
 11
181.149
 21
109.974
 31
0.0
  0
LINE
  5
F8
  8
_________1
 62
     7
 10
181.149
 20
109.974
 30
0.0
 11
180.239
 21
109.754
 31
0.0
  0
LINE
  5
F9
  8
_________1
 62
     7
 10
172.149
 20
110.19499999999999
 30
0.0
 11
172.149
 21
109.754
 31
0.0
  0
ENDBLK
  5
FA
  8
_________1
  0
BLOCK
  8
_________2
  2
AIGNBL03010002
 70
     0
 10
0.0
 20
0.0
 30
0.0
  3
AIGNBL03010002
  1

  0
LINE
  5
FD
  8
_________2
 62
     7
 10
76.740700000000004
 20
29.8047
 30
0.0
 11
74.554400000000001
 21
29.8047
 31
0.0
  0
LINE
  5
FE
  8
_________2
 62
     7
 10
77.2333
 20
29.8047
 30
0.0
 11
76.981099999999984
 21
29.8047
 31
0.0
  0
LINE
  5
FF
  8
_________2
 62
     7
 10
77.725999999999999
 20
29.8047
 30
0.0
 11
80.650899999999993
 21
29.8047
 31
0.0
  0
LINE
  5
100
  8
_________2
 62
     7
 10
77.2333
 20
29.8047
 30
0.0
 11
77.485500000000002
 21
29.8047
 31
0.0
  0
LINE
  5
101
  8
_________2
 62
     7
 10
70.837100000000007
 20
29.8047
 30
0.0
 11
68.650199999999998
 21
29.8047
 31
0.0
  0
LINE
  5
102
  8
_________2
 62
     7
 10
71.329099999999997
 20
29.8047
 30
0.0
 11
71.077600000000004
 21
29.8047
 31
0.0
  0
LINE
  5
103
  8
_________2
 62
     7
 10
71.329099999999997
 20
30.2974
 30
0.0
 11
71.329099999999997
 21
32.484400000000001
 31
0.0
  0
LINE
  5
104
  8
_________2
 62
     7
 10
71.329099999999997
 20
29.8047
 30
0.0
 11
71.329099999999997
 21
30.057300000000001
 31
0.0
  0
LINE
  5
105
  8
_________2
 62
     7
 10
71.821700000000007
 20
29.8047
 30
0.0
 11
74.008700000000005
 21
29.8047
 31
0.0
  0
LINE
  5
106
  8
_________2
 62
     7
 10
71.329099999999997
 20
29.8047
 30
0.0
 11
71.581299999999985
 21
29.8047
 31
0.0
  0
LINE
  5
107
  8
_________2
 62
     7
 10
71.329099999999997
 20
29.312799999999999
 30
0.0
 11
71.329099999999997
 21
27.126200000000001
 31
0.0
  0
LINE
  5
108
  8
_________2
 62
     7
 10
71.329099999999997
 20
29.8047
 30
0.0
 11
71.329099999999997
 21
29.5532
 31
0.0
  0
LINE
  5
109
  8
_________2
 62
     7
 10
75.040199999999999
 20
28.5852
 30
0.0
 11
80.218199999999996
 21
27.720400000000001
 31
0.0
  0
LINE
  5
10A
  8
_________2
 62
     7
 10
75.040199999999999
 20
31.024699999999999
 30
0.0
 11
80.218199999999996
 21
31.8901
 31
0.0
  0
LINE
  5
10B
  8
_________2
 62
     7
 10
80.218199999999996
 20
27.720400000000001
 30
0.0
 11
80.218199999999996
 21
31.8901
 31
0.0
  0
LINE
  5
10C
  8
_________2
 62
     7
 10
75.040199999999999
 20
28.5852
 30
0.0
 11
75.040199999999999
 21
31.024699999999999
 31
0.0
  0
ARC
  5
10D
  8
_________2
 62
     7
 10
71.282501999999994
 20
29.757801000000001
 30
0.0
 40
1.267714
 50
2.1220840000000001
 51
87.894083999999992
  0
ARC
  5
10E
  8
_________2
 62
     7
 10
71.375640000000004
 20
29.758545999999999
 30
0.0
 40
1.2669680000000001
 50
92.105782999999988
 51
177.91037
  0
ARC
  5
10F
  8
_________2
 62
     7
 10
71.376013999999998
 20
29.851671
 30
0.0
 40
1.2673680000000001
 50
182.12203600000001
 51
267.877993
  0
ARC
  5
110
  8
_________2
 62
     7
 10
71.282195999999999
 20
29.852347999999999
 30
0.0
 40
1.2680439999999991
 50
272.11916400000001
 51
357.84848499999998
  0
ARC
  5
111
  8
_________2
 62
     7
 10
71.248716999999985
 20
29.724731999999999
 30
0.0
 40
2.1668310000000002
 50
2.1161439999999989
 51
87.874379000000005
  0
ARC
  5
112
  8
_________2
 62
     7
 10
71.408756000000011
 20
29.726146
 30
0.0
 40
2.165392999999999
 50
92.108508999999998
 51
177.91986499999999
  0
ARC
  5
113
  8
_________2
 62
     7
 10
71.409094999999994
 20
29.884751999999999
 30
0.0
 40
2.1657829999999998
 50
182.117133
 51
267.88289700000001
  0
ARC
  5
114
  8
_________2
 62
     7
 10
71.249115000000003
 20
29.885429999999999
 30
0.0
 40
2.1664590000000001
 50
272.11546800000002
 51
357.86560400000002
  0
ENDBLK
  5
115
  8
_________2
  0
ENDSEC
  0
SECTION
  2
ENTITIES
  0
TEXT
  5
116
  8
____
 62
     7
 10
81.967134999999985
 20
173.91099999999989
 30
0.0
 40
3.0923400000000001
  1
600
 41
0.5
 72
     1
 11
83.771000000000001
 21
173.91099999999989
 31
0.0
  0
TEXT
  5
117
  8
____
 62
     7
 10
81.709440000000001
 20
184.50200000000001
 30
0.0
 40
3.0923400000000001
  1
622
 41
0.5
 72
     1
 11
83.771000000000001
 21
184.50200000000001
 31
0.0
  0
TEXT
  5
118
  8
____
 62
     7
 10
46.487891000000012
 20
159.88900000000001
 30
0.0
 40
3.0923400000000001
  1
（%%c6\U+00D750 樹脂プラグ付）
 41
0.5
 72
     2
 11
68.7012
 21
159.88900000000001
 31
0.0
  0
TEXT
  5
119
  8
____
 62
     7
 10
33.963914000000003
 20
164.93000000000001
 30
0.0
 40
3.0923400000000001
  1
%%c4\U+00D750 SUS T20トルクス丸頭木ねじ
 41
0.5
 72
     2
 11
68.7012
 21
164.93000000000001
 31
0.0
  0
TEXT
  5
11A
  8
____
 62
     7
 10
174.995
 20
114.23944
 30
0.0
 40
3.0923400000000001
  1
17
 50
90.0
 41
0.5
 72
     2
 11
174.995
 21
116.301
 31
0.0
  0
TEXT
  5
11B
  8
____
 62
     7
 10
152.72999999999999
 20
106.985525
 30
0.0
 40
3.0923400000000001
  1
33
 50
90.0
 41
0.5
 72
     1
 11
152.72999999999999
 21
108.274
 31
0.0
  0
TEXT
  5
11C
  8
____
 62
     7
 10
152.72999999999999
 20
147.8043725
 30
0.0
 40
3.0923400000000001
  1
60
 50
90.0
 41
0.5
 72
     1
 11
152.72999999999999
 21
148.964
 31
0.0
  0
LINE
  5
11D
  8
_________1
 62
     7
 10
143.41399999999999
 20
154.05000000000001
 30
0.0
 11
143.637
 21
153.76300000000001
 31
0.0
  0
LINE
  5
11E
  8
_________1
 62
     7
 10
143.637
 20
153.76300000000001
 30
0.0
 11
143.54300000000001
 21
153.76300000000001
 31
0.0
  0
LINE
  5
11F
  8
_________1
 62
     7
 10
143.54300000000001
 20
153.76300000000001
 30
0.0
 11
143.32400000000001
 21
154.04499999999999
 31
0.0
  0
LINE
  5
120
  8
_________1
 62
     7
 10
143.32400000000001
 20
154.04499999999999
 30
0.0
 11
143.32400000000001
 21
153.76300000000001
 31
0.0
  0
LINE
  5
121
  8
_________1
 62
     7
 10
143.32400000000001
 20
153.76300000000001
 30
0.0
 11
143.24700000000001
 21
153.76300000000001
 31
0.0
  0
LINE
  5
122
  8
_________1
 62
     7
 10
143.24700000000001
 20
153.76300000000001
 30
0.0
 11
143.24700000000001
 21
154.35900000000001
 31
0.0
  0
LINE
  5
123
  8
_________1
 62
     7
 10
143.24700000000001
 20
154.35900000000001
 30
0.0
 11
143.32400000000001
 21
154.35900000000001
 31
0.0
  0
LINE
  5
124
  8
_________1
 62
     7
 10
143.32400000000001
 20
154.35900000000001
 30
0.0
 11
143.32400000000001
 21
154.054
 31
0.0
  0
LINE
  5
125
  8
_________1
 62
     7
 10
143.32400000000001
 20
154.054
 30
0.0
 11
143.548
 21
154.35900000000001
 31
0.0
  0
LINE
  5
126
  8
_________1
 62
     7
 10
143.548
 20
154.35900000000001
 30
0.0
 11
143.64099999999999
 21
154.35900000000001
 31
0.0
  0
LINE
  5
127
  8
_________1
 62
     7
 10
143.64099999999999
 20
154.35900000000001
 30
0.0
 11
143.41399999999999
 21
154.05000000000001
 31
0.0
  0
LINE
  5
128
  8
_________1
 62
     7
 10
143.76499999999999
 20
154.28100000000001
 30
0.0
 11
144.06899999999999
 21
154.28100000000001
 31
0.0
  0
LINE
  5
129
  8
_________1
 62
     7
 10
144.06899999999999
 20
154.28100000000001
 30
0.0
 11
144.06899999999999
 21
154.35900000000001
 31
0.0
  0
LINE
  5
12A
  8
_________1
 62
     7
 10
144.06899999999999
 20
154.35900000000001
 30
0.0
 11
143.68600000000001
 21
154.35900000000001
 31
0.0
  0
LINE
  5
12B
  8
_________1
 62
     7
 10
143.68600000000001
 20
154.35900000000001
 30
0.0
 11
143.68600000000001
 21
153.76300000000001
 31
0.0
  0
LINE
  5
12C
  8
_________1
 62
     7
 10
143.68600000000001
 20
153.76300000000001
 30
0.0
 11
144.06899999999999
 21
153.76300000000001
 31
0.0
  0
LINE
  5
12D
  8
_________1
 62
     7
 10
144.06899999999999
 20
153.76300000000001
 30
0.0
 11
144.06899999999999
 21
153.84
 31
0.0
  0
LINE
  5
12E
  8
_________1
 62
     7
 10
144.06899999999999
 20
153.84
 30
0.0
 11
143.76499999999999
 21
153.84
 31
0.0
  0
LINE
  5
12F
  8
_________1
 62
     7
 10
143.76499999999999
 20
153.84
 30
0.0
 11
143.76499999999999
 21
154.05799999999999
 31
0.0
  0
LINE
  5
130
  8
_________1
 62
     7
 10
143.76499999999999
 20
154.05799999999999
 30
0.0
 11
144.06899999999999
 21
154.05799999999999
 31
0.0
  0
LINE
  5
131
  8
_________1
 62
     7
 10
144.06899999999999
 20
154.05799999999999
 30
0.0
 11
144.06899999999999
 21
154.13399999999999
 31
0.0
  0
LINE
  5
132
  8
_________1
 62
     7
 10
144.06899999999999
 20
154.13399999999999
 30
0.0
 11
143.76499999999999
 21
154.13399999999999
 31
0.0
  0
LINE
  5
133
  8
_________1
 62
     7
 10
143.76499999999999
 20
154.13399999999999
 30
0.0
 11
143.76499999999999
 21
154.28100000000001
 31
0.0
  0
LINE
  5
134
  8
_________1
 62
     7
 10
144.20699999999999
 20
154.35900000000001
 30
0.0
 11
144.13
 21
154.35900000000001
 31
0.0
  0
LINE
  5
135
  8
_________1
 62
     7
 10
144.13
 20
154.35900000000001
 30
0.0
 11
144.13
 21
153.983
 31
0.0
  0
LINE
  5
136
  8
_________1
 62
     7
 10
144.13
 20
153.983
 30
0.0
 11
144.143
 21
153.90799999999999
 31
0.0
  0
LINE
  5
137
  8
_________1
 62
     7
 10
144.143
 20
153.90799999999999
 30
0.0
 11
144.18199999999999
 21
153.84200000000001
 31
0.0
  0
LINE
  5
138
  8
_________1
 62
     7
 10
144.18199999999999
 20
153.84200000000001
 30
0.0
 11
144.239
 21
153.79300000000001
 31
0.0
  0
LINE
  5
139
  8
_________1
 62
     7
 10
144.239
 20
153.79300000000001
 30
0.0
 11
144.31
 21
153.767
 31
0.0
  0
LINE
  5
13A
  8
_________1
 62
     7
 10
144.31
 20
153.767
 30
0.0
 11
144.387
 21
153.767
 31
0.0
  0
LINE
  5
13B
  8
_________1
 62
     7
 10
144.387
 20
153.767
 30
0.0
 11
144.458
 21
153.79300000000001
 31
0.0
  0
LINE
  5
13C
  8
_________1
 62
     7
 10
144.458
 20
153.79300000000001
 30
0.0
 11
144.518
 21
153.84200000000001
 31
0.0
  0
LINE
  5
13D
  8
_________1
 62
     7
 10
144.518
 20
153.84200000000001
 30
0.0
 11
144.554
 21
153.90799999999999
 31
0.0
  0
LINE
  5
13E
  8
_________1
 62
     7
 10
144.554
 20
153.90799999999999
 30
0.0
 11
144.56800000000001
 21
153.983
 31
0.0
  0
LINE
  5
13F
  8
_________1
 62
     7
 10
144.56800000000001
 20
153.983
 30
0.0
 11
144.56800000000001
 21
154.35900000000001
 31
0.0
  0
LINE
  5
140
  8
_________1
 62
     7
 10
144.56800000000001
 20
154.35900000000001
 30
0.0
 11
144.49100000000001
 21
154.35900000000001
 31
0.0
  0
LINE
  5
141
  8
_________1
 62
     7
 10
144.49100000000001
 20
154.35900000000001
 30
0.0
 11
144.49100000000001
 21
153.983
 31
0.0
  0
LINE
  5
142
  8
_________1
 62
     7
 10
144.49100000000001
 20
153.983
 30
0.0
 11
144.48099999999999
 21
153.929
 31
0.0
  0
LINE
  5
143
  8
_________1
 62
     7
 10
144.48099999999999
 20
153.929
 30
0.0
 11
144.44999999999999
 21
153.88200000000001
 31
0.0
  0
LINE
  5
144
  8
_________1
 62
     7
 10
144.44999999999999
 20
153.88200000000001
 30
0.0
 11
144.40299999999999
 21
153.852
 31
0.0
  0
LINE
  5
145
  8
_________1
 62
     7
 10
144.40299999999999
 20
153.852
 30
0.0
 11
144.34999999999999
 21
153.84
 31
0.0
  0
LINE
  5
146
  8
_________1
 62
     7
 10
144.34999999999999
 20
153.84
 30
0.0
 11
144.29499999999999
 21
153.852
 31
0.0
  0
LINE
  5
147
  8
_________1
 62
     7
 10
144.29499999999999
 20
153.852
 30
0.0
 11
144.24799999999999
 21
153.88200000000001
 31
0.0
  0
LINE
  5
148
  8
_________1
 62
     7
 10
144.24799999999999
 20
153.88200000000001
 30
0.0
 11
144.21700000000001
 21
153.929
 31
0.0
  0
LINE
  5
149
  8
_________1
 62
     7
 10
144.21700000000001
 20
153.929
 30
0.0
 11
144.20699999999999
 21
153.983
 31
0.0
  0
LINE
  5
14A
  8
_________1
 62
     7
 10
144.20699999999999
 20
153.983
 30
0.0
 11
144.20699999999999
 21
154.35900000000001
 31
0.0
  0
LINE
  5
14B
  8
_________1
 62
     7
 10
145.01400000000001
 20
154.24799999999999
 30
0.0
 11
144.94200000000001
 21
154.274
 31
0.0
  0
LINE
  5
14C
  8
_________1
 62
     7
 10
144.94200000000001
 20
154.274
 30
0.0
 11
144.864
 21
154.274
 31
0.0
  0
LINE
  5
14D
  8
_________1
 62
     7
 10
144.864
 20
154.274
 30
0.0
 11
144.79300000000001
 21
154.24700000000001
 31
0.0
  0
LINE
  5
14E
  8
_________1
 62
     7
 10
144.79300000000001
 20
154.24700000000001
 30
0.0
 11
144.73599999999999
 21
154.19800000000001
 31
0.0
  0
LINE
  5
14F
  8
_________1
 62
     7
 10
144.73599999999999
 20
154.19800000000001
 30
0.0
 11
144.69799999999989
 21
154.13
 31
0.0
  0
LINE
  5
150
  8
_________1
 62
     7
 10
144.69799999999989
 20
154.13
 30
0.0
 11
144.685
 21
154.05500000000001
 31
0.0
  0
LINE
  5
151
  8
_________1
 62
     7
 10
144.685
 20
154.05500000000001
 30
0.0
 11
144.69999999999999
 21
153.97900000000001
 31
0.0
  0
LINE
  5
152
  8
_________1
 62
     7
 10
144.69999999999999
 20
153.97900000000001
 30
0.0
 11
144.74000000000001
 21
153.91399999999999
 31
0.0
  0
LINE
  5
153
  8
_________1
 62
     7
 10
144.74000000000001
 20
153.91399999999999
 30
0.0
 11
144.79900000000001
 21
153.86600000000001
 31
0.0
  0
LINE
  5
154
  8
_________1
 62
     7
 10
144.79900000000001
 20
153.86600000000001
 30
0.0
 11
144.84
 21
153.84800000000001
 31
0.0
  0
LINE
  5
155
  8
_________1
 62
     7
 10
144.84
 20
153.84800000000001
 30
0.0
 11
144.88399999999999
 21
153.84
 31
0.0
  0
LINE
  5
156
  8
_________1
 62
     7
 10
144.88399999999999
 20
153.84
 30
0.0
 11
144.929
 21
153.84
 31
0.0
  0
LINE
  5
157
  8
_________1
 62
     7
 10
144.929
 20
153.84
 30
0.0
 11
144.97300000000001
 21
153.84999999999999
 31
0.0
  0
LINE
  5
158
  8
_________1
 62
     7
 10
144.97300000000001
 20
153.84999999999999
 30
0.0
 11
145.01400000000001
 21
153.86799999999999
 31
0.0
  0
LINE
  5
159
  8
_________1
 62
     7
 10
145.01400000000001
 20
153.86799999999999
 30
0.0
 11
145.05199999999999
 21
153.80199999999999
 31
0.0
  0
LINE
  5
15A
  8
_________1
 62
     7
 10
145.05199999999999
 20
153.80199999999999
 30
0.0
 11
144.96600000000001
 21
153.76900000000001
 31
0.0
  0
LINE
  5
15B
  8
_________1
 62
     7
 10
144.96600000000001
 20
153.76900000000001
 30
0.0
 11
144.87100000000001
 21
153.76400000000001
 31
0.0
  0
LINE
  5
15C
  8
_________1
 62
     7
 10
144.87100000000001
 20
153.76400000000001
 30
0.0
 11
144.78200000000001
 21
153.78800000000001
 31
0.0
  0
LINE
  5
15D
  8
_________1
 62
     7
 10
144.78200000000001
 20
153.78800000000001
 30
0.0
 11
144.70500000000001
 21
153.84
 31
0.0
  0
LINE
  5
15E
  8
_________1
 62
     7
 10
144.70500000000001
 20
153.84
 30
0.0
 11
144.64599999999999
 21
153.91300000000001
 31
0.0
  0
LINE
  5
15F
  8
_________1
 62
     7
 10
144.64599999999999
 20
153.91300000000001
 30
0.0
 11
144.614
 21
154.0
 31
0.0
  0
LINE
  5
160
  8
_________1
 62
     7
 10
144.614
 20
154.0
 30
0.0
 11
144.61199999999999
 21
154.09299999999999
 31
0.0
  0
LINE
  5
161
  8
_________1
 62
     7
 10
144.61199999999999
 20
154.09299999999999
 30
0.0
 11
144.637
 21
154.18299999999999
 31
0.0
  0
LINE
  5
162
  8
_________1
 62
     7
 10
144.637
 20
154.18299999999999
 30
0.0
 11
144.68899999999999
 21
154.25999999999999
 31
0.0
  0
LINE
  5
163
  8
_________1
 62
     7
 10
144.68899999999999
 20
154.25999999999999
 30
0.0
 11
144.762
 21
154.31700000000001
 31
0.0
  0
LINE
  5
164
  8
_________1
 62
     7
 10
144.762
 20
154.31700000000001
 30
0.0
 11
144.81899999999999
 21
154.34100000000001
 31
0.0
  0
LINE
  5
165
  8
_________1
 62
     7
 10
144.81899999999999
 20
154.34100000000001
 30
0.0
 11
144.87799999999999
 21
154.35300000000001
 31
0.0
  0
LINE
  5
166
  8
_________1
 62
     7
 10
144.87799999999999
 20
154.35300000000001
 30
0.0
 11
144.93799999999999
 21
154.352
 31
0.0
  0
LINE
  5
167
  8
_________1
 62
     7
 10
144.93799999999999
 20
154.352
 30
0.0
 11
144.99700000000001
 21
154.339
 31
0.0
  0
LINE
  5
168
  8
_________1
 62
     7
 10
144.99700000000001
 20
154.339
 30
0.0
 11
145.05199999999999
 21
154.315
 31
0.0
  0
LINE
  5
169
  8
_________1
 62
     7
 10
145.05199999999999
 20
154.315
 30
0.0
 11
145.01400000000001
 21
154.24799999999999
 31
0.0
  0
INSERT
  5
16A
  8
_________1
 62
     7
  2
AIGNBL02010002
 10
0.0
 20
0.0
 30
0.0
  0
INSERT
  5
16B
  8
_________1
 62
     7
  2
AIGNBL02010003
 10
0.0
 20
0.0
 30
0.0
  0
LINE
  5
16C
  8
_________1
  6
AIGENLINE002
 62
     7
 10
143.761
 20
105.434
 30
0.0
 11
143.761
 21
111.258
 31
0.0
  0
LINE
  5
16D
  8
_________1
  6
AIGENLINE002
 62
     7
 10
142.51499999999999
 20
106.574
 30
0.0
 11
145.06800000000001
 21
106.574
 31
0.0
  0
LINE
  5
16E
  8
_________1
  6
AIGENLINE002
 62
     7
 10
142.51499999999999
 20
109.974
 30
0.0
 11
145.06800000000001
 21
109.974
 31
0.0
  0
LINE
  5
16F
  8
_________1
  6
AIGENLINE002
 62
     7
 10
22.460599999999999
 20
106.574
 30
0.0
 11
25.0138
 21
106.574
 31
0.0
  0
LINE
  5
170
  8
_________1
  6
AIGENLINE002
 62
     7
 10
22.460599999999999
 20
109.974
 30
0.0
 11
25.0138
 21
109.974
 31
0.0
  0
LINE
  5
171
  8
_________1
  6
AIGENLINE002
 62
     7
 10
23.780100000000001
 20
105.416
 30
0.0
 11
23.780100000000001
 21
111.066
 31
0.0
  0
INSERT
  5
172
  8
_________1
 62
     7
  2
AIGNBL02010004
 10
0.0
 20
0.0
 30
0.0
  0
ARC
  5
173
  8
_________1
 62
     7
 10
33.721086999999997
 20
146.10393500000001
 30
0.0
 40
0.059128
 50
10.617976000000001
 51
90.437093000000004
  0
ARC
  5
174
  8
_________1
 62
     7
 10
33.720799
 20
143.02566200000001
 30
0.0
 40
0.062081
 50
269.84929
 51
313.27475199999998
  0
ARC
  5
175
  8
_________1
 62
     7
 10
133.82286099999999
 20
146.100808
 30
0.0
 40
0.06227
 50
91.301892000000024
 51
166.986052
  0
ARC
  5
176
  8
_________1
 62
     7
 10
133.82134199999999
 20
143.025811
 30
0.0
 40
0.06223
 50
226.779841
 51
270.09615600000001
  0
ARC
  5
177
  8
_________1
 62
     7
 10
22.594546999999999
 20
143.79198199999999
 30
0.0
 40
0.8288909999999999
 50
182.967681
 51
268.028772
  0
ARC
  5
178
  8
_________1
 62
     7
 10
144.945694
 20
143.79460900000001
 30
0.0
 40
0.8315569999999999
 50
272.04431899999997
 51
356.86058400000002
  0
ARC
  5
179
  8
_________1
 62
     7
 10
33.073523999999999
 20
153.42809
 30
0.0
 40
7.269677999999999
 50
183.04226
 51
267.95048300000002
  0
ARC
  5
17A
  8
_________1
 62
     7
 10
134.468356
 20
153.42830699999999
 30
0.0
 40
7.2698910000000003
 50
272.04834799999998
 51
356.95612999999997
  0
INSERT
  5
17B
  8
_________1
 62
     7
  2
AIGNBL02010005
 10
0.0
 20
0.0
 30
0.0
  0
ARC
  5
17C
  8
_________1
 62
     7
 10
33.718794000000003
 20
105.21973699999999
 30
0.0
 40
0.062374
 50
271.37566299999997
 51
346.91232100000002
  0
INSERT
  5
17D
  8
_________1
 62
     7
  2
AIGNBL02010006
 10
0.0
 20
0.0
 30
0.0
  0
ARC
  5
17E
  8
_________1
 62
     7
 10
133.82216700000001
 20
111.32959
 30
0.0
 40
0.061403
 50
91.315856999999994
 51
167.62903399999999
  0
INSERT
  5
17F
  8
_________1
 62
     7
  2
AIGNBL02010007
 10
0.0
 20
0.0
 30
0.0
  0
INSERT
  5
180
  8
_________1
 62
     7
  2
AIGNBL02010008
 10
0.0
 20
0.0
 30
0.0
  0
INSERT
  5
181
  8
_________1
 62
     7
  2
AIGNBL02010009
 10
0.0
 20
0.0
 30
0.0
  0
INSERT
  5
182
  8
_________1
 62
     7
  2
AIGNBL0201000A
 10
0.0
 20
0.0
 30
0.0
  0
INSERT
  5
183
  8
_________1
 62
     7
  2
AIGNBL0201000B
 10
0.0
 20
0.0
 30
0.0
  0
INSERT
  5
184
  8
_________1
 62
     7
  2
AIGNBL0201000C
 10
0.0
 20
0.0
 30
0.0
  0
INSERT
  5
185
  8
_________1
 62
     7
  2
AIGNBL0201000D
 10
0.0
 20
0.0
 30
0.0
  0
INSERT
  5
186
  8
_________1
 62
     7
  2
AIGNBL0201000E
 10
0.0
 20
0.0
 30
0.0
  0
INSERT
  5
187
  8
_________1
 62
     7
  2
AIGNBL0201000F
 10
0.0
 20
0.0
 30
0.0
  0
INSERT
  5
188
  8
_________1
 62
     7
  2
AIGNBL02010010
 10
0.0
 20
0.0
 30
0.0
  0
LINE
  5
189
  8
_________1
 62
     7
 10
21.7668
 20
143.749
 30
0.0
 11
21.570399999999999
 21
154.964
 31
0.0
  0
LINE
  5
18A
  8
_________1
 62
     7
 10
25.7803
 20
154.964
 30
0.0
 11
25.8217
 21
152.61099999999999
 31
0.0
  0
LINE
  5
18B
  8
_________1
 62
     7
 10
33.7806
 20
146.1629999999999
 30
0.0
 11
33.7806
 21
142.964
 31
0.0
  0
LINE
  5
18C
  8
_________1
 62
     7
 10
33.7806
 20
142.964
 30
0.0
 11
133.761
 21
142.964
 31
0.0
  0
LINE
  5
18D
  8
_________1
 62
     7
 10
146.55199999999999
 20
142.964
 30
0.0
 11
154.13
 21
142.964
 31
0.0
  0
LINE
  5
18E
  8
_________1
 62
     7
 10
144.976
 20
142.964
 30
0.0
 11
133.821
 21
142.964
 31
0.0
  0
LINE
  5
18F
  8
_________1
 62
     7
 10
22.565999999999999
 20
142.964
 30
0.0
 11
33.720599999999997
 21
142.964
 31
0.0
  0
LINE
  5
190
  8
_________1
 62
     7
 10
33.7806
 20
146.1629999999999
 30
0.0
 11
133.761
 21
146.1629999999999
 31
0.0
  0
LINE
  5
191
  8
_________1
 62
     7
 10
134.72800000000001
 20
146.1629999999999
 30
0.0
 11
133.821
 21
146.1629999999999
 31
0.0
  0
LINE
  5
192
  8
_________1
 62
     7
 10
32.813499999999998
 20
146.1629999999999
 30
0.0
 11
33.720599999999997
 21
146.1629999999999
 31
0.0
  0
LINE
  5
193
  8
_________1
 62
     7
 10
146.922
 20
154.964
 30
0.0
 11
154.13
 21
154.964
 31
0.0
  0
LINE
  5
194
  8
_________1
 62
     7
 10
141.762
 20
154.964
 30
0.0
 11
145.971
 21
154.964
 31
0.0
  0
LINE
  5
195
  8
_________1
 62
     7
 10
21.570399999999999
 20
154.964
 30
0.0
 11
25.7803
 21
154.964
 31
0.0
  0
LINE
  5
196
  8
_________1
 62
     7
 10
133.761
 20
146.1629999999999
 30
0.0
 11
133.761
 21
142.964
 31
0.0
  0
LINE
  5
197
  8
_________1
 62
     7
 10
141.721
 20
152.61099999999999
 30
0.0
 11
141.762
 21
154.964
 31
0.0
  0
LINE
  5
198
  8
_________1
 62
     7
 10
145.77600000000001
 20
143.749
 30
0.0
 11
145.971
 21
154.964
 31
0.0
  0
LINE
  5
199
  8
_________1
 62
     7
 10
158.149
 20
104.974
 30
0.0
 11
158.149
 21
111.574
 31
0.0
  0
LINE
  5
19A
  8
_________1
 62
     7
 10
170.149
 20
104.974
 30
0.0
 11
170.149
 21
111.574
 31
0.0
  0
LINE
  5
19B
  8
_________1
 62
     7
 10
158.149
 20
111.574
 30
0.0
 11
170.149
 21
111.574
 31
0.0
  0
LINE
  5
19C
  8
_________1
 62
     7
 10
158.149
 20
104.974
 30
0.0
 11
170.149
 21
104.974
 31
0.0
  0
INSERT
  5
19D
  8
_________1
 62
     7
  2
AIGNBL02010011
 10
0.0
 20
0.0
 30
0.0
  0
LINE
  5
19E
  8
_________1
 62
     7
 10
145.971
 20
155.6639999999999
 30
0.0
 11
145.971
 21
184.50200000000001
 31
0.0
  0
LINE
  5
19F
  8
_________1
 62
     7
 10
21.570399999999999
 20
184.50200000000001
 30
0.0
 11
21.570399999999999
 21
155.6639999999999
 31
0.0
  0
LINE
  5
1A0
  8
_________1
 62
     7
 10
145.971
 20
105.17400000000001
 30
0.0
 11
145.971
 21
111.374
 31
0.0
  0
LINE
  5
1A1
  8
_________1
 62
     7
 10
145.971
 20
111.374
 30
0.0
 11
145.96799999999999
 21
111.40600000000001
 31
0.0
  0
LINE
  5
1A2
  8
_________1
 62
     7
 10
145.96799999999999
 20
111.40600000000001
 30
0.0
 11
145.96100000000001
 21
111.43600000000001
 31
0.0
  0
LINE
  5
1A3
  8
_________1
 62
     7
 10
145.96100000000001
 20
111.43600000000001
 30
0.0
 11
145.94999999999999
 21
111.465
 31
0.0
  0
LINE
  5
1A4
  8
_________1
 62
     7
 10
145.94999999999999
 20
111.465
 30
0.0
 11
145.93199999999999
 21
111.492
 31
0.0
  0
LINE
  5
1A5
  8
_________1
 62
     7
 10
145.93199999999999
 20
111.492
 30
0.0
 11
145.91200000000001
 21
111.51600000000001
 31
0.0
  0
LINE
  5
1A6
  8
_________1
 62
     7
 10
145.91200000000001
 20
111.51600000000001
 30
0.0
 11
145.88800000000001
 21
111.536
 31
0.0
  0
LINE
  5
1A7
  8
_________1
 62
     7
 10
145.88800000000001
 20
111.536
 30
0.0
 11
145.86199999999999
 21
111.55200000000001
 31
0.0
  0
LINE
  5
1A8
  8
_________1
 62
     7
 10
145.86199999999999
 20
111.55200000000001
 30
0.0
 11
145.833
 21
111.565
 31
0.0
  0
LINE
  5
1A9
  8
_________1
 62
     7
 10
145.833
 20
111.565
 30
0.0
 11
145.80199999999999
 21
111.572
 31
0.0
  0
LINE
  5
1AA
  8
_________1
 62
     7
 10
145.80199999999999
 20
111.572
 30
0.0
 11
145.77099999999999
 21
111.574
 31
0.0
  0
LINE
  5
1AB
  8
_________1
  6
AIGENLINE001
 62
     7
 10
144.261
 20
110.125
 30
0.0
 11
144.261
 21
109.824
 31
0.0
  0
LINE
  5
1AC
  8
_________1
 62
     7
 10
143.761
 20
173.91099999999989
 30
0.0
 11
143.761
 21
167.506
 31
0.0
  0
LINE
  5
1AD
  8
_________1
 62
     7
 10
23.780100000000001
 20
173.91099999999989
 30
0.0
 11
23.780100000000001
 21
167.506
 31
0.0
  0
LINE
  5
1AE
  8
_________1
  6
AIGENLINE001
 62
     7
 10
143.261
 20
109.824
 30
0.0
 11
143.261
 21
110.125
 31
0.0
  0
LINE
  5
1AF
  8
_________1
 62
     7
 10
133.761
 20
105.163
 30
0.0
 11
133.761
 21
111.387
 31
0.0
  0
LINE
  5
1B0
  8
_________1
 62
     7
 10
141.785
 20
105.039
 30
0.0
 11
141.78899999999999
 21
105.038
 31
0.0
  0
LINE
  5
1B1
  8
_________1
 62
     7
 10
141.78899999999999
 20
105.038
 30
0.0
 11
141.792
 21
105.03700000000001
 31
0.0
  0
LINE
  5
1B2
  8
_________1
 62
     7
 10
141.792
 20
105.03700000000001
 30
0.0
 11
141.79599999999999
 21
105.03700000000001
 31
0.0
  0
LINE
  5
1B3
  8
_________1
 62
     7
 10
141.79599999999999
 20
105.03700000000001
 30
0.0
 11
141.798
 21
105.036
 31
0.0
  0
LINE
  5
1B4
  8
_________1
 62
     7
 10
141.798
 20
105.036
 30
0.0
 11
141.80099999999999
 21
105.036
 31
0.0
  0
LINE
  5
1B5
  8
_________1
 62
     7
 10
141.80099999999999
 20
105.036
 30
0.0
 11
141.804
 21
105.035
 31
0.0
  0
LINE
  5
1B6
  8
_________1
 62
     7
 10
141.804
 20
105.035
 30
0.0
 11
141.80600000000001
 21
105.035
 31
0.0
  0
LINE
  5
1B7
  8
_________1
 62
     7
 10
141.80600000000001
 20
105.035
 30
0.0
 11
141.809
 21
105.035
 31
0.0
  0
LINE
  5
1B8
  8
_________1
 62
     7
 10
21.770199999999999
 20
111.574
 30
0.0
 11
21.738499999999998
 21
111.572
 31
0.0
  0
LINE
  5
1B9
  8
_________1
 62
     7
 10
21.738499999999998
 20
111.572
 30
0.0
 11
21.708200000000001
 21
111.565
 31
0.0
  0
LINE
  5
1BA
  8
_________1
 62
     7
 10
21.708200000000001
 20
111.565
 30
0.0
 11
21.679600000000001
 21
111.55200000000001
 31
0.0
  0
LINE
  5
1BB
  8
_________1
 62
     7
 10
21.679600000000001
 20
111.55200000000001
 30
0.0
 11
21.6524
 21
111.536
 31
0.0
  0
LINE
  5
1BC
  8
_________1
 62
     7
 10
21.6524
 20
111.536
 30
0.0
 11
21.629000000000001
 21
111.51600000000001
 31
0.0
  0
LINE
  5
1BD
  8
_________1
 62
     7
 10
21.629000000000001
 20
111.51600000000001
 30
0.0
 11
21.6083
 21
111.492
 31
0.0
  0
LINE
  5
1BE
  8
_________1
 62
     7
 10
21.6083
 20
111.492
 30
0.0
 11
21.592099999999999
 21
111.465
 31
0.0
  0
LINE
  5
1BF
  8
_________1
 62
     7
 10
21.592099999999999
 20
111.465
 30
0.0
 11
21.579999999999998
 21
111.43600000000001
 31
0.0
  0
LINE
  5
1C0
  8
_________1
 62
     7
 10
21.579999999999998
 20
111.43600000000001
 30
0.0
 11
21.572500000000002
 21
111.40600000000001
 31
0.0
  0
LINE
  5
1C1
  8
_________1
 62
     7
 10
21.572500000000002
 20
111.40600000000001
 30
0.0
 11
21.570399999999999
 21
111.374
 31
0.0
  0
LINE
  5
1C2
  8
_________1
 62
     7
 10
141.809
 20
105.035
 30
0.0
 11
141.81399999999999
 21
105.035
 31
0.0
  0
LINE
  5
1C3
  8
_________1
 62
     7
 10
141.81399999999999
 20
105.035
 30
0.0
 11
141.816
 21
105.03400000000001
 31
0.0
  0
LINE
  5
1C4
  8
_________1
 62
     7
 10
141.816
 20
105.03400000000001
 30
0.0
 11
141.8179999999999
 21
105.03400000000001
 31
0.0
  0
LINE
  5
1C5
  8
_________1
 62
     7
 10
141.8179999999999
 20
105.03400000000001
 30
0.0
 11
141.822
 21
105.03400000000001
 31
0.0
  0
LINE
  5
1C6
  8
_________1
 62
     7
 10
141.822
 20
105.03400000000001
 30
0.0
 11
141.82400000000001
 21
105.033
 31
0.0
  0
LINE
  5
1C7
  8
_________1
 62
     7
 10
141.82400000000001
 20
105.033
 30
0.0
 11
141.827
 21
105.033
 31
0.0
  0
LINE
  5
1C8
  8
_________1
 62
     7
 10
141.827
 20
105.033
 30
0.0
 11
141.82900000000001
 21
105.033
 31
0.0
  0
LINE
  5
1C9
  8
_________1
 62
     7
 10
141.82900000000001
 20
105.033
 30
0.0
 11
141.83099999999999
 21
105.033
 31
0.0
  0
LINE
  5
1CA
  8
_________1
 62
     7
 10
141.83099999999999
 20
105.033
 30
0.0
 11
141.83500000000001
 21
105.033
 31
0.0
  0
LINE
  5
1CB
  8
_________1
 62
     7
 10
141.83500000000001
 20
105.033
 30
0.0
 11
141.83699999999999
 21
105.033
 31
0.0
  0
LINE
  5
1CC
  8
_________1
 62
     7
 10
141.83699999999999
 20
105.033
 30
0.0
 11
141.84200000000001
 21
105.032
 31
0.0
  0
LINE
  5
1CD
  8
_________1
 62
     7
 10
141.744
 20
105.042
 30
0.0
 11
141.785
 21
105.03700000000001
 31
0.0
  0
LINE
  5
1CE
  8
_________1
 62
     7
 10
32.8917
 20
111.39100000000001
 30
0.0
 11
32.546500000000002
 21
111.39100000000001
 31
0.0
  0
LINE
  5
1CF
  8
_________1
 62
     7
 10
32.546500000000002
 20
111.39100000000001
 30
0.0
 11
32.142800000000001
 21
111.392
 31
0.0
  0
LINE
  5
1D0
  8
_________1
 62
     7
 10
32.142800000000001
 20
111.392
 30
0.0
 11
31.733499999999999
 21
111.39400000000001
 31
0.0
  0
LINE
  5
1D1
  8
_________1
 62
     7
 10
31.733499999999999
 20
111.39400000000001
 30
0.0
 11
31.311499999999999
 21
111.396
 31
0.0
  0
LINE
  5
1D2
  8
_________1
 62
     7
 10
31.311499999999999
 20
111.396
 30
0.0
 11
30.870799999999999
 21
111.399
 31
0.0
  0
LINE
  5
1D3
  8
_________1
 62
     7
 10
30.870799999999999
 20
111.399
 30
0.0
 11
30.415700000000001
 21
111.40300000000001
 31
0.0
  0
LINE
  5
1D4
  8
_________1
 62
     7
 10
30.415700000000001
 20
111.40300000000001
 30
0.0
 11
29.942699999999999
 21
111.408
 31
0.0
  0
LINE
  5
1D5
  8
_________1
 62
     7
 10
29.942699999999999
 20
111.408
 30
0.0
 11
29.461400000000001
 21
111.413
 31
0.0
  0
LINE
  5
1D6
  8
_________1
 62
     7
 10
29.461400000000001
 20
111.413
 30
0.0
 11
28.975300000000001
 21
111.419
 31
0.0
  0
LINE
  5
1D7
  8
_________1
 62
     7
 10
28.975300000000001
 20
111.419
 30
0.0
 11
28.497800000000002
 21
111.426
 31
0.0
  0
LINE
  5
1D8
  8
_________1
 62
     7
 10
28.497800000000002
 20
111.426
 30
0.0
 11
28.035499999999999
 21
111.434
 31
0.0
  0
LINE
  5
1D9
  8
_________1
 62
     7
 10
28.035499999999999
 20
111.434
 30
0.0
 11
27.602499999999999
 21
111.443
 31
0.0
  0
LINE
  5
1DA
  8
_________1
 62
     7
 10
27.602499999999999
 20
111.443
 30
0.0
 11
27.2104
 21
111.452
 31
0.0
  0
LINE
  5
1DB
  8
_________1
 62
     7
 10
27.2104
 20
111.452
 30
0.0
 11
26.860700000000001
 21
111.461
 31
0.0
  0
LINE
  5
1DC
  8
_________1
 62
     7
 10
26.860700000000001
 20
111.461
 30
0.0
 11
26.556899999999999
 21
111.47
 31
0.0
  0
LINE
  5
1DD
  8
_________1
 62
     7
 10
26.556899999999999
 20
111.47
 30
0.0
 11
26.299499999999998
 21
111.48
 31
0.0
  0
LINE
  5
1DE
  8
_________1
 62
     7
 10
26.299499999999998
 20
111.48
 30
0.0
 11
26.087299999999999
 21
111.489
 31
0.0
  0
LINE
  5
1DF
  8
_________1
 62
     7
 10
26.087299999999999
 20
111.489
 30
0.0
 11
25.919499999999999
 21
111.498
 31
0.0
  0
LINE
  5
1E0
  8
_________1
 62
     7
 10
25.919499999999999
 20
111.498
 30
0.0
 11
25.796500000000002
 21
111.50700000000001
 31
0.0
  0
LINE
  5
1E1
  8
_________1
 62
     7
 10
146.471
 20
111.574
 30
0.0
 11
154.13
 21
111.574
 31
0.0
  0
LINE
  5
1E2
  8
_________1
 62
     7
 10
24.4863
 20
111.574
 30
0.0
 11
21.770199999999999
 21
111.574
 31
0.0
  0
LINE
  5
1E3
  8
_________1
 62
     7
 10
145.77099999999999
 20
111.574
 30
0.0
 11
143.054
 21
111.574
 31
0.0
  0
LINE
  5
1E4
  8
_________1
 62
     7
 10
33.720300000000002
 20
111.39100000000001
 30
0.0
 11
32.8917
 21
111.39100000000001
 31
0.0
  0
LINE
  5
1E5
  8
_________1
 62
     7
 10
134.65000000000001
 20
111.39100000000001
 30
0.0
 11
133.821
 21
111.39100000000001
 31
0.0
  0
LINE
  5
1E6
  8
_________1
 62
     7
 10
133.761
 20
111.387
 30
0.0
 11
33.7806
 21
111.387
 31
0.0
  0
LINE
  5
1E7
  8
_________1
 62
     7
 10
25.796199999999999
 20
105.042
 30
0.0
 11
25.918099999999999
 21
105.05
 31
0.0
  0
LINE
  5
1E8
  8
_________1
 62
     7
 10
25.918099999999999
 20
105.05
 30
0.0
 11
26.085599999999999
 21
105.06
 31
0.0
  0
LINE
  5
1E9
  8
_________1
 62
     7
 10
26.085599999999999
 20
105.06
 30
0.0
 11
26.2971
 21
105.069
 31
0.0
  0
LINE
  5
1EA
  8
_________1
 62
     7
 10
26.2971
 20
105.069
 30
0.0
 11
26.5548
 21
105.07899999999999
 31
0.0
  0
LINE
  5
1EB
  8
_________1
 62
     7
 10
26.5548
 20
105.07899999999999
 30
0.0
 11
26.858000000000001
 21
105.08799999999999
 31
0.0
  0
LINE
  5
1EC
  8
_________1
 62
     7
 10
26.858000000000001
 20
105.08799999999999
 30
0.0
 11
27.207000000000001
 21
105.09699999999999
 31
0.0
  0
LINE
  5
1ED
  8
_________1
 62
     7
 10
27.207000000000001
 20
105.09699999999999
 30
0.0
 11
27.599
 21
105.10599999999999
 31
0.0
  0
LINE
  5
1EE
  8
_________1
 62
     7
 10
27.599
 20
105.10599999999999
 30
0.0
 11
28.0321
 21
105.11499999999999
 31
0.0
  0
LINE
  5
1EF
  8
_________1
 62
     7
 10
28.0321
 20
105.11499999999999
 30
0.0
 11
28.4937
 21
105.122
 31
0.0
  0
LINE
  5
1F0
  8
_________1
 62
     7
 10
28.4937
 20
105.122
 30
0.0
 11
28.971499999999999
 21
105.129
 31
0.0
  0
LINE
  5
1F1
  8
_________1
 62
     7
 10
28.971499999999999
 20
105.129
 30
0.0
 11
29.456600000000002
 21
105.13500000000001
 31
0.0
  0
LINE
  5
1F2
  8
_________1
 62
     7
 10
29.456600000000002
 20
105.13500000000001
 30
0.0
 11
29.938600000000001
 21
105.142
 31
0.0
  0
LINE
  5
1F3
  8
_________1
 62
     7
 10
29.938600000000001
 20
105.142
 30
0.0
 11
30.410900000000002
 21
105.146
 31
0.0
  0
LINE
  5
1F4
  8
_________1
 62
     7
 10
30.410900000000002
 20
105.146
 30
0.0
 11
30.867000000000001
 21
105.149
 31
0.0
  0
LINE
  5
1F5
  8
_________1
 62
     7
 10
30.867000000000001
 20
105.149
 30
0.0
 11
31.307300000000001
 21
105.15300000000001
 31
0.0
  0
LINE
  5
1F6
  8
_________1
 62
     7
 10
31.307300000000001
 20
105.15300000000001
 30
0.0
 11
31.729399999999998
 21
105.155
 31
0.0
  0
LINE
  5
1F7
  8
_________1
 62
     7
 10
31.729399999999998
 20
105.155
 30
0.0
 11
32.13900000000001
 21
105.15600000000001
 31
0.0
  0
LINE
  5
1F8
  8
_________1
 62
     7
 10
32.13900000000001
 20
105.15600000000001
 30
0.0
 11
32.542400000000001
 21
105.157
 31
0.0
  0
LINE
  5
1F9
  8
_________1
 62
     7
 10
32.542400000000001
 20
105.157
 30
0.0
 11
32.8917
 21
105.157
 31
0.0
  0
LINE
  5
1FA
  8
_________1
 62
     7
 10
25.7318
 20
105.035
 30
0.0
 11
25.796199999999999
 21
105.042
 31
0.0
  0
LINE
  5
1FB
  8
_________1
 62
     7
 10
25.7318
 20
105.035
 30
0.0
 11
25.734500000000001
 21
105.035
 31
0.0
  0
LINE
  5
1FC
  8
_________1
 62
     7
 10
25.734500000000001
 20
105.035
 30
0.0
 11
25.7376
 21
105.035
 31
0.0
  0
LINE
  5
1FD
  8
_________1
 62
     7
 10
25.7376
 20
105.035
 30
0.0
 11
25.739699999999999
 21
105.036
 31
0.0
  0
LINE
  5
1FE
  8
_________1
 62
     7
 10
25.739699999999999
 20
105.036
 30
0.0
 11
25.742799999999999
 21
105.036
 31
0.0
  0
LINE
  5
1FF
  8
_________1
 62
     7
 10
25.742799999999999
 20
105.036
 30
0.0
 11
25.7455
 21
105.03700000000001
 31
0.0
  0
LINE
  5
200
  8
_________1
 62
     7
 10
25.7455
 20
105.03700000000001
 30
0.0
 11
25.748999999999999
 21
105.03700000000001
 31
0.0
  0
LINE
  5
201
  8
_________1
 62
     7
 10
25.748999999999999
 20
105.03700000000001
 30
0.0
 11
25.7517
 21
105.038
 31
0.0
  0
LINE
  5
202
  8
_________1
 62
     7
 10
25.7517
 20
105.038
 30
0.0
 11
25.755199999999999
 21
105.039
 31
0.0
  0
LINE
  5
203
  8
_________1
 62
     7
 10
25.7318
 20
111.514
 30
0.0
 11
25.7273
 21
111.514
 31
0.0
  0
LINE
  5
204
  8
_________1
 62
     7
 10
25.7273
 20
111.514
 30
0.0
 11
25.724900000000002
 21
111.514
 31
0.0
  0
LINE
  5
205
  8
_________1
 62
     7
 10
25.724900000000002
 20
111.514
 30
0.0
 11
25.722100000000001
 21
111.514
 31
0.0
  0
LINE
  5
206
  8
_________1
 62
     7
 10
25.722100000000001
 20
111.514
 30
0.0
 11
25.7197
 21
111.515
 31
0.0
  0
LINE
  5
207
  8
_________1
 62
     7
 10
25.7197
 20
111.515
 30
0.0
 11
25.716899999999999
 21
111.515
 31
0.0
  0
LINE
  5
208
  8
_________1
 62
     7
 10
25.716899999999999
 20
111.515
 30
0.0
 11
25.714500000000001
 21
111.515
 31
0.0
  0
LINE
  5
209
  8
_________1
 62
     7
 10
25.714500000000001
 20
111.515
 30
0.0
 11
25.7121
 21
111.51600000000001
 31
0.0
  0
LINE
  5
20A
  8
_________1
 62
     7
 10
25.7121
 20
111.51600000000001
 30
0.0
 11
25.709399999999999
 21
111.51600000000001
 31
0.0
  0
LINE
  5
20B
  8
_________1
 62
     7
 10
25.709399999999999
 20
111.51600000000001
 30
0.0
 11
25.706600000000002
 21
111.51600000000001
 31
0.0
  0
LINE
  5
20C
  8
_________1
 62
     7
 10
25.706600000000002
 20
111.51600000000001
 30
0.0
 11
25.7042
 21
111.51600000000001
 31
0.0
  0
LINE
  5
20D
  8
_________1
 62
     7
 10
25.7042
 20
111.51600000000001
 30
0.0
 11
25.6983
 21
111.51600000000001
 31
0.0
  0
LINE
  5
20E
  8
_________1
 62
     7
 10
25.796500000000002
 20
111.50700000000001
 30
0.0
 11
25.7559
 21
111.511
 31
0.0
  0
LINE
  5
20F
  8
_________1
 62
     7
 10
25.6983
 20
111.51600000000001
 30
0.0
 11
24.4863
 21
111.574
 31
0.0
  0
LINE
  5
210
  8
_________1
 62
     7
 10
141.84200000000001
 20
105.032
 30
0.0
 11
143.054
 21
104.974
 31
0.0
  0
LINE
  5
211
  8
_________1
 62
     7
 10
134.65000000000001
 20
105.157
 30
0.0
 11
134.995
 21
105.157
 31
0.0
  0
LINE
  5
212
  8
_________1
 62
     7
 10
134.995
 20
105.157
 30
0.0
 11
135.399
 21
105.15600000000001
 31
0.0
  0
LINE
  5
213
  8
_________1
 62
     7
 10
135.399
 20
105.15600000000001
 30
0.0
 11
135.80699999999999
 21
105.155
 31
0.0
  0
LINE
  5
214
  8
_________1
 62
     7
 10
135.80699999999999
 20
105.155
 30
0.0
 11
136.22900000000001
 21
105.15300000000001
 31
0.0
  0
LINE
  5
215
  8
_________1
 62
     7
 10
136.22900000000001
 20
105.15300000000001
 30
0.0
 11
136.66999999999999
 21
105.15000000000001
 31
0.0
  0
LINE
  5
216
  8
_________1
 62
     7
 10
136.66999999999999
 20
105.15000000000001
 30
0.0
 11
137.126
 21
105.146
 31
0.0
  0
LINE
  5
217
  8
_________1
 62
     7
 10
137.126
 20
105.146
 30
0.0
 11
137.59800000000001
 21
105.142
 31
0.0
  0
LINE
  5
218
  8
_________1
 62
     7
 10
137.59800000000001
 20
105.142
 30
0.0
 11
138.08000000000001
 21
105.13500000000001
 31
0.0
  0
LINE
  5
219
  8
_________1
 62
     7
 10
138.08000000000001
 20
105.13500000000001
 30
0.0
 11
138.565
 21
105.129
 31
0.0
  0
LINE
  5
21A
  8
_________1
 62
     7
 10
138.565
 20
105.129
 30
0.0
 11
139.04400000000001
 21
105.122
 31
0.0
  0
LINE
  5
21B
  8
_________1
 62
     7
 10
139.04400000000001
 20
105.122
 30
0.0
 11
139.505
 21
105.11499999999999
 31
0.0
  0
LINE
  5
21C
  8
_________1
 62
     7
 10
139.505
 20
105.11499999999999
 30
0.0
 11
139.93899999999999
 21
105.10599999999999
 31
0.0
  0
LINE
  5
21D
  8
_________1
 62
     7
 10
139.93899999999999
 20
105.10599999999999
 30
0.0
 11
140.33099999999999
 21
105.09699999999999
 31
0.0
  0
LINE
  5
21E
  8
_________1
 62
     7
 10
140.33099999999999
 20
105.09699999999999
 30
0.0
 11
140.68100000000001
 21
105.08799999999999
 31
0.0
  0
LINE
  5
21F
  8
_________1
 62
     7
 10
140.68100000000001
 20
105.08799999999999
 30
0.0
 11
140.98400000000001
 21
105.07899999999999
 31
0.0
  0
LINE
  5
220
  8
_________1
 62
     7
 10
140.98400000000001
 20
105.07899999999999
 30
0.0
 11
141.24199999999999
 21
105.069
 31
0.0
  0
LINE
  5
221
  8
_________1
 62
     7
 10
141.24199999999999
 20
105.069
 30
0.0
 11
141.45400000000001
 21
105.06
 31
0.0
  0
LINE
  5
222
  8
_________1
 62
     7
 10
141.45400000000001
 20
105.06
 30
0.0
 11
141.62100000000001
 21
105.05
 31
0.0
  0
LINE
  5
223
  8
_________1
 62
     7
 10
141.62100000000001
 20
105.05
 30
0.0
 11
141.744
 21
105.042
 31
0.0
  0
LINE
  5
224
  8
_________1
  6
AIGENLINE001
 62
     7
 10
143.61099999999999
 20
107.074
 30
0.0
 11
143.911
 21
107.074
 31
0.0
  0
LINE
  5
225
  8
_________1
  6
AIGENLINE001
 62
     7
 10
23.6295
 20
107.074
 30
0.0
 11
23.93
 21
107.074
 31
0.0
  0
LINE
  5
226
  8
_________1
  6
AIGENLINE001
 62
     7
 10
23.93
 20
106.074
 30
0.0
 11
23.6295
 21
106.074
 31
0.0
  0
LINE
  5
227
  8
_________1
  6
AIGENLINE001
 62
     7
 10
143.911
 20
106.074
 30
0.0
 11
143.61099999999999
 21
106.074
 31
0.0
  0
LINE
  5
228
  8
_________1
 62
     7
 10
133.761
 20
105.163
 30
0.0
 11
33.7806
 21
105.163
 31
0.0
  0
LINE
  5
229
  8
_________1
 62
     7
 10
133.821
 20
105.157
 30
0.0
 11
134.65000000000001
 21
105.157
 31
0.0
  0
LINE
  5
22A
  8
_________1
 62
     7
 10
32.8917
 20
105.157
 30
0.0
 11
33.720300000000002
 21
105.157
 31
0.0
  0
LINE
  5
22B
  8
_________1
 62
     7
 10
146.471
 20
104.974
 30
0.0
 11
154.13
 21
104.974
 31
0.0
  0
LINE
  5
22C
  8
_________1
 62
     7
 10
143.054
 20
104.974
 30
0.0
 11
145.77099999999999
 21
104.974
 31
0.0
  0
LINE
  5
22D
  8
_________1
 62
     7
 10
21.770199999999999
 20
104.974
 30
0.0
 11
24.4863
 21
104.974
 31
0.0
  0
LINE
  5
22E
  8
_________1
 62
     7
 10
141.845
 20
111.51600000000001
 30
0.0
 11
143.054
 21
111.574
 31
0.0
  0
LINE
  5
22F
  8
_________1
 62
     7
 10
25.695599999999999
 20
105.032
 30
0.0
 11
24.4863
 21
104.974
 31
0.0
  0
LINE
  5
230
  8
_________1
 62
     7
 10
141.845
 20
111.51600000000001
 30
0.0
 11
141.839
 21
111.51600000000001
 31
0.0
  0
LINE
  5
231
  8
_________1
 62
     7
 10
25.695599999999999
 20
105.032
 30
0.0
 11
25.7011
 21
105.032
 31
0.0
  0
LINE
  5
232
  8
_________1
 62
     7
 10
25.7011
 20
105.032
 30
0.0
 11
25.706600000000002
 21
105.033
 31
0.0
  0
LINE
  5
233
  8
_________1
 62
     7
 10
141.839
 20
111.51600000000001
 30
0.0
 11
141.83500000000001
 21
111.51600000000001
 31
0.0
  0
LINE
  5
234
  8
_________1
 62
     7
 10
25.706600000000002
 20
105.033
 30
0.0
 11
25.709399999999999
 21
105.033
 31
0.0
  0
LINE
  5
235
  8
_________1
 62
     7
 10
25.709399999999999
 20
105.033
 30
0.0
 11
25.7121
 21
105.033
 31
0.0
  0
LINE
  5
236
  8
_________1
 62
     7
 10
25.7121
 20
105.033
 30
0.0
 11
25.714500000000001
 21
105.033
 31
0.0
  0
LINE
  5
237
  8
_________1
 62
     7
 10
25.714500000000001
 20
105.033
 30
0.0
 11
25.716899999999999
 21
105.033
 31
0.0
  0
LINE
  5
238
  8
_________1
 62
     7
 10
25.716899999999999
 20
105.033
 30
0.0
 11
25.7197
 21
105.03400000000001
 31
0.0
  0
LINE
  5
239
  8
_________1
 62
     7
 10
25.7197
 20
105.03400000000001
 30
0.0
 11
25.722100000000001
 21
105.03400000000001
 31
0.0
  0
LINE
  5
23A
  8
_________1
 62
     7
 10
25.722100000000001
 20
105.03400000000001
 30
0.0
 11
25.724900000000002
 21
105.03400000000001
 31
0.0
  0
LINE
  5
23B
  8
_________1
 62
     7
 10
25.724900000000002
 20
105.03400000000001
 30
0.0
 11
25.7273
 21
105.035
 31
0.0
  0
LINE
  5
23C
  8
_________1
 62
     7
 10
25.7273
 20
105.035
 30
0.0
 11
25.729299999999999
 21
105.035
 31
0.0
  0
LINE
  5
23D
  8
_________1
 62
     7
 10
25.729299999999999
 20
105.035
 30
0.0
 11
25.7318
 21
105.035
 31
0.0
  0
LINE
  5
23E
  8
_________1
 62
     7
 10
141.83500000000001
 20
111.51600000000001
 30
0.0
 11
141.83099999999999
 21
111.51600000000001
 31
0.0
  0
LINE
  5
23F
  8
_________1
 62
     7
 10
141.83099999999999
 20
111.51600000000001
 30
0.0
 11
141.82900000000001
 21
111.51600000000001
 31
0.0
  0
LINE
  5
240
  8
_________1
 62
     7
 10
141.82900000000001
 20
111.51600000000001
 30
0.0
 11
141.827
 21
111.515
 31
0.0
  0
LINE
  5
241
  8
_________1
 62
     7
 10
141.827
 20
111.515
 30
0.0
 11
141.82400000000001
 21
111.515
 31
0.0
  0
LINE
  5
242
  8
_________1
 62
     7
 10
141.82400000000001
 20
111.515
 30
0.0
 11
141.822
 21
111.515
 31
0.0
  0
LINE
  5
243
  8
_________1
 62
     7
 10
141.822
 20
111.515
 30
0.0
 11
141.8179999999999
 21
111.514
 31
0.0
  0
LINE
  5
244
  8
_________1
 62
     7
 10
141.8179999999999
 20
111.514
 30
0.0
 11
141.816
 21
111.514
 31
0.0
  0
LINE
  5
245
  8
_________1
 62
     7
 10
141.816
 20
111.514
 30
0.0
 11
141.81399999999999
 21
111.514
 31
0.0
  0
LINE
  5
246
  8
_________1
 62
     7
 10
141.81399999999999
 20
111.514
 30
0.0
 11
141.81100000000001
 21
111.514
 31
0.0
  0
LINE
  5
247
  8
_________1
 62
     7
 10
141.81100000000001
 20
111.514
 30
0.0
 11
141.809
 21
111.514
 31
0.0
  0
LINE
  5
248
  8
_________1
 62
     7
 10
141.745
 20
111.50700000000001
 30
0.0
 11
141.62200000000001
 21
111.498
 31
0.0
  0
LINE
  5
249
  8
_________1
 62
     7
 10
141.62200000000001
 20
111.498
 30
0.0
 11
141.45500000000001
 21
111.48999999999999
 31
0.0
  0
LINE
  5
24A
  8
_________1
 62
     7
 10
141.45500000000001
 20
111.48999999999999
 30
0.0
 11
141.24299999999999
 21
111.48
 31
0.0
  0
LINE
  5
24B
  8
_________1
 62
     7
 10
141.24299999999999
 20
111.48
 30
0.0
 11
140.98599999999999
 21
111.47
 31
0.0
  0
LINE
  5
24C
  8
_________1
 62
     7
 10
140.98599999999999
 20
111.47
 30
0.0
 11
140.684
 21
111.461
 31
0.0
  0
LINE
  5
24D
  8
_________1
 62
     7
 10
140.684
 20
111.461
 30
0.0
 11
140.333
 21
111.452
 31
0.0
  0
LINE
  5
24E
  8
_________1
 62
     7
 10
140.333
 20
111.452
 30
0.0
 11
139.94200000000001
 21
111.443
 31
0.0
  0
LINE
  5
24F
  8
_________1
 62
     7
 10
139.94200000000001
 20
111.443
 30
0.0
 11
139.50899999999999
 21
111.434
 31
0.0
  0
LINE
  5
250
  8
_________1
 62
     7
 10
139.50899999999999
 20
111.434
 30
0.0
 11
139.047
 21
111.426
 31
0.0
  0
LINE
  5
251
  8
_________1
 62
     7
 10
139.047
 20
111.426
 30
0.0
 11
138.56999999999999
 21
111.419
 31
0.0
  0
LINE
  5
252
  8
_________1
 62
     7
 10
138.56999999999999
 20
111.419
 30
0.0
 11
138.084
 21
111.413
 31
0.0
  0
LINE
  5
253
  8
_________1
 62
     7
 10
138.084
 20
111.413
 30
0.0
 11
137.60300000000001
 21
111.408
 31
0.0
  0
LINE
  5
254
  8
_________1
 62
     7
 10
137.60300000000001
 20
111.408
 30
0.0
 11
137.12899999999999
 21
111.40300000000001
 31
0.0
  0
LINE
  5
255
  8
_________1
 62
     7
 10
137.12899999999999
 20
111.40300000000001
 30
0.0
 11
136.673
 21
111.399
 31
0.0
  0
LINE
  5
256
  8
_________1
 62
     7
 10
136.673
 20
111.399
 30
0.0
 11
136.23400000000001
 21
111.396
 31
0.0
  0
LINE
  5
257
  8
_________1
 62
     7
 10
136.23400000000001
 20
111.396
 30
0.0
 11
135.81100000000001
 21
111.39400000000001
 31
0.0
  0
LINE
  5
258
  8
_________1
 62
     7
 10
135.81100000000001
 20
111.39400000000001
 30
0.0
 11
135.40199999999999
 21
111.392
 31
0.0
  0
LINE
  5
259
  8
_________1
 62
     7
 10
135.40199999999999
 20
111.392
 30
0.0
 11
134.99799999999999
 21
111.392
 31
0.0
  0
LINE
  5
25A
  8
_________1
 62
     7
 10
134.99799999999999
 20
111.392
 30
0.0
 11
134.65000000000001
 21
111.39100000000001
 31
0.0
  0
LINE
  5
25B
  8
_________1
 62
     7
 10
141.809
 20
111.514
 30
0.0
 11
141.745
 21
111.50700000000001
 31
0.0
  0
LINE
  5
25C
  8
_________1
 62
     7
 10
141.809
 20
111.514
 30
0.0
 11
141.80600000000001
 21
111.514
 31
0.0
  0
LINE
  5
25D
  8
_________1
 62
     7
 10
141.80600000000001
 20
111.514
 30
0.0
 11
141.804
 21
111.51300000000001
 31
0.0
  0
LINE
  5
25E
  8
_________1
 62
     7
 10
141.804
 20
111.51300000000001
 30
0.0
 11
141.80099999999999
 21
111.51300000000001
 31
0.0
  0
LINE
  5
25F
  8
_________1
 62
     7
 10
141.80099999999999
 20
111.51300000000001
 30
0.0
 11
141.798
 21
111.512
 31
0.0
  0
LINE
  5
260
  8
_________1
 62
     7
 10
141.798
 20
111.512
 30
0.0
 11
141.79599999999999
 21
111.512
 31
0.0
  0
LINE
  5
261
  8
_________1
 62
     7
 10
141.79599999999999
 20
111.512
 30
0.0
 11
141.792
 21
111.511
 31
0.0
  0
LINE
  5
262
  8
_________1
 62
     7
 10
141.792
 20
111.511
 30
0.0
 11
141.78899999999999
 21
111.511
 31
0.0
  0
LINE
  5
263
  8
_________1
 62
     7
 10
141.78899999999999
 20
111.511
 30
0.0
 11
141.785
 21
111.51000000000001
 31
0.0
  0
LINE
  5
264
  8
_________1
 62
     7
 10
25.755199999999999
 20
111.51000000000001
 30
0.0
 11
25.7517
 21
111.511
 31
0.0
  0
LINE
  5
265
  8
_________1
 62
     7
 10
25.7517
 20
111.511
 30
0.0
 11
25.748999999999999
 21
111.511
 31
0.0
  0
LINE
  5
266
  8
_________1
 62
     7
 10
25.748999999999999
 20
111.511
 30
0.0
 11
25.7455
 21
111.512
 31
0.0
  0
LINE
  5
267
  8
_________1
 62
     7
 10
25.7455
 20
111.512
 30
0.0
 11
25.742799999999999
 21
111.512
 31
0.0
  0
LINE
  5
268
  8
_________1
 62
     7
 10
25.742799999999999
 20
111.512
 30
0.0
 11
25.739699999999999
 21
111.51300000000001
 31
0.0
  0
LINE
  5
269
  8
_________1
 62
     7
 10
25.739699999999999
 20
111.51300000000001
 30
0.0
 11
25.7376
 21
111.51300000000001
 31
0.0
  0
LINE
  5
26A
  8
_________1
 62
     7
 10
25.7376
 20
111.51300000000001
 30
0.0
 11
25.734500000000001
 21
111.514
 31
0.0
  0
LINE
  5
26B
  8
_________1
 62
     7
 10
25.734500000000001
 20
111.514
 30
0.0
 11
25.7318
 21
111.514
 31
0.0
  0
LINE
  5
26C
  8
_________1
 62
     7
 10
145.77099999999999
 20
104.974
 30
0.0
 11
145.80199999999999
 21
104.977
 31
0.0
  0
LINE
  5
26D
  8
_________1
 62
     7
 10
145.80199999999999
 20
104.977
 30
0.0
 11
145.833
 21
104.98399999999999
 31
0.0
  0
LINE
  5
26E
  8
_________1
 62
     7
 10
145.833
 20
104.98399999999999
 30
0.0
 11
145.86199999999999
 21
104.996
 31
0.0
  0
LINE
  5
26F
  8
_________1
 62
     7
 10
145.86199999999999
 20
104.996
 30
0.0
 11
145.88800000000001
 21
105.012
 31
0.0
  0
LINE
  5
270
  8
_________1
 62
     7
 10
145.88800000000001
 20
105.012
 30
0.0
 11
145.91200000000001
 21
105.033
 31
0.0
  0
LINE
  5
271
  8
_________1
 62
     7
 10
145.91200000000001
 20
105.033
 30
0.0
 11
145.93199999999999
 21
105.056
 31
0.0
  0
LINE
  5
272
  8
_________1
 62
     7
 10
145.93199999999999
 20
105.056
 30
0.0
 11
145.94999999999999
 21
105.084
 31
0.0
  0
LINE
  5
273
  8
_________1
 62
     7
 10
145.94999999999999
 20
105.084
 30
0.0
 11
145.96100000000001
 21
105.11199999999999
 31
0.0
  0
LINE
  5
274
  8
_________1
 62
     7
 10
145.96100000000001
 20
105.11199999999999
 30
0.0
 11
145.96799999999999
 21
105.143
 31
0.0
  0
LINE
  5
275
  8
_________1
 62
     7
 10
145.96799999999999
 20
105.143
 30
0.0
 11
145.971
 21
105.17400000000001
 31
0.0
  0
LINE
  5
276
  8
_________1
 62
     7
 10
33.7806
 20
105.163
 30
0.0
 11
33.7806
 21
111.387
 31
0.0
  0
LINE
  5
277
  8
_________1
  6
AIGENLINE001
 62
     7
 10
24.279599999999999
 20
110.125
 30
0.0
 11
24.279599999999999
 21
109.824
 31
0.0
  0
LINE
  5
278
  8
_________1
  6
AIGENLINE001
 62
     7
 10
23.279900000000001
 20
109.824
 30
0.0
 11
23.279900000000001
 21
110.125
 31
0.0
  0
LINE
  5
279
  8
_________1
 62
     7
 10
21.570399999999999
 20
111.374
 30
0.0
 11
21.570399999999999
 21
105.17400000000001
 31
0.0
  0
LINE
  5
27A
  8
_________1
 62
     7
 10
21.570399999999999
 20
105.17400000000001
 30
0.0
 11
21.572500000000002
 21
105.143
 31
0.0
  0
LINE
  5
27B
  8
_________1
 62
     7
 10
21.572500000000002
 20
105.143
 30
0.0
 11
21.579999999999998
 21
105.113
 31
0.0
  0
LINE
  5
27C
  8
_________1
 62
     7
 10
21.579999999999998
 20
105.113
 30
0.0
 11
21.592099999999999
 21
105.084
 31
0.0
  0
LINE
  5
27D
  8
_________1
 62
     7
 10
21.592099999999999
 20
105.084
 30
0.0
 11
21.6083
 21
105.056
 31
0.0
  0
LINE
  5
27E
  8
_________1
 62
     7
 10
21.6083
 20
105.056
 30
0.0
 11
21.629000000000001
 21
105.033
 31
0.0
  0
LINE
  5
27F
  8
_________1
 62
     7
 10
21.629000000000001
 20
105.033
 30
0.0
 11
21.6524
 21
105.012
 31
0.0
  0
LINE
  5
280
  8
_________1
 62
     7
 10
21.6524
 20
105.012
 30
0.0
 11
21.679600000000001
 21
104.996
 31
0.0
  0
LINE
  5
281
  8
_________1
 62
     7
 10
21.679600000000001
 20
104.996
 30
0.0
 11
21.708200000000001
 21
104.98399999999999
 31
0.0
  0
LINE
  5
282
  8
_________1
 62
     7
 10
21.708200000000001
 20
104.98399999999999
 30
0.0
 11
21.738499999999998
 21
104.977
 31
0.0
  0
LINE
  5
283
  8
_________1
 62
     7
 10
21.738499999999998
 20
104.977
 30
0.0
 11
21.770199999999999
 21
104.974
 31
0.0
  0
INSERT
  5
284
  8
_________1
 62
     7
  2
AIGNBL02010012
 10
0.0
 20
0.0
 30
0.0
  0
INSERT
  5
285
  8
_________1
 62
     7
  2
AIGNBL02010013
 10
0.0
 20
0.0
 30
0.0
  0
LINE
  5
286
  8
_________1
 62
     7
 10
170.149
 20
106.795
 30
0.0
 11
170.149
 21
106.574
 31
0.0
  0
LINE
  5
287
  8
_________1
 62
     7
 10
170.149
 20
106.574
 30
0.0
 11
170.149
 21
106.354
 31
0.0
  0
LINE
  5
288
  8
_________1
  6
AIGENLINE002
 62
     7
 10
169.464
 20
106.574
 30
0.0
 11
181.99100000000001
 21
106.574
 31
0.0
  0
LINE
  5
289
  8
_________1
 62
     7
 10
170.149
 20
106.795
 30
0.0
 11
180.239
 21
106.795
 31
0.0
  0
LINE
  5
28A
  8
_________1
 62
     7
 10
170.149
 20
106.354
 30
0.0
 11
180.239
 21
106.354
 31
0.0
  0
LINE
  5
28B
  8
_________1
 62
     7
 10
179.59700000000001
 20
106.974
 30
0.0
 11
179.97200000000001
 21
106.17400000000001
 31
0.0
  0
LINE
  5
28C
  8
_________1
 62
     7
 10
178.715
 20
106.974
 30
0.0
 11
179.09
 21
106.17400000000001
 31
0.0
  0
LINE
  5
28D
  8
_________1
 62
     7
 10
177.834
 20
106.974
 30
0.0
 11
178.21000000000001
 21
106.17400000000001
 31
0.0
  0
LINE
  5
28E
  8
_________1
 62
     7
 10
176.953
 20
106.974
 30
0.0
 11
177.328
 21
106.17400000000001
 31
0.0
  0
LINE
  5
28F
  8
_________1
 62
     7
 10
176.072
 20
106.974
 30
0.0
 11
176.447
 21
106.17400000000001
 31
0.0
  0
LINE
  5
290
  8
_________1
 62
     7
 10
175.19
 20
106.974
 30
0.0
 11
175.56599999999989
 21
106.17400000000001
 31
0.0
  0
LINE
  5
291
  8
_________1
 62
     7
 10
174.309
 20
106.974
 30
0.0
 11
174.685
 21
106.17400000000001
 31
0.0
  0
LINE
  5
292
  8
_________1
 62
     7
 10
173.429
 20
106.974
 30
0.0
 11
173.804
 21
106.17400000000001
 31
0.0
  0
LINE
  5
293
  8
_________1
 62
     7
 10
172.547
 20
106.974
 30
0.0
 11
172.923
 21
106.17400000000001
 31
0.0
  0
LINE
  5
294
  8
_________1
 62
     7
 10
180.239
 20
106.795
 30
0.0
 11
181.149
 21
106.574
 31
0.0
  0
LINE
  5
295
  8
_________1
 62
     7
 10
181.149
 20
106.574
 30
0.0
 11
180.239
 21
106.354
 31
0.0
  0
LINE
  5
296
  8
_________1
 62
     7
 10
172.149
 20
106.795
 30
0.0
 11
172.149
 21
106.354
 31
0.0
  0
INSERT
  5
297
  8
_________1
 62
     7
  2
AIGNBL02010014
 10
0.0
 20
0.0
 30
0.0
  0
INSERT
  5
298
  8
_________1
 62
     7
  2
AIGNBL02010015
 10
0.0
 20
0.0
 30
0.0
  0
INSERT
  5
299
  8
_________1
 62
     7
  2
AIGNBL02010016
 10
0.0
 20
0.0
 30
0.0
  0
TEXT
  5
29A
  8
_________2
 62
     7
 10
109.179
 20
24.226099999999999
 30
0.0
 40
3.9357000000000002
  1
エディション11 タオルバー（600サイズ）
 41
0.5
  0
LINE
  5
29B
  8
_________2
 62
     7
 10
205.30099999999999
 20
127.411
 30
0.0
 11
183.55099999999999
 21
127.411
 31
0.0
  0
LINE
  5
29C
  8
_________2
 62
     7
 10
100.3
 20
-4.0910799999999998
 30
0.0
 11
100.3
 21
-21.071000000000002
 31
0.0
  0
LINE
  5
29D
  8
_________2
 62
     7
 10
100.3
 20
275.93099999999998
 30
0.0
 11
100.3
 21
258.911
 31
0.0
  0
LINE
  5
29E
  8
_________2
 62
     7
 10
17.049199999999999
 20
127.411
 30
0.0
 11
-4.7012099999999988
 21
127.411
 31
0.0
  0
INSERT
  5
29F
  8
_________2
 62
     7
  2
AIGNBL03010002
 10
0.0
 20
0.0
 30
0.0
  0
TEXT
  5
2A0
  8
_________2
 62
     7
 10
104.605
 20
1.6794899999999999
 30
0.0
 40
3.0923400000000001
  1
図番
 41
0.5
  0
LINE
  5
2A1
  8
_________2
 62
     7
 10
103.55
 20
5.9087199999999989
 30
0.0
 11
183.55099999999999
 21
5.9087199999999989
 31
0.0
  0
TEXT
  5
2A2
  8
_________2
 62
     7
 10
104.605
 20
11.6793
 30
0.0
 40
3.0923400000000001
  1
品番
 41
0.5
  0
TEXT
  5
2A3
  8
_________2
 62
     7
 10
104.605
 20
31.8184
 30
0.0
 40
3.0923400000000001
  1
名称
 41
0.5
  0
TEXT
  5
2A4
  8
_________2
 62
     7
 10
91.844758333333345
 20
26.822299999999998
 30
0.0
 40
3.6545800000000002
  1
mm
 41
0.5
 72
     1
 11
93.367500000000007
 21
26.822299999999998
 31
0.0
  0
TEXT
  5
2A5
  8
_________2
 62
     7
 10
85.642899999999983
 20
31.8184
 30
0.0
 40
3.0923400000000001
  1
単位
 41
0.5
  0
TEXT
  5
2A6
  8
_________2
 62
     7
 10
85.642899999999983
 20
19.410799999999998
 30
0.0
 40
3.0923400000000001
  1
尺度
 41
0.5
  0
TEXT
  5
2A7
  8
_________2
 62
     7
 10
90.548458666666676
 20
13.2182
 30
0.0
 40
3.6545800000000002
  1
1 ： 5
 41
0.5
 72
     1
 11
93.959400000000016
 21
13.2182
 31
0.0
  0
TEXT
  5
2A8
  8
_________2
 62
     7
 10
135.67859999999999
 20
9.1082000000000001
 30
0.0
 40
3.9357000000000002
  1
KC1110160R
 41
0.5
 72
     1
 11
143.55000000000001
 21
9.1082000000000001
 31
0.0
  0
TEXT
  5
2A9
  8
_________2
 62
     7
 10
135.67859999999999
 20
-0.8926299999999999
 30
0.0
 40
3.9357000000000002
  1
KC1110160R
 41
0.5
 72
     1
 11
143.55000000000001
 21
-0.8926299999999999
 31
0.0
  0
TEXT
  5
2AA
  8
_________2
 62
     7
 10
39.364090666666669
 20
13.603400000000001
 30
0.0
 40
3.6545800000000002
  1
井伊
 41
0.5
 72
     1
 11
41.313200000000002
 21
13.603400000000001
 31
0.0
  0
TEXT
  5
2AB
  8
_________2
 62
     7
 10
20.851000333333339
 20
13.603400000000001
 30
0.0
 40
3.6545800000000002
  1
福田
 41
0.5
 72
     1
 11
22.7392
 21
13.603400000000001
 31
0.0
  0
TEXT
  5
2AC
  8
_________2
 62
     7
 10
67.785399999999996
 20
13.2182
 30
0.0
 40
3.6545800000000002
  1
21.04.14
 41
0.5
  0
TEXT
  5
2AD
  8
_________2
 62
     7
 10
66.592699999999994
 20
19.410799999999998
 30
0.0
 40
3.0923400000000001
  1
日付
 41
0.5
  0
TEXT
  5
2AE
  8
_________2
 62
     7
 10
29.638999999999999
 20
19.410799999999998
 30
0.0
 40
3.0923400000000001
  1
検図
 41
0.5
  0
TEXT
  5
2AF
  8
_________2
 62
     7
 10
18.020700000000001
 20
5.21143
 30
0.0
 40
3.0923400000000001
  1
備考
 41
0.5
  0
TEXT
  5
2B0
  8
_________2
 62
     7
 10
18.020700000000001
 20
19.410799999999998
 30
0.0
 40
3.0923400000000001
  1
製図
 41
0.5
  0
TEXT
  5
2B1
  8
_________2
 62
     7
 10
23.788165333333339
 20
27.936800000000002
 30
0.0
 40
4.4979399999999989
  1
セラトレーディング株式会社
 41
0.5
 72
     1
 11
41.180199999999999
 21
27.936800000000002
 31
0.0
  0
LINE
  5
2B2
  8
_________2
 62
     7
 10
183.55099999999999
 20
-4.0910799999999998
 30
0.0
 11
17.049199999999999
 21
-4.0910799999999998
 31
0.0
  0
LINE
  5
2B3
  8
_________2
 62
     7
 10
17.049199999999999
 20
-4.0910799999999998
 30
0.0
 11
17.049199999999999
 21
258.911
 31
0.0
  0
LINE
  5
2B4
  8
_________2
 62
     7
 10
17.049199999999999
 20
258.911
 30
0.0
 11
183.55099999999999
 21
258.911
 31
0.0
  0
LINE
  5
2B5
  8
_________2
 62
     7
 10
183.55099999999999
 20
258.911
 30
0.0
 11
183.55099999999999
 21
-4.0910799999999998
 31
0.0
  0
LINE
  5
2B6
  8
_________2
 62
     7
 10
65.549599999999998
 20
9.4092999999999982
 30
0.0
 11
65.549599999999998
 21
35.909100000000002
 31
0.0
  0
LINE
  5
2B7
  8
_________2
 62
     7
 10
84.549400000000006
 20
9.4092999999999982
 30
0.0
 11
84.549400000000006
 21
35.909100000000002
 31
0.0
  0
LINE
  5
2B8
  8
_________2
 62
     7
 10
103.55
 20
-4.0910799999999998
 30
0.0
 11
103.55
 21
35.909100000000002
 31
0.0
  0
LINE
  5
2B9
  8
_________2
 62
     7
 10
28.548999999999999
 20
9.4092999999999982
 30
0.0
 11
28.548999999999999
 21
23.409199999999998
 31
0.0
  0
LINE
  5
2BA
  8
_________2
 62
     7
 10
17.049199999999999
 20
9.4092999999999982
 30
0.0
 11
103.55
 21
9.4092999999999982
 31
0.0
  0
LINE
  5
2BB
  8
_________2
 62
     7
 10
17.049199999999999
 20
23.409199999999998
 30
0.0
 11
103.55
 21
23.409199999999998
 31
0.0
  0
LINE
  5
2BC
  8
_________2
 62
     7
 10
103.55
 20
15.9085
 30
0.0
 11
183.55099999999999
 21
15.9085
 31
0.0
  0
LINE
  5
2BD
  8
_________2
 62
     7
 10
17.049199999999999
 20
35.909100000000002
 30
0.0
 11
183.55099999999999
 21
35.909100000000002
 31
0.0
  0
ENDSEC
  0
EOF
