  0
SECTION
  2
HEADER
  9
$ACADVER
  1
AC1009
  9
$INSBASE
 10
0.0
 20
0.0
 30
0.0
  9
$EXTMIN
 10
-4.7012099999999988
 20
-21.071000000000002
 30
0.0
  9
$EXTMAX
 10
205.30099999999999
 20
275.93099999999998
 30
0.0
  9
$LIMMIN
 10
0.0
 20
0.0
  9
$LIMMAX
 10
12.0
 20
9.0
  9
$ORTHOMODE
 70
     0
  9
$REGENMODE
 70
     1
  9
$FILLMODE
 70
     1
  9
$QTEXTMODE
 70
     0
  9
$MIRRTEXT
 70
     1
  9
$DRAGMODE
 70
     2
  9
$LTSCALE
 40
1.0
  9
$OSMODE
 70
    37
  9
$ATTMODE
 70
     1
  9
$TEXTSIZE
 40
0.0
  9
$TRACEWID
 40
0.05
  9
$TEXTSTYLE
  7
STANDARD
  9
$CLAYER
  8
0
  9
$CELTYPE
  6
CONTINUOUS
  9
$CECOLOR
 62
   256
  9
$DIMSCALE
 40
1.0
  9
$DIMASZ
 40
0.18
  9
$DIMEXO
 40
0.0625
  9
$DIMDLI
 40
0.38
  9
$DIMRND
 40
0.0
  9
$DIMDLE
 40
0.0
  9
$DIMEXE
 40
0.18
  9
$DIMTP
 40
0.0
  9
$DIMTM
 40
0.0
  9
$DIMTXT
 40
0.18
  9
$DIMCEN
 40
0.09
  9
$DIMTSZ
 40
0.0
  9
$DIMTOL
 70
     0
  9
$DIMLIM
 70
     0
  9
$DIMTIH
 70
     1
  9
$DIMTOH
 70
     1
  9
$DIMSE1
 70
     0
  9
$DIMSE2
 70
     0
  9
$DIMTAD
 70
     0
  9
$DIMZIN
 70
     0
  9
$DIMBLK
  1

  9
$DIMASO
 70
     1
  9
$DIMSHO
 70
     1
  9
$DIMPOST
  1

  9
$DIMAPOST
  1

  9
$DIMALT
 70
     0
  9
$DIMALTD
 70
     2
  9
$DIMALTF
 40
25.399999999999999
  9
$DIMLFAC
 40
1.0
  9
$DIMTOFL
 70
     0
  9
$DIMTVP
 40
0.0
  9
$DIMTIX
 70
     0
  9
$DIMSOXD
 70
     0
  9
$DIMSAH
 70
     0
  9
$DIMBLK1
  1

  9
$DIMBLK2
  1

  9
$DIMSTYLE
  2
STANDARD
  9
$DIMCLRD
 70
     0
  9
$DIMCLRE
 70
     0
  9
$DIMCLRT
 70
     0
  9
$DIMTFAC
 40
1.0
  9
$DIMGAP
 40
0.09
  9
$LUNITS
 70
     2
  9
$LUPREC
 70
     4
  9
$SKETCHINC
 40
0.1
  9
$FILLETRAD
 40
0.0
  9
$AUNITS
 70
     0
  9
$AUPREC
 70
     0
  9
$MENU
  1
.
  9
$ELEVATION
 40
0.0
  9
$PELEVATION
 40
0.0
  9
$THICKNESS
 40
0.0
  9
$LIMCHECK
 70
     0
  9
$BLIPMODE
 70
     0
  9
$CHAMFERA
 40
0.0
  9
$CHAMFERB
 40
0.0
  9
$SKPOLY
 70
     0
  9
$TDCREATE
 40
2444972.375
  9
$TDUPDATE
 40
2459326.2096731141
  9
$TDINDWG
 40
0.0000442593
  9
$TDUSRTIMER
 40
0.0000442593
  9
$USRTIMER
 70
     1
  9
$ANGBASE
 50
0.0
  9
$ANGDIR
 70
     0
  9
$PDMODE
 70
     0
  9
$PDSIZE
 40
0.0
  9
$PLINEWID
 40
0.0
  9
$COORDS
 70
     1
  9
$SPLFRAME
 70
     0
  9
$SPLINETYPE
 70
     6
  9
$SPLINESEGS
 70
     8
  9
$ATTDIA
 70
     1
  9
$ATTREQ
 70
     1
  9
$HANDLING
 70
     1
  9
$HANDSEED
  5
375
  9
$SURFTAB1
 70
     6
  9
$SURFTAB2
 70
     6
  9
$SURFTYPE
 70
     6
  9
$SURFU
 70
     6
  9
$SURFV
 70
     6
  9
$UCSNAME
  2

  9
$UCSORG
 10
0.0
 20
0.0
 30
0.0
  9
$UCSXDIR
 10
1.0
 20
0.0
 30
0.0
  9
$UCSYDIR
 10
0.0
 20
1.0
 30
0.0
  9
$PUCSNAME
  2

  9
$PUCSORG
 10
0.0
 20
0.0
 30
0.0
  9
$PUCSXDIR
 10
1.0
 20
0.0
 30
0.0
  9
$PUCSYDIR
 10
0.0
 20
1.0
 30
0.0
  9
$USERI1
 70
     0
  9
$USERI2
 70
     0
  9
$USERI3
 70
     0
  9
$USERI4
 70
     0
  9
$USERI5
 70
     0
  9
$USERR1
 40
0.0
  9
$USERR2
 40
0.0
  9
$USERR3
 40
0.0
  9
$USERR4
 40
0.0
  9
$USERR5
 40
0.0
  9
$WORLDVIEW
 70
     1
  9
$SHADEDGE
 70
     3
  9
$SHADEDIF
 70
    70
  9
$TILEMODE
 70
     1
  9
$MAXACTVP
 70
    48
  9
$PLIMCHECK
 70
     0
  9
$PEXTMIN
 10
1.0000000000000000E+020
 20
1.0000000000000000E+020
 30
1.0000000000000000E+020
  9
$PEXTMAX
 10
-1.0000000000000000E+020
 20
-1.0000000000000000E+020
 30
-1.0000000000000000E+020
  9
$PLIMMIN
 10
0.0
 20
0.0
  9
$PLIMMAX
 10
12.0
 20
9.0
  9
$UNITMODE
 70
     0
  9
$VISRETAIN
 70
     1
  9
$PLINEGEN
 70
     0
  9
$PSLTSCALE
 70
     1
  0
ENDSEC
  0
SECTION
  2
TABLES
  0
TABLE
  2
VPORT
 70
     1
  0
VPORT
  2
*ACTIVE
 70
     0
 10
0.0
 20
0.0
 11
1.0
 21
1.0
 12
154.64572753090971
 22
127.42999999999989
 13
0.0
 23
0.0
 14
1.0
 24
1.0
 15
0.0
 25
0.0
 16
0.0
 26
0.0
 36
1.0
 17
0.0
 27
0.0
 37
0.0
 40
257.19517121009682
 41
2.2294736842105261
 42
50.0
 43
0.0
 44
0.0
 50
0.0
 51
0.0
 71
     0
 72
   100
 73
     1
 74
     1
 75
     0
 76
     0
 77
     0
 78
     0
  0
ENDTAB
  0
TABLE
  2
LTYPE
 70
     3
  0
LTYPE
  2
CONTINUOUS
 70
     0
  3
Solid line
 72
    65
 73
     0
 40
0.0
  0
LTYPE
  2
AIGENLINE001
 70
     0
  3
generate AI->DXF Converter
 72
    65
 73
     2
 40
1.5522299999999991
 49
0.776115
 49
-0.776115
  0
LTYPE
  2
AIGENLINE002
 70
     0
  3
generate AI->DXF Converter
 72
    65
 73
     4
 40
5.8561449999999988
 49
3.5278
 49
-0.776115
 49
0.776115
 49
-0.776115
  0
ENDTAB
  0
TABLE
  2
LAYER
 70
     4
  0
LAYER
  2
0
 70
     0
 62
     7
  6
CONTINUOUS
  0
LAYER
  2
____
 70
     0
 62
     7
  6
CONTINUOUS
  0
LAYER
  2
_________1
 70
     0
 62
     7
  6
CONTINUOUS
  0
LAYER
  2
_________2
 70
     0
 62
     7
  6
CONTINUOUS
  0
ENDTAB
  0
TABLE
  2
STYLE
 70
     1
  0
STYLE
  2
STANDARD
 70
     0
 40
0.0
 41
0.0
 50
0.0
 71
     0
 42
0.0
  3
TXT
  4
EXTFONT.SHX
  0
ENDTAB
  0
TABLE
  2
VIEW
 70
     0
  0
ENDTAB
  0
TABLE
  2
UCS
 70
     0
  0
ENDTAB
  0
TABLE
  2
APPID
 70
     3
  0
APPID
  2
ACAD
 70
     0
  0
APPID
  2
ACAD_NAV_VCDISPLAY
 70
     0
  0
APPID
  2
ACAD_MLEADERVER
 70
     0
  0
ENDTAB
  0
TABLE
  2
DIMSTYLE
 70
     1
  0
DIMSTYLE
  2
STANDARD
 70
     0
  3

  4

  5

  6

  7

 40
1.0
 41
0.18
 42
0.0625
 43
0.38
 44
0.18
 45
0.0
 46
0.0
 47
0.0
 48
0.0
140
0.18
141
0.09
142
0.0
143
25.399999999999999
144
1.0
145
0.0
146
1.0
147
0.09
 71
     0
 72
     0
 73
     1
 74
     1
 75
     0
 76
     0
 77
     0
 78
     0
170
     0
171
     2
172
     0
173
     0
174
     0
175
     0
176
     0
177
     0
178
     0
  0
ENDTAB
  0
ENDSEC
  0
SECTION
  2
BLOCKS
  0
BLOCK
  8
0
  2
$MODEL_SPACE
 70
     0
 10
0.0
 20
0.0
 30
0.0
  3
$MODEL_SPACE
  1

  0
ENDBLK
  5
1A
  8
0
  0
BLOCK
 67
     1
  8
0
  2
$PAPER_SPACE
 70
     0
 10
0.0
 20
0.0
 30
0.0
  3
$PAPER_SPACE
  1

  0
ENDBLK
  5
17
 67
     1
  8
0
  0
BLOCK
  8
_________1
  2
AIGNBL02010002
 70
     0
 10
0.0
 20
0.0
 30
0.0
  3
AIGNBL02010002
  1

  0
LINE
  5
27
  8
_________1
 62
     7
 10
82.867500000000007
 20
206.07599999999999
 30
0.0
 11
82.802000000000007
 21
206.03899999999999
 31
0.0
  0
LINE
  5
28
  8
_________1
 62
     7
 10
82.802000000000007
 20
206.03899999999999
 30
0.0
 11
82.752399999999994
 21
205.98099999999999
 31
0.0
  0
LINE
  5
29
  8
_________1
 62
     7
 10
82.752399999999994
 20
205.98099999999999
 30
0.0
 11
82.726900000000001
 21
205.90799999999999
 31
0.0
  0
LINE
  5
2A
  8
_________1
 62
     7
 10
82.726900000000001
 20
205.90799999999999
 30
0.0
 11
82.726900000000001
 21
205.833
 31
0.0
  0
LINE
  5
2B
  8
_________1
 62
     7
 10
82.726900000000001
 20
205.833
 30
0.0
 11
82.752399999999994
 21
205.75999999999999
 31
0.0
  0
LINE
  5
2C
  8
_________1
 62
     7
 10
82.752399999999994
 20
205.75999999999999
 30
0.0
 11
82.802000000000007
 21
205.703
 31
0.0
  0
LINE
  5
2D
  8
_________1
 62
     7
 10
82.802000000000007
 20
205.703
 30
0.0
 11
82.867500000000007
 21
205.66499999999999
 31
0.0
  0
LINE
  5
2E
  8
_________1
 62
     7
 10
82.867500000000007
 20
205.66499999999999
 30
0.0
 11
82.941900000000004
 21
205.65199999999999
 31
0.0
  0
LINE
  5
2F
  8
_________1
 62
     7
 10
82.941900000000004
 20
205.65199999999999
 30
0.0
 11
83.017700000000005
 21
205.66499999999999
 31
0.0
  0
LINE
  5
30
  8
_________1
 62
     7
 10
83.017700000000005
 20
205.66499999999999
 30
0.0
 11
83.083100000000002
 21
205.703
 31
0.0
  0
LINE
  5
31
  8
_________1
 62
     7
 10
83.083100000000002
 20
205.703
 30
0.0
 11
83.131399999999999
 21
205.762
 31
0.0
  0
LINE
  5
32
  8
_________1
 62
     7
 10
83.131399999999999
 20
205.762
 30
0.0
 11
83.158199999999994
 21
205.833
 31
0.0
  0
LINE
  5
33
  8
_________1
 62
     7
 10
83.158199999999994
 20
205.833
 30
0.0
 11
83.158199999999994
 21
205.90799999999999
 31
0.0
  0
LINE
  5
34
  8
_________1
 62
     7
 10
83.158199999999994
 20
205.90799999999999
 30
0.0
 11
83.131399999999999
 21
205.98099999999999
 31
0.0
  0
LINE
  5
35
  8
_________1
 62
     7
 10
83.131399999999999
 20
205.98099999999999
 30
0.0
 11
83.083100000000002
 21
206.03899999999999
 31
0.0
  0
LINE
  5
36
  8
_________1
 62
     7
 10
83.083100000000002
 20
206.03899999999999
 30
0.0
 11
83.017700000000005
 21
206.07599999999999
 31
0.0
  0
LINE
  5
37
  8
_________1
 62
     7
 10
83.017700000000005
 20
206.07599999999999
 30
0.0
 11
82.941900000000004
 21
206.089
 31
0.0
  0
LINE
  5
38
  8
_________1
 62
     7
 10
82.941900000000004
 20
206.089
 30
0.0
 11
82.867500000000007
 21
206.07599999999999
 31
0.0
  0
LINE
  5
39
  8
_________1
 62
     7
 10
82.941900000000004
 20
206.167
 30
0.0
 11
83.034199999999998
 21
206.15100000000001
 31
0.0
  0
LINE
  5
3A
  8
_________1
 62
     7
 10
83.034199999999998
 20
206.15100000000001
 30
0.0
 11
83.116900000000001
 21
206.11000000000001
 31
0.0
  0
LINE
  5
3B
  8
_________1
 62
     7
 10
83.116900000000001
 20
206.11000000000001
 30
0.0
 11
83.182400000000015
 21
206.04599999999999
 31
0.0
  0
LINE
  5
3C
  8
_________1
 62
     7
 10
83.182400000000015
 20
206.04599999999999
 30
0.0
 11
83.223699999999994
 21
205.96299999999999
 31
0.0
  0
LINE
  5
3D
  8
_________1
 62
     7
 10
83.223699999999994
 20
205.96299999999999
 30
0.0
 11
83.238200000000006
 21
205.87100000000001
 31
0.0
  0
LINE
  5
3E
  8
_________1
 62
     7
 10
83.238200000000006
 20
205.87100000000001
 30
0.0
 11
83.223699999999994
 21
205.779
 31
0.0
  0
LINE
  5
3F
  8
_________1
 62
     7
 10
83.223699999999994
 20
205.779
 30
0.0
 11
83.182400000000015
 21
205.697
 31
0.0
  0
LINE
  5
40
  8
_________1
 62
     7
 10
83.182400000000015
 20
205.697
 30
0.0
 11
83.116900000000001
 21
205.631
 31
0.0
  0
LINE
  5
41
  8
_________1
 62
     7
 10
83.116900000000001
 20
205.631
 30
0.0
 11
83.034199999999998
 21
205.59
 31
0.0
  0
LINE
  5
42
  8
_________1
 62
     7
 10
83.034199999999998
 20
205.59
 30
0.0
 11
82.941900000000004
 21
205.57400000000001
 31
0.0
  0
LINE
  5
43
  8
_________1
 62
     7
 10
82.941900000000004
 20
205.57400000000001
 30
0.0
 11
82.850899999999996
 21
205.59
 31
0.0
  0
LINE
  5
44
  8
_________1
 62
     7
 10
82.850899999999996
 20
205.59
 30
0.0
 11
82.768299999999996
 21
205.631
 31
0.0
  0
LINE
  5
45
  8
_________1
 62
     7
 10
82.768299999999996
 20
205.631
 30
0.0
 11
82.702799999999996
 21
205.697
 31
0.0
  0
LINE
  5
46
  8
_________1
 62
     7
 10
82.702799999999996
 20
205.697
 30
0.0
 11
82.661500000000004
 21
205.779
 31
0.0
  0
LINE
  5
47
  8
_________1
 62
     7
 10
82.661500000000004
 20
205.779
 30
0.0
 11
82.646299999999997
 21
205.87100000000001
 31
0.0
  0
LINE
  5
48
  8
_________1
 62
     7
 10
82.646299999999997
 20
205.87100000000001
 30
0.0
 11
82.661500000000004
 21
205.96299999999999
 31
0.0
  0
LINE
  5
49
  8
_________1
 62
     7
 10
82.661500000000004
 20
205.96299999999999
 30
0.0
 11
82.702799999999996
 21
206.04599999999999
 31
0.0
  0
LINE
  5
4A
  8
_________1
 62
     7
 10
82.702799999999996
 20
206.04599999999999
 30
0.0
 11
82.768299999999996
 21
206.11000000000001
 31
0.0
  0
LINE
  5
4B
  8
_________1
 62
     7
 10
82.768299999999996
 20
206.11000000000001
 30
0.0
 11
82.850899999999996
 21
206.15100000000001
 31
0.0
  0
LINE
  5
4C
  8
_________1
 62
     7
 10
82.850899999999996
 20
206.15100000000001
 30
0.0
 11
82.941900000000004
 21
206.167
 31
0.0
  0
ENDBLK
  5
4D
  8
_________1
  0
BLOCK
  8
_________1
  2
AIGNBL02010003
 70
     0
 10
0.0
 20
0.0
 30
0.0
  3
AIGNBL02010003
  1

  0
LINE
  5
50
  8
_________1
 62
     7
 10
52.613100000000003
 20
44.370399999999989
 30
0.0
 11
53.2057
 21
42.1586
 31
0.0
  0
LINE
  5
51
  8
_________1
 62
     7
 10
53.2057
 20
42.1586
 30
0.0
 11
53.798299999999998
 21
44.370399999999989
 31
0.0
  0
LINE
  5
52
  8
_________1
 62
     7
 10
53.798299999999998
 20
44.370399999999989
 30
0.0
 11
52.613100000000003
 21
44.370399999999989
 31
0.0
  0
LINE
  5
53
  8
_________1
 62
     7
 10
53.783799999999992
 20
204.351
 30
0.0
 11
53.191200000000002
 21
206.56200000000001
 31
0.0
  0
LINE
  5
54
  8
_________1
 62
     7
 10
53.191200000000002
 20
206.56200000000001
 30
0.0
 11
52.598700000000001
 21
204.351
 31
0.0
  0
LINE
  5
55
  8
_________1
 62
     7
 10
52.598700000000001
 20
204.351
 30
0.0
 11
53.783799999999992
 21
204.351
 31
0.0
  0
LINE
  5
56
  8
_________1
 62
     7
 10
53.198799999999999
 20
42.159999999999997
 30
0.0
 11
53.198799999999999
 21
206.56100000000001
 31
0.0
  0
ENDBLK
  5
57
  8
_________1
  0
BLOCK
  8
_________1
  2
AIGNBL02010004
 70
     0
 10
0.0
 20
0.0
 30
0.0
  3
AIGNBL02010004
  1

  0
LINE
  5
5A
  8
_________1
 62
     7
 10
63.204799999999992
 20
46.580099999999987
 30
0.0
 11
63.797400000000003
 21
44.368299999999991
 31
0.0
  0
LINE
  5
5B
  8
_________1
 62
     7
 10
63.797400000000003
 20
44.368299999999991
 30
0.0
 11
64.389899999999997
 21
46.580099999999987
 31
0.0
  0
LINE
  5
5C
  8
_________1
 62
     7
 10
64.389899999999997
 20
46.580099999999987
 30
0.0
 11
63.204799999999992
 21
46.580099999999987
 31
0.0
  0
LINE
  5
5D
  8
_________1
 62
     7
 10
64.375500000000002
 20
202.14099999999999
 30
0.0
 11
63.782899999999991
 21
204.35300000000001
 31
0.0
  0
LINE
  5
5E
  8
_________1
 62
     7
 10
63.782899999999991
 20
204.35300000000001
 30
0.0
 11
63.190300000000001
 21
202.14099999999999
 31
0.0
  0
LINE
  5
5F
  8
_________1
 62
     7
 10
63.190300000000001
 20
202.14099999999999
 30
0.0
 11
64.375500000000002
 21
202.14099999999999
 31
0.0
  0
LINE
  5
60
  8
_________1
 62
     7
 10
63.7898
 20
44.369700000000002
 30
0.0
 11
63.7898
 21
204.351
 31
0.0
  0
ENDBLK
  5
61
  8
_________1
  0
BLOCK
  8
_________1
  2
AIGNBL02010005
 70
     0
 10
0.0
 20
0.0
 30
0.0
  3
AIGNBL02010005
  1

  0
ARC
  5
64
  8
_________1
 62
     7
 10
134.220426
 20
54.315795999999999
 30
0.0
 40
0.054364
 50
88.947867000000002
 51
137.909493
  0
ARC
  5
65
  8
_________1
 62
     7
 10
134.22267099999999
 20
54.309260999999999
 30
0.0
 40
0.060503
 50
134.740579
 51
179.75743299999999
  0
ENDBLK
  5
66
  8
_________1
  0
BLOCK
  8
_________1
  2
AIGNBL02010006
 70
     0
 10
0.0
 20
0.0
 30
0.0
  3
AIGNBL02010006
  1

  0
ARC
  5
69
  8
_________1
 62
     7
 10
140.33546299999989
 20
194.41153499999999
 30
0.0
 40
0.060757
 50
269.68499800000001
 51
314.23614500000002
  0
ARC
  5
6A
  8
_________1
 62
     7
 10
140.333968
 20
194.41152099999999
 30
0.0
 40
0.0618
 50
315.23799500000001
 51
359.26005700000002
  0
ENDBLK
  5
6B
  8
_________1
  0
BLOCK
  8
_________1
  2
AIGNBL02010007
 70
     0
 10
0.0
 20
0.0
 30
0.0
  3
AIGNBL02010007
  1

  0
ARC
  5
6E
  8
_________1
  6
AIGENLINE001
 62
     7
 10
138.979131
 20
44.218768999999988
 30
0.0
 40
0.5002310000000002
 50
179.99996999999999
 51
270.00002000000001
  0
ARC
  5
6F
  8
_________1
  6
AIGENLINE001
 62
     7
 10
138.95979
 20
44.238109999999992
 30
0.0
 40
0.5199310000000001
 50
272.13181300000002
 51
357.86819700000001
  0
ENDBLK
  5
70
  8
_________1
  0
BLOCK
  8
_________1
  2
AIGNBL02010008
 70
     0
 10
0.0
 20
0.0
 30
0.0
  3
AIGNBL02010008
  1

  0
ARC
  5
73
  8
_________1
  6
AIGENLINE001
 62
     7
 10
138.96735200000001
 20
44.512152999999998
 30
0.0
 40
0.512059
 50
0.7867180000000001
 51
59.328893999999991
  0
ARC
  5
74
  8
_________1
  6
AIGENLINE001
 62
     7
 10
138.97878700000001
 20
44.506719999999987
 30
0.0
 40
0.5110540000000001
 50
60.742378000000002
 51
119.25760200000001
  0
ARC
  5
75
  8
_________1
  6
AIGENLINE001
 62
     7
 10
138.99043599999999
 20
44.512841999999992
 30
0.0
 40
0.511576
 50
120.731184
 51
179.28973400000001
  0
ENDBLK
  5
76
  8
_________1
  0
BLOCK
  8
_________1
  2
AIGNBL02010009
 70
     0
 10
0.0
 20
0.0
 30
0.0
  3
AIGNBL02010009
  1

  0
ARC
  5
79
  8
_________1
  6
AIGENLINE001
 62
     7
 10
135.709667
 20
44.389006000000002
 30
0.0
 40
0.5199310000000001
 50
272.13181300000002
 51
357.86819700000001
  0
ARC
  5
7A
  8
_________1
  6
AIGENLINE001
 62
     7
 10
135.710364
 20
44.350307000000001
 30
0.0
 40
0.5192350000000001
 50
2.136636999999999
 51
87.942328000000003
  0
ENDBLK
  5
7B
  8
_________1
  0
BLOCK
  8
_________1
  2
AIGNBL0201000A
 70
     0
 10
0.0
 20
0.0
 30
0.0
  3
AIGNBL0201000A
  1

  0
ARC
  5
7E
  8
_________1
  6
AIGENLINE001
 62
     7
 10
135.44749100000001
 20
44.350766999999991
 30
0.0
 40
0.5187840000000001
 50
92.087583999999978
 51
177.912386
  0
ARC
  5
7F
  8
_________1
  6
AIGENLINE001
 62
     7
 10
135.44858600000001
 20
44.388942
 30
0.0
 40
0.5198920000000001
 50
182.1249139999999
 51
267.79614099999998
  0
ENDBLK
  5
80
  8
_________1
  0
BLOCK
  8
_________1
  2
AIGNBL0201000B
 70
     0
 10
0.0
 20
0.0
 30
0.0
  3
AIGNBL0201000B
  1

  0
ARC
  5
83
  8
_________1
  6
AIGENLINE001
 62
     7
 10
138.99776399999999
 20
204.220406
 30
0.0
 40
0.5192250000000001
 50
182.13556199999999
 51
267.943442
  0
ARC
  5
84
  8
_________1
  6
AIGENLINE001
 62
     7
 10
138.95983899999999
 20
204.22106600000001
 30
0.0
 40
0.5199080000000002
 50
272.12654500000002
 51
357.79449099999999
  0
ENDBLK
  5
85
  8
_________1
  0
BLOCK
  8
_________1
  2
AIGNBL0201000C
 70
     0
 10
0.0
 20
0.0
 30
0.0
  3
AIGNBL0201000C
  1

  0
ARC
  5
88
  8
_________1
  6
AIGENLINE001
 62
     7
 10
138.97115099999999
 20
204.49525299999999
 30
0.0
 40
0.5082410000000001
 50
0.623373
 51
59.571311999999992
  0
ARC
  5
89
  8
_________1
  6
AIGENLINE001
 62
     7
 10
138.97878700000001
 20
204.49201199999999
 30
0.0
 40
0.5072350000000001
 50
60.500461999999999
 51
119.49951799999999
  0
ARC
  5
8A
  8
_________1
  6
AIGENLINE001
 62
     7
 10
138.98920000000001
 20
204.49445600000001
 30
0.0
 40
0.510339
 50
120.652264
 51
179.28969000000001
  0
ENDBLK
  5
8B
  8
_________1
  0
BLOCK
  8
_________1
  2
AIGNBL0201000D
 70
     0
 10
0.0
 20
0.0
 30
0.0
  3
AIGNBL0201000D
  1

  0
ARC
  5
8E
  8
_________1
  6
AIGENLINE001
 62
     7
 10
135.709667
 20
204.37060500000001
 30
0.0
 40
0.5199310000000001
 50
272.13181300000002
 51
357.86819700000001
  0
ARC
  5
8F
  8
_________1
  6
AIGENLINE001
 62
     7
 10
135.710374
 20
204.33191600000001
 30
0.0
 40
0.5192250000000001
 50
2.1355430000000002
 51
87.943421999999998
  0
ENDBLK
  5
90
  8
_________1
  0
BLOCK
  8
_________1
  2
AIGNBL0201000E
 70
     0
 10
0.0
 20
0.0
 30
0.0
  3
AIGNBL0201000E
  1

  0
ARC
  5
93
  8
_________1
  6
AIGENLINE001
 62
     7
 10
135.44788199999999
 20
204.331975
 30
0.0
 40
0.51919
 50
92.129161999999994
 51
177.87080800000001
  0
ARC
  5
94
  8
_________1
  6
AIGENLINE001
 62
     7
 10
135.44859099999999
 20
204.37054599999999
 30
0.0
 40
0.5198970000000001
 50
182.125461
 51
267.79559499999999
  0
ENDBLK
  5
95
  8
_________1
  0
BLOCK
  8
_________1
  2
AIGNBL0201000F
 70
     0
 10
0.0
 20
0.0
 30
0.0
  3
AIGNBL0201000F
  1

  0
LINE
  5
98
  8
_________1
 62
     7
 10
141.191
 20
249.72999999999999
 30
0.0
 11
138.97900000000001
 21
249.137
 31
0.0
  0
LINE
  5
99
  8
_________1
 62
     7
 10
138.97900000000001
 20
249.137
 30
0.0
 11
141.191
 21
248.54499999999999
 31
0.0
  0
LINE
  5
9A
  8
_________1
 62
     7
 10
141.191
 20
248.54499999999999
 30
0.0
 11
141.191
 21
249.72999999999999
 31
0.0
  0
LINE
  5
9B
  8
_________1
 62
     7
 10
133.36699999999999
 20
248.54499999999999
 30
0.0
 11
135.57900000000001
 21
249.137
 31
0.0
  0
LINE
  5
9C
  8
_________1
 62
     7
 10
135.57900000000001
 20
249.137
 30
0.0
 11
133.36699999999999
 21
249.72999999999999
 31
0.0
  0
LINE
  5
9D
  8
_________1
 62
     7
 10
133.36699999999999
 20
249.72999999999999
 30
0.0
 11
133.36699999999999
 21
248.54499999999999
 31
0.0
  0
LINE
  5
9E
  8
_________1
 62
     7
 10
129.25200000000001
 20
249.137
 30
0.0
 11
142.60499999999999
 21
249.137
 31
0.0
  0
ENDBLK
  5
9F
  8
_________1
  0
BLOCK
  8
_________1
  2
AIGNBL02010010
 70
     0
 10
0.0
 20
0.0
 30
0.0
  3
AIGNBL02010010
  1

  0
LINE
  5
A2
  8
_________1
 62
     7
 10
84.247600000000006
 20
214.255
 30
0.0
 11
82.035799999999995
 21
213.66200000000001
 31
0.0
  0
LINE
  5
A3
  8
_________1
 62
     7
 10
82.035799999999995
 20
213.66200000000001
 30
0.0
 11
84.247600000000006
 21
213.06999999999999
 31
0.0
  0
LINE
  5
A4
  8
_________1
 62
     7
 10
84.247600000000006
 20
213.06999999999999
 30
0.0
 11
84.247600000000006
 21
214.255
 31
0.0
  0
LINE
  5
A5
  8
_________1
 62
     7
 10
91.8262
 20
213.084
 30
0.0
 11
94.037899999999979
 21
213.67699999999999
 31
0.0
  0
LINE
  5
A6
  8
_________1
 62
     7
 10
94.037899999999979
 20
213.67699999999999
 30
0.0
 11
91.8262
 21
214.26900000000001
 31
0.0
  0
LINE
  5
A7
  8
_________1
 62
     7
 10
91.8262
 20
214.26900000000001
 30
0.0
 11
91.8262
 21
213.084
 31
0.0
  0
LINE
  5
A8
  8
_________1
 62
     7
 10
82.037199999999999
 20
213.66999999999999
 30
0.0
 11
94.037199999999984
 21
213.66999999999999
 31
0.0
  0
ENDBLK
  5
A9
  8
_________1
  0
BLOCK
  8
_________1
  2
AIGNBL02010011
 70
     0
 10
0.0
 20
0.0
 30
0.0
  3
AIGNBL02010011
  1

  0
LINE
  5
AC
  8
_________1
 62
     7
 10
138.369
 20
213.084
 30
0.0
 11
140.58000000000001
 21
213.67699999999999
 31
0.0
  0
LINE
  5
AD
  8
_________1
 62
     7
 10
140.58000000000001
 20
213.67699999999999
 30
0.0
 11
138.369
 21
214.26900000000001
 31
0.0
  0
LINE
  5
AE
  8
_________1
 62
     7
 10
138.369
 20
214.26900000000001
 30
0.0
 11
138.369
 21
213.084
 31
0.0
  0
LINE
  5
AF
  8
_________1
 62
     7
 10
136.18899999999999
 20
214.255
 30
0.0
 11
133.97799999999989
 21
213.66200000000001
 31
0.0
  0
LINE
  5
B0
  8
_________1
 62
     7
 10
133.97799999999989
 20
213.66200000000001
 30
0.0
 11
136.18899999999999
 21
213.06999999999999
 31
0.0
  0
LINE
  5
B1
  8
_________1
 62
     7
 10
136.18899999999999
 20
213.06999999999999
 30
0.0
 11
136.18899999999999
 21
214.255
 31
0.0
  0
LINE
  5
B2
  8
_________1
 62
     7
 10
140.57900000000001
 20
213.66999999999999
 30
0.0
 11
133.97900000000001
 21
213.66999999999999
 31
0.0
  0
ENDBLK
  5
B3
  8
_________1
  0
BLOCK
  8
_________1
  2
AIGNBL02010012
 70
     0
 10
0.0
 20
0.0
 30
0.0
  3
AIGNBL02010012
  1

  0
LINE
  5
B6
  8
_________1
 62
     7
 10
133.02099999999999
 20
235.833
 30
0.0
 11
135.179
 21
235.06899999999999
 31
0.0
  0
LINE
  5
B7
  8
_________1
 62
     7
 10
135.179
 20
235.06899999999999
 30
0.0
 11
133.69300000000001
 21
236.81
 31
0.0
  0
LINE
  5
B8
  8
_________1
 62
     7
 10
133.69300000000001
 20
236.81
 30
0.0
 11
133.02099999999999
 21
235.833
 31
0.0
  0
LINE
  5
B9
  8
_________1
 62
     7
 10
135.17400000000001
 20
235.06299999999999
 30
0.0
 11
126.208
 21
241.24100000000001
 31
0.0
  0
ENDBLK
  5
BA
  8
_________1
  0
BLOCK
  8
_________1
  2
AIGNBL02010013
 70
     0
 10
0.0
 20
0.0
 30
0.0
  3
AIGNBL02010013
  1

  0
LINE
  5
BD
  8
_________1
 62
     7
 10
126.208
 20
241.24100000000001
 30
0.0
 11
87.667699999999996
 21
241.24100000000001
 31
0.0
  0
ENDBLK
  5
BE
  8
_________1
  0
BLOCK
  8
_________1
  2
AIGNBL02010014
 70
     0
 10
0.0
 20
0.0
 30
0.0
  3
AIGNBL02010014
  1

  0
LINE
  5
C1
  8
_________1
 62
     7
 10
82.037199999999999
 20
204.131
 30
0.0
 11
82.037199999999999
 21
204.351
 31
0.0
  0
LINE
  5
C2
  8
_________1
 62
     7
 10
82.037199999999999
 20
204.351
 30
0.0
 11
82.037199999999999
 21
204.572
 31
0.0
  0
LINE
  5
C3
  8
_________1
  6
AIGENLINE002
 62
     7
 10
82.387200000000007
 20
204.351
 30
0.0
 11
70.194999999999993
 21
204.351
 31
0.0
  0
LINE
  5
C4
  8
_________1
 62
     7
 10
82.037199999999999
 20
204.131
 30
0.0
 11
71.947100000000006
 21
204.131
 31
0.0
  0
LINE
  5
C5
  8
_________1
 62
     7
 10
82.037199999999999
 20
204.572
 30
0.0
 11
71.947100000000006
 21
204.572
 31
0.0
  0
LINE
  5
C6
  8
_________1
 62
     7
 10
72.589299999999994
 20
203.952
 30
0.0
 11
72.213800000000006
 21
204.75200000000001
 31
0.0
  0
LINE
  5
C7
  8
_________1
 62
     7
 10
73.470600000000005
 20
203.952
 30
0.0
 11
73.095100000000002
 21
204.75200000000001
 31
0.0
  0
LINE
  5
C8
  8
_________1
 62
     7
 10
74.351799999999983
 20
203.952
 30
0.0
 11
73.976299999999995
 21
204.75200000000001
 31
0.0
  0
LINE
  5
C9
  8
_________1
 62
     7
 10
75.233099999999993
 20
203.952
 30
0.0
 11
74.857600000000005
 21
204.75200000000001
 31
0.0
  0
LINE
  5
CA
  8
_________1
 62
     7
 10
76.114400000000003
 20
203.952
 30
0.0
 11
75.738799999999983
 21
204.75200000000001
 31
0.0
  0
LINE
  5
CB
  8
_________1
 62
     7
 10
76.994900000000001
 20
203.952
 30
0.0
 11
76.620099999999994
 21
204.75200000000001
 31
0.0
  0
LINE
  5
CC
  8
_________1
 62
     7
 10
77.876199999999997
 20
203.952
 30
0.0
 11
77.501400000000004
 21
204.75200000000001
 31
0.0
  0
LINE
  5
CD
  8
_________1
 62
     7
 10
78.757400000000004
 20
203.952
 30
0.0
 11
78.381900000000002
 21
204.75200000000001
 31
0.0
  0
LINE
  5
CE
  8
_________1
 62
     7
 10
79.6387
 20
203.952
 30
0.0
 11
79.263199999999998
 21
204.75200000000001
 31
0.0
  0
LINE
  5
CF
  8
_________1
 62
     7
 10
71.947100000000006
 20
204.131
 30
0.0
 11
71.036900000000003
 21
204.351
 31
0.0
  0
LINE
  5
D0
  8
_________1
 62
     7
 10
71.036900000000003
 20
204.351
 30
0.0
 11
71.947100000000006
 21
204.572
 31
0.0
  0
LINE
  5
D1
  8
_________1
 62
     7
 10
80.037000000000006
 20
204.131
 30
0.0
 11
80.037000000000006
 21
204.572
 31
0.0
  0
ENDBLK
  5
D2
  8
_________1
  0
BLOCK
  8
_________1
  2
AIGNBL02010015
 70
     0
 10
0.0
 20
0.0
 30
0.0
  3
AIGNBL02010015
  1

  0
LINE
  5
D5
  8
_________1
 62
     7
 10
82.037199999999999
 20
44.1492
 30
0.0
 11
82.037199999999999
 21
44.369700000000002
 31
0.0
  0
LINE
  5
D6
  8
_________1
 62
     7
 10
82.037199999999999
 20
44.369700000000002
 30
0.0
 11
82.037199999999999
 21
44.589500000000001
 31
0.0
  0
LINE
  5
D7
  8
_________1
  6
AIGENLINE002
 62
     7
 10
82.722099999999983
 20
44.369700000000002
 30
0.0
 11
70.194999999999993
 21
44.369700000000002
 31
0.0
  0
LINE
  5
D8
  8
_________1
 62
     7
 10
82.037199999999999
 20
44.1492
 30
0.0
 11
71.947100000000006
 21
44.1492
 31
0.0
  0
LINE
  5
D9
  8
_________1
 62
     7
 10
82.037199999999999
 20
44.589500000000001
 30
0.0
 11
71.947100000000006
 21
44.589500000000001
 31
0.0
  0
LINE
  5
DA
  8
_________1
 62
     7
 10
72.589299999999994
 20
43.969299999999997
 30
0.0
 11
72.213800000000006
 21
44.769300000000001
 31
0.0
  0
LINE
  5
DB
  8
_________1
 62
     7
 10
73.470600000000005
 20
43.969299999999997
 30
0.0
 11
73.095100000000002
 21
44.769300000000001
 31
0.0
  0
LINE
  5
DC
  8
_________1
 62
     7
 10
74.351799999999983
 20
43.969299999999997
 30
0.0
 11
73.976299999999995
 21
44.769300000000001
 31
0.0
  0
LINE
  5
DD
  8
_________1
 62
     7
 10
75.233099999999993
 20
43.969299999999997
 30
0.0
 11
74.857600000000005
 21
44.769300000000001
 31
0.0
  0
LINE
  5
DE
  8
_________1
 62
     7
 10
76.114400000000003
 20
43.969299999999997
 30
0.0
 11
75.738799999999983
 21
44.769300000000001
 31
0.0
  0
LINE
  5
DF
  8
_________1
 62
     7
 10
76.994900000000001
 20
43.969299999999997
 30
0.0
 11
76.620099999999994
 21
44.769300000000001
 31
0.0
  0
LINE
  5
E0
  8
_________1
 62
     7
 10
77.876199999999997
 20
43.969299999999997
 30
0.0
 11
77.501400000000004
 21
44.769300000000001
 31
0.0
  0
LINE
  5
E1
  8
_________1
 62
     7
 10
78.757400000000004
 20
43.969299999999997
 30
0.0
 11
78.381900000000002
 21
44.769300000000001
 31
0.0
  0
LINE
  5
E2
  8
_________1
 62
     7
 10
79.6387
 20
43.969299999999997
 30
0.0
 11
79.263199999999998
 21
44.769300000000001
 31
0.0
  0
LINE
  5
E3
  8
_________1
 62
     7
 10
71.947100000000006
 20
44.1492
 30
0.0
 11
71.036900000000003
 21
44.369700000000002
 31
0.0
  0
LINE
  5
E4
  8
_________1
 62
     7
 10
71.036900000000003
 20
44.369700000000002
 30
0.0
 11
71.947100000000006
 21
44.589500000000001
 31
0.0
  0
LINE
  5
E5
  8
_________1
 62
     7
 10
80.037000000000006
 20
44.1492
 30
0.0
 11
80.037000000000006
 21
44.589500000000001
 31
0.0
  0
ENDBLK
  5
E6
  8
_________1
  0
BLOCK
  8
_________1
  2
AIGNBL02010016
 70
     0
 10
0.0
 20
0.0
 30
0.0
  3
AIGNBL02010016
  1

  0
LINE
  5
E9
  8
_________1
 62
     7
 10
135.358
 20
231.78899999999999
 30
0.0
 11
135.57900000000001
 21
231.78899999999999
 31
0.0
  0
LINE
  5
EA
  8
_________1
 62
     7
 10
135.57900000000001
 20
231.78899999999999
 30
0.0
 11
135.79900000000001
 21
231.78899999999999
 31
0.0
  0
LINE
  5
EB
  8
_________1
  6
AIGENLINE002
 62
     7
 10
135.57900000000001
 20
231.10400000000001
 30
0.0
 11
135.57900000000001
 21
243.631
 31
0.0
  0
LINE
  5
EC
  8
_________1
 62
     7
 10
135.358
 20
231.78899999999999
 30
0.0
 11
135.358
 21
241.87899999999999
 31
0.0
  0
LINE
  5
ED
  8
_________1
 62
     7
 10
135.79900000000001
 20
231.78899999999999
 30
0.0
 11
135.79900000000001
 21
241.87899999999999
 31
0.0
  0
LINE
  5
EE
  8
_________1
 62
     7
 10
135.179
 20
241.23699999999999
 30
0.0
 11
135.97900000000001
 21
241.61199999999999
 31
0.0
  0
LINE
  5
EF
  8
_________1
 62
     7
 10
135.179
 20
240.35499999999999
 30
0.0
 11
135.97900000000001
 21
240.72999999999999
 31
0.0
  0
LINE
  5
F0
  8
_________1
 62
     7
 10
135.179
 20
239.47399999999999
 30
0.0
 11
135.97900000000001
 21
239.84999999999999
 31
0.0
  0
LINE
  5
F1
  8
_________1
 62
     7
 10
135.179
 20
238.59299999999999
 30
0.0
 11
135.97900000000001
 21
238.96799999999999
 31
0.0
  0
LINE
  5
F2
  8
_________1
 62
     7
 10
135.179
 20
237.71199999999999
 30
0.0
 11
135.97900000000001
 21
238.08699999999999
 31
0.0
  0
LINE
  5
F3
  8
_________1
 62
     7
 10
135.179
 20
236.83000000000001
 30
0.0
 11
135.97900000000001
 21
237.20599999999999
 31
0.0
  0
LINE
  5
F4
  8
_________1
 62
     7
 10
135.179
 20
235.94900000000001
 30
0.0
 11
135.97900000000001
 21
236.32499999999999
 31
0.0
  0
LINE
  5
F5
  8
_________1
 62
     7
 10
135.179
 20
235.06899999999999
 30
0.0
 11
135.97900000000001
 21
235.44399999999999
 31
0.0
  0
LINE
  5
F6
  8
_________1
 62
     7
 10
135.179
 20
234.18700000000001
 30
0.0
 11
135.97900000000001
 21
234.56299999999999
 31
0.0
  0
LINE
  5
F7
  8
_________1
 62
     7
 10
135.358
 20
241.87899999999999
 30
0.0
 11
135.57900000000001
 21
242.78899999999999
 31
0.0
  0
LINE
  5
F8
  8
_________1
 62
     7
 10
135.57900000000001
 20
242.78899999999999
 30
0.0
 11
135.79900000000001
 21
241.87899999999999
 31
0.0
  0
LINE
  5
F9
  8
_________1
 62
     7
 10
135.358
 20
233.78899999999999
 30
0.0
 11
135.79900000000001
 21
233.78899999999999
 31
0.0
  0
ENDBLK
  5
FA
  8
_________1
  0
BLOCK
  8
_________2
  2
AIGNBL03010002
 70
     0
 10
0.0
 20
0.0
 30
0.0
  3
AIGNBL03010002
  1

  0
LINE
  5
FD
  8
_________2
 62
     7
 10
76.740700000000004
 20
29.8047
 30
0.0
 11
74.554400000000001
 21
29.8047
 31
0.0
  0
LINE
  5
FE
  8
_________2
 62
     7
 10
77.2333
 20
29.8047
 30
0.0
 11
76.981099999999984
 21
29.8047
 31
0.0
  0
LINE
  5
FF
  8
_________2
 62
     7
 10
77.725999999999999
 20
29.8047
 30
0.0
 11
80.650899999999993
 21
29.8047
 31
0.0
  0
LINE
  5
100
  8
_________2
 62
     7
 10
77.2333
 20
29.8047
 30
0.0
 11
77.485500000000002
 21
29.8047
 31
0.0
  0
LINE
  5
101
  8
_________2
 62
     7
 10
70.837100000000007
 20
29.8047
 30
0.0
 11
68.650199999999998
 21
29.8047
 31
0.0
  0
LINE
  5
102
  8
_________2
 62
     7
 10
71.329099999999997
 20
29.8047
 30
0.0
 11
71.077600000000004
 21
29.8047
 31
0.0
  0
LINE
  5
103
  8
_________2
 62
     7
 10
71.329099999999997
 20
30.2974
 30
0.0
 11
71.329099999999997
 21
32.484400000000001
 31
0.0
  0
LINE
  5
104
  8
_________2
 62
     7
 10
71.329099999999997
 20
29.8047
 30
0.0
 11
71.329099999999997
 21
30.057300000000001
 31
0.0
  0
LINE
  5
105
  8
_________2
 62
     7
 10
71.821700000000007
 20
29.8047
 30
0.0
 11
74.008700000000005
 21
29.8047
 31
0.0
  0
LINE
  5
106
  8
_________2
 62
     7
 10
71.329099999999997
 20
29.8047
 30
0.0
 11
71.581299999999985
 21
29.8047
 31
0.0
  0
LINE
  5
107
  8
_________2
 62
     7
 10
71.329099999999997
 20
29.312799999999999
 30
0.0
 11
71.329099999999997
 21
27.126200000000001
 31
0.0
  0
LINE
  5
108
  8
_________2
 62
     7
 10
71.329099999999997
 20
29.8047
 30
0.0
 11
71.329099999999997
 21
29.5532
 31
0.0
  0
LINE
  5
109
  8
_________2
 62
     7
 10
75.040199999999999
 20
28.5852
 30
0.0
 11
80.218199999999996
 21
27.720400000000001
 31
0.0
  0
LINE
  5
10A
  8
_________2
 62
     7
 10
75.040199999999999
 20
31.024699999999999
 30
0.0
 11
80.218199999999996
 21
31.8901
 31
0.0
  0
LINE
  5
10B
  8
_________2
 62
     7
 10
80.218199999999996
 20
27.720400000000001
 30
0.0
 11
80.218199999999996
 21
31.8901
 31
0.0
  0
LINE
  5
10C
  8
_________2
 62
     7
 10
75.040199999999999
 20
28.5852
 30
0.0
 11
75.040199999999999
 21
31.024699999999999
 31
0.0
  0
ARC
  5
10D
  8
_________2
 62
     7
 10
71.282501999999994
 20
29.757801000000001
 30
0.0
 40
1.267714
 50
2.1220840000000001
 51
87.894083999999992
  0
ARC
  5
10E
  8
_________2
 62
     7
 10
71.375640000000004
 20
29.758545999999999
 30
0.0
 40
1.2669680000000001
 50
92.105782999999988
 51
177.91037
  0
ARC
  5
10F
  8
_________2
 62
     7
 10
71.376013999999998
 20
29.851671
 30
0.0
 40
1.2673680000000001
 50
182.12203600000001
 51
267.877993
  0
ARC
  5
110
  8
_________2
 62
     7
 10
71.282195999999999
 20
29.852347999999999
 30
0.0
 40
1.2680439999999991
 50
272.11916400000001
 51
357.84848499999998
  0
ARC
  5
111
  8
_________2
 62
     7
 10
71.248716999999985
 20
29.724731999999999
 30
0.0
 40
2.1668310000000002
 50
2.1161439999999989
 51
87.874379000000005
  0
ARC
  5
112
  8
_________2
 62
     7
 10
71.408756000000011
 20
29.726146
 30
0.0
 40
2.165392999999999
 50
92.108508999999998
 51
177.91986499999999
  0
ARC
  5
113
  8
_________2
 62
     7
 10
71.409094999999994
 20
29.884751999999999
 30
0.0
 40
2.1657829999999998
 50
182.117133
 51
267.88289700000001
  0
ARC
  5
114
  8
_________2
 62
     7
 10
71.249115000000003
 20
29.885429999999999
 30
0.0
 40
2.1664590000000001
 50
272.11546800000002
 51
357.86560400000002
  0
ENDBLK
  5
115
  8
_________2
  0
ENDSEC
  0
SECTION
  2
ENTITIES
  0
TEXT
  5
116
  8
____
 62
     7
 10
63.089700000000001
 20
122.556135
 30
0.0
 40
3.0923400000000001
  1
800
 50
90.0
 41
0.5
 72
     1
 11
63.089700000000001
 21
124.36
 31
0.0
  0
TEXT
  5
117
  8
____
 62
     7
 10
52.498800000000003
 20
122.29844
 30
0.0
 40
3.0923400000000001
  1
822
 50
90.0
 41
0.5
 72
     1
 11
52.498800000000003
 21
124.36
 31
0.0
  0
TEXT
  5
118
  8
____
 62
     7
 10
87.667699999999996
 20
237.0
 30
0.0
 40
3.0923400000000001
  1
（%%c6\U+00D750 樹脂プラグ付）
 41
0.5
  0
TEXT
  5
119
  8
____
 62
     7
 10
87.667699999999996
 20
242.166
 30
0.0
 40
3.0923400000000001
  1
%%c4\U+00D750 SUS T20トルクス丸頭木ねじ
 41
0.5
  0
TEXT
  5
11A
  8
____
 62
     7
 10
129.25200000000001
 20
249.83699999999999
 30
0.0
 40
3.0923400000000001
  1
17
 41
0.5
  0
TEXT
  5
11B
  8
____
 62
     7
 10
135.99052499999999
 20
214.54499999999999
 30
0.0
 40
3.0923400000000001
  1
33
 41
0.5
 72
     1
 11
137.279
 21
214.54499999999999
 31
0.0
  0
TEXT
  5
11C
  8
____
 62
     7
 10
86.877572499999999
 20
214.37
 30
0.0
 40
3.0923400000000001
  1
60
 41
0.5
 72
     1
 11
88.037199999999999
 21
214.37
 31
0.0
  0
LINE
  5
11D
  8
_________1
 62
     7
 10
82.950800000000001
 20
204.00399999999999
 30
0.0
 11
83.237499999999997
 21
204.227
 31
0.0
  0
LINE
  5
11E
  8
_________1
 62
     7
 10
83.237499999999997
 20
204.227
 30
0.0
 11
83.237499999999997
 21
204.13300000000001
 31
0.0
  0
LINE
  5
11F
  8
_________1
 62
     7
 10
83.237499999999997
 20
204.13300000000001
 30
0.0
 11
82.955699999999993
 21
203.91399999999999
 31
0.0
  0
LINE
  5
120
  8
_________1
 62
     7
 10
82.955699999999993
 20
203.91399999999999
 30
0.0
 11
83.237499999999997
 21
203.91399999999999
 31
0.0
  0
LINE
  5
121
  8
_________1
 62
     7
 10
83.237499999999997
 20
203.91399999999999
 30
0.0
 11
83.237499999999997
 21
203.83699999999999
 31
0.0
  0
LINE
  5
122
  8
_________1
 62
     7
 10
83.237499999999997
 20
203.83699999999999
 30
0.0
 11
82.642199999999988
 21
203.83699999999999
 31
0.0
  0
LINE
  5
123
  8
_________1
 62
     7
 10
82.642199999999988
 20
203.83699999999999
 30
0.0
 11
82.642199999999988
 21
203.91399999999999
 31
0.0
  0
LINE
  5
124
  8
_________1
 62
     7
 10
82.642199999999988
 20
203.91399999999999
 30
0.0
 11
82.946700000000007
 21
203.91399999999999
 31
0.0
  0
LINE
  5
125
  8
_________1
 62
     7
 10
82.946700000000007
 20
203.91399999999999
 30
0.0
 11
82.642199999999988
 21
204.13800000000001
 31
0.0
  0
LINE
  5
126
  8
_________1
 62
     7
 10
82.642199999999988
 20
204.13800000000001
 30
0.0
 11
82.642199999999988
 21
204.23099999999999
 31
0.0
  0
LINE
  5
127
  8
_________1
 62
     7
 10
82.642199999999988
 20
204.23099999999999
 30
0.0
 11
82.950800000000001
 21
204.00399999999999
 31
0.0
  0
LINE
  5
128
  8
_________1
 62
     7
 10
82.719300000000004
 20
204.35499999999999
 30
0.0
 11
82.719300000000004
 21
204.65899999999999
 31
0.0
  0
LINE
  5
129
  8
_________1
 62
     7
 10
82.719300000000004
 20
204.65899999999999
 30
0.0
 11
82.642199999999988
 21
204.65899999999999
 31
0.0
  0
LINE
  5
12A
  8
_________1
 62
     7
 10
82.642199999999988
 20
204.65899999999999
 30
0.0
 11
82.642199999999988
 21
204.27500000000001
 31
0.0
  0
LINE
  5
12B
  8
_________1
 62
     7
 10
82.642199999999988
 20
204.27500000000001
 30
0.0
 11
83.237499999999997
 21
204.27500000000001
 31
0.0
  0
LINE
  5
12C
  8
_________1
 62
     7
 10
83.237499999999997
 20
204.27500000000001
 30
0.0
 11
83.237499999999997
 21
204.65899999999999
 31
0.0
  0
LINE
  5
12D
  8
_________1
 62
     7
 10
83.237499999999997
 20
204.65899999999999
 30
0.0
 11
83.160300000000007
 21
204.65899999999999
 31
0.0
  0
LINE
  5
12E
  8
_________1
 62
     7
 10
83.160300000000007
 20
204.65899999999999
 30
0.0
 11
83.160300000000007
 21
204.35499999999999
 31
0.0
  0
LINE
  5
12F
  8
_________1
 62
     7
 10
83.160300000000007
 20
204.35499999999999
 30
0.0
 11
82.943299999999994
 21
204.35499999999999
 31
0.0
  0
LINE
  5
130
  8
_________1
 62
     7
 10
82.943299999999994
 20
204.35499999999999
 30
0.0
 11
82.943299999999994
 21
204.65899999999999
 31
0.0
  0
LINE
  5
131
  8
_________1
 62
     7
 10
82.943299999999994
 20
204.65899999999999
 30
0.0
 11
82.866100000000003
 21
204.65899999999999
 31
0.0
  0
LINE
  5
132
  8
_________1
 62
     7
 10
82.866100000000003
 20
204.65899999999999
 30
0.0
 11
82.866100000000003
 21
204.35499999999999
 31
0.0
  0
LINE
  5
133
  8
_________1
 62
     7
 10
82.866100000000003
 20
204.35499999999999
 30
0.0
 11
82.719300000000004
 21
204.35499999999999
 31
0.0
  0
LINE
  5
134
  8
_________1
 62
     7
 10
82.642199999999988
 20
204.797
 30
0.0
 11
82.642199999999988
 21
204.72
 31
0.0
  0
LINE
  5
135
  8
_________1
 62
     7
 10
82.642199999999988
 20
204.72
 30
0.0
 11
83.017700000000005
 21
204.72
 31
0.0
  0
LINE
  5
136
  8
_________1
 62
     7
 10
83.017700000000005
 20
204.72
 30
0.0
 11
83.092799999999997
 21
204.733
 31
0.0
  0
LINE
  5
137
  8
_________1
 62
     7
 10
83.092799999999997
 20
204.733
 30
0.0
 11
83.158900000000017
 21
204.77199999999999
 31
0.0
  0
LINE
  5
138
  8
_________1
 62
     7
 10
83.158900000000017
 20
204.77199999999999
 30
0.0
 11
83.207199999999986
 21
204.82900000000001
 31
0.0
  0
LINE
  5
139
  8
_________1
 62
     7
 10
83.207199999999986
 20
204.82900000000001
 30
0.0
 11
83.233999999999995
 21
204.90000000000001
 31
0.0
  0
LINE
  5
13A
  8
_________1
 62
     7
 10
83.233999999999995
 20
204.90000000000001
 30
0.0
 11
83.233999999999995
 21
204.977
 31
0.0
  0
LINE
  5
13B
  8
_________1
 62
     7
 10
83.233999999999995
 20
204.977
 30
0.0
 11
83.207199999999986
 21
205.048
 31
0.0
  0
LINE
  5
13C
  8
_________1
 62
     7
 10
83.207199999999986
 20
205.048
 30
0.0
 11
83.158900000000017
 21
205.108
 31
0.0
  0
LINE
  5
13D
  8
_________1
 62
     7
 10
83.158900000000017
 20
205.108
 30
0.0
 11
83.092799999999997
 21
205.14400000000001
 31
0.0
  0
LINE
  5
13E
  8
_________1
 62
     7
 10
83.092799999999997
 20
205.14400000000001
 30
0.0
 11
83.017700000000005
 21
205.15799999999999
 31
0.0
  0
LINE
  5
13F
  8
_________1
 62
     7
 10
83.017700000000005
 20
205.15799999999999
 30
0.0
 11
82.642199999999988
 21
205.15799999999999
 31
0.0
  0
LINE
  5
140
  8
_________1
 62
     7
 10
82.642199999999988
 20
205.15799999999999
 30
0.0
 11
82.642199999999988
 21
205.08099999999999
 31
0.0
  0
LINE
  5
141
  8
_________1
 62
     7
 10
82.642199999999988
 20
205.08099999999999
 30
0.0
 11
83.017700000000005
 21
205.08099999999999
 31
0.0
  0
LINE
  5
142
  8
_________1
 62
     7
 10
83.017700000000005
 20
205.08099999999999
 30
0.0
 11
83.072100000000006
 21
205.071
 31
0.0
  0
LINE
  5
143
  8
_________1
 62
     7
 10
83.072100000000006
 20
205.071
 30
0.0
 11
83.118999999999986
 21
205.03999999999999
 31
0.0
  0
LINE
  5
144
  8
_________1
 62
     7
 10
83.118999999999986
 20
205.03999999999999
 30
0.0
 11
83.148600000000016
 21
204.99299999999999
 31
0.0
  0
LINE
  5
145
  8
_________1
 62
     7
 10
83.148600000000016
 20
204.99299999999999
 30
0.0
 11
83.160300000000007
 21
204.94
 31
0.0
  0
LINE
  5
146
  8
_________1
 62
     7
 10
83.160300000000007
 20
204.94
 30
0.0
 11
83.148600000000016
 21
204.88499999999999
 31
0.0
  0
LINE
  5
147
  8
_________1
 62
     7
 10
83.148600000000016
 20
204.88499999999999
 30
0.0
 11
83.118999999999986
 21
204.83799999999999
 31
0.0
  0
LINE
  5
148
  8
_________1
 62
     7
 10
83.118999999999986
 20
204.83799999999999
 30
0.0
 11
83.072100000000006
 21
204.80699999999999
 31
0.0
  0
LINE
  5
149
  8
_________1
 62
     7
 10
83.072100000000006
 20
204.80699999999999
 30
0.0
 11
83.017700000000005
 21
204.797
 31
0.0
  0
LINE
  5
14A
  8
_________1
 62
     7
 10
83.017700000000005
 20
204.797
 30
0.0
 11
82.642199999999988
 21
204.797
 31
0.0
  0
LINE
  5
14B
  8
_________1
 62
     7
 10
82.752399999999994
 20
205.60400000000001
 30
0.0
 11
82.726900000000001
 21
205.53200000000001
 31
0.0
  0
LINE
  5
14C
  8
_________1
 62
     7
 10
82.726900000000001
 20
205.53200000000001
 30
0.0
 11
82.726900000000001
 21
205.45400000000001
 31
0.0
  0
LINE
  5
14D
  8
_________1
 62
     7
 10
82.726900000000001
 20
205.45400000000001
 30
0.0
 11
82.753799999999998
 21
205.38300000000001
 31
0.0
  0
LINE
  5
14E
  8
_________1
 62
     7
 10
82.753799999999998
 20
205.38300000000001
 30
0.0
 11
82.802699999999987
 21
205.32599999999999
 31
0.0
  0
LINE
  5
14F
  8
_________1
 62
     7
 10
82.802699999999987
 20
205.32599999999999
 30
0.0
 11
82.870900000000006
 21
205.28800000000001
 31
0.0
  0
LINE
  5
150
  8
_________1
 62
     7
 10
82.870900000000006
 20
205.28800000000001
 30
0.0
 11
82.945299999999989
 21
205.27500000000001
 31
0.0
  0
LINE
  5
151
  8
_________1
 62
     7
 10
82.945299999999989
 20
205.27500000000001
 30
0.0
 11
83.021100000000004
 21
205.28999999999999
 31
0.0
  0
LINE
  5
152
  8
_________1
 62
     7
 10
83.021100000000004
 20
205.28999999999999
 30
0.0
 11
83.086600000000004
 21
205.33000000000001
 31
0.0
  0
LINE
  5
153
  8
_________1
 62
     7
 10
83.086600000000004
 20
205.33000000000001
 30
0.0
 11
83.134799999999998
 21
205.38900000000001
 31
0.0
  0
LINE
  5
154
  8
_________1
 62
     7
 10
83.134799999999998
 20
205.38900000000001
 30
0.0
 11
83.152000000000001
 21
205.43000000000001
 31
0.0
  0
LINE
  5
155
  8
_________1
 62
     7
 10
83.152000000000001
 20
205.43000000000001
 30
0.0
 11
83.160300000000007
 21
205.47399999999999
 31
0.0
  0
LINE
  5
156
  8
_________1
 62
     7
 10
83.160300000000007
 20
205.47399999999999
 30
0.0
 11
83.160300000000007
 21
205.51900000000001
 31
0.0
  0
LINE
  5
157
  8
_________1
 62
     7
 10
83.160300000000007
 20
205.51900000000001
 30
0.0
 11
83.150000000000006
 21
205.56299999999999
 31
0.0
  0
LINE
  5
158
  8
_________1
 62
     7
 10
83.150000000000006
 20
205.56299999999999
 30
0.0
 11
83.132700000000014
 21
205.60400000000001
 31
0.0
  0
LINE
  5
159
  8
_________1
 62
     7
 10
83.132700000000014
 20
205.60400000000001
 30
0.0
 11
83.198199999999986
 21
205.642
 31
0.0
  0
LINE
  5
15A
  8
_________1
 62
     7
 10
83.198199999999986
 20
205.642
 30
0.0
 11
83.231300000000005
 21
205.55600000000001
 31
0.0
  0
LINE
  5
15B
  8
_________1
 62
     7
 10
83.231300000000005
 20
205.55600000000001
 30
0.0
 11
83.236099999999993
 21
205.46100000000001
 31
0.0
  0
LINE
  5
15C
  8
_________1
 62
     7
 10
83.236099999999993
 20
205.46100000000001
 30
0.0
 11
83.212000000000003
 21
205.37200000000001
 31
0.0
  0
LINE
  5
15D
  8
_________1
 62
     7
 10
83.212000000000003
 20
205.37200000000001
 30
0.0
 11
83.160300000000007
 21
205.29499999999999
 31
0.0
  0
LINE
  5
15E
  8
_________1
 62
     7
 10
83.160300000000007
 20
205.29499999999999
 30
0.0
 11
83.087999999999994
 21
205.23599999999999
 31
0.0
  0
LINE
  5
15F
  8
_________1
 62
     7
 10
83.087999999999994
 20
205.23599999999999
 30
0.0
 11
83.000500000000002
 21
205.20400000000001
 31
0.0
  0
LINE
  5
160
  8
_________1
 62
     7
 10
83.000500000000002
 20
205.20400000000001
 30
0.0
 11
82.907399999999996
 21
205.202
 31
0.0
  0
LINE
  5
161
  8
_________1
 62
     7
 10
82.907399999999996
 20
205.202
 30
0.0
 11
82.817899999999995
 21
205.227
 31
0.0
  0
LINE
  5
162
  8
_________1
 62
     7
 10
82.817899999999995
 20
205.227
 30
0.0
 11
82.740700000000004
 21
205.279
 31
0.0
  0
LINE
  5
163
  8
_________1
 62
     7
 10
82.740700000000004
 20
205.279
 30
0.0
 11
82.683499999999995
 21
205.352
 31
0.0
  0
LINE
  5
164
  8
_________1
 62
     7
 10
82.683499999999995
 20
205.352
 30
0.0
 11
82.659400000000005
 21
205.40899999999999
 31
0.0
  0
LINE
  5
165
  8
_________1
 62
     7
 10
82.659400000000005
 20
205.40899999999999
 30
0.0
 11
82.6477
 21
205.46700000000001
 31
0.0
  0
LINE
  5
166
  8
_________1
 62
     7
 10
82.6477
 20
205.46700000000001
 30
0.0
 11
82.649100000000004
 21
205.52799999999999
 31
0.0
  0
LINE
  5
167
  8
_________1
 62
     7
 10
82.649100000000004
 20
205.52799999999999
 30
0.0
 11
82.661500000000004
 21
205.58699999999999
 31
0.0
  0
LINE
  5
168
  8
_________1
 62
     7
 10
82.661500000000004
 20
205.58699999999999
 30
0.0
 11
82.685599999999994
 21
205.642
 31
0.0
  0
LINE
  5
169
  8
_________1
 62
     7
 10
82.685599999999994
 20
205.642
 30
0.0
 11
82.752399999999994
 21
205.60400000000001
 31
0.0
  0
INSERT
  5
16A
  8
_________1
 62
     7
  2
AIGNBL02010002
 10
0.0
 20
0.0
 30
0.0
  0
INSERT
  5
16B
  8
_________1
 62
     7
  2
AIGNBL02010003
 10
0.0
 20
0.0
 30
0.0
  0
LINE
  5
16C
  8
_________1
  6
AIGENLINE002
 62
     7
 10
140.119
 20
204.351
 30
0.0
 11
134.29499999999999
 21
204.351
 31
0.0
  0
LINE
  5
16D
  8
_________1
  6
AIGENLINE002
 62
     7
 10
138.97900000000001
 20
203.10499999999999
 30
0.0
 11
138.97900000000001
 21
205.65799999999999
 31
0.0
  0
LINE
  5
16E
  8
_________1
  6
AIGENLINE002
 62
     7
 10
135.57900000000001
 20
203.10499999999999
 30
0.0
 11
135.57900000000001
 21
205.65799999999999
 31
0.0
  0
LINE
  5
16F
  8
_________1
  6
AIGENLINE002
 62
     7
 10
138.97900000000001
 20
43.05019999999999
 30
0.0
 11
138.97900000000001
 21
45.603000000000002
 31
0.0
  0
LINE
  5
170
  8
_________1
  6
AIGENLINE002
 62
     7
 10
135.57900000000001
 20
43.05019999999999
 30
0.0
 11
135.57900000000001
 21
45.603000000000002
 31
0.0
  0
LINE
  5
171
  8
_________1
  6
AIGENLINE002
 62
     7
 10
140.137
 20
44.369700000000002
 30
0.0
 11
134.48699999999999
 21
44.369700000000002
 31
0.0
  0
INSERT
  5
172
  8
_________1
 62
     7
  2
AIGNBL02010004
 10
0.0
 20
0.0
 30
0.0
  0
ARC
  5
173
  8
_________1
 62
     7
 10
90.897398999999993
 20
54.309944999999992
 30
0.0
 40
0.059993
 50
101.30485400000001
 51
179.75019499999999
  0
ARC
  5
174
  8
_________1
 62
     7
 10
93.975133999999997
 20
54.310000000000002
 30
0.0
 40
0.062098
 50
0.19066
 51
43.730463
  0
ARC
  5
175
  8
_________1
 62
     7
 10
90.899648999999997
 20
194.41281699999999
 30
0.0
 40
0.062258
 50
181.2928489999999
 51
256.9951549999999
  0
ARC
  5
176
  8
_________1
 62
     7
 10
93.973777999999996
 20
194.41216600000001
 30
0.0
 40
0.063458
 50
316.75933600000002
 51
359.31954100000002
  0
ARC
  5
177
  8
_________1
 62
     7
 10
93.208809000000002
 20
43.184140999999997
 30
0.0
 40
0.8289149999999999
 50
272.969177
 51
358.02725600000002
  0
ARC
  5
178
  8
_________1
 62
     7
 10
93.206204000000014
 20
205.53566000000001
 30
0.0
 40
0.8315569999999999
 50
2.0443090000000002
 51
86.860574000000014
  0
ARC
  5
179
  8
_________1
 62
     7
 10
83.572807999999995
 20
53.662686999999998
 30
0.0
 40
7.2692479999999993
 50
273.03904899999998
 51
357.95085399999999
  0
ARC
  5
17A
  8
_________1
 62
     7
 10
83.572160999999994
 20
195.058322
 30
0.0
 40
7.2698910000000003
 50
2.0483380000000002
 51
86.956119999999999
  0
INSERT
  5
17B
  8
_________1
 62
     7
  2
AIGNBL02010005
 10
0.0
 20
0.0
 30
0.0
  0
ARC
  5
17C
  8
_________1
 62
     7
 10
140.33350899999999
 20
54.308103000000003
 30
0.0
 40
0.06227
 50
1.3019019999999999
 51
76.986062000000004
  0
INSERT
  5
17D
  8
_________1
 62
     7
  2
AIGNBL02010006
 10
0.0
 20
0.0
 30
0.0
  0
ARC
  5
17E
  8
_________1
 62
     7
 10
134.2235419999999
 20
194.41212300000001
 30
0.0
 40
0.06139
 50
181.30676099999999
 51
257.63818900000001
  0
INSERT
  5
17F
  8
_________1
 62
     7
  2
AIGNBL02010007
 10
0.0
 20
0.0
 30
0.0
  0
INSERT
  5
180
  8
_________1
 62
     7
  2
AIGNBL02010008
 10
0.0
 20
0.0
 30
0.0
  0
INSERT
  5
181
  8
_________1
 62
     7
  2
AIGNBL02010009
 10
0.0
 20
0.0
 30
0.0
  0
INSERT
  5
182
  8
_________1
 62
     7
  2
AIGNBL0201000A
 10
0.0
 20
0.0
 30
0.0
  0
INSERT
  5
183
  8
_________1
 62
     7
  2
AIGNBL0201000B
 10
0.0
 20
0.0
 30
0.0
  0
INSERT
  5
184
  8
_________1
 62
     7
  2
AIGNBL0201000C
 10
0.0
 20
0.0
 30
0.0
  0
INSERT
  5
185
  8
_________1
 62
     7
  2
AIGNBL0201000D
 10
0.0
 20
0.0
 30
0.0
  0
INSERT
  5
186
  8
_________1
 62
     7
  2
AIGNBL0201000E
 10
0.0
 20
0.0
 30
0.0
  0
INSERT
  5
187
  8
_________1
 62
     7
  2
AIGNBL0201000F
 10
0.0
 20
0.0
 30
0.0
  0
INSERT
  5
188
  8
_________1
 62
     7
  2
AIGNBL02010010
 10
0.0
 20
0.0
 30
0.0
  0
LINE
  5
189
  8
_________1
 62
     7
 10
93.251699999999985
 20
42.35629999999999
 30
0.0
 11
82.037199999999999
 21
42.159999999999997
 31
0.0
  0
LINE
  5
18A
  8
_________1
 62
     7
 10
82.037199999999999
 20
46.369899999999987
 30
0.0
 11
84.390199999999993
 21
46.411199999999987
 31
0.0
  0
LINE
  5
18B
  8
_________1
 62
     7
 10
90.837400000000002
 20
54.370199999999997
 30
0.0
 11
94.037199999999984
 21
54.370199999999997
 31
0.0
  0
LINE
  5
18C
  8
_________1
 62
     7
 10
94.037199999999984
 20
54.370199999999997
 30
0.0
 11
94.037199999999984
 21
194.351
 31
0.0
  0
LINE
  5
18D
  8
_________1
 62
     7
 10
94.037199999999984
 20
207.142
 30
0.0
 11
94.037199999999984
 21
214.37
 31
0.0
  0
LINE
  5
18E
  8
_________1
 62
     7
 10
94.037199999999984
 20
205.566
 30
0.0
 11
94.037199999999984
 21
194.411
 31
0.0
  0
LINE
  5
18F
  8
_________1
 62
     7
 10
94.037199999999984
 20
43.1556
 30
0.0
 11
94.037199999999984
 21
54.310200000000002
 31
0.0
  0
LINE
  5
190
  8
_________1
 62
     7
 10
90.837400000000002
 20
54.3688
 30
0.0
 11
90.837400000000002
 21
194.351
 31
0.0
  0
LINE
  5
191
  8
_________1
 62
     7
 10
90.837400000000002
 20
195.31800000000001
 30
0.0
 11
90.837400000000002
 21
194.411
 31
0.0
  0
LINE
  5
192
  8
_________1
 62
     7
 10
90.837400000000002
 20
53.402799999999992
 30
0.0
 11
90.837400000000002
 21
54.310200000000002
 31
0.0
  0
LINE
  5
193
  8
_________1
 62
     7
 10
82.037199999999999
 20
207.512
 30
0.0
 11
82.037199999999999
 21
214.37
 31
0.0
  0
LINE
  5
194
  8
_________1
 62
     7
 10
82.037199999999999
 20
202.352
 30
0.0
 11
82.037199999999999
 21
206.56100000000001
 31
0.0
  0
LINE
  5
195
  8
_________1
 62
     7
 10
82.037199999999999
 20
42.159999999999997
 30
0.0
 11
82.037199999999999
 21
46.369899999999987
 31
0.0
  0
LINE
  5
196
  8
_________1
 62
     7
 10
90.837400000000002
 20
194.351
 30
0.0
 11
94.037199999999984
 21
194.351
 31
0.0
  0
LINE
  5
197
  8
_________1
 62
     7
 10
84.390199999999993
 20
202.31100000000001
 30
0.0
 11
82.037199999999999
 21
202.352
 31
0.0
  0
LINE
  5
198
  8
_________1
 62
     7
 10
93.251699999999985
 20
206.36600000000001
 30
0.0
 11
82.037199999999999
 21
206.56100000000001
 31
0.0
  0
LINE
  5
199
  8
_________1
 62
     7
 10
140.57900000000001
 20
219.78899999999999
 30
0.0
 11
133.97900000000001
 21
219.78899999999999
 31
0.0
  0
LINE
  5
19A
  8
_________1
 62
     7
 10
140.57900000000001
 20
231.78899999999999
 30
0.0
 11
133.97900000000001
 21
231.78899999999999
 31
0.0
  0
LINE
  5
19B
  8
_________1
 62
     7
 10
133.97900000000001
 20
219.78899999999999
 30
0.0
 11
133.97900000000001
 21
231.78899999999999
 31
0.0
  0
LINE
  5
19C
  8
_________1
 62
     7
 10
140.57900000000001
 20
219.78899999999999
 30
0.0
 11
140.57900000000001
 21
231.78899999999999
 31
0.0
  0
INSERT
  5
19D
  8
_________1
 62
     7
  2
AIGNBL02010011
 10
0.0
 20
0.0
 30
0.0
  0
LINE
  5
19E
  8
_________1
 62
     7
 10
81.337199999999996
 20
206.56100000000001
 30
0.0
 11
52.498800000000003
 21
206.56100000000001
 31
0.0
  0
LINE
  5
19F
  8
_________1
 62
     7
 10
52.498800000000003
 20
42.159999999999997
 30
0.0
 11
81.337199999999996
 21
42.159999999999997
 31
0.0
  0
LINE
  5
1A0
  8
_________1
 62
     7
 10
140.37899999999999
 20
206.56100000000001
 30
0.0
 11
134.179
 21
206.56100000000001
 31
0.0
  0
LINE
  5
1A1
  8
_________1
 62
     7
 10
134.179
 20
206.56100000000001
 30
0.0
 11
134.14699999999999
 21
206.55799999999999
 31
0.0
  0
LINE
  5
1A2
  8
_________1
 62
     7
 10
134.14699999999999
 20
206.55799999999999
 30
0.0
 11
134.11699999999999
 21
206.55099999999999
 31
0.0
  0
LINE
  5
1A3
  8
_________1
 62
     7
 10
134.11699999999999
 20
206.55099999999999
 30
0.0
 11
134.08799999999999
 21
206.53999999999999
 31
0.0
  0
LINE
  5
1A4
  8
_________1
 62
     7
 10
134.08799999999999
 20
206.53999999999999
 30
0.0
 11
134.06100000000001
 21
206.52199999999999
 31
0.0
  0
LINE
  5
1A5
  8
_________1
 62
     7
 10
134.06100000000001
 20
206.52199999999999
 30
0.0
 11
134.03700000000001
 21
206.50200000000001
 31
0.0
  0
LINE
  5
1A6
  8
_________1
 62
     7
 10
134.03700000000001
 20
206.50200000000001
 30
0.0
 11
134.017
 21
206.47800000000001
 31
0.0
  0
LINE
  5
1A7
  8
_________1
 62
     7
 10
134.017
 20
206.47800000000001
 30
0.0
 11
134.001
 21
206.452
 31
0.0
  0
LINE
  5
1A8
  8
_________1
 62
     7
 10
134.001
 20
206.452
 30
0.0
 11
133.989
 21
206.422
 31
0.0
  0
LINE
  5
1A9
  8
_________1
 62
     7
 10
133.989
 20
206.422
 30
0.0
 11
133.98099999999999
 21
206.392
 31
0.0
  0
LINE
  5
1AA
  8
_________1
 62
     7
 10
133.98099999999999
 20
206.392
 30
0.0
 11
133.97900000000001
 21
206.36099999999999
 31
0.0
  0
LINE
  5
1AB
  8
_________1
  6
AIGENLINE001
 62
     7
 10
135.429
 20
204.851
 30
0.0
 11
135.72900000000001
 21
204.851
 31
0.0
  0
LINE
  5
1AC
  8
_________1
 62
     7
 10
63.089700000000001
 20
204.351
 30
0.0
 11
69.494900000000001
 21
204.351
 31
0.0
  0
LINE
  5
1AD
  8
_________1
 62
     7
 10
63.089700000000001
 20
44.369700000000002
 30
0.0
 11
69.494900000000001
 21
44.369700000000002
 31
0.0
  0
LINE
  5
1AE
  8
_________1
  6
AIGENLINE001
 62
     7
 10
135.72900000000001
 20
203.851
 30
0.0
 11
135.429
 21
203.851
 31
0.0
  0
LINE
  5
1AF
  8
_________1
 62
     7
 10
140.38999999999999
 20
194.351
 30
0.0
 11
134.166
 21
194.351
 31
0.0
  0
LINE
  5
1B0
  8
_________1
 62
     7
 10
140.51400000000001
 20
202.375
 30
0.0
 11
140.51499999999999
 21
202.37899999999999
 31
0.0
  0
LINE
  5
1B1
  8
_________1
 62
     7
 10
140.51499999999999
 20
202.37899999999999
 30
0.0
 11
140.51599999999999
 21
202.38200000000001
 31
0.0
  0
LINE
  5
1B2
  8
_________1
 62
     7
 10
140.51599999999999
 20
202.38200000000001
 30
0.0
 11
140.51599999999999
 21
202.38499999999999
 31
0.0
  0
LINE
  5
1B3
  8
_________1
 62
     7
 10
140.51599999999999
 20
202.38499999999999
 30
0.0
 11
140.517
 21
202.38800000000001
 31
0.0
  0
LINE
  5
1B4
  8
_________1
 62
     7
 10
140.517
 20
202.38800000000001
 30
0.0
 11
140.517
 21
202.39099999999999
 31
0.0
  0
LINE
  5
1B5
  8
_________1
 62
     7
 10
140.517
 20
202.39099999999999
 30
0.0
 11
140.518
 21
202.39400000000001
 31
0.0
  0
LINE
  5
1B6
  8
_________1
 62
     7
 10
140.518
 20
202.39400000000001
 30
0.0
 11
140.518
 21
202.39599999999999
 31
0.0
  0
LINE
  5
1B7
  8
_________1
 62
     7
 10
140.518
 20
202.39599999999999
 30
0.0
 11
140.518
 21
202.399
 31
0.0
  0
LINE
  5
1B8
  8
_________1
 62
     7
 10
133.97900000000001
 20
42.3598
 30
0.0
 11
133.98099999999999
 21
42.328099999999992
 31
0.0
  0
LINE
  5
1B9
  8
_________1
 62
     7
 10
133.98099999999999
 20
42.328099999999992
 30
0.0
 11
133.989
 21
42.297800000000002
 31
0.0
  0
LINE
  5
1BA
  8
_________1
 62
     7
 10
133.989
 20
42.297800000000002
 30
0.0
 11
134.001
 21
42.268799999999999
 31
0.0
  0
LINE
  5
1BB
  8
_________1
 62
     7
 10
134.001
 20
42.268799999999999
 30
0.0
 11
134.017
 21
42.24199999999999
 31
0.0
  0
LINE
  5
1BC
  8
_________1
 62
     7
 10
134.017
 20
42.24199999999999
 30
0.0
 11
134.03700000000001
 21
42.218499999999992
 31
0.0
  0
LINE
  5
1BD
  8
_________1
 62
     7
 10
134.03700000000001
 20
42.218499999999992
 30
0.0
 11
134.06100000000001
 21
42.19789999999999
 31
0.0
  0
LINE
  5
1BE
  8
_________1
 62
     7
 10
134.06100000000001
 20
42.19789999999999
 30
0.0
 11
134.08799999999999
 21
42.1813
 31
0.0
  0
LINE
  5
1BF
  8
_________1
 62
     7
 10
134.08799999999999
 20
42.1813
 30
0.0
 11
134.11699999999999
 21
42.169600000000003
 31
0.0
  0
LINE
  5
1C0
  8
_________1
 62
     7
 10
134.11699999999999
 20
42.169600000000003
 30
0.0
 11
134.14699999999999
 21
42.161999999999992
 31
0.0
  0
LINE
  5
1C1
  8
_________1
 62
     7
 10
134.14699999999999
 20
42.161999999999992
 30
0.0
 11
134.179
 21
42.159999999999997
 31
0.0
  0
LINE
  5
1C2
  8
_________1
 62
     7
 10
140.518
 20
202.399
 30
0.0
 11
140.518
 21
202.404
 31
0.0
  0
LINE
  5
1C3
  8
_________1
 62
     7
 10
140.518
 20
202.404
 30
0.0
 11
140.51900000000001
 21
202.40600000000001
 31
0.0
  0
LINE
  5
1C4
  8
_________1
 62
     7
 10
140.51900000000001
 20
202.40600000000001
 30
0.0
 11
140.51900000000001
 21
202.40799999999999
 31
0.0
  0
LINE
  5
1C5
  8
_________1
 62
     7
 10
140.51900000000001
 20
202.40799999999999
 30
0.0
 11
140.51900000000001
 21
202.41200000000001
 31
0.0
  0
LINE
  5
1C6
  8
_________1
 62
     7
 10
140.51900000000001
 20
202.41200000000001
 30
0.0
 11
140.52000000000001
 21
202.41399999999999
 31
0.0
  0
LINE
  5
1C7
  8
_________1
 62
     7
 10
140.52000000000001
 20
202.41399999999999
 30
0.0
 11
140.52000000000001
 21
202.416
 31
0.0
  0
LINE
  5
1C8
  8
_________1
 62
     7
 10
140.52000000000001
 20
202.416
 30
0.0
 11
140.52000000000001
 21
202.41900000000001
 31
0.0
  0
LINE
  5
1C9
  8
_________1
 62
     7
 10
140.52000000000001
 20
202.41900000000001
 30
0.0
 11
140.52000000000001
 21
202.42099999999999
 31
0.0
  0
LINE
  5
1CA
  8
_________1
 62
     7
 10
140.52000000000001
 20
202.42099999999999
 30
0.0
 11
140.52000000000001
 21
202.42500000000001
 31
0.0
  0
LINE
  5
1CB
  8
_________1
 62
     7
 10
140.52000000000001
 20
202.42500000000001
 30
0.0
 11
140.52000000000001
 21
202.42699999999999
 31
0.0
  0
LINE
  5
1CC
  8
_________1
 62
     7
 10
140.52000000000001
 20
202.42699999999999
 30
0.0
 11
140.52099999999999
 21
202.43199999999999
 31
0.0
  0
LINE
  5
1CD
  8
_________1
 62
     7
 10
140.512
 20
202.334
 30
0.0
 11
140.51599999999999
 21
202.375
 31
0.0
  0
LINE
  5
1CE
  8
_________1
 62
     7
 10
134.16200000000001
 20
53.481299999999997
 30
0.0
 11
134.16200000000001
 21
53.136099999999999
 31
0.0
  0
LINE
  5
1CF
  8
_________1
 62
     7
 10
134.16200000000001
 20
53.136099999999999
 30
0.0
 11
134.161
 21
52.732300000000002
 31
0.0
  0
LINE
  5
1D0
  8
_________1
 62
     7
 10
134.161
 20
52.732300000000002
 30
0.0
 11
134.15899999999999
 21
52.323099999999997
 31
0.0
  0
LINE
  5
1D1
  8
_________1
 62
     7
 10
134.15899999999999
 20
52.323099999999997
 30
0.0
 11
134.15700000000001
 21
51.900700000000001
 31
0.0
  0
LINE
  5
1D2
  8
_________1
 62
     7
 10
134.15700000000001
 20
51.900700000000001
 30
0.0
 11
134.154
 21
51.4604
 31
0.0
  0
LINE
  5
1D3
  8
_________1
 62
     7
 10
134.154
 20
51.4604
 30
0.0
 11
134.15000000000001
 21
51.005000000000003
 31
0.0
  0
LINE
  5
1D4
  8
_________1
 62
     7
 10
134.15000000000001
 20
51.005000000000003
 30
0.0
 11
134.14599999999999
 21
50.532299999999999
 31
0.0
  0
LINE
  5
1D5
  8
_________1
 62
     7
 10
134.14599999999999
 20
50.532299999999999
 30
0.0
 11
134.13999999999999
 21
50.050699999999992
 31
0.0
  0
LINE
  5
1D6
  8
_________1
 62
     7
 10
134.13999999999999
 20
50.050699999999992
 30
0.0
 11
134.13399999999999
 21
49.564900000000002
 31
0.0
  0
LINE
  5
1D7
  8
_________1
 62
     7
 10
134.13399999999999
 20
49.564900000000002
 30
0.0
 11
134.12700000000001
 21
49.087400000000002
 31
0.0
  0
LINE
  5
1D8
  8
_________1
 62
     7
 10
134.12700000000001
 20
49.087400000000002
 30
0.0
 11
134.119
 21
48.625100000000003
 31
0.0
  0
LINE
  5
1D9
  8
_________1
 62
     7
 10
134.119
 20
48.625100000000003
 30
0.0
 11
134.11000000000001
 21
48.19169999999999
 31
0.0
  0
LINE
  5
1DA
  8
_________1
 62
     7
 10
134.11000000000001
 20
48.19169999999999
 30
0.0
 11
134.102
 21
47.799599999999991
 31
0.0
  0
LINE
  5
1DB
  8
_________1
 62
     7
 10
134.102
 20
47.799599999999991
 30
0.0
 11
134.09299999999999
 21
47.450299999999991
 31
0.0
  0
LINE
  5
1DC
  8
_________1
 62
     7
 10
134.09299999999999
 20
47.450299999999991
 30
0.0
 11
134.083
 21
47.1464
 31
0.0
  0
LINE
  5
1DD
  8
_________1
 62
     7
 10
134.083
 20
47.1464
 30
0.0
 11
134.07299999999989
 21
46.8887
 31
0.0
  0
LINE
  5
1DE
  8
_________1
 62
     7
 10
134.07299999999989
 20
46.8887
 30
0.0
 11
134.06399999999999
 21
46.676499999999997
 31
0.0
  0
LINE
  5
1DF
  8
_________1
 62
     7
 10
134.06399999999999
 20
46.676499999999997
 30
0.0
 11
134.05500000000001
 21
46.509099999999989
 31
0.0
  0
LINE
  5
1E0
  8
_________1
 62
     7
 10
134.05500000000001
 20
46.509099999999989
 30
0.0
 11
134.04599999999999
 21
46.3857
 31
0.0
  0
LINE
  5
1E1
  8
_________1
 62
     7
 10
133.97900000000001
 20
207.06100000000001
 30
0.0
 11
133.97900000000001
 21
214.37
 31
0.0
  0
LINE
  5
1E2
  8
_________1
 62
     7
 10
133.97900000000001
 20
45.07589999999999
 30
0.0
 11
133.97900000000001
 21
42.3598
 31
0.0
  0
LINE
  5
1E3
  8
_________1
 62
     7
 10
133.97900000000001
 20
206.36099999999999
 30
0.0
 11
133.97900000000001
 21
203.64400000000001
 31
0.0
  0
LINE
  5
1E4
  8
_________1
 62
     7
 10
134.16200000000001
 20
54.3095
 30
0.0
 11
134.16200000000001
 21
53.481299999999997
 31
0.0
  0
LINE
  5
1E5
  8
_________1
 62
     7
 10
134.16200000000001
 20
195.24000000000001
 30
0.0
 11
134.16200000000001
 21
194.411
 31
0.0
  0
LINE
  5
1E6
  8
_________1
 62
     7
 10
134.166
 20
194.351
 30
0.0
 11
134.166
 21
54.370199999999997
 31
0.0
  0
LINE
  5
1E7
  8
_________1
 62
     7
 10
140.512
 20
46.3857
 30
0.0
 11
140.50299999999999
 21
46.5077
 31
0.0
  0
LINE
  5
1E8
  8
_________1
 62
     7
 10
140.50299999999999
 20
46.5077
 30
0.0
 11
140.49299999999999
 21
46.6751
 31
0.0
  0
LINE
  5
1E9
  8
_________1
 62
     7
 10
140.49299999999999
 20
46.6751
 30
0.0
 11
140.48400000000001
 21
46.886699999999998
 31
0.0
  0
LINE
  5
1EA
  8
_________1
 62
     7
 10
140.48400000000001
 20
46.886699999999998
 30
0.0
 11
140.47399999999999
 21
47.14439999999999
 31
0.0
  0
LINE
  5
1EB
  8
_________1
 62
     7
 10
140.47399999999999
 20
47.14439999999999
 30
0.0
 11
140.465
 21
47.447499999999991
 31
0.0
  0
LINE
  5
1EC
  8
_________1
 62
     7
 10
140.465
 20
47.447499999999991
 30
0.0
 11
140.45599999999999
 21
47.796199999999999
 31
0.0
  0
LINE
  5
1ED
  8
_________1
 62
     7
 10
140.45599999999999
 20
47.796199999999999
 30
0.0
 11
140.447
 21
48.188200000000002
 31
0.0
  0
LINE
  5
1EE
  8
_________1
 62
     7
 10
140.447
 20
48.188200000000002
 30
0.0
 11
140.43799999999999
 21
48.621600000000001
 31
0.0
  0
LINE
  5
1EF
  8
_________1
 62
     7
 10
140.43799999999999
 20
48.621600000000001
 30
0.0
 11
140.43100000000001
 21
49.083300000000001
 31
0.0
  0
LINE
  5
1F0
  8
_________1
 62
     7
 10
140.43100000000001
 20
49.083300000000001
 30
0.0
 11
140.42400000000001
 21
49.5608
 31
0.0
  0
LINE
  5
1F1
  8
_________1
 62
     7
 10
140.42400000000001
 20
49.5608
 30
0.0
 11
140.41800000000001
 21
50.0458
 31
0.0
  0
LINE
  5
1F2
  8
_________1
 62
     7
 10
140.41800000000001
 20
50.0458
 30
0.0
 11
140.41200000000001
 21
50.528199999999998
 31
0.0
  0
LINE
  5
1F3
  8
_________1
 62
     7
 10
140.41200000000001
 20
50.528199999999998
 30
0.0
 11
140.40700000000001
 21
51.00010000000001
 31
0.0
  0
LINE
  5
1F4
  8
_________1
 62
     7
 10
140.40700000000001
 20
51.00010000000001
 30
0.0
 11
140.404
 21
51.456299999999999
 31
0.0
  0
LINE
  5
1F5
  8
_________1
 62
     7
 10
140.404
 20
51.456299999999999
 30
0.0
 11
140.40100000000001
 21
51.896599999999992
 31
0.0
  0
LINE
  5
1F6
  8
_________1
 62
     7
 10
140.40100000000001
 20
51.896599999999992
 30
0.0
 11
140.398
 21
52.318899999999992
 31
0.0
  0
LINE
  5
1F7
  8
_________1
 62
     7
 10
140.398
 20
52.318899999999992
 30
0.0
 11
140.39699999999999
 21
52.728200000000001
 31
0.0
  0
LINE
  5
1F8
  8
_________1
 62
     7
 10
140.39699999999999
 20
52.728200000000001
 30
0.0
 11
140.39599999999999
 21
53.131999999999998
 31
0.0
  0
LINE
  5
1F9
  8
_________1
 62
     7
 10
140.39599999999999
 20
53.131999999999998
 30
0.0
 11
140.39599999999999
 21
53.481299999999997
 31
0.0
  0
LINE
  5
1FA
  8
_________1
 62
     7
 10
140.518
 20
46.320999999999998
 30
0.0
 11
140.512
 21
46.3857
 31
0.0
  0
LINE
  5
1FB
  8
_________1
 62
     7
 10
140.518
 20
46.320999999999998
 30
0.0
 11
140.518
 21
46.323700000000002
 31
0.0
  0
LINE
  5
1FC
  8
_________1
 62
     7
 10
140.518
 20
46.323700000000002
 30
0.0
 11
140.518
 21
46.327199999999991
 31
0.0
  0
LINE
  5
1FD
  8
_________1
 62
     7
 10
140.518
 20
46.327199999999991
 30
0.0
 11
140.517
 21
46.3292
 31
0.0
  0
LINE
  5
1FE
  8
_________1
 62
     7
 10
140.517
 20
46.3292
 30
0.0
 11
140.517
 21
46.332000000000001
 31
0.0
  0
LINE
  5
1FF
  8
_________1
 62
     7
 10
140.517
 20
46.332000000000001
 30
0.0
 11
140.51599999999999
 21
46.334800000000001
 31
0.0
  0
LINE
  5
200
  8
_________1
 62
     7
 10
140.51599999999999
 20
46.334800000000001
 30
0.0
 11
140.51599999999999
 21
46.338200000000001
 31
0.0
  0
LINE
  5
201
  8
_________1
 62
     7
 10
140.51599999999999
 20
46.338200000000001
 30
0.0
 11
140.51499999999999
 21
46.341000000000001
 31
0.0
  0
LINE
  5
202
  8
_________1
 62
     7
 10
140.51499999999999
 20
46.341000000000001
 30
0.0
 11
140.51400000000001
 21
46.3444
 31
0.0
  0
LINE
  5
203
  8
_________1
 62
     7
 10
134.03999999999999
 20
46.320999999999998
 30
0.0
 11
134.03899999999999
 21
46.316800000000001
 31
0.0
  0
LINE
  5
204
  8
_________1
 62
     7
 10
134.03899999999999
 20
46.316800000000001
 30
0.0
 11
134.03899999999999
 21
46.314100000000003
 31
0.0
  0
LINE
  5
205
  8
_________1
 62
     7
 10
134.03899999999999
 20
46.314100000000003
 30
0.0
 11
134.03899999999999
 21
46.311300000000003
 31
0.0
  0
LINE
  5
206
  8
_________1
 62
     7
 10
134.03899999999999
 20
46.311300000000003
 30
0.0
 11
134.03800000000001
 21
46.3093
 31
0.0
  0
LINE
  5
207
  8
_________1
 62
     7
 10
134.03800000000001
 20
46.3093
 30
0.0
 11
134.03800000000001
 21
46.3065
 31
0.0
  0
LINE
  5
208
  8
_________1
 62
     7
 10
134.03800000000001
 20
46.3065
 30
0.0
 11
134.03800000000001
 21
46.303800000000003
 31
0.0
  0
LINE
  5
209
  8
_________1
 62
     7
 10
134.03800000000001
 20
46.303800000000003
 30
0.0
 11
134.03700000000001
 21
46.30169999999999
 31
0.0
  0
LINE
  5
20A
  8
_________1
 62
     7
 10
134.03700000000001
 20
46.30169999999999
 30
0.0
 11
134.03700000000001
 21
46.298900000000003
 31
0.0
  0
LINE
  5
20B
  8
_________1
 62
     7
 10
134.03700000000001
 20
46.298900000000003
 30
0.0
 11
134.03700000000001
 21
46.296199999999999
 31
0.0
  0
LINE
  5
20C
  8
_________1
 62
     7
 10
134.03700000000001
 20
46.296199999999999
 30
0.0
 11
134.03700000000001
 21
46.293399999999998
 31
0.0
  0
LINE
  5
20D
  8
_________1
 62
     7
 10
134.03700000000001
 20
46.293399999999998
 30
0.0
 11
134.03700000000001
 21
46.2879
 31
0.0
  0
LINE
  5
20E
  8
_________1
 62
     7
 10
134.04599999999999
 20
46.3857
 30
0.0
 11
134.042
 21
46.345100000000002
 31
0.0
  0
LINE
  5
20F
  8
_________1
 62
     7
 10
134.03700000000001
 20
46.2879
 30
0.0
 11
133.97900000000001
 21
45.07589999999999
 31
0.0
  0
LINE
  5
210
  8
_________1
 62
     7
 10
140.52099999999999
 20
202.43199999999999
 30
0.0
 11
140.57900000000001
 21
203.64400000000001
 31
0.0
  0
LINE
  5
211
  8
_________1
 62
     7
 10
140.39599999999999
 20
195.24000000000001
 30
0.0
 11
140.39599999999999
 21
195.58500000000001
 31
0.0
  0
LINE
  5
212
  8
_________1
 62
     7
 10
140.39599999999999
 20
195.58500000000001
 30
0.0
 11
140.39699999999999
 21
195.989
 31
0.0
  0
LINE
  5
213
  8
_________1
 62
     7
 10
140.39699999999999
 20
195.989
 30
0.0
 11
140.398
 21
196.39699999999999
 31
0.0
  0
LINE
  5
214
  8
_________1
 62
     7
 10
140.398
 20
196.39699999999999
 30
0.0
 11
140.40100000000001
 21
196.81899999999999
 31
0.0
  0
LINE
  5
215
  8
_________1
 62
     7
 10
140.40100000000001
 20
196.81899999999999
 30
0.0
 11
140.40299999999999
 21
197.25999999999999
 31
0.0
  0
LINE
  5
216
  8
_________1
 62
     7
 10
140.40299999999999
 20
197.25999999999999
 30
0.0
 11
140.40700000000001
 21
197.71599999999989
 31
0.0
  0
LINE
  5
217
  8
_________1
 62
     7
 10
140.40700000000001
 20
197.71599999999989
 30
0.0
 11
140.41200000000001
 21
198.18799999999999
 31
0.0
  0
LINE
  5
218
  8
_________1
 62
     7
 10
140.41200000000001
 20
198.18799999999999
 30
0.0
 11
140.41800000000001
 21
198.66999999999999
 31
0.0
  0
LINE
  5
219
  8
_________1
 62
     7
 10
140.41800000000001
 20
198.66999999999999
 30
0.0
 11
140.42400000000001
 21
199.155
 31
0.0
  0
LINE
  5
21A
  8
_________1
 62
     7
 10
140.42400000000001
 20
199.155
 30
0.0
 11
140.43100000000001
 21
199.63399999999999
 31
0.0
  0
LINE
  5
21B
  8
_________1
 62
     7
 10
140.43100000000001
 20
199.63399999999999
 30
0.0
 11
140.43799999999999
 21
200.095
 31
0.0
  0
LINE
  5
21C
  8
_________1
 62
     7
 10
140.43799999999999
 20
200.095
 30
0.0
 11
140.447
 21
200.529
 31
0.0
  0
LINE
  5
21D
  8
_________1
 62
     7
 10
140.447
 20
200.529
 30
0.0
 11
140.45599999999999
 21
200.92099999999999
 31
0.0
  0
LINE
  5
21E
  8
_________1
 62
     7
 10
140.45599999999999
 20
200.92099999999999
 30
0.0
 11
140.465
 21
201.27099999999999
 31
0.0
  0
LINE
  5
21F
  8
_________1
 62
     7
 10
140.465
 20
201.27099999999999
 30
0.0
 11
140.47399999999999
 21
201.57400000000001
 31
0.0
  0
LINE
  5
220
  8
_________1
 62
     7
 10
140.47399999999999
 20
201.57400000000001
 30
0.0
 11
140.48400000000001
 21
201.83199999999999
 31
0.0
  0
LINE
  5
221
  8
_________1
 62
     7
 10
140.48400000000001
 20
201.83199999999999
 30
0.0
 11
140.49299999999999
 21
202.04400000000001
 31
0.0
  0
LINE
  5
222
  8
_________1
 62
     7
 10
140.49299999999999
 20
202.04400000000001
 30
0.0
 11
140.50299999999999
 21
202.21100000000001
 31
0.0
  0
LINE
  5
223
  8
_________1
 62
     7
 10
140.50299999999999
 20
202.21100000000001
 30
0.0
 11
140.512
 21
202.334
 31
0.0
  0
LINE
  5
224
  8
_________1
  6
AIGENLINE001
 62
     7
 10
138.47900000000001
 20
204.20099999999999
 30
0.0
 11
138.47900000000001
 21
204.501
 31
0.0
  0
LINE
  5
225
  8
_________1
  6
AIGENLINE001
 62
     7
 10
138.47900000000001
 20
44.218800000000002
 30
0.0
 11
138.47900000000001
 21
44.519199999999998
 31
0.0
  0
LINE
  5
226
  8
_________1
  6
AIGENLINE001
 62
     7
 10
139.47900000000001
 20
44.519199999999998
 30
0.0
 11
139.47900000000001
 21
44.218800000000002
 31
0.0
  0
LINE
  5
227
  8
_________1
  6
AIGENLINE001
 62
     7
 10
139.47900000000001
 20
204.501
 30
0.0
 11
139.47900000000001
 21
204.20099999999999
 31
0.0
  0
LINE
  5
228
  8
_________1
 62
     7
 10
140.38999999999999
 20
194.351
 30
0.0
 11
140.38999999999999
 21
54.370199999999997
 31
0.0
  0
LINE
  5
229
  8
_________1
 62
     7
 10
140.39599999999999
 20
194.411
 30
0.0
 11
140.39599999999999
 21
195.24000000000001
 31
0.0
  0
LINE
  5
22A
  8
_________1
 62
     7
 10
140.39599999999999
 20
53.481299999999997
 30
0.0
 11
140.39599999999999
 21
54.3095
 31
0.0
  0
LINE
  5
22B
  8
_________1
 62
     7
 10
140.57900000000001
 20
207.06100000000001
 30
0.0
 11
140.57900000000001
 21
214.37
 31
0.0
  0
LINE
  5
22C
  8
_________1
 62
     7
 10
140.57900000000001
 20
203.64400000000001
 30
0.0
 11
140.57900000000001
 21
206.36099999999999
 31
0.0
  0
LINE
  5
22D
  8
_________1
 62
     7
 10
140.57900000000001
 20
42.3598
 30
0.0
 11
140.57900000000001
 21
45.07589999999999
 31
0.0
  0
LINE
  5
22E
  8
_________1
 62
     7
 10
134.03700000000001
 20
202.435
 30
0.0
 11
133.97900000000001
 21
203.64400000000001
 31
0.0
  0
LINE
  5
22F
  8
_________1
 62
     7
 10
140.52099999999999
 20
46.285200000000003
 30
0.0
 11
140.57900000000001
 21
45.07589999999999
 31
0.0
  0
LINE
  5
230
  8
_________1
 62
     7
 10
134.03700000000001
 20
202.435
 30
0.0
 11
134.03700000000001
 21
202.429
 31
0.0
  0
LINE
  5
231
  8
_________1
 62
     7
 10
140.52099999999999
 20
46.285200000000003
 30
0.0
 11
140.52099999999999
 21
46.290700000000001
 31
0.0
  0
LINE
  5
232
  8
_________1
 62
     7
 10
140.52099999999999
 20
46.290700000000001
 30
0.0
 11
140.52000000000001
 21
46.296199999999999
 31
0.0
  0
LINE
  5
233
  8
_________1
 62
     7
 10
134.03700000000001
 20
202.429
 30
0.0
 11
134.03700000000001
 21
202.42500000000001
 31
0.0
  0
LINE
  5
234
  8
_________1
 62
     7
 10
140.52000000000001
 20
46.296199999999999
 30
0.0
 11
140.52000000000001
 21
46.298900000000003
 31
0.0
  0
LINE
  5
235
  8
_________1
 62
     7
 10
140.52000000000001
 20
46.298900000000003
 30
0.0
 11
140.52000000000001
 21
46.30169999999999
 31
0.0
  0
LINE
  5
236
  8
_________1
 62
     7
 10
140.52000000000001
 20
46.30169999999999
 30
0.0
 11
140.52000000000001
 21
46.303800000000003
 31
0.0
  0
LINE
  5
237
  8
_________1
 62
     7
 10
140.52000000000001
 20
46.303800000000003
 30
0.0
 11
140.52000000000001
 21
46.3065
 31
0.0
  0
LINE
  5
238
  8
_________1
 62
     7
 10
140.52000000000001
 20
46.3065
 30
0.0
 11
140.51900000000001
 21
46.3093
 31
0.0
  0
LINE
  5
239
  8
_________1
 62
     7
 10
140.51900000000001
 20
46.3093
 30
0.0
 11
140.51900000000001
 21
46.311300000000003
 31
0.0
  0
LINE
  5
23A
  8
_________1
 62
     7
 10
140.51900000000001
 20
46.311300000000003
 30
0.0
 11
140.51900000000001
 21
46.314100000000003
 31
0.0
  0
LINE
  5
23B
  8
_________1
 62
     7
 10
140.51900000000001
 20
46.314100000000003
 30
0.0
 11
140.518
 21
46.316800000000001
 31
0.0
  0
LINE
  5
23C
  8
_________1
 62
     7
 10
140.518
 20
46.316800000000001
 30
0.0
 11
140.518
 21
46.318899999999999
 31
0.0
  0
LINE
  5
23D
  8
_________1
 62
     7
 10
140.518
 20
46.318899999999999
 30
0.0
 11
140.518
 21
46.320999999999998
 31
0.0
  0
LINE
  5
23E
  8
_________1
 62
     7
 10
134.03700000000001
 20
202.42500000000001
 30
0.0
 11
134.03700000000001
 21
202.42099999999999
 31
0.0
  0
LINE
  5
23F
  8
_________1
 62
     7
 10
134.03700000000001
 20
202.42099999999999
 30
0.0
 11
134.03700000000001
 21
202.41900000000001
 31
0.0
  0
LINE
  5
240
  8
_________1
 62
     7
 10
134.03700000000001
 20
202.41900000000001
 30
0.0
 11
134.03800000000001
 21
202.416
 31
0.0
  0
LINE
  5
241
  8
_________1
 62
     7
 10
134.03800000000001
 20
202.416
 30
0.0
 11
134.03800000000001
 21
202.41399999999999
 31
0.0
  0
LINE
  5
242
  8
_________1
 62
     7
 10
134.03800000000001
 20
202.41399999999999
 30
0.0
 11
134.03800000000001
 21
202.41200000000001
 31
0.0
  0
LINE
  5
243
  8
_________1
 62
     7
 10
134.03800000000001
 20
202.41200000000001
 30
0.0
 11
134.03899999999999
 21
202.40799999999999
 31
0.0
  0
LINE
  5
244
  8
_________1
 62
     7
 10
134.03899999999999
 20
202.40799999999999
 30
0.0
 11
134.03899999999999
 21
202.40600000000001
 31
0.0
  0
LINE
  5
245
  8
_________1
 62
     7
 10
134.03899999999999
 20
202.40600000000001
 30
0.0
 11
134.03899999999999
 21
202.404
 31
0.0
  0
LINE
  5
246
  8
_________1
 62
     7
 10
134.03899999999999
 20
202.404
 30
0.0
 11
134.03899999999999
 21
202.40100000000001
 31
0.0
  0
LINE
  5
247
  8
_________1
 62
     7
 10
134.03899999999999
 20
202.40100000000001
 30
0.0
 11
134.03999999999999
 21
202.399
 31
0.0
  0
LINE
  5
248
  8
_________1
 62
     7
 10
134.04599999999999
 20
202.33500000000001
 30
0.0
 11
134.05500000000001
 21
202.21199999999999
 31
0.0
  0
LINE
  5
249
  8
_________1
 62
     7
 10
134.05500000000001
 20
202.21199999999999
 30
0.0
 11
134.06399999999999
 21
202.04499999999999
 31
0.0
  0
LINE
  5
24A
  8
_________1
 62
     7
 10
134.06399999999999
 20
202.04499999999999
 30
0.0
 11
134.07299999999989
 21
201.833
 31
0.0
  0
LINE
  5
24B
  8
_________1
 62
     7
 10
134.07299999999989
 20
201.833
 30
0.0
 11
134.083
 21
201.57599999999999
 31
0.0
  0
LINE
  5
24C
  8
_________1
 62
     7
 10
134.083
 20
201.57599999999999
 30
0.0
 11
134.09299999999999
 21
201.274
 31
0.0
  0
LINE
  5
24D
  8
_________1
 62
     7
 10
134.09299999999999
 20
201.274
 30
0.0
 11
134.102
 21
200.923
 31
0.0
  0
LINE
  5
24E
  8
_________1
 62
     7
 10
134.102
 20
200.923
 30
0.0
 11
134.11000000000001
 21
200.53200000000001
 31
0.0
  0
LINE
  5
24F
  8
_________1
 62
     7
 10
134.11000000000001
 20
200.53200000000001
 30
0.0
 11
134.119
 21
200.09899999999999
 31
0.0
  0
LINE
  5
250
  8
_________1
 62
     7
 10
134.119
 20
200.09899999999999
 30
0.0
 11
134.12700000000001
 21
199.637
 31
0.0
  0
LINE
  5
251
  8
_________1
 62
     7
 10
134.12700000000001
 20
199.637
 30
0.0
 11
134.13399999999999
 21
199.15899999999999
 31
0.0
  0
LINE
  5
252
  8
_________1
 62
     7
 10
134.13399999999999
 20
199.15899999999999
 30
0.0
 11
134.13999999999999
 21
198.67400000000001
 31
0.0
  0
LINE
  5
253
  8
_________1
 62
     7
 10
134.13999999999999
 20
198.67400000000001
 30
0.0
 11
134.14599999999999
 21
198.19300000000001
 31
0.0
  0
LINE
  5
254
  8
_________1
 62
     7
 10
134.14599999999999
 20
198.19300000000001
 30
0.0
 11
134.15000000000001
 21
197.71899999999999
 31
0.0
  0
LINE
  5
255
  8
_________1
 62
     7
 10
134.15000000000001
 20
197.71899999999999
 30
0.0
 11
134.154
 21
197.26300000000001
 31
0.0
  0
LINE
  5
256
  8
_________1
 62
     7
 10
134.154
 20
197.26300000000001
 30
0.0
 11
134.15700000000001
 21
196.82400000000001
 31
0.0
  0
LINE
  5
257
  8
_________1
 62
     7
 10
134.15700000000001
 20
196.82400000000001
 30
0.0
 11
134.15899999999999
 21
196.40100000000001
 31
0.0
  0
LINE
  5
258
  8
_________1
 62
     7
 10
134.15899999999999
 20
196.40100000000001
 30
0.0
 11
134.161
 21
195.99199999999999
 31
0.0
  0
LINE
  5
259
  8
_________1
 62
     7
 10
134.161
 20
195.99199999999999
 30
0.0
 11
134.161
 21
195.58799999999999
 31
0.0
  0
LINE
  5
25A
  8
_________1
 62
     7
 10
134.161
 20
195.58799999999999
 30
0.0
 11
134.16200000000001
 21
195.24000000000001
 31
0.0
  0
LINE
  5
25B
  8
_________1
 62
     7
 10
134.03999999999999
 20
202.399
 30
0.0
 11
134.04599999999999
 21
202.33500000000001
 31
0.0
  0
LINE
  5
25C
  8
_________1
 62
     7
 10
134.03999999999999
 20
202.399
 30
0.0
 11
134.03999999999999
 21
202.39599999999999
 31
0.0
  0
LINE
  5
25D
  8
_________1
 62
     7
 10
134.03999999999999
 20
202.39599999999999
 30
0.0
 11
134.03999999999999
 21
202.39400000000001
 31
0.0
  0
LINE
  5
25E
  8
_________1
 62
     7
 10
134.03999999999999
 20
202.39400000000001
 30
0.0
 11
134.03999999999999
 21
202.39099999999999
 31
0.0
  0
LINE
  5
25F
  8
_________1
 62
     7
 10
134.03999999999999
 20
202.39099999999999
 30
0.0
 11
134.041
 21
202.38800000000001
 31
0.0
  0
LINE
  5
260
  8
_________1
 62
     7
 10
134.041
 20
202.38800000000001
 30
0.0
 11
134.042
 21
202.38499999999999
 31
0.0
  0
LINE
  5
261
  8
_________1
 62
     7
 10
134.042
 20
202.38499999999999
 30
0.0
 11
134.042
 21
202.38200000000001
 31
0.0
  0
LINE
  5
262
  8
_________1
 62
     7
 10
134.042
 20
202.38200000000001
 30
0.0
 11
134.042
 21
202.37899999999999
 31
0.0
  0
LINE
  5
263
  8
_________1
 62
     7
 10
134.042
 20
202.37899999999999
 30
0.0
 11
134.04300000000001
 21
202.375
 31
0.0
  0
LINE
  5
264
  8
_________1
 62
     7
 10
134.04300000000001
 20
46.3444
 30
0.0
 11
134.042
 21
46.341000000000001
 31
0.0
  0
LINE
  5
265
  8
_________1
 62
     7
 10
134.042
 20
46.341000000000001
 30
0.0
 11
134.042
 21
46.338200000000001
 31
0.0
  0
LINE
  5
266
  8
_________1
 62
     7
 10
134.042
 20
46.338200000000001
 30
0.0
 11
134.042
 21
46.334800000000001
 31
0.0
  0
LINE
  5
267
  8
_________1
 62
     7
 10
134.042
 20
46.334800000000001
 30
0.0
 11
134.041
 21
46.332000000000001
 31
0.0
  0
LINE
  5
268
  8
_________1
 62
     7
 10
134.041
 20
46.332000000000001
 30
0.0
 11
134.03999999999999
 21
46.3292
 31
0.0
  0
LINE
  5
269
  8
_________1
 62
     7
 10
134.03999999999999
 20
46.3292
 30
0.0
 11
134.03999999999999
 21
46.327199999999991
 31
0.0
  0
LINE
  5
26A
  8
_________1
 62
     7
 10
134.03999999999999
 20
46.327199999999991
 30
0.0
 11
134.03999999999999
 21
46.323700000000002
 31
0.0
  0
LINE
  5
26B
  8
_________1
 62
     7
 10
134.03999999999999
 20
46.323700000000002
 30
0.0
 11
134.03999999999999
 21
46.320999999999998
 31
0.0
  0
LINE
  5
26C
  8
_________1
 62
     7
 10
140.57900000000001
 20
206.36099999999999
 30
0.0
 11
140.57599999999999
 21
206.392
 31
0.0
  0
LINE
  5
26D
  8
_________1
 62
     7
 10
140.57599999999999
 20
206.392
 30
0.0
 11
140.56899999999999
 21
206.422
 31
0.0
  0
LINE
  5
26E
  8
_________1
 62
     7
 10
140.56899999999999
 20
206.422
 30
0.0
 11
140.55699999999999
 21
206.452
 31
0.0
  0
LINE
  5
26F
  8
_________1
 62
     7
 10
140.55699999999999
 20
206.452
 30
0.0
 11
140.541
 21
206.47800000000001
 31
0.0
  0
LINE
  5
270
  8
_________1
 62
     7
 10
140.541
 20
206.47800000000001
 30
0.0
 11
140.52000000000001
 21
206.50200000000001
 31
0.0
  0
LINE
  5
271
  8
_________1
 62
     7
 10
140.52000000000001
 20
206.50200000000001
 30
0.0
 11
140.49700000000001
 21
206.52199999999999
 31
0.0
  0
LINE
  5
272
  8
_________1
 62
     7
 10
140.49700000000001
 20
206.52199999999999
 30
0.0
 11
140.46899999999999
 21
206.53999999999999
 31
0.0
  0
LINE
  5
273
  8
_________1
 62
     7
 10
140.46899999999999
 20
206.53999999999999
 30
0.0
 11
140.441
 21
206.55099999999999
 31
0.0
  0
LINE
  5
274
  8
_________1
 62
     7
 10
140.441
 20
206.55099999999999
 30
0.0
 11
140.41
 21
206.55799999999999
 31
0.0
  0
LINE
  5
275
  8
_________1
 62
     7
 10
140.41
 20
206.55799999999999
 30
0.0
 11
140.37899999999999
 21
206.56100000000001
 31
0.0
  0
LINE
  5
276
  8
_________1
 62
     7
 10
140.38999999999999
 20
54.370199999999997
 30
0.0
 11
134.166
 21
54.370199999999997
 31
0.0
  0
LINE
  5
277
  8
_________1
  6
AIGENLINE001
 62
     7
 10
135.429
 20
44.869199999999999
 30
0.0
 11
135.72900000000001
 21
44.869199999999999
 31
0.0
  0
LINE
  5
278
  8
_________1
  6
AIGENLINE001
 62
     7
 10
135.72900000000001
 20
43.869399999999999
 30
0.0
 11
135.429
 21
43.869399999999999
 31
0.0
  0
LINE
  5
279
  8
_________1
 62
     7
 10
134.179
 20
42.159999999999997
 30
0.0
 11
140.37899999999999
 21
42.159999999999997
 31
0.0
  0
LINE
  5
27A
  8
_________1
 62
     7
 10
140.37899999999999
 20
42.159999999999997
 30
0.0
 11
140.41
 21
42.161999999999992
 31
0.0
  0
LINE
  5
27B
  8
_________1
 62
     7
 10
140.41
 20
42.161999999999992
 30
0.0
 11
140.441
 21
42.169600000000003
 31
0.0
  0
LINE
  5
27C
  8
_________1
 62
     7
 10
140.441
 20
42.169600000000003
 30
0.0
 11
140.46899999999999
 21
42.1813
 31
0.0
  0
LINE
  5
27D
  8
_________1
 62
     7
 10
140.46899999999999
 20
42.1813
 30
0.0
 11
140.49700000000001
 21
42.19789999999999
 31
0.0
  0
LINE
  5
27E
  8
_________1
 62
     7
 10
140.49700000000001
 20
42.19789999999999
 30
0.0
 11
140.52000000000001
 21
42.218499999999992
 31
0.0
  0
LINE
  5
27F
  8
_________1
 62
     7
 10
140.52000000000001
 20
42.218499999999992
 30
0.0
 11
140.541
 21
42.24199999999999
 31
0.0
  0
LINE
  5
280
  8
_________1
 62
     7
 10
140.541
 20
42.24199999999999
 30
0.0
 11
140.55699999999999
 21
42.268799999999999
 31
0.0
  0
LINE
  5
281
  8
_________1
 62
     7
 10
140.55699999999999
 20
42.268799999999999
 30
0.0
 11
140.56899999999999
 21
42.297800000000002
 31
0.0
  0
LINE
  5
282
  8
_________1
 62
     7
 10
140.56899999999999
 20
42.297800000000002
 30
0.0
 11
140.57599999999999
 21
42.328099999999992
 31
0.0
  0
LINE
  5
283
  8
_________1
 62
     7
 10
140.57599999999999
 20
42.328099999999992
 30
0.0
 11
140.57900000000001
 21
42.3598
 31
0.0
  0
INSERT
  5
284
  8
_________1
 62
     7
  2
AIGNBL02010012
 10
0.0
 20
0.0
 30
0.0
  0
INSERT
  5
285
  8
_________1
 62
     7
  2
AIGNBL02010013
 10
0.0
 20
0.0
 30
0.0
  0
LINE
  5
286
  8
_________1
 62
     7
 10
138.75899999999999
 20
231.78899999999999
 30
0.0
 11
138.97900000000001
 21
231.78899999999999
 31
0.0
  0
LINE
  5
287
  8
_________1
 62
     7
 10
138.97900000000001
 20
231.78899999999999
 30
0.0
 11
139.19900000000001
 21
231.78899999999999
 31
0.0
  0
LINE
  5
288
  8
_________1
 62
     7
 10
138.97900000000001
 20
249.83699999999999
 30
0.0
 11
138.97900000000001
 21
244.33099999999999
 31
0.0
  0
LINE
  5
289
  8
_________1
 62
     7
 10
135.57900000000001
 20
249.83699999999999
 30
0.0
 11
135.57900000000001
 21
244.33099999999999
 31
0.0
  0
LINE
  5
28A
  8
_________1
  6
AIGENLINE002
 62
     7
 10
138.97900000000001
 20
231.10400000000001
 30
0.0
 11
138.97900000000001
 21
243.631
 31
0.0
  0
LINE
  5
28B
  8
_________1
 62
     7
 10
138.75899999999999
 20
231.78899999999999
 30
0.0
 11
138.75899999999999
 21
241.87899999999999
 31
0.0
  0
LINE
  5
28C
  8
_________1
 62
     7
 10
139.19900000000001
 20
231.78899999999999
 30
0.0
 11
139.19900000000001
 21
241.87899999999999
 31
0.0
  0
LINE
  5
28D
  8
_________1
 62
     7
 10
138.57900000000001
 20
241.23699999999999
 30
0.0
 11
139.37899999999999
 21
241.61199999999999
 31
0.0
  0
LINE
  5
28E
  8
_________1
 62
     7
 10
138.57900000000001
 20
240.35499999999999
 30
0.0
 11
139.37899999999999
 21
240.72999999999999
 31
0.0
  0
LINE
  5
28F
  8
_________1
 62
     7
 10
138.57900000000001
 20
239.47399999999999
 30
0.0
 11
139.37899999999999
 21
239.84999999999999
 31
0.0
  0
LINE
  5
290
  8
_________1
 62
     7
 10
138.57900000000001
 20
238.59299999999999
 30
0.0
 11
139.37899999999999
 21
238.96799999999999
 31
0.0
  0
LINE
  5
291
  8
_________1
 62
     7
 10
138.57900000000001
 20
237.71199999999999
 30
0.0
 11
139.37899999999999
 21
238.08699999999999
 31
0.0
  0
LINE
  5
292
  8
_________1
 62
     7
 10
138.57900000000001
 20
236.83000000000001
 30
0.0
 11
139.37899999999999
 21
237.20599999999999
 31
0.0
  0
LINE
  5
293
  8
_________1
 62
     7
 10
138.57900000000001
 20
235.94900000000001
 30
0.0
 11
139.37899999999999
 21
236.32499999999999
 31
0.0
  0
LINE
  5
294
  8
_________1
 62
     7
 10
138.57900000000001
 20
235.06899999999999
 30
0.0
 11
139.37899999999999
 21
235.44399999999999
 31
0.0
  0
LINE
  5
295
  8
_________1
 62
     7
 10
138.57900000000001
 20
234.18700000000001
 30
0.0
 11
139.37899999999999
 21
234.56299999999999
 31
0.0
  0
LINE
  5
296
  8
_________1
 62
     7
 10
138.75899999999999
 20
241.87899999999999
 30
0.0
 11
138.97900000000001
 21
242.78899999999999
 31
0.0
  0
LINE
  5
297
  8
_________1
 62
     7
 10
138.97900000000001
 20
242.78899999999999
 30
0.0
 11
139.19900000000001
 21
241.87899999999999
 31
0.0
  0
LINE
  5
298
  8
_________1
 62
     7
 10
138.75899999999999
 20
233.78899999999999
 30
0.0
 11
139.19900000000001
 21
233.78899999999999
 31
0.0
  0
INSERT
  5
299
  8
_________1
 62
     7
  2
AIGNBL02010014
 10
0.0
 20
0.0
 30
0.0
  0
INSERT
  5
29A
  8
_________1
 62
     7
  2
AIGNBL02010015
 10
0.0
 20
0.0
 30
0.0
  0
INSERT
  5
29B
  8
_________1
 62
     7
  2
AIGNBL02010016
 10
0.0
 20
0.0
 30
0.0
  0
TEXT
  5
29C
  8
_________2
 62
     7
 10
109.179
 20
24.226099999999999
 30
0.0
 40
3.9357000000000002
  1
エディション11 タオルバー（800サイズ）
 41
0.5
  0
LINE
  5
29D
  8
_________2
 62
     7
 10
205.30099999999999
 20
127.411
 30
0.0
 11
183.55099999999999
 21
127.411
 31
0.0
  0
LINE
  5
29E
  8
_________2
 62
     7
 10
100.3
 20
-4.0910799999999998
 30
0.0
 11
100.3
 21
-21.071000000000002
 31
0.0
  0
LINE
  5
29F
  8
_________2
 62
     7
 10
100.3
 20
275.93099999999998
 30
0.0
 11
100.3
 21
258.911
 31
0.0
  0
LINE
  5
2A0
  8
_________2
 62
     7
 10
17.049199999999999
 20
127.411
 30
0.0
 11
-4.7012099999999988
 21
127.411
 31
0.0
  0
INSERT
  5
2A1
  8
_________2
 62
     7
  2
AIGNBL03010002
 10
0.0
 20
0.0
 30
0.0
  0
TEXT
  5
2A2
  8
_________2
 62
     7
 10
104.605
 20
1.6794899999999999
 30
0.0
 40
3.0923400000000001
  1
図番
 41
0.5
  0
LINE
  5
2A3
  8
_________2
 62
     7
 10
103.55
 20
5.9087199999999989
 30
0.0
 11
183.55099999999999
 21
5.9087199999999989
 31
0.0
  0
TEXT
  5
2A4
  8
_________2
 62
     7
 10
104.605
 20
11.6793
 30
0.0
 40
3.0923400000000001
  1
品番
 41
0.5
  0
TEXT
  5
2A5
  8
_________2
 62
     7
 10
104.605
 20
31.8184
 30
0.0
 40
3.0923400000000001
  1
名称
 41
0.5
  0
TEXT
  5
2A6
  8
_________2
 62
     7
 10
91.844758333333345
 20
26.822299999999998
 30
0.0
 40
3.6545800000000002
  1
mm
 41
0.5
 72
     1
 11
93.367500000000007
 21
26.822299999999998
 31
0.0
  0
TEXT
  5
2A7
  8
_________2
 62
     7
 10
85.642899999999983
 20
31.8184
 30
0.0
 40
3.0923400000000001
  1
単位
 41
0.5
  0
TEXT
  5
2A8
  8
_________2
 62
     7
 10
85.642899999999983
 20
19.410799999999998
 30
0.0
 40
3.0923400000000001
  1
尺度
 41
0.5
  0
TEXT
  5
2A9
  8
_________2
 62
     7
 10
90.548458666666676
 20
13.2182
 30
0.0
 40
3.6545800000000002
  1
1 ： 5
 41
0.5
 72
     1
 11
93.959400000000016
 21
13.2182
 31
0.0
  0
TEXT
  5
2AA
  8
_________2
 62
     7
 10
135.67859999999999
 20
9.1082000000000001
 30
0.0
 40
3.9357000000000002
  1
KC1110180R
 41
0.5
 72
     1
 11
143.55000000000001
 21
9.1082000000000001
 31
0.0
  0
TEXT
  5
2AB
  8
_________2
 62
     7
 10
135.67859999999999
 20
-0.8926299999999999
 30
0.0
 40
3.9357000000000002
  1
KC1110180R
 41
0.5
 72
     1
 11
143.55000000000001
 21
-0.8926299999999999
 31
0.0
  0
TEXT
  5
2AC
  8
_________2
 62
     7
 10
39.364090666666669
 20
13.603400000000001
 30
0.0
 40
3.6545800000000002
  1
井伊
 41
0.5
 72
     1
 11
41.313200000000002
 21
13.603400000000001
 31
0.0
  0
TEXT
  5
2AD
  8
_________2
 62
     7
 10
20.851000333333339
 20
13.603400000000001
 30
0.0
 40
3.6545800000000002
  1
福田
 41
0.5
 72
     1
 11
22.7392
 21
13.603400000000001
 31
0.0
  0
TEXT
  5
2AE
  8
_________2
 62
     7
 10
67.785399999999996
 20
13.2182
 30
0.0
 40
3.6545800000000002
  1
21.04.14
 41
0.5
  0
TEXT
  5
2AF
  8
_________2
 62
     7
 10
66.592699999999994
 20
19.410799999999998
 30
0.0
 40
3.0923400000000001
  1
日付
 41
0.5
  0
TEXT
  5
2B0
  8
_________2
 62
     7
 10
29.638999999999999
 20
19.410799999999998
 30
0.0
 40
3.0923400000000001
  1
検図
 41
0.5
  0
TEXT
  5
2B1
  8
_________2
 62
     7
 10
18.020700000000001
 20
5.21143
 30
0.0
 40
3.0923400000000001
  1
備考
 41
0.5
  0
TEXT
  5
2B2
  8
_________2
 62
     7
 10
18.020700000000001
 20
19.410799999999998
 30
0.0
 40
3.0923400000000001
  1
製図
 41
0.5
  0
TEXT
  5
2B3
  8
_________2
 62
     7
 10
23.788165333333339
 20
27.936800000000002
 30
0.0
 40
4.4979399999999989
  1
セラトレーディング株式会社
 41
0.5
 72
     1
 11
41.180199999999999
 21
27.936800000000002
 31
0.0
  0
LINE
  5
2B4
  8
_________2
 62
     7
 10
183.55099999999999
 20
-4.0910799999999998
 30
0.0
 11
17.049199999999999
 21
-4.0910799999999998
 31
0.0
  0
LINE
  5
2B5
  8
_________2
 62
     7
 10
17.049199999999999
 20
-4.0910799999999998
 30
0.0
 11
17.049199999999999
 21
258.911
 31
0.0
  0
LINE
  5
2B6
  8
_________2
 62
     7
 10
17.049199999999999
 20
258.911
 30
0.0
 11
183.55099999999999
 21
258.911
 31
0.0
  0
LINE
  5
2B7
  8
_________2
 62
     7
 10
183.55099999999999
 20
258.911
 30
0.0
 11
183.55099999999999
 21
-4.0910799999999998
 31
0.0
  0
LINE
  5
2B8
  8
_________2
 62
     7
 10
65.549599999999998
 20
9.4092999999999982
 30
0.0
 11
65.549599999999998
 21
35.909100000000002
 31
0.0
  0
LINE
  5
2B9
  8
_________2
 62
     7
 10
84.549400000000006
 20
9.4092999999999982
 30
0.0
 11
84.549400000000006
 21
35.909100000000002
 31
0.0
  0
LINE
  5
2BA
  8
_________2
 62
     7
 10
103.55
 20
-4.0910799999999998
 30
0.0
 11
103.55
 21
35.909100000000002
 31
0.0
  0
LINE
  5
2BB
  8
_________2
 62
     7
 10
28.548999999999999
 20
9.4092999999999982
 30
0.0
 11
28.548999999999999
 21
23.409199999999998
 31
0.0
  0
LINE
  5
2BC
  8
_________2
 62
     7
 10
17.049199999999999
 20
9.4092999999999982
 30
0.0
 11
103.55
 21
9.4092999999999982
 31
0.0
  0
LINE
  5
2BD
  8
_________2
 62
     7
 10
17.049199999999999
 20
23.409199999999998
 30
0.0
 11
103.55
 21
23.409199999999998
 31
0.0
  0
LINE
  5
2BE
  8
_________2
 62
     7
 10
103.55
 20
15.9085
 30
0.0
 11
183.55099999999999
 21
15.9085
 31
0.0
  0
LINE
  5
2BF
  8
_________2
 62
     7
 10
17.049199999999999
 20
35.909100000000002
 30
0.0
 11
183.55099999999999
 21
35.909100000000002
 31
0.0
  0
ENDSEC
  0
EOF
