  0
SECTION
  2
HEADER
  9
$ACADVER
  1
AC1009
  9
$INSBASE
 10
0.0
 20
0.0
 30
0.0
  9
$EXTMIN
 10
-4.7012099999999988
 20
-21.070999999999991
 30
0.0
  9
$EXTMAX
 10
205.30099999999999
 20
275.93099999999993
 30
0.0
  9
$LIMMIN
 10
0.0
 20
0.0
  9
$LIMMAX
 10
12.0
 20
9.0
  9
$ORTHOMODE
 70
     0
  9
$REGENMODE
 70
     1
  9
$FILLMODE
 70
     1
  9
$QTEXTMODE
 70
     0
  9
$MIRRTEXT
 70
     1
  9
$DRAGMODE
 70
     2
  9
$LTSCALE
 40
1.0
  9
$OSMODE
 70
    37
  9
$ATTMODE
 70
     1
  9
$TEXTSIZE
 40
0.0
  9
$TRACEWID
 40
0.05
  9
$TEXTSTYLE
  7
STANDARD
  9
$CLAYER
  8
0
  9
$CELTYPE
  6
CONTINUOUS
  9
$CECOLOR
 62
   256
  9
$DIMSCALE
 40
1.0
  9
$DIMASZ
 40
0.18
  9
$DIMEXO
 40
0.0625
  9
$DIMDLI
 40
0.38
  9
$DIMRND
 40
0.0
  9
$DIMDLE
 40
0.0
  9
$DIMEXE
 40
0.18
  9
$DIMTP
 40
0.0
  9
$DIMTM
 40
0.0
  9
$DIMTXT
 40
0.18
  9
$DIMCEN
 40
0.09
  9
$DIMTSZ
 40
0.0
  9
$DIMTOL
 70
     0
  9
$DIMLIM
 70
     0
  9
$DIMTIH
 70
     1
  9
$DIMTOH
 70
     1
  9
$DIMSE1
 70
     0
  9
$DIMSE2
 70
     0
  9
$DIMTAD
 70
     0
  9
$DIMZIN
 70
     0
  9
$DIMBLK
  1

  9
$DIMASO
 70
     1
  9
$DIMSHO
 70
     1
  9
$DIMPOST
  1

  9
$DIMAPOST
  1

  9
$DIMALT
 70
     0
  9
$DIMALTD
 70
     2
  9
$DIMALTF
 40
25.399999999999999
  9
$DIMLFAC
 40
1.0
  9
$DIMTOFL
 70
     0
  9
$DIMTVP
 40
0.0
  9
$DIMTIX
 70
     0
  9
$DIMSOXD
 70
     0
  9
$DIMSAH
 70
     0
  9
$DIMBLK1
  1

  9
$DIMBLK2
  1

  9
$DIMSTYLE
  2
STANDARD
  9
$DIMCLRD
 70
     0
  9
$DIMCLRE
 70
     0
  9
$DIMCLRT
 70
     0
  9
$DIMTFAC
 40
1.0
  9
$DIMGAP
 40
0.09
  9
$LUNITS
 70
     2
  9
$LUPREC
 70
     4
  9
$SKETCHINC
 40
0.1
  9
$FILLETRAD
 40
0.0
  9
$AUNITS
 70
     0
  9
$AUPREC
 70
     0
  9
$MENU
  1
.
  9
$ELEVATION
 40
0.0
  9
$PELEVATION
 40
0.0
  9
$THICKNESS
 40
0.0
  9
$LIMCHECK
 70
     0
  9
$BLIPMODE
 70
     0
  9
$CHAMFERA
 40
0.0
  9
$CHAMFERB
 40
0.0
  9
$SKPOLY
 70
     0
  9
$TDCREATE
 40
2444972.375
  9
$TDUPDATE
 40
2455980.3591655781
  9
$TDINDWG
 40
0.0000077199
  9
$TDUSRTIMER
 40
0.0000077199
  9
$USRTIMER
 70
     1
  9
$ANGBASE
 50
0.0
  9
$ANGDIR
 70
     0
  9
$PDMODE
 70
     0
  9
$PDSIZE
 40
0.0
  9
$PLINEWID
 40
0.0
  9
$COORDS
 70
     1
  9
$SPLFRAME
 70
     0
  9
$SPLINETYPE
 70
     6
  9
$SPLINESEGS
 70
     8
  9
$ATTDIA
 70
     0
  9
$ATTREQ
 70
     1
  9
$HANDLING
 70
     1
  9
$HANDSEED
  5
21C
  9
$SURFTAB1
 70
     6
  9
$SURFTAB2
 70
     6
  9
$SURFTYPE
 70
     6
  9
$SURFU
 70
     6
  9
$SURFV
 70
     6
  9
$UCSNAME
  2

  9
$UCSORG
 10
0.0
 20
0.0
 30
0.0
  9
$UCSXDIR
 10
1.0
 20
0.0
 30
0.0
  9
$UCSYDIR
 10
0.0
 20
1.0
 30
0.0
  9
$PUCSNAME
  2

  9
$PUCSORG
 10
0.0
 20
0.0
 30
0.0
  9
$PUCSXDIR
 10
1.0
 20
0.0
 30
0.0
  9
$PUCSYDIR
 10
0.0
 20
1.0
 30
0.0
  9
$USERI1
 70
     0
  9
$USERI2
 70
     0
  9
$USERI3
 70
     0
  9
$USERI4
 70
     0
  9
$USERI5
 70
     0
  9
$USERR1
 40
0.0
  9
$USERR2
 40
0.0
  9
$USERR3
 40
0.0
  9
$USERR4
 40
0.0
  9
$USERR5
 40
0.0
  9
$WORLDVIEW
 70
     1
  9
$SHADEDGE
 70
     3
  9
$SHADEDIF
 70
    70
  9
$TILEMODE
 70
     1
  9
$MAXACTVP
 70
    48
  9
$PLIMCHECK
 70
     0
  9
$PEXTMIN
 10
1.0000000000000000E+020
 20
1.0000000000000000E+020
 30
1.0000000000000000E+020
  9
$PEXTMAX
 10
-1.0000000000000000E+020
 20
-1.0000000000000000E+020
 30
-1.0000000000000000E+020
  9
$PLIMMIN
 10
0.0
 20
0.0
  9
$PLIMMAX
 10
12.0
 20
9.0
  9
$UNITMODE
 70
     0
  9
$VISRETAIN
 70
     1
  9
$PLINEGEN
 70
     0
  9
$PSLTSCALE
 70
     1
  0
ENDSEC
  0
SECTION
  2
TABLES
  0
TABLE
  2
VPORT
 70
     2
  0
VPORT
  2
*ACTIVE
 70
     0
 10
0.0
 20
0.0
 11
1.0
 21
1.0
 12
205.31019906752431
 22
127.42999999999989
 13
0.0
 23
0.0
 14
1.0
 24
1.0
 15
0.0
 25
0.0
 16
0.0
 26
0.0
 36
1.0
 17
0.0
 27
0.0
 37
0.0
 40
299.24634760705283
 41
2.2894736842105261
 42
50.0
 43
0.0
 44
0.0
 50
0.0
 51
0.0
 71
     0
 72
   100
 73
     1
 74
     1
 75
     0
 76
     0
 77
     0
 78
     0
  0
ENDTAB
  0
TABLE
  2
LTYPE
 70
     3
  0
LTYPE
  2
CONTINUOUS
 70
     0
  3
Solid line
 72
    65
 73
     0
 40
0.0
  0
LTYPE
  2
AIGENLINE001
 70
     0
  3
generate AI->DXF Converter
 72
    65
 73
     4
 40
5.8561449999999988
 49
3.5278
 49
-0.776115
 49
0.776115
 49
-0.776115
  0
LTYPE
  2
AIGENLINE002
 70
     0
  3
generate AI->DXF Converter
 72
    65
 73
     2
 40
1.5522299999999991
 49
0.776115
 49
-0.776115
  0
ENDTAB
  0
TABLE
  2
LAYER
 70
     2
  0
LAYER
  2
0
 70
     0
 62
     7
  6
CONTINUOUS
  0
LAYER
  2
_________2
 70
     0
 62
     7
  6
CONTINUOUS
  0
ENDTAB
  0
TABLE
  2
STYLE
 70
     1
  0
STYLE
  2
STANDARD
 70
     0
 40
0.0
 41
0.0
 50
0.0
 71
     0
 42
0.0
  3
TXT
  4
EXTFONT.SHX
  0
ENDTAB
  0
TABLE
  2
VIEW
 70
     0
  0
ENDTAB
  0
TABLE
  2
UCS
 70
     0
  0
ENDTAB
  0
TABLE
  2
APPID
 70
     1
  0
APPID
  2
ACAD
 70
     0
  0
ENDTAB
  0
TABLE
  2
DIMSTYLE
 70
     1
  0
DIMSTYLE
  2
STANDARD
 70
     0
  3

  4

  5

  6

  7

 40
1.0
 41
0.18
 42
0.0625
 43
0.38
 44
0.18
 45
0.0
 46
0.0
 47
0.0
 48
0.0
140
0.18
141
0.09
142
0.0
143
25.399999999999999
144
1.0
145
0.0
146
1.0
147
0.09
 71
     0
 72
     0
 73
     1
 74
     1
 75
     0
 76
     0
 77
     0
 78
     0
170
     0
171
     2
172
     0
173
     0
174
     0
175
     0
176
     0
177
     0
178
     0
  0
ENDTAB
  0
ENDSEC
  0
SECTION
  2
BLOCKS
  0
BLOCK
  8
0
  2
$MODEL_SPACE
 70
     0
 10
0.0
 20
0.0
 30
0.0
  3
$MODEL_SPACE
  1

  0
ENDBLK
  5
1A
  8
0
  0
BLOCK
 67
     1
  8
0
  2
$PAPER_SPACE
 70
     0
 10
0.0
 20
0.0
 30
0.0
  3
$PAPER_SPACE
  1

  0
ENDBLK
  5
17
 67
     1
  8
0
  0
ENDSEC
  0
SECTION
  2
ENTITIES
  0
TEXT
  5
23
  8
0
 62
     7
 10
73.053735000000003
 20
194.20799999999991
 30
0.0
 40
3.0923400000000001
  1
300
 41
0.5
 72
     1
 11
74.857600000000005
 21
194.20799999999991
 31
0.0
  0
TEXT
  5
24
  8
0
 62
     7
 10
72.796040000000005
 20
202.44200000000001
 30
0.0
 40
3.0923400000000001
  1
322
 41
0.5
 72
     1
 11
74.857600000000005
 21
202.44200000000001
 31
0.0
  0
TEXT
  5
25
  8
0
 62
     7
 10
51.209690999999999
 20
172.56
 30
0.0
 40
3.0923400000000001
  1
（%%c8×50 樹脂プラグ付）
 41
0.5
 72
     2
 11
73.423000000000002
 21
172.56
 31
0.0
  0
TEXT
  5
26
  8
0
 62
     7
 10
43.89115300000001
 20
177.59999999999991
 30
0.0
 40
3.0923400000000001
  1
%%c6×70 SUS十字穴付丸頭木ネジ
 41
0.5
 72
     2
 11
73.423000000000002
 21
177.59999999999991
 31
0.0
  0
TEXT
  5
27
  8
0
 62
     7
 10
135.0989999999999
 20
152.10137249999991
 30
0.0
 40
3.0923400000000001
  1
60
 50
90.0
 41
0.5
 72
     1
 11
135.0989999999999
 21
153.261
 31
0.0
  0
TEXT
  5
28
  8
0
 62
     7
 10
135.0989999999999
 20
103.70252499999989
 30
0.0
 40
3.0923400000000001
  1
33
 50
90.0
 41
0.5
 72
     1
 11
135.0989999999999
 21
104.991
 31
0.0
  0
LINE
  5
29
  8
0
  6
AIGENLINE001
 62
     7
 10
124.858
 20
101.4379999999999
 30
0.0
 11
124.858
 21
108.5629999999999
 31
0.0
  0
LINE
  5
2A
  8
0
  6
AIGENLINE001
 62
     7
 10
121.9309999999999
 20
104.991
 30
0.0
 11
127.996
 21
104.991
 31
0.0
  0
LINE
  5
2B
  8
0
  6
AIGENLINE001
 62
     7
 10
24.857199999999999
 20
101.4379999999999
 30
0.0
 11
24.857199999999999
 21
108.5629999999999
 31
0.0
  0
ARC
  5
2C
  8
0
 62
     7
 10
126.816221
 20
144.64407600000001
 30
0.0
 40
1.3840680000000001
 50
272.05096200000003
 51
356.947948
  0
ARC
  5
2D
  8
0
 62
     7
 10
22.898817999999991
 20
144.64361199999999
 30
0.0
 40
1.3835879999999989
 50
183.03389300000001
 51
267.9672379999999
  0
ARC
  5
2E
  8
0
 62
     7
 10
40.353217999999998
 20
160.70073099999999
 30
0.0
 40
12.10965
 50
183.04290700000001
 51
267.95939499999997
  0
ARC
  5
2F
  8
0
 62
     7
 10
109.36070100000001
 20
160.7023199999999
 30
0.0
 40
12.111307999999999
 50
272.04943199999991
 51
356.94999799999988
  0
ARC
  5
30
  8
0
  6
AIGENLINE002
 62
     7
 10
24.813139
 20
104.94655299999999
 30
0.0
 40
1.211403
 50
2.101818999999999
 51
87.915094999999994
  0
ARC
  5
31
  8
0
  6
AIGENLINE002
 62
     7
 10
24.902000999999998
 20
104.9461909999999
 30
0.0
 40
1.2117910000000001
 50
92.118270999999979
 51
177.88169899999991
  0
ARC
  5
32
  8
0
  6
AIGENLINE002
 62
     7
 10
24.902355
 20
105.0357689999999
 30
0.0
 40
1.212145
 50
182.11749599999999
 51
267.86560999999989
  0
ARC
  5
33
  8
0
  6
AIGENLINE002
 62
     7
 10
24.857209999999998
 20
104.990982
 30
0.0
 40
1.166517
 50
270.00002000000001
 51
359.99998999999991
  0
ARC
  5
34
  8
0
  6
AIGENLINE002
 62
     7
 10
124.81347700000001
 20
104.946161
 30
0.0
 40
1.211808999999999
 50
2.1196589999999991
 51
87.897255000000015
  0
ARC
  5
35
  8
0
  6
AIGENLINE002
 62
     7
 10
124.902727
 20
104.945837
 30
0.0
 40
1.212145
 50
92.117482999999993
 51
177.8655629999999
  0
ARC
  5
36
  8
0
  6
AIGENLINE002
 62
     7
 10
124.9027509999999
 20
105.035793
 30
0.0
 40
1.212156999999999
 50
182.11862600000001
 51
267.88140299999992
  0
ARC
  5
37
  8
0
  6
AIGENLINE002
 62
     7
 10
124.81312800000001
 20
105.035794
 30
0.0
 40
1.212156999999999
 50
272.11863399999999
 51
357.88137599999999
  0
LINE
  5
38
  8
0
 62
     7
 10
136.38499999999999
 20
161.05000000000001
 30
0.0
 11
135.792
 21
163.262
 31
0.0
  0
LINE
  5
39
  8
0
 62
     7
 10
135.792
 20
163.262
 30
0.0
 11
135.1989999999999
 21
161.05000000000001
 31
0.0
  0
LINE
  5
3A
  8
0
 62
     7
 10
135.1989999999999
 20
161.05000000000001
 30
0.0
 11
136.38499999999999
 21
161.05000000000001
 31
0.0
  0
LINE
  5
3B
  8
0
 62
     7
 10
135.214
 20
145.47200000000001
 30
0.0
 11
135.80699999999999
 21
143.25999999999991
 31
0.0
  0
LINE
  5
3C
  8
0
 62
     7
 10
135.80699999999999
 20
143.25999999999991
 30
0.0
 11
136.399
 21
145.47200000000001
 31
0.0
  0
LINE
  5
3D
  8
0
 62
     7
 10
136.399
 20
145.47200000000001
 30
0.0
 11
135.214
 21
145.47200000000001
 31
0.0
  0
LINE
  5
3E
  8
0
 62
     7
 10
135.79900000000001
 20
163.26099999999991
 30
0.0
 11
135.79900000000001
 21
143.26099999999991
 31
0.0
  0
LINE
  5
3F
  8
0
 62
     7
 10
21.1906
 20
164.1209999999999
 30
0.0
 11
21.1906
 21
202.44200000000001
 31
0.0
  0
LINE
  5
40
  8
0
 62
     7
 10
21.517199999999999
 20
144.56999999999991
 30
0.0
 11
21.1906
 21
163.26099999999991
 31
0.0
  0
LINE
  5
41
  8
0
 62
     7
 10
28.2041
 20
163.26099999999991
 30
0.0
 11
28.273
 21
159.3179999999999
 31
0.0
  0
LINE
  5
42
  8
0
 62
     7
 10
28.273
 20
159.3179999999999
 30
0.0
 11
28.274799999999988
 21
159.251
 31
0.0
  0
LINE
  5
43
  8
0
 62
     7
 10
136.49899999999991
 20
143.26099999999991
 30
0.0
 11
128.36799999999991
 21
143.26099999999991
 31
0.0
  0
LINE
  5
44
  8
0
 62
     7
 10
22.849699999999991
 20
143.26099999999991
 30
0.0
 11
126.866
 21
143.26099999999991
 31
0.0
  0
LINE
  5
45
  8
0
 62
     7
 10
39.923099999999991
 20
148.5989999999999
 30
0.0
 11
109.79299999999991
 21
148.5989999999999
 31
0.0
  0
LINE
  5
46
  8
0
 62
     7
 10
136.49899999999991
 20
163.26099999999991
 30
0.0
 11
129.51400000000001
 21
163.26099999999991
 31
0.0
  0
LINE
  5
47
  8
0
 62
     7
 10
121.511
 20
163.26099999999991
 30
0.0
 11
128.52500000000001
 21
163.26099999999991
 31
0.0
  0
LINE
  5
48
  8
0
 62
     7
 10
21.1906
 20
163.26099999999991
 30
0.0
 11
28.2041
 21
163.26099999999991
 31
0.0
  0
LINE
  5
49
  8
0
 62
     7
 10
126.31399999999989
 20
201.15700000000001
 30
0.0
 11
128.52600000000001
 21
201.749
 31
0.0
  0
LINE
  5
4A
  8
0
 62
     7
 10
128.52600000000001
 20
201.749
 30
0.0
 11
126.31399999999989
 21
202.34200000000001
 31
0.0
  0
LINE
  5
4B
  8
0
 62
     7
 10
126.31399999999989
 20
202.34200000000001
 30
0.0
 11
126.31399999999989
 21
201.15700000000001
 31
0.0
  0
LINE
  5
4C
  8
0
 62
     7
 10
23.401299999999988
 20
202.327
 30
0.0
 11
21.189499999999988
 21
201.7349999999999
 31
0.0
  0
LINE
  5
4D
  8
0
 62
     7
 10
21.189499999999988
 20
201.7349999999999
 30
0.0
 11
23.401299999999988
 21
201.142
 31
0.0
  0
LINE
  5
4E
  8
0
 62
     7
 10
23.401299999999988
 20
201.142
 30
0.0
 11
23.401299999999988
 21
202.327
 31
0.0
  0
LINE
  5
4F
  8
0
 62
     7
 10
128.52500000000001
 20
201.74199999999999
 30
0.0
 11
21.1906
 21
201.74199999999999
 31
0.0
  0
LINE
  5
50
  8
0
 62
     7
 10
121.44199999999999
 20
159.34
 30
0.0
 11
121.511
 21
163.26099999999991
 31
0.0
  0
LINE
  5
51
  8
0
 62
     7
 10
128.52500000000001
 20
163.26099999999991
 30
0.0
 11
128.19799999999989
 21
144.56999999999991
 31
0.0
  0
LINE
  5
52
  8
0
 62
     7
 10
128.52500000000001
 20
164.1209999999999
 30
0.0
 11
128.52500000000001
 21
202.44200000000001
 31
0.0
  0
LINE
  5
53
  8
0
 62
     7
 10
135.214
 20
101.702
 30
0.0
 11
135.80699999999999
 21
99.489800000000002
 31
0.0
  0
LINE
  5
54
  8
0
 62
     7
 10
135.80699999999999
 20
99.489800000000002
 30
0.0
 11
136.399
 21
101.702
 31
0.0
  0
LINE
  5
55
  8
0
 62
     7
 10
136.399
 20
101.702
 30
0.0
 11
135.214
 21
101.702
 31
0.0
  0
LINE
  5
56
  8
0
 62
     7
 10
136.38499999999999
 20
108.2799999999999
 30
0.0
 11
135.792
 21
110.492
 31
0.0
  0
LINE
  5
57
  8
0
 62
     7
 10
135.792
 20
110.492
 30
0.0
 11
135.1989999999999
 21
108.2799999999999
 31
0.0
  0
LINE
  5
58
  8
0
 62
     7
 10
135.1989999999999
 20
108.2799999999999
 30
0.0
 11
136.38499999999999
 21
108.2799999999999
 31
0.0
  0
LINE
  5
59
  8
0
 62
     7
 10
135.79900000000001
 20
99.490899999999996
 30
0.0
 11
135.79900000000001
 21
110.491
 31
0.0
  0
LINE
  5
5A
  8
0
 62
     7
 10
128.52500000000001
 20
99.823999999999998
 30
0.0
 11
128.52500000000001
 21
110.158
 31
0.0
  0
LINE
  5
5B
  8
0
 62
     7
 10
128.52500000000001
 20
110.158
 30
0.0
 11
128.51799999999989
 21
110.2239999999999
 31
0.0
  0
LINE
  5
5C
  8
0
 62
     7
 10
128.51799999999989
 20
110.2239999999999
 30
0.0
 11
128.499
 21
110.2849999999999
 31
0.0
  0
LINE
  5
5D
  8
0
 62
     7
 10
128.499
 20
110.2849999999999
 30
0.0
 11
128.4679999999999
 21
110.3429999999999
 31
0.0
  0
LINE
  5
5E
  8
0
 62
     7
 10
128.4679999999999
 20
110.3429999999999
 30
0.0
 11
128.42699999999999
 21
110.39399999999991
 31
0.0
  0
LINE
  5
5F
  8
0
 62
     7
 10
128.42699999999999
 20
110.39399999999991
 30
0.0
 11
128.376
 21
110.434
 31
0.0
  0
LINE
  5
60
  8
0
 62
     7
 10
128.376
 20
110.434
 30
0.0
 11
128.3189999999999
 21
110.465
 31
0.0
  0
LINE
  5
61
  8
0
 62
     7
 10
128.3189999999999
 20
110.465
 30
0.0
 11
128.25699999999989
 21
110.48399999999999
 31
0.0
  0
LINE
  5
62
  8
0
 62
     7
 10
128.25699999999989
 20
110.48399999999999
 30
0.0
 11
128.191
 21
110.491
 31
0.0
  0
LINE
  5
63
  8
0
 62
     7
 10
21.524100000000001
 20
110.491
 30
0.0
 11
21.457599999999999
 21
110.48399999999999
 31
0.0
  0
LINE
  5
64
  8
0
 62
     7
 10
21.457599999999999
 20
110.48399999999999
 30
0.0
 11
21.3962
 21
110.465
 31
0.0
  0
LINE
  5
65
  8
0
 62
     7
 10
21.3962
 20
110.465
 30
0.0
 11
21.3384
 21
110.434
 31
0.0
  0
LINE
  5
66
  8
0
 62
     7
 10
21.3384
 20
110.434
 30
0.0
 11
21.2881
 21
110.39399999999991
 31
0.0
  0
LINE
  5
67
  8
0
 62
     7
 10
21.2881
 20
110.39399999999991
 30
0.0
 11
21.246400000000001
 21
110.3429999999999
 31
0.0
  0
LINE
  5
68
  8
0
 62
     7
 10
21.246400000000001
 20
110.3429999999999
 30
0.0
 11
21.215699999999991
 21
110.2849999999999
 31
0.0
  0
LINE
  5
69
  8
0
 62
     7
 10
21.215699999999991
 20
110.2849999999999
 30
0.0
 11
21.197099999999988
 21
110.2239999999999
 31
0.0
  0
LINE
  5
6A
  8
0
 62
     7
 10
21.197099999999988
 20
110.2239999999999
 30
0.0
 11
21.1906
 21
110.158
 31
0.0
  0
LINE
  5
6B
  8
0
 62
     7
 10
121.55200000000001
 20
99.598699999999994
 30
0.0
 11
121.5589999999999
 21
99.596599999999995
 31
0.0
  0
LINE
  5
6C
  8
0
 62
     7
 10
121.5589999999999
 20
99.596599999999995
 30
0.0
 11
121.5659999999999
 21
99.595600000000005
 31
0.0
  0
LINE
  5
6D
  8
0
 62
     7
 10
121.5659999999999
 20
99.595600000000005
 30
0.0
 11
121.572
 21
99.594599999999986
 31
0.0
  0
LINE
  5
6E
  8
0
 62
     7
 10
121.572
 20
99.594599999999986
 30
0.0
 11
121.5779999999999
 21
99.593900000000005
 31
0.0
  0
LINE
  5
6F
  8
0
 62
     7
 10
121.5779999999999
 20
99.593900000000005
 30
0.0
 11
121.5829999999999
 21
99.592799999999997
 31
0.0
  0
LINE
  5
70
  8
0
 62
     7
 10
121.5829999999999
 20
99.592799999999997
 30
0.0
 11
121.5899999999999
 21
99.592500000000001
 31
0.0
  0
LINE
  5
71
  8
0
 62
     7
 10
40.052599999999991
 20
110.18600000000001
 30
0.0
 11
39.570999999999998
 21
110.18600000000001
 31
0.0
  0
LINE
  5
72
  8
0
 62
     7
 10
39.570999999999998
 20
110.18600000000001
 30
0.0
 11
38.790599999999991
 21
110.187
 31
0.0
  0
LINE
  5
73
  8
0
 62
     7
 10
38.790599999999991
 20
110.187
 30
0.0
 11
37.98449999999999
 21
110.1909999999999
 31
0.0
  0
LINE
  5
74
  8
0
 62
     7
 10
37.98449999999999
 20
110.1909999999999
 30
0.0
 11
37.157299999999999
 21
110.19499999999989
 31
0.0
  0
LINE
  5
75
  8
0
 62
     7
 10
37.157299999999999
 20
110.19499999999989
 30
0.0
 11
36.314999999999991
 21
110.20099999999999
 31
0.0
  0
LINE
  5
76
  8
0
 62
     7
 10
36.314999999999991
 20
110.20099999999999
 30
0.0
 11
35.462299999999992
 21
110.209
 31
0.0
  0
LINE
  5
77
  8
0
 62
     7
 10
35.462299999999992
 20
110.209
 30
0.0
 11
34.6038
 21
110.21899999999999
 31
0.0
  0
LINE
  5
78
  8
0
 62
     7
 10
34.6038
 20
110.21899999999999
 30
0.0
 11
33.7453
 21
110.2289999999999
 31
0.0
  0
LINE
  5
79
  8
0
 62
     7
 10
33.7453
 20
110.2289999999999
 30
0.0
 11
32.891199999999998
 21
110.241
 31
0.0
  0
LINE
  5
7A
  8
0
 62
     7
 10
32.891199999999998
 20
110.241
 30
0.0
 11
32.056100000000001
 21
110.2549999999999
 31
0.0
  0
LINE
  5
7B
  8
0
 62
     7
 10
32.056100000000001
 20
110.2549999999999
 30
0.0
 11
31.248899999999999
 21
110.271
 31
0.0
  0
LINE
  5
7C
  8
0
 62
     7
 10
31.248899999999999
 20
110.271
 30
0.0
 11
30.500299999999999
 21
110.288
 31
0.0
  0
LINE
  5
7D
  8
0
 62
     7
 10
30.500299999999999
 20
110.288
 30
0.0
 11
29.829899999999999
 21
110.3059999999999
 31
0.0
  0
LINE
  5
7E
  8
0
 62
     7
 10
29.829899999999999
 20
110.3059999999999
 30
0.0
 11
29.258700000000001
 21
110.325
 31
0.0
  0
LINE
  5
7F
  8
0
 62
     7
 10
29.258700000000001
 20
110.325
 30
0.0
 11
28.796700000000001
 21
110.34399999999989
 31
0.0
  0
LINE
  5
80
  8
0
 62
     7
 10
28.796700000000001
 20
110.34399999999989
 30
0.0
 11
28.450099999999999
 21
110.363
 31
0.0
  0
LINE
  5
81
  8
0
 62
     7
 10
28.450099999999999
 20
110.363
 30
0.0
 11
28.217199999999998
 21
110.3799999999999
 31
0.0
  0
LINE
  5
82
  8
0
  6
AIGENLINE001
 62
     7
 10
21.930599999999998
 20
104.991
 30
0.0
 11
28.298500000000001
 21
104.991
 31
0.0
  0
LINE
  5
83
  8
0
 62
     7
 10
129.05199999999999
 20
110.491
 30
0.0
 11
136.49899999999991
 21
110.491
 31
0.0
  0
LINE
  5
84
  8
0
 62
     7
 10
26.0489
 20
110.491
 30
0.0
 11
21.524100000000001
 21
110.491
 31
0.0
  0
LINE
  5
85
  8
0
 62
     7
 10
128.191
 20
110.491
 30
0.0
 11
123.666
 21
110.491
 31
0.0
  0
LINE
  5
86
  8
0
 62
     7
 10
110.166
 20
110.18600000000001
 30
0.0
 11
40.052599999999991
 21
110.18600000000001
 31
0.0
  0
LINE
  5
87
  8
0
 62
     7
 10
28.217199999999998
 20
110.3799999999999
 30
0.0
 11
28.125599999999991
 21
110.389
 31
0.0
  0
LINE
  5
88
  8
0
 62
     7
 10
121.645
 20
110.39399999999991
 30
0.0
 11
123.666
 21
110.491
 31
0.0
  0
LINE
  5
89
  8
0
 62
     7
 10
121.645
 20
110.39399999999991
 30
0.0
 11
121.6399999999999
 21
110.39399999999991
 31
0.0
  0
LINE
  5
8A
  8
0
 62
     7
 10
121.6399999999999
 20
110.39399999999991
 30
0.0
 11
121.63500000000001
 21
110.39399999999991
 31
0.0
  0
LINE
  5
8B
  8
0
 62
     7
 10
121.63500000000001
 20
110.39399999999991
 30
0.0
 11
121.62899999999991
 21
110.3929999999999
 31
0.0
  0
LINE
  5
8C
  8
0
 62
     7
 10
121.62899999999991
 20
110.3929999999999
 30
0.0
 11
121.625
 21
110.3929999999999
 31
0.0
  0
LINE
  5
8D
  8
0
 62
     7
 10
121.625
 20
110.3929999999999
 30
0.0
 11
121.62
 21
110.3929999999999
 31
0.0
  0
LINE
  5
8E
  8
0
 62
     7
 10
121.62
 20
110.3929999999999
 30
0.0
 11
121.6139999999999
 21
110.392
 31
0.0
  0
LINE
  5
8F
  8
0
 62
     7
 10
121.6139999999999
 20
110.392
 30
0.0
 11
121.6099999999999
 21
110.392
 31
0.0
  0
LINE
  5
90
  8
0
 62
     7
 10
121.6099999999999
 20
110.392
 30
0.0
 11
121.605
 21
110.39100000000001
 31
0.0
  0
LINE
  5
91
  8
0
 62
     7
 10
121.605
 20
110.39100000000001
 30
0.0
 11
121.59999999999989
 21
110.39
 31
0.0
  0
LINE
  5
92
  8
0
 62
     7
 10
121.59999999999989
 20
110.39
 30
0.0
 11
121.59399999999999
 21
110.39
 31
0.0
  0
LINE
  5
93
  8
0
 62
     7
 10
121.59399999999999
 20
110.39
 30
0.0
 11
121.5899999999999
 21
110.389
 31
0.0
  0
LINE
  5
94
  8
0
 62
     7
 10
121.502
 20
110.3809999999999
 30
0.0
 11
121.273
 21
110.3639999999999
 31
0.0
  0
LINE
  5
95
  8
0
 62
     7
 10
121.273
 20
110.3639999999999
 30
0.0
 11
120.9289999999999
 21
110.345
 31
0.0
  0
LINE
  5
96
  8
0
 62
     7
 10
120.9289999999999
 20
110.345
 30
0.0
 11
120.471
 21
110.32599999999999
 31
0.0
  0
LINE
  5
97
  8
0
 62
     7
 10
120.471
 20
110.32599999999999
 30
0.0
 11
119.9019999999999
 21
110.3069999999999
 31
0.0
  0
LINE
  5
98
  8
0
 62
     7
 10
119.9019999999999
 20
110.3069999999999
 30
0.0
 11
119.2329999999999
 21
110.289
 31
0.0
  0
LINE
  5
99
  8
0
 62
     7
 10
119.2329999999999
 20
110.289
 30
0.0
 11
118.48699999999999
 21
110.27200000000001
 31
0.0
  0
LINE
  5
9A
  8
0
 62
     7
 10
118.48699999999999
 20
110.27200000000001
 30
0.0
 11
117.68000000000001
 21
110.2559999999999
 31
0.0
  0
LINE
  5
9B
  8
0
 62
     7
 10
117.68000000000001
 20
110.2559999999999
 30
0.0
 11
116.846
 21
110.242
 31
0.0
  0
LINE
  5
9C
  8
0
 62
     7
 10
116.846
 20
110.242
 30
0.0
 11
115.9929999999999
 21
110.23
 31
0.0
  0
LINE
  5
9D
  8
0
 62
     7
 10
115.9929999999999
 20
110.23
 30
0.0
 11
115.13500000000001
 21
110.21899999999999
 31
0.0
  0
LINE
  5
9E
  8
0
 62
     7
 10
115.13500000000001
 20
110.21899999999999
 30
0.0
 11
114.277
 21
110.209
 31
0.0
  0
LINE
  5
9F
  8
0
 62
     7
 10
114.277
 20
110.209
 30
0.0
 11
113.4249999999999
 21
110.202
 31
0.0
  0
LINE
  5
A0
  8
0
 62
     7
 10
113.4249999999999
 20
110.202
 30
0.0
 11
112.58199999999999
 21
110.196
 31
0.0
  0
LINE
  5
A1
  8
0
 62
     7
 10
112.58199999999999
 20
110.196
 30
0.0
 11
111.75399999999991
 21
110.1909999999999
 31
0.0
  0
LINE
  5
A2
  8
0
 62
     7
 10
111.75399999999991
 20
110.1909999999999
 30
0.0
 11
110.9469999999999
 21
110.1879999999999
 31
0.0
  0
LINE
  5
A3
  8
0
 62
     7
 10
110.9469999999999
 20
110.1879999999999
 30
0.0
 11
110.166
 21
110.18600000000001
 31
0.0
  0
LINE
  5
A4
  8
0
 62
     7
 10
121.5899999999999
 20
110.389
 30
0.0
 11
121.502
 21
110.3809999999999
 31
0.0
  0
LINE
  5
A5
  8
0
 62
     7
 10
121.5899999999999
 20
99.591800000000006
 30
0.0
 11
121.59399999999999
 21
99.591399999999993
 31
0.0
  0
LINE
  5
A6
  8
0
 62
     7
 10
121.59399999999999
 20
99.591399999999993
 30
0.0
 11
121.59999999999989
 21
99.591099999999997
 31
0.0
  0
LINE
  5
A7
  8
0
 62
     7
 10
121.59999999999989
 20
99.591099999999997
 30
0.0
 11
121.605
 21
99.590400000000017
 31
0.0
  0
LINE
  5
A8
  8
0
 62
     7
 10
121.605
 20
99.590400000000017
 30
0.0
 11
121.6099999999999
 21
99.590400000000017
 31
0.0
  0
LINE
  5
A9
  8
0
 62
     7
 10
121.6099999999999
 20
99.590400000000017
 30
0.0
 11
121.6139999999999
 21
99.589699999999993
 31
0.0
  0
LINE
  5
AA
  8
0
 62
     7
 10
121.6139999999999
 20
99.589699999999993
 30
0.0
 11
121.62
 21
99.589399999999998
 31
0.0
  0
LINE
  5
AB
  8
0
 62
     7
 10
121.62
 20
99.589399999999998
 30
0.0
 11
121.625
 21
99.588999999999984
 31
0.0
  0
LINE
  5
AC
  8
0
 62
     7
 10
121.625
 20
99.588999999999984
 30
0.0
 11
121.62899999999991
 21
99.588300000000004
 31
0.0
  0
LINE
  5
AD
  8
0
 62
     7
 10
121.62899999999991
 20
99.588300000000004
 30
0.0
 11
121.63500000000001
 21
99.587999999999994
 31
0.0
  0
LINE
  5
AE
  8
0
 62
     7
 10
121.63500000000001
 20
99.587999999999994
 30
0.0
 11
121.6399999999999
 21
99.587999999999994
 31
0.0
  0
LINE
  5
AF
  8
0
 62
     7
 10
121.6399999999999
 20
99.587999999999994
 30
0.0
 11
121.645
 21
99.587700000000012
 31
0.0
  0
LINE
  5
B0
  8
0
 62
     7
 10
121.645
 20
99.587700000000012
 30
0.0
 11
121.651
 21
99.587000000000003
 31
0.0
  0
LINE
  5
B1
  8
0
 62
     7
 10
28.125599999999991
 20
110.389
 30
0.0
 11
28.120799999999988
 21
110.39
 31
0.0
  0
LINE
  5
B2
  8
0
 62
     7
 10
28.120799999999988
 20
110.39
 30
0.0
 11
28.115300000000001
 21
110.39
 31
0.0
  0
LINE
  5
B3
  8
0
 62
     7
 10
28.115300000000001
 20
110.39
 30
0.0
 11
28.110399999999998
 21
110.39100000000001
 31
0.0
  0
LINE
  5
B4
  8
0
 62
     7
 10
28.110399999999998
 20
110.39100000000001
 30
0.0
 11
28.105299999999989
 21
110.392
 31
0.0
  0
LINE
  5
B5
  8
0
 62
     7
 10
28.105299999999989
 20
110.392
 30
0.0
 11
28.1004
 21
110.392
 31
0.0
  0
LINE
  5
B6
  8
0
 62
     7
 10
28.1004
 20
110.392
 30
0.0
 11
28.095300000000002
 21
110.3929999999999
 31
0.0
  0
LINE
  5
B7
  8
0
 62
     7
 10
28.095300000000002
 20
110.3929999999999
 30
0.0
 11
28.0901
 21
110.3929999999999
 31
0.0
  0
LINE
  5
B8
  8
0
 62
     7
 10
28.0901
 20
110.3929999999999
 30
0.0
 11
28.0853
 21
110.3929999999999
 31
0.0
  0
LINE
  5
B9
  8
0
 62
     7
 10
28.0853
 20
110.3929999999999
 30
0.0
 11
28.080100000000002
 21
110.39399999999991
 31
0.0
  0
LINE
  5
BA
  8
0
 62
     7
 10
28.080100000000002
 20
110.39399999999991
 30
0.0
 11
28.0746
 21
110.39399999999991
 31
0.0
  0
LINE
  5
BB
  8
0
 62
     7
 10
28.0746
 20
110.39399999999991
 30
0.0
 11
28.069400000000002
 21
110.39399999999991
 31
0.0
  0
LINE
  5
BC
  8
0
 62
     7
 10
28.069400000000002
 20
110.39399999999991
 30
0.0
 11
26.0489
 21
110.491
 31
0.0
  0
LINE
  5
BD
  8
0
 62
     7
 10
121.49799999999991
 20
99.601399999999998
 30
0.0
 11
121.5899999999999
 21
99.591800000000006
 31
0.0
  0
LINE
  5
BE
  8
0
 62
     7
 10
28.064299999999999
 20
99.587000000000003
 30
0.0
 11
28.069400000000002
 21
99.587700000000012
 31
0.0
  0
LINE
  5
BF
  8
0
 62
     7
 10
28.069400000000002
 20
99.587700000000012
 30
0.0
 11
28.0746
 21
99.587999999999994
 31
0.0
  0
LINE
  5
C0
  8
0
 62
     7
 10
28.0746
 20
99.587999999999994
 30
0.0
 11
28.080100000000002
 21
99.587999999999994
 31
0.0
  0
LINE
  5
C1
  8
0
 62
     7
 10
28.080100000000002
 20
99.587999999999994
 30
0.0
 11
28.0853
 21
99.588300000000004
 31
0.0
  0
LINE
  5
C2
  8
0
 62
     7
 10
28.0853
 20
99.588300000000004
 30
0.0
 11
28.0901
 21
99.588999999999984
 31
0.0
  0
LINE
  5
C3
  8
0
 62
     7
 10
28.0901
 20
99.588999999999984
 30
0.0
 11
28.095300000000002
 21
99.589399999999998
 31
0.0
  0
LINE
  5
C4
  8
0
 62
     7
 10
28.095300000000002
 20
99.589399999999998
 30
0.0
 11
28.1004
 21
99.589699999999993
 31
0.0
  0
LINE
  5
C5
  8
0
 62
     7
 10
28.1004
 20
99.589699999999993
 30
0.0
 11
28.105299999999989
 21
99.590400000000017
 31
0.0
  0
LINE
  5
C6
  8
0
 62
     7
 10
28.105299999999989
 20
99.590400000000017
 30
0.0
 11
28.110399999999998
 21
99.590400000000017
 31
0.0
  0
LINE
  5
C7
  8
0
 62
     7
 10
28.110399999999998
 20
99.590400000000017
 30
0.0
 11
28.115300000000001
 21
99.591099999999997
 31
0.0
  0
LINE
  5
C8
  8
0
 62
     7
 10
28.115300000000001
 20
99.591099999999997
 30
0.0
 11
28.120799999999988
 21
99.591399999999993
 31
0.0
  0
LINE
  5
C9
  8
0
 62
     7
 10
28.120799999999988
 20
99.591399999999993
 30
0.0
 11
28.125599999999991
 21
99.592500000000001
 31
0.0
  0
LINE
  5
CA
  8
0
 62
     7
 10
28.212399999999992
 20
99.600800000000007
 30
0.0
 11
28.4419
 21
99.617999999999995
 31
0.0
  0
LINE
  5
CB
  8
0
 62
     7
 10
28.4419
 20
99.617999999999995
 30
0.0
 11
28.785299999999989
 21
99.636600000000001
 31
0.0
  0
LINE
  5
CC
  8
0
 62
     7
 10
28.785299999999989
 20
99.636600000000001
 30
0.0
 11
29.2439
 21
99.655500000000004
 31
0.0
  0
LINE
  5
CD
  8
0
 62
     7
 10
29.2439
 20
99.655500000000004
 30
0.0
 11
29.812999999999999
 21
99.674499999999995
 31
0.0
  0
LINE
  5
CE
  8
0
 62
     7
 10
29.812999999999999
 20
99.674499999999995
 30
0.0
 11
30.480699999999999
 21
99.693100000000001
 31
0.0
  0
LINE
  5
CF
  8
0
 62
     7
 10
30.480699999999999
 20
99.693100000000001
 30
0.0
 11
31.228300000000001
 21
99.710300000000004
 31
0.0
  0
LINE
  5
D0
  8
0
 62
     7
 10
31.228300000000001
 20
99.710300000000004
 30
0.0
 11
32.034100000000002
 21
99.725800000000007
 31
0.0
  0
LINE
  5
D1
  8
0
 62
     7
 10
32.034100000000002
 20
99.725800000000007
 30
0.0
 11
32.8688
 21
99.739900000000006
 31
0.0
  0
LINE
  5
D2
  8
0
 62
     7
 10
32.8688
 20
99.739900000000006
 30
0.0
 11
33.721800000000002
 21
99.752300000000005
 31
0.0
  0
LINE
  5
D3
  8
0
 62
     7
 10
33.721800000000002
 20
99.752300000000005
 30
0.0
 11
34.579999999999998
 21
99.762699999999995
 31
0.0
  0
LINE
  5
D4
  8
0
 62
     7
 10
34.579999999999998
 20
99.762699999999995
 30
0.0
 11
35.438200000000002
 21
99.772300000000001
 31
0.0
  0
LINE
  5
D5
  8
0
 62
     7
 10
35.438200000000002
 20
99.772300000000001
 30
0.0
 11
36.290900000000001
 21
99.779899999999998
 31
0.0
  0
LINE
  5
D6
  8
0
 62
     7
 10
36.290900000000001
 20
99.779899999999998
 30
0.0
 11
37.133200000000002
 21
99.786100000000005
 31
0.0
  0
LINE
  5
D7
  8
0
 62
     7
 10
37.133200000000002
 20
99.786100000000005
 30
0.0
 11
37.961100000000002
 21
99.790899999999993
 31
0.0
  0
LINE
  5
D8
  8
0
 62
     7
 10
37.961100000000002
 20
99.790899999999993
 30
0.0
 11
38.76789999999999
 21
99.794399999999996
 31
0.0
  0
LINE
  5
D9
  8
0
 62
     7
 10
38.76789999999999
 20
99.794399999999996
 30
0.0
 11
39.548900000000003
 21
99.795699999999997
 31
0.0
  0
LINE
  5
DA
  8
0
 62
     7
 10
28.125599999999991
 20
99.592500000000001
 30
0.0
 11
28.212399999999992
 21
99.600800000000007
 31
0.0
  0
LINE
  5
DB
  8
0
 62
     7
 10
28.125599999999991
 20
99.592500000000001
 30
0.0
 11
28.131099999999989
 21
99.592799999999997
 31
0.0
  0
LINE
  5
DC
  8
0
 62
     7
 10
28.131099999999989
 20
99.592799999999997
 30
0.0
 11
28.136600000000001
 21
99.593900000000005
 31
0.0
  0
LINE
  5
DD
  8
0
 62
     7
 10
28.136600000000001
 20
99.593900000000005
 30
0.0
 11
28.142800000000001
 21
99.594599999999986
 31
0.0
  0
LINE
  5
DE
  8
0
 62
     7
 10
28.142800000000001
 20
99.594599999999986
 30
0.0
 11
28.149000000000001
 21
99.595600000000005
 31
0.0
  0
LINE
  5
DF
  8
0
 62
     7
 10
28.149000000000001
 20
99.595600000000005
 30
0.0
 11
28.155899999999999
 21
99.596599999999995
 31
0.0
  0
LINE
  5
E0
  8
0
 62
     7
 10
28.155899999999999
 20
99.596599999999995
 30
0.0
 11
28.163499999999988
 21
99.598699999999994
 31
0.0
  0
LINE
  5
E1
  8
0
 62
     7
 10
121.5899999999999
 20
110.389
 30
0.0
 11
121.5829999999999
 21
110.389
 31
0.0
  0
LINE
  5
E2
  8
0
 62
     7
 10
121.5829999999999
 20
110.389
 30
0.0
 11
121.5779999999999
 21
110.38799999999991
 31
0.0
  0
LINE
  5
E3
  8
0
 62
     7
 10
121.5779999999999
 20
110.38799999999991
 30
0.0
 11
121.572
 21
110.387
 31
0.0
  0
LINE
  5
E4
  8
0
 62
     7
 10
121.572
 20
110.387
 30
0.0
 11
121.5659999999999
 21
110.386
 31
0.0
  0
LINE
  5
E5
  8
0
 62
     7
 10
121.5659999999999
 20
110.386
 30
0.0
 11
121.5589999999999
 21
110.38499999999991
 31
0.0
  0
LINE
  5
E6
  8
0
 62
     7
 10
121.5589999999999
 20
110.38499999999991
 30
0.0
 11
121.55200000000001
 21
110.383
 31
0.0
  0
LINE
  5
E7
  8
0
 62
     7
 10
28.163499999999988
 20
110.383
 30
0.0
 11
28.155899999999999
 21
110.38499999999991
 31
0.0
  0
LINE
  5
E8
  8
0
 62
     7
 10
28.155899999999999
 20
110.38499999999991
 30
0.0
 11
28.149000000000001
 21
110.386
 31
0.0
  0
LINE
  5
E9
  8
0
 62
     7
 10
28.149000000000001
 20
110.386
 30
0.0
 11
28.142800000000001
 21
110.387
 31
0.0
  0
LINE
  5
EA
  8
0
 62
     7
 10
28.142800000000001
 20
110.387
 30
0.0
 11
28.136600000000001
 21
110.38799999999991
 31
0.0
  0
LINE
  5
EB
  8
0
 62
     7
 10
28.136600000000001
 20
110.38799999999991
 30
0.0
 11
28.131099999999989
 21
110.389
 31
0.0
  0
LINE
  5
EC
  8
0
 62
     7
 10
28.131099999999989
 20
110.389
 30
0.0
 11
28.125599999999991
 21
110.389
 31
0.0
  0
LINE
  5
ED
  8
0
 62
     7
 10
123.666
 20
99.490899999999996
 30
0.0
 11
121.651
 21
99.587000000000003
 31
0.0
  0
LINE
  5
EE
  8
0
 62
     7
 10
109.663
 20
99.795699999999997
 30
0.0
 11
110.14399999999991
 21
99.795699999999997
 31
0.0
  0
LINE
  5
EF
  8
0
 62
     7
 10
110.14399999999991
 20
99.795699999999997
 30
0.0
 11
110.925
 21
99.794399999999996
 31
0.0
  0
LINE
  5
F0
  8
0
 62
     7
 10
110.925
 20
99.794399999999996
 30
0.0
 11
111.73099999999999
 21
99.790899999999993
 31
0.0
  0
LINE
  5
F1
  8
0
 62
     7
 10
111.73099999999999
 20
99.790899999999993
 30
0.0
 11
112.55800000000001
 21
99.786100000000005
 31
0.0
  0
LINE
  5
F2
  8
0
 62
     7
 10
112.55800000000001
 20
99.786100000000005
 30
0.0
 11
113.40000000000001
 21
99.779899999999998
 31
0.0
  0
LINE
  5
F3
  8
0
 62
     7
 10
113.40000000000001
 20
99.779899999999998
 30
0.0
 11
114.2529999999999
 21
99.7727
 31
0.0
  0
LINE
  5
F4
  8
0
 62
     7
 10
114.2529999999999
 20
99.7727
 30
0.0
 11
115.111
 21
99.763400000000004
 31
0.0
  0
LINE
  5
F5
  8
0
 62
     7
 10
115.111
 20
99.763400000000004
 30
0.0
 11
115.9699999999999
 21
99.752700000000004
 31
0.0
  0
LINE
  5
F6
  8
0
 62
     7
 10
115.9699999999999
 20
99.752700000000004
 30
0.0
 11
116.8239999999999
 21
99.740300000000005
 31
0.0
  0
LINE
  5
F7
  8
0
 62
     7
 10
116.8239999999999
 20
99.740300000000005
 30
0.0
 11
117.65900000000001
 21
99.726200000000006
 31
0.0
  0
LINE
  5
F8
  8
0
 62
     7
 10
117.65900000000001
 20
99.726200000000006
 30
0.0
 11
118.46599999999999
 21
99.710700000000003
 31
0.0
  0
LINE
  5
F9
  8
0
 62
     7
 10
118.46599999999999
 20
99.710700000000003
 30
0.0
 11
119.215
 21
99.693399999999997
 31
0.0
  0
LINE
  5
FA
  8
0
 62
     7
 10
119.215
 20
99.693399999999997
 30
0.0
 11
119.88499999999991
 21
99.675200000000004
 31
0.0
  0
LINE
  5
FB
  8
0
 62
     7
 10
119.88499999999991
 20
99.675200000000004
 30
0.0
 11
120.456
 21
99.655900000000003
 31
0.0
  0
LINE
  5
FC
  8
0
 62
     7
 10
120.456
 20
99.655900000000003
 30
0.0
 11
120.91799999999991
 21
99.636899999999983
 31
0.0
  0
LINE
  5
FD
  8
0
 62
     7
 10
120.91799999999991
 20
99.636899999999983
 30
0.0
 11
121.265
 21
99.618300000000005
 31
0.0
  0
LINE
  5
FE
  8
0
 62
     7
 10
121.265
 20
99.618300000000005
 30
0.0
 11
121.49799999999991
 21
99.601399999999998
 31
0.0
  0
LINE
  5
FF
  8
0
 62
     7
 10
39.548900000000003
 20
99.795699999999997
 30
0.0
 11
109.663
 21
99.795699999999997
 31
0.0
  0
LINE
  5
100
  8
0
 62
     7
 10
129.05199999999999
 20
99.490899999999996
 30
0.0
 11
136.49899999999991
 21
99.490899999999996
 31
0.0
  0
LINE
  5
101
  8
0
 62
     7
 10
123.666
 20
99.490899999999996
 30
0.0
 11
128.191
 21
99.490899999999996
 31
0.0
  0
LINE
  5
102
  8
0
 62
     7
 10
21.524100000000001
 20
99.490899999999996
 30
0.0
 11
26.0489
 21
99.490899999999996
 31
0.0
  0
LINE
  5
103
  8
0
 62
     7
 10
28.064299999999999
 20
99.587000000000003
 30
0.0
 11
26.0489
 21
99.490899999999996
 31
0.0
  0
LINE
  5
104
  8
0
 62
     7
 10
128.191
 20
99.490899999999996
 30
0.0
 11
128.25699999999989
 21
99.497399999999999
 31
0.0
  0
LINE
  5
105
  8
0
 62
     7
 10
128.25699999999989
 20
99.497399999999999
 30
0.0
 11
128.3189999999999
 21
99.516000000000005
 31
0.0
  0
LINE
  5
106
  8
0
 62
     7
 10
128.3189999999999
 20
99.516000000000005
 30
0.0
 11
128.376
 21
99.547000000000025
 31
0.0
  0
LINE
  5
107
  8
0
 62
     7
 10
128.376
 20
99.547000000000025
 30
0.0
 11
128.42699999999999
 21
99.588300000000004
 31
0.0
  0
LINE
  5
108
  8
0
 62
     7
 10
128.42699999999999
 20
99.588300000000004
 30
0.0
 11
128.4679999999999
 21
99.638599999999997
 31
0.0
  0
LINE
  5
109
  8
0
 62
     7
 10
128.4679999999999
 20
99.638599999999997
 30
0.0
 11
128.499
 21
99.696200000000005
 31
0.0
  0
LINE
  5
10A
  8
0
 62
     7
 10
128.499
 20
99.696200000000005
 30
0.0
 11
128.51799999999989
 21
99.757499999999993
 31
0.0
  0
LINE
  5
10B
  8
0
 62
     7
 10
128.51799999999989
 20
99.757499999999993
 30
0.0
 11
128.52500000000001
 21
99.823999999999998
 31
0.0
  0
LINE
  5
10C
  8
0
 62
     7
 10
21.1906
 20
110.158
 30
0.0
 11
21.1906
 21
99.823999999999998
 31
0.0
  0
LINE
  5
10D
  8
0
 62
     7
 10
21.1906
 20
99.823999999999998
 30
0.0
 11
21.197099999999988
 21
99.757499999999993
 31
0.0
  0
LINE
  5
10E
  8
0
 62
     7
 10
21.197099999999988
 20
99.757499999999993
 30
0.0
 11
21.215699999999991
 21
99.696200000000005
 31
0.0
  0
LINE
  5
10F
  8
0
 62
     7
 10
21.215699999999991
 20
99.696200000000005
 30
0.0
 11
21.246400000000001
 21
99.638599999999997
 31
0.0
  0
LINE
  5
110
  8
0
 62
     7
 10
21.246400000000001
 20
99.638599999999997
 30
0.0
 11
21.2881
 21
99.588300000000004
 31
0.0
  0
LINE
  5
111
  8
0
 62
     7
 10
21.2881
 20
99.588300000000004
 30
0.0
 11
21.338699999999989
 21
99.547000000000025
 31
0.0
  0
LINE
  5
112
  8
0
 62
     7
 10
21.338699999999989
 20
99.547000000000025
 30
0.0
 11
21.3962
 21
99.516000000000005
 31
0.0
  0
LINE
  5
113
  8
0
 62
     7
 10
21.3962
 20
99.516000000000005
 30
0.0
 11
21.457599999999999
 21
99.497399999999999
 31
0.0
  0
LINE
  5
114
  8
0
 62
     7
 10
21.457599999999999
 20
99.497399999999999
 30
0.0
 11
21.524100000000001
 21
99.490899999999996
 31
0.0
  0
LINE
  5
115
  8
0
 62
     7
 10
124.26299999999991
 20
161.73699999999999
 30
0.0
 11
124.63500000000001
 21
161.25999999999999
 31
0.0
  0
LINE
  5
116
  8
0
 62
     7
 10
124.63500000000001
 20
161.25999999999999
 30
0.0
 11
124.47799999999989
 21
161.25999999999999
 31
0.0
  0
LINE
  5
117
  8
0
 62
     7
 10
124.47799999999989
 20
161.25999999999999
 30
0.0
 11
124.113
 21
161.7289999999999
 31
0.0
  0
LINE
  5
118
  8
0
 62
     7
 10
124.113
 20
161.7289999999999
 30
0.0
 11
124.113
 21
161.25999999999999
 31
0.0
  0
LINE
  5
119
  8
0
 62
     7
 10
124.113
 20
161.25999999999999
 30
0.0
 11
123.98399999999999
 21
161.25999999999999
 31
0.0
  0
LINE
  5
11A
  8
0
 62
     7
 10
123.98399999999999
 20
161.25999999999999
 30
0.0
 11
123.98399999999999
 21
162.25200000000001
 31
0.0
  0
LINE
  5
11B
  8
0
 62
     7
 10
123.98399999999999
 20
162.25200000000001
 30
0.0
 11
124.113
 21
162.25200000000001
 31
0.0
  0
LINE
  5
11C
  8
0
 62
     7
 10
124.113
 20
162.25200000000001
 30
0.0
 11
124.113
 21
161.745
 31
0.0
  0
LINE
  5
11D
  8
0
 62
     7
 10
124.113
 20
161.745
 30
0.0
 11
124.486
 21
162.25200000000001
 31
0.0
  0
LINE
  5
11E
  8
0
 62
     7
 10
124.486
 20
162.25200000000001
 30
0.0
 11
124.642
 21
162.25200000000001
 31
0.0
  0
LINE
  5
11F
  8
0
 62
     7
 10
124.642
 20
162.25200000000001
 30
0.0
 11
124.26299999999991
 21
161.73699999999999
 31
0.0
  0
LINE
  5
120
  8
0
 62
     7
 10
124.848
 20
162.124
 30
0.0
 11
125.355
 21
162.124
 31
0.0
  0
LINE
  5
121
  8
0
 62
     7
 10
125.355
 20
162.124
 30
0.0
 11
125.355
 21
162.25200000000001
 31
0.0
  0
LINE
  5
122
  8
0
 62
     7
 10
125.355
 20
162.25200000000001
 30
0.0
 11
124.71599999999999
 21
162.25200000000001
 31
0.0
  0
LINE
  5
123
  8
0
 62
     7
 10
124.71599999999999
 20
162.25200000000001
 30
0.0
 11
124.71599999999999
 21
161.25999999999999
 31
0.0
  0
LINE
  5
124
  8
0
 62
     7
 10
124.71599999999999
 20
161.25999999999999
 30
0.0
 11
125.355
 21
161.25999999999999
 31
0.0
  0
LINE
  5
125
  8
0
 62
     7
 10
125.355
 20
161.25999999999999
 30
0.0
 11
125.355
 21
161.38799999999989
 31
0.0
  0
LINE
  5
126
  8
0
 62
     7
 10
125.355
 20
161.38799999999989
 30
0.0
 11
124.848
 21
161.38799999999989
 31
0.0
  0
LINE
  5
127
  8
0
 62
     7
 10
124.848
 20
161.38799999999989
 30
0.0
 11
124.848
 21
161.751
 31
0.0
  0
LINE
  5
128
  8
0
 62
     7
 10
124.848
 20
161.751
 30
0.0
 11
125.355
 21
161.751
 31
0.0
  0
LINE
  5
129
  8
0
 62
     7
 10
125.355
 20
161.751
 30
0.0
 11
125.355
 21
161.87899999999991
 31
0.0
  0
LINE
  5
12A
  8
0
 62
     7
 10
125.355
 20
161.87899999999991
 30
0.0
 11
124.848
 21
161.87899999999991
 31
0.0
  0
LINE
  5
12B
  8
0
 62
     7
 10
124.848
 20
161.87899999999991
 30
0.0
 11
124.848
 21
162.124
 31
0.0
  0
LINE
  5
12C
  8
0
 62
     7
 10
125.58499999999989
 20
162.25200000000001
 30
0.0
 11
125.456
 21
162.25200000000001
 31
0.0
  0
LINE
  5
12D
  8
0
 62
     7
 10
125.456
 20
162.25200000000001
 30
0.0
 11
125.456
 21
161.626
 31
0.0
  0
LINE
  5
12E
  8
0
 62
     7
 10
125.456
 20
161.626
 30
0.0
 11
125.47799999999999
 21
161.501
 31
0.0
  0
LINE
  5
12F
  8
0
 62
     7
 10
125.47799999999999
 20
161.501
 30
0.0
 11
125.5419999999999
 21
161.39099999999991
 31
0.0
  0
LINE
  5
130
  8
0
 62
     7
 10
125.5419999999999
 20
161.39099999999991
 30
0.0
 11
125.6389999999999
 21
161.31
 31
0.0
  0
LINE
  5
131
  8
0
 62
     7
 10
125.6389999999999
 20
161.31
 30
0.0
 11
125.75700000000001
 21
161.26599999999991
 31
0.0
  0
LINE
  5
132
  8
0
 62
     7
 10
125.75700000000001
 20
161.26599999999991
 30
0.0
 11
125.8839999999999
 21
161.26599999999991
 31
0.0
  0
LINE
  5
133
  8
0
 62
     7
 10
125.8839999999999
 20
161.26599999999991
 30
0.0
 11
126.0029999999999
 21
161.31
 31
0.0
  0
LINE
  5
134
  8
0
 62
     7
 10
126.0029999999999
 20
161.31
 30
0.0
 11
126.10299999999989
 21
161.39099999999991
 31
0.0
  0
LINE
  5
135
  8
0
 62
     7
 10
126.10299999999989
 20
161.39099999999991
 30
0.0
 11
126.164
 21
161.501
 31
0.0
  0
LINE
  5
136
  8
0
 62
     7
 10
126.164
 20
161.501
 30
0.0
 11
126.187
 21
161.626
 31
0.0
  0
LINE
  5
137
  8
0
 62
     7
 10
126.187
 20
161.626
 30
0.0
 11
126.187
 21
162.25200000000001
 31
0.0
  0
LINE
  5
138
  8
0
 62
     7
 10
126.187
 20
162.25200000000001
 30
0.0
 11
126.05800000000001
 21
162.25200000000001
 31
0.0
  0
LINE
  5
139
  8
0
 62
     7
 10
126.05800000000001
 20
162.25200000000001
 30
0.0
 11
126.05800000000001
 21
161.626
 31
0.0
  0
LINE
  5
13A
  8
0
 62
     7
 10
126.05800000000001
 20
161.626
 30
0.0
 11
126.041
 21
161.536
 31
0.0
  0
LINE
  5
13B
  8
0
 62
     7
 10
126.041
 20
161.536
 30
0.0
 11
125.9889999999999
 21
161.45699999999999
 31
0.0
  0
LINE
  5
13C
  8
0
 62
     7
 10
125.9889999999999
 20
161.45699999999999
 30
0.0
 11
125.9109999999999
 21
161.4079999999999
 31
0.0
  0
LINE
  5
13D
  8
0
 62
     7
 10
125.9109999999999
 20
161.4079999999999
 30
0.0
 11
125.82299999999989
 21
161.38799999999989
 31
0.0
  0
LINE
  5
13E
  8
0
 62
     7
 10
125.82299999999989
 20
161.38799999999989
 30
0.0
 11
125.73099999999999
 21
161.4079999999999
 31
0.0
  0
LINE
  5
13F
  8
0
 62
     7
 10
125.73099999999999
 20
161.4079999999999
 30
0.0
 11
125.6539999999999
 21
161.45699999999999
 31
0.0
  0
LINE
  5
140
  8
0
 62
     7
 10
125.6539999999999
 20
161.45699999999999
 30
0.0
 11
125.602
 21
161.536
 31
0.0
  0
LINE
  5
141
  8
0
 62
     7
 10
125.602
 20
161.536
 30
0.0
 11
125.58499999999989
 21
161.626
 31
0.0
  0
LINE
  5
142
  8
0
 62
     7
 10
125.58499999999989
 20
161.626
 30
0.0
 11
125.58499999999989
 21
162.25200000000001
 31
0.0
  0
LINE
  5
143
  8
0
 62
     7
 10
126.93000000000001
 20
162.0679999999999
 30
0.0
 11
126.8089999999999
 21
162.1109999999999
 31
0.0
  0
LINE
  5
144
  8
0
 62
     7
 10
126.8089999999999
 20
162.1109999999999
 30
0.0
 11
126.68000000000001
 21
162.1109999999999
 31
0.0
  0
LINE
  5
145
  8
0
 62
     7
 10
126.68000000000001
 20
162.1109999999999
 30
0.0
 11
126.562
 21
162.06599999999989
 31
0.0
  0
LINE
  5
146
  8
0
 62
     7
 10
126.562
 20
162.06599999999989
 30
0.0
 11
126.46599999999999
 21
161.98500000000001
 31
0.0
  0
LINE
  5
147
  8
0
 62
     7
 10
126.46599999999999
 20
161.98500000000001
 30
0.0
 11
126.402
 21
161.87100000000001
 31
0.0
  0
LINE
  5
148
  8
0
 62
     7
 10
126.402
 20
161.87100000000001
 30
0.0
 11
126.38200000000001
 21
161.74700000000001
 31
0.0
  0
LINE
  5
149
  8
0
 62
     7
 10
126.38200000000001
 20
161.74700000000001
 30
0.0
 11
126.407
 21
161.62
 31
0.0
  0
LINE
  5
14A
  8
0
 62
     7
 10
126.407
 20
161.62
 30
0.0
 11
126.47199999999999
 21
161.511
 31
0.0
  0
LINE
  5
14B
  8
0
 62
     7
 10
126.47199999999999
 20
161.511
 30
0.0
 11
126.5719999999999
 21
161.43100000000001
 31
0.0
  0
LINE
  5
14C
  8
0
 62
     7
 10
126.5719999999999
 20
161.43100000000001
 30
0.0
 11
126.6399999999999
 21
161.40199999999999
 31
0.0
  0
LINE
  5
14D
  8
0
 62
     7
 10
126.6399999999999
 20
161.40199999999999
 30
0.0
 11
126.7139999999999
 21
161.38799999999989
 31
0.0
  0
LINE
  5
14E
  8
0
 62
     7
 10
126.7139999999999
 20
161.38799999999989
 30
0.0
 11
126.7879999999999
 21
161.38799999999989
 31
0.0
  0
LINE
  5
14F
  8
0
 62
     7
 10
126.7879999999999
 20
161.38799999999989
 30
0.0
 11
126.861
 21
161.40600000000001
 31
0.0
  0
LINE
  5
150
  8
0
 62
     7
 10
126.861
 20
161.40600000000001
 30
0.0
 11
126.93000000000001
 21
161.434
 31
0.0
  0
LINE
  5
151
  8
0
 62
     7
 10
126.93000000000001
 20
161.434
 30
0.0
 11
126.99299999999999
 21
161.3249999999999
 31
0.0
  0
LINE
  5
152
  8
0
 62
     7
 10
126.99299999999999
 20
161.3249999999999
 30
0.0
 11
126.8489999999999
 21
161.27000000000001
 31
0.0
  0
LINE
  5
153
  8
0
 62
     7
 10
126.8489999999999
 20
161.27000000000001
 30
0.0
 11
126.69199999999999
 21
161.26199999999989
 31
0.0
  0
LINE
  5
154
  8
0
 62
     7
 10
126.69199999999999
 20
161.26199999999989
 30
0.0
 11
126.54300000000001
 21
161.30199999999999
 31
0.0
  0
LINE
  5
155
  8
0
 62
     7
 10
126.54300000000001
 20
161.30199999999999
 30
0.0
 11
126.414
 21
161.38799999999989
 31
0.0
  0
LINE
  5
156
  8
0
 62
     7
 10
126.414
 20
161.38799999999989
 30
0.0
 11
126.316
 21
161.5089999999999
 31
0.0
  0
LINE
  5
157
  8
0
 62
     7
 10
126.316
 20
161.5089999999999
 30
0.0
 11
126.2639999999999
 21
161.655
 31
0.0
  0
LINE
  5
158
  8
0
 62
     7
 10
126.2639999999999
 20
161.655
 30
0.0
 11
126.259
 21
161.81
 31
0.0
  0
LINE
  5
159
  8
0
 62
     7
 10
126.259
 20
161.81
 30
0.0
 11
126.3009999999999
 21
161.959
 31
0.0
  0
LINE
  5
15A
  8
0
 62
     7
 10
126.3009999999999
 20
161.959
 30
0.0
 11
126.38799999999991
 21
162.08699999999999
 31
0.0
  0
LINE
  5
15B
  8
0
 62
     7
 10
126.38799999999991
 20
162.08699999999999
 30
0.0
 11
126.511
 21
162.18299999999991
 31
0.0
  0
LINE
  5
15C
  8
0
 62
     7
 10
126.511
 20
162.18299999999991
 30
0.0
 11
126.605
 21
162.2239999999999
 31
0.0
  0
LINE
  5
15D
  8
0
 62
     7
 10
126.605
 20
162.2239999999999
 30
0.0
 11
126.702
 21
162.24299999999999
 31
0.0
  0
LINE
  5
15E
  8
0
 62
     7
 10
126.702
 20
162.24299999999999
 30
0.0
 11
126.8029999999999
 21
162.24100000000001
 31
0.0
  0
LINE
  5
15F
  8
0
 62
     7
 10
126.8029999999999
 20
162.24100000000001
 30
0.0
 11
126.901
 21
162.22
 31
0.0
  0
LINE
  5
160
  8
0
 62
     7
 10
126.901
 20
162.22
 30
0.0
 11
126.99299999999999
 21
162.179
 31
0.0
  0
LINE
  5
161
  8
0
 62
     7
 10
126.99299999999999
 20
162.179
 30
0.0
 11
126.93000000000001
 21
162.0679999999999
 31
0.0
  0
LINE
  5
162
  8
0
 62
     7
 10
127.71599999999999
 20
161.87700000000001
 30
0.0
 11
127.654
 21
161.9859999999999
 31
0.0
  0
LINE
  5
163
  8
0
 62
     7
 10
127.654
 20
161.9859999999999
 30
0.0
 11
127.55799999999989
 21
162.0679999999999
 31
0.0
  0
LINE
  5
164
  8
0
 62
     7
 10
127.55799999999989
 20
162.0679999999999
 30
0.0
 11
127.437
 21
162.1109999999999
 31
0.0
  0
LINE
  5
165
  8
0
 62
     7
 10
127.437
 20
162.1109999999999
 30
0.0
 11
127.31100000000001
 21
162.1109999999999
 31
0.0
  0
LINE
  5
166
  8
0
 62
     7
 10
127.31100000000001
 20
162.1109999999999
 30
0.0
 11
127.19
 21
162.0679999999999
 31
0.0
  0
LINE
  5
167
  8
0
 62
     7
 10
127.19
 20
162.0679999999999
 30
0.0
 11
127.095
 21
161.9859999999999
 31
0.0
  0
LINE
  5
168
  8
0
 62
     7
 10
127.095
 20
161.9859999999999
 30
0.0
 11
127.032
 21
161.87700000000001
 31
0.0
  0
LINE
  5
169
  8
0
 62
     7
 10
127.032
 20
161.87700000000001
 30
0.0
 11
127.01000000000001
 21
161.75200000000001
 31
0.0
  0
LINE
  5
16A
  8
0
 62
     7
 10
127.01000000000001
 20
161.75200000000001
 30
0.0
 11
127.032
 21
161.626
 31
0.0
  0
LINE
  5
16B
  8
0
 62
     7
 10
127.032
 20
161.626
 30
0.0
 11
127.095
 21
161.51699999999991
 31
0.0
  0
LINE
  5
16C
  8
0
 62
     7
 10
127.095
 20
161.51699999999991
 30
0.0
 11
127.193
 21
161.43700000000001
 31
0.0
  0
LINE
  5
16D
  8
0
 62
     7
 10
127.193
 20
161.43700000000001
 30
0.0
 11
127.31100000000001
 21
161.393
 31
0.0
  0
LINE
  5
16E
  8
0
 62
     7
 10
127.31100000000001
 20
161.393
 30
0.0
 11
127.437
 21
161.393
 31
0.0
  0
LINE
  5
16F
  8
0
 62
     7
 10
127.437
 20
161.393
 30
0.0
 11
127.55799999999989
 21
161.43700000000001
 31
0.0
  0
LINE
  5
170
  8
0
 62
     7
 10
127.55799999999989
 20
161.43700000000001
 30
0.0
 11
127.654
 21
161.51699999999991
 31
0.0
  0
LINE
  5
171
  8
0
 62
     7
 10
127.654
 20
161.51699999999991
 30
0.0
 11
127.71599999999999
 21
161.626
 31
0.0
  0
LINE
  5
172
  8
0
 62
     7
 10
127.71599999999999
 20
161.626
 30
0.0
 11
127.7379999999999
 21
161.75200000000001
 31
0.0
  0
LINE
  5
173
  8
0
 62
     7
 10
127.7379999999999
 20
161.75200000000001
 30
0.0
 11
127.71599999999999
 21
161.87700000000001
 31
0.0
  0
LINE
  5
174
  8
0
 62
     7
 10
127.86799999999999
 20
161.75200000000001
 30
0.0
 11
127.84099999999999
 21
161.59899999999999
 31
0.0
  0
LINE
  5
175
  8
0
 62
     7
 10
127.84099999999999
 20
161.59899999999999
 30
0.0
 11
127.77200000000001
 21
161.46100000000001
 31
0.0
  0
LINE
  5
176
  8
0
 62
     7
 10
127.77200000000001
 20
161.46100000000001
 30
0.0
 11
127.6659999999999
 21
161.352
 31
0.0
  0
LINE
  5
177
  8
0
 62
     7
 10
127.6659999999999
 20
161.352
 30
0.0
 11
127.52799999999991
 21
161.2829999999999
 31
0.0
  0
LINE
  5
178
  8
0
 62
     7
 10
127.52799999999991
 20
161.2829999999999
 30
0.0
 11
127.3739999999999
 21
161.2589999999999
 31
0.0
  0
LINE
  5
179
  8
0
 62
     7
 10
127.3739999999999
 20
161.2589999999999
 30
0.0
 11
127.221
 21
161.2829999999999
 31
0.0
  0
LINE
  5
17A
  8
0
 62
     7
 10
127.221
 20
161.2829999999999
 30
0.0
 11
127.08499999999999
 21
161.352
 31
0.0
  0
LINE
  5
17B
  8
0
 62
     7
 10
127.08499999999999
 20
161.352
 30
0.0
 11
126.9759999999999
 21
161.46100000000001
 31
0.0
  0
LINE
  5
17C
  8
0
 62
     7
 10
126.9759999999999
 20
161.46100000000001
 30
0.0
 11
126.907
 21
161.59899999999999
 31
0.0
  0
LINE
  5
17D
  8
0
 62
     7
 10
126.907
 20
161.59899999999999
 30
0.0
 11
126.8799999999999
 21
161.75200000000001
 31
0.0
  0
LINE
  5
17E
  8
0
 62
     7
 10
126.8799999999999
 20
161.75200000000001
 30
0.0
 11
126.907
 21
161.904
 31
0.0
  0
LINE
  5
17F
  8
0
 62
     7
 10
126.907
 20
161.904
 30
0.0
 11
126.9759999999999
 21
162.042
 31
0.0
  0
LINE
  5
180
  8
0
 62
     7
 10
126.9759999999999
 20
162.042
 30
0.0
 11
127.08499999999999
 21
162.15100000000001
 31
0.0
  0
LINE
  5
181
  8
0
 62
     7
 10
127.08499999999999
 20
162.15100000000001
 30
0.0
 11
127.221
 21
162.22
 31
0.0
  0
LINE
  5
182
  8
0
 62
     7
 10
127.221
 20
162.22
 30
0.0
 11
127.3739999999999
 21
162.245
 31
0.0
  0
LINE
  5
183
  8
0
 62
     7
 10
127.3739999999999
 20
162.245
 30
0.0
 11
127.52799999999991
 21
162.22
 31
0.0
  0
LINE
  5
184
  8
0
 62
     7
 10
127.52799999999991
 20
162.22
 30
0.0
 11
127.6659999999999
 21
162.15100000000001
 31
0.0
  0
LINE
  5
185
  8
0
 62
     7
 10
127.6659999999999
 20
162.15100000000001
 30
0.0
 11
127.77200000000001
 21
162.042
 31
0.0
  0
LINE
  5
186
  8
0
 62
     7
 10
127.77200000000001
 20
162.042
 30
0.0
 11
127.84099999999999
 21
161.904
 31
0.0
  0
LINE
  5
187
  8
0
 62
     7
 10
127.84099999999999
 20
161.904
 30
0.0
 11
127.86799999999999
 21
161.75200000000001
 31
0.0
  0
LINE
  5
188
  8
0
 62
     7
 10
139.01900000000001
 20
99.303799999999995
 30
0.0
 11
139.01900000000001
 21
110.304
 31
0.0
  0
LINE
  5
189
  8
0
 62
     7
 10
159.01899999999989
 20
99.303799999999995
 30
0.0
 11
159.01899999999989
 21
110.304
 31
0.0
  0
LINE
  5
18A
  8
0
 62
     7
 10
139.01900000000001
 20
110.304
 30
0.0
 11
159.01899999999989
 21
110.304
 31
0.0
  0
LINE
  5
18B
  8
0
 62
     7
 10
139.01900000000001
 20
99.303799999999995
 30
0.0
 11
159.01899999999989
 21
99.303799999999995
 31
0.0
  0
LINE
  5
18C
  8
0
 62
     7
 10
122.648
 20
192.923
 30
0.0
 11
124.858
 21
193.5149999999999
 31
0.0
  0
LINE
  5
18D
  8
0
 62
     7
 10
124.858
 20
193.5149999999999
 30
0.0
 11
122.648
 21
194.107
 31
0.0
  0
LINE
  5
18E
  8
0
 62
     7
 10
122.648
 20
194.107
 30
0.0
 11
122.648
 21
192.923
 31
0.0
  0
LINE
  5
18F
  8
0
 62
     7
 10
27.067599999999999
 20
194.0929999999999
 30
0.0
 11
24.857199999999999
 21
193.5
 31
0.0
  0
LINE
  5
190
  8
0
 62
     7
 10
24.857199999999999
 20
193.5
 30
0.0
 11
27.067599999999999
 21
192.9079999999999
 31
0.0
  0
LINE
  5
191
  8
0
 62
     7
 10
27.067599999999999
 20
192.9079999999999
 30
0.0
 11
27.067599999999999
 21
194.0929999999999
 31
0.0
  0
LINE
  5
192
  8
0
 62
     7
 10
124.858
 20
193.5079999999999
 30
0.0
 11
24.857199999999999
 21
193.5079999999999
 31
0.0
  0
LINE
  5
193
  8
0
 62
     7
 10
124.858
 20
194.20799999999991
 30
0.0
 11
124.858
 21
186.26599999999991
 31
0.0
  0
LINE
  5
194
  8
0
 62
     7
 10
159.01899999999989
 20
105.54299999999991
 30
0.0
 11
159.01899999999989
 21
104.991
 31
0.0
  0
LINE
  5
195
  8
0
 62
     7
 10
159.01899999999989
 20
104.991
 30
0.0
 11
159.01899999999989
 21
104.441
 31
0.0
  0
LINE
  5
196
  8
0
  6
AIGENLINE001
 62
     7
 10
158.49000000000001
 20
104.991
 30
0.0
 11
181.32400000000001
 21
104.991
 31
0.0
  0
LINE
  5
197
  8
0
 62
     7
 10
159.01899999999989
 20
105.54299999999991
 30
0.0
 11
177.97499999999991
 21
105.54299999999991
 31
0.0
  0
LINE
  5
198
  8
0
 62
     7
 10
159.01899999999989
 20
104.441
 30
0.0
 11
177.97499999999991
 21
104.441
 31
0.0
  0
LINE
  5
199
  8
0
 62
     7
 10
177.048
 20
105.9919999999999
 30
0.0
 11
177.75399999999999
 21
103.9919999999999
 31
0.0
  0
LINE
  5
19A
  8
0
 62
     7
 10
175.39199999999991
 20
105.9919999999999
 30
0.0
 11
176.0979999999999
 21
103.9919999999999
 31
0.0
  0
LINE
  5
19B
  8
0
 62
     7
 10
173.73699999999999
 20
105.9919999999999
 30
0.0
 11
174.44200000000001
 21
103.9919999999999
 31
0.0
  0
LINE
  5
19C
  8
0
 62
     7
 10
172.08199999999991
 20
105.9919999999999
 30
0.0
 11
172.78599999999989
 21
103.9919999999999
 31
0.0
  0
LINE
  5
19D
  8
0
 62
     7
 10
170.4259999999999
 20
105.9919999999999
 30
0.0
 11
171.13099999999989
 21
103.9919999999999
 31
0.0
  0
LINE
  5
19E
  8
0
 62
     7
 10
168.7709999999999
 20
105.9919999999999
 30
0.0
 11
169.476
 21
103.9919999999999
 31
0.0
  0
LINE
  5
19F
  8
0
 62
     7
 10
167.11500000000001
 20
105.9919999999999
 30
0.0
 11
167.82099999999991
 21
103.9919999999999
 31
0.0
  0
LINE
  5
1A0
  8
0
 62
     7
 10
165.46000000000001
 20
105.9919999999999
 30
0.0
 11
166.16499999999991
 21
103.9919999999999
 31
0.0
  0
LINE
  5
1A1
  8
0
 62
     7
 10
163.804
 20
105.9919999999999
 30
0.0
 11
164.50899999999999
 21
103.9919999999999
 31
0.0
  0
LINE
  5
1A2
  8
0
 62
     7
 10
177.97499999999991
 20
105.54299999999991
 30
0.0
 11
179.68599999999989
 21
104.991
 31
0.0
  0
LINE
  5
1A3
  8
0
 62
     7
 10
179.68599999999989
 20
104.991
 30
0.0
 11
177.97499999999991
 21
104.441
 31
0.0
  0
LINE
  5
1A4
  8
0
 62
     7
 10
163.352
 20
105.54299999999991
 30
0.0
 11
163.352
 21
104.441
 31
0.0
  0
LINE
  5
1A5
  8
0
 62
     7
 10
124.306
 20
163.26099999999991
 30
0.0
 11
124.858
 21
163.26099999999991
 31
0.0
  0
LINE
  5
1A6
  8
0
 62
     7
 10
124.858
 20
163.26099999999991
 30
0.0
 11
125.4079999999999
 21
163.26099999999991
 31
0.0
  0
LINE
  5
1A7
  8
0
  6
AIGENLINE001
 62
     7
 10
124.858
 20
162.732
 30
0.0
 11
124.858
 21
185.56599999999989
 31
0.0
  0
LINE
  5
1A8
  8
0
 62
     7
 10
124.306
 20
163.26099999999991
 30
0.0
 11
124.306
 21
182.21700000000001
 31
0.0
  0
LINE
  5
1A9
  8
0
 62
     7
 10
125.4079999999999
 20
163.26099999999991
 30
0.0
 11
125.4079999999999
 21
182.21700000000001
 31
0.0
  0
LINE
  5
1AA
  8
0
 62
     7
 10
123.857
 20
181.28999999999991
 30
0.0
 11
125.857
 21
181.9959999999999
 31
0.0
  0
LINE
  5
1AB
  8
0
 62
     7
 10
123.857
 20
179.63499999999991
 30
0.0
 11
125.857
 21
180.34
 31
0.0
  0
LINE
  5
1AC
  8
0
 62
     7
 10
123.857
 20
177.97900000000001
 30
0.0
 11
125.857
 21
178.684
 31
0.0
  0
LINE
  5
1AD
  8
0
 62
     7
 10
123.857
 20
176.32400000000001
 30
0.0
 11
125.857
 21
177.029
 31
0.0
  0
LINE
  5
1AE
  8
0
 62
     7
 10
123.857
 20
174.66800000000001
 30
0.0
 11
125.857
 21
175.374
 31
0.0
  0
LINE
  5
1AF
  8
0
 62
     7
 10
123.857
 20
173.01300000000001
 30
0.0
 11
125.857
 21
173.7179999999999
 31
0.0
  0
LINE
  5
1B0
  8
0
 62
     7
 10
123.857
 20
171.358
 30
0.0
 11
125.857
 21
172.0629999999999
 31
0.0
  0
LINE
  5
1B1
  8
0
 62
     7
 10
123.857
 20
169.702
 30
0.0
 11
125.857
 21
170.40700000000001
 31
0.0
  0
LINE
  5
1B2
  8
0
 62
     7
 10
123.857
 20
168.04599999999999
 30
0.0
 11
125.857
 21
168.75200000000001
 31
0.0
  0
LINE
  5
1B3
  8
0
 62
     7
 10
124.306
 20
182.21700000000001
 30
0.0
 11
124.858
 21
183.928
 31
0.0
  0
LINE
  5
1B4
  8
0
 62
     7
 10
124.858
 20
183.928
 30
0.0
 11
125.4079999999999
 21
182.21700000000001
 31
0.0
  0
LINE
  5
1B5
  8
0
 62
     7
 10
124.306
 20
167.59399999999999
 30
0.0
 11
125.4079999999999
 21
167.59399999999999
 31
0.0
  0
LINE
  5
1B6
  8
0
 62
     7
 10
24.857199999999999
 20
194.20799999999991
 30
0.0
 11
24.857199999999999
 21
186.26599999999991
 31
0.0
  0
LINE
  5
1B7
  8
0
 62
     7
 10
24.305599999999991
 20
163.26099999999991
 30
0.0
 11
24.857199999999999
 21
163.26099999999991
 31
0.0
  0
LINE
  5
1B8
  8
0
 62
     7
 10
24.857199999999999
 20
163.26099999999991
 30
0.0
 11
25.4071
 21
163.26099999999991
 31
0.0
  0
LINE
  5
1B9
  8
0
  6
AIGENLINE001
 62
     7
 10
24.857199999999999
 20
161.72999999999999
 30
0.0
 11
24.857199999999999
 21
185.56599999999989
 31
0.0
  0
LINE
  5
1BA
  8
0
 62
     7
 10
24.305599999999991
 20
163.26099999999991
 30
0.0
 11
24.305599999999991
 21
182.21700000000001
 31
0.0
  0
LINE
  5
1BB
  8
0
 62
     7
 10
25.4071
 20
163.26099999999991
 30
0.0
 11
25.4071
 21
182.21700000000001
 31
0.0
  0
LINE
  5
1BC
  8
0
 62
     7
 10
23.85639999999999
 20
181.28999999999991
 30
0.0
 11
25.856300000000001
 21
181.9959999999999
 31
0.0
  0
LINE
  5
1BD
  8
0
 62
     7
 10
23.85639999999999
 20
179.63499999999991
 30
0.0
 11
25.856300000000001
 21
180.34
 31
0.0
  0
LINE
  5
1BE
  8
0
 62
     7
 10
23.85639999999999
 20
177.97900000000001
 30
0.0
 11
25.856300000000001
 21
178.684
 31
0.0
  0
LINE
  5
1BF
  8
0
 62
     7
 10
23.85639999999999
 20
176.32400000000001
 30
0.0
 11
25.856300000000001
 21
177.029
 31
0.0
  0
LINE
  5
1C0
  8
0
 62
     7
 10
23.85639999999999
 20
174.66800000000001
 30
0.0
 11
25.856300000000001
 21
175.374
 31
0.0
  0
LINE
  5
1C1
  8
0
 62
     7
 10
23.85639999999999
 20
173.01300000000001
 30
0.0
 11
25.856300000000001
 21
173.7179999999999
 31
0.0
  0
LINE
  5
1C2
  8
0
 62
     7
 10
23.85639999999999
 20
171.358
 30
0.0
 11
25.856300000000001
 21
172.0629999999999
 31
0.0
  0
LINE
  5
1C3
  8
0
 62
     7
 10
23.85639999999999
 20
169.702
 30
0.0
 11
25.856300000000001
 21
170.40700000000001
 31
0.0
  0
LINE
  5
1C4
  8
0
 62
     7
 10
23.85639999999999
 20
168.04599999999999
 30
0.0
 11
25.856300000000001
 21
168.75200000000001
 31
0.0
  0
LINE
  5
1C5
  8
0
 62
     7
 10
24.305599999999991
 20
182.21700000000001
 30
0.0
 11
24.857199999999999
 21
183.928
 31
0.0
  0
LINE
  5
1C6
  8
0
 62
     7
 10
24.857199999999999
 20
183.928
 30
0.0
 11
25.4071
 21
182.21700000000001
 31
0.0
  0
LINE
  5
1C7
  8
0
 62
     7
 10
24.305599999999991
 20
167.59399999999999
 30
0.0
 11
25.4071
 21
167.59399999999999
 31
0.0
  0
LINE
  5
1C8
  8
0
 62
     7
 10
26.964200000000002
 20
172.41099999999989
 30
0.0
 11
25.856300000000001
 21
170.40700000000001
 31
0.0
  0
LINE
  5
1C9
  8
0
 62
     7
 10
25.856300000000001
 20
170.40700000000001
 30
0.0
 11
27.817900000000002
 21
171.589
 31
0.0
  0
LINE
  5
1CA
  8
0
 62
     7
 10
27.817900000000002
 20
171.589
 30
0.0
 11
26.964200000000002
 21
172.41099999999989
 31
0.0
  0
LINE
  5
1CB
  8
0
 62
     7
 10
25.8522
 20
170.4129999999999
 30
0.0
 11
31.775700000000001
 21
176.5509999999999
 31
0.0
  0
LINE
  5
1CC
  8
0
 62
     7
 10
31.775700000000001
 20
176.5509999999999
 30
0.0
 11
73.423000000000002
 21
176.5509999999999
 31
0.0
  0
TEXT
  5
1CD
  8
_________2
 62
     7
 10
109.179
 20
24.226099999999999
 30
0.0
 40
3.9357000000000002
  1
エディション11 タオルバー（300サイズ）
 41
0.5
  0
LINE
  5
1CE
  8
_________2
 62
     7
 10
205.30099999999999
 20
127.411
 30
0.0
 11
183.55099999999999
 21
127.411
 31
0.0
  0
LINE
  5
1CF
  8
_________2
 62
     7
 10
100.2999999999999
 20
-4.0910799999999998
 30
0.0
 11
100.2999999999999
 21
-21.070999999999991
 31
0.0
  0
LINE
  5
1D0
  8
_________2
 62
     7
 10
100.2999999999999
 20
275.93099999999993
 30
0.0
 11
100.2999999999999
 21
258.911
 31
0.0
  0
LINE
  5
1D1
  8
_________2
 62
     7
 10
17.049199999999988
 20
127.411
 30
0.0
 11
-4.7012099999999988
 21
127.411
 31
0.0
  0
LINE
  5
1D2
  8
_________2
 62
     7
 10
76.740700000000004
 20
29.8047
 30
0.0
 11
74.554400000000001
 21
29.8047
 31
0.0
  0
LINE
  5
1D3
  8
_________2
 62
     7
 10
77.2333
 20
29.8047
 30
0.0
 11
76.981099999999984
 21
29.8047
 31
0.0
  0
LINE
  5
1D4
  8
_________2
 62
     7
 10
77.725999999999999
 20
29.8047
 30
0.0
 11
80.650899999999993
 21
29.8047
 31
0.0
  0
LINE
  5
1D5
  8
_________2
 62
     7
 10
77.2333
 20
29.8047
 30
0.0
 11
77.485500000000002
 21
29.8047
 31
0.0
  0
LINE
  5
1D6
  8
_________2
 62
     7
 10
70.837100000000007
 20
29.8047
 30
0.0
 11
68.650199999999998
 21
29.8047
 31
0.0
  0
LINE
  5
1D7
  8
_________2
 62
     7
 10
71.329099999999997
 20
29.8047
 30
0.0
 11
71.077600000000004
 21
29.8047
 31
0.0
  0
LINE
  5
1D8
  8
_________2
 62
     7
 10
71.329099999999997
 20
30.2974
 30
0.0
 11
71.329099999999997
 21
32.484400000000001
 31
0.0
  0
LINE
  5
1D9
  8
_________2
 62
     7
 10
71.329099999999997
 20
29.8047
 30
0.0
 11
71.329099999999997
 21
30.057300000000001
 31
0.0
  0
LINE
  5
1DA
  8
_________2
 62
     7
 10
71.821700000000007
 20
29.8047
 30
0.0
 11
74.008700000000005
 21
29.8047
 31
0.0
  0
LINE
  5
1DB
  8
_________2
 62
     7
 10
71.329099999999997
 20
29.8047
 30
0.0
 11
71.581299999999985
 21
29.8047
 31
0.0
  0
LINE
  5
1DC
  8
_________2
 62
     7
 10
71.329099999999997
 20
29.312799999999999
 30
0.0
 11
71.329099999999997
 21
27.126200000000001
 31
0.0
  0
LINE
  5
1DD
  8
_________2
 62
     7
 10
71.329099999999997
 20
29.8047
 30
0.0
 11
71.329099999999997
 21
29.5532
 31
0.0
  0
LINE
  5
1DE
  8
_________2
 62
     7
 10
75.040199999999999
 20
28.5852
 30
0.0
 11
80.218199999999996
 21
27.720400000000001
 31
0.0
  0
LINE
  5
1DF
  8
_________2
 62
     7
 10
75.040199999999999
 20
31.024699999999999
 30
0.0
 11
80.218199999999996
 21
31.8901
 31
0.0
  0
LINE
  5
1E0
  8
_________2
 62
     7
 10
80.218199999999996
 20
27.720400000000001
 30
0.0
 11
80.218199999999996
 21
31.8901
 31
0.0
  0
LINE
  5
1E1
  8
_________2
 62
     7
 10
75.040199999999999
 20
28.5852
 30
0.0
 11
75.040199999999999
 21
31.024699999999999
 31
0.0
  0
ARC
  5
1E2
  8
_________2
 62
     7
 10
71.282501999999994
 20
29.757801000000001
 30
0.0
 40
1.267714
 50
2.1220840000000001
 51
87.894083999999992
  0
ARC
  5
1E3
  8
_________2
 62
     7
 10
71.375640000000004
 20
29.758545999999999
 30
0.0
 40
1.2669680000000001
 50
92.105782999999988
 51
177.91037
  0
ARC
  5
1E4
  8
_________2
 62
     7
 10
71.376013999999998
 20
29.851671
 30
0.0
 40
1.2673680000000001
 50
182.12203600000001
 51
267.877993
  0
ARC
  5
1E5
  8
_________2
 62
     7
 10
71.282195999999999
 20
29.852347999999999
 30
0.0
 40
1.2680439999999991
 50
272.11916400000001
 51
357.84848499999993
  0
ARC
  5
1E6
  8
_________2
 62
     7
 10
71.248716999999985
 20
29.724731999999989
 30
0.0
 40
2.1668310000000002
 50
2.1161439999999989
 51
87.874379000000005
  0
ARC
  5
1E7
  8
_________2
 62
     7
 10
71.408756000000011
 20
29.726146
 30
0.0
 40
2.165392999999999
 50
92.108508999999998
 51
177.91986499999999
  0
ARC
  5
1E8
  8
_________2
 62
     7
 10
71.409094999999994
 20
29.884751999999999
 30
0.0
 40
2.1657829999999998
 50
182.117133
 51
267.88289700000001
  0
ARC
  5
1E9
  8
_________2
 62
     7
 10
71.249115000000003
 20
29.885429999999989
 30
0.0
 40
2.1664590000000001
 50
272.11546800000002
 51
357.86560400000002
  0
TEXT
  5
1EA
  8
_________2
 62
     7
 10
104.605
 20
1.6794899999999999
 30
0.0
 40
3.0923400000000001
  1
図番
 41
0.5
  0
LINE
  5
1EB
  8
_________2
 62
     7
 10
103.55
 20
5.9087199999999989
 30
0.0
 11
183.55099999999999
 21
5.9087199999999989
 31
0.0
  0
TEXT
  5
1EC
  8
_________2
 62
     7
 10
104.605
 20
11.679299999999991
 30
0.0
 40
3.0923400000000001
  1
品番
 41
0.5
  0
TEXT
  5
1ED
  8
_________2
 62
     7
 10
104.605
 20
31.8184
 30
0.0
 40
3.0923400000000001
  1
名称
 41
0.5
  0
TEXT
  5
1EE
  8
_________2
 62
     7
 10
91.844758333333345
 20
26.822299999999998
 30
0.0
 40
3.6545800000000002
  1
mm
 41
0.5
 72
     1
 11
93.367500000000007
 21
26.822299999999998
 31
0.0
  0
TEXT
  5
1EF
  8
_________2
 62
     7
 10
85.642899999999983
 20
31.8184
 30
0.0
 40
3.0923400000000001
  1
単位
 41
0.5
  0
TEXT
  5
1F0
  8
_________2
 62
     7
 10
85.642899999999983
 20
19.410799999999991
 30
0.0
 40
3.0923400000000001
  1
尺度
 41
0.5
  0
TEXT
  5
1F1
  8
_________2
 62
     7
 10
90.548458666666676
 20
13.218199999999991
 30
0.0
 40
3.6545800000000002
  1
1 ： 3
 41
0.5
 72
     1
 11
93.959400000000016
 21
13.218199999999991
 31
0.0
  0
TEXT
  5
1F2
  8
_________2
 62
     7
 10
138.13841249999999
 20
9.1082000000000001
 30
0.0
 40
3.9357000000000002
  1
KC11107
 41
0.5
 72
     1
 11
143.55000000000001
 21
9.1082000000000001
 31
0.0
  0
TEXT
  5
1F3
  8
_________2
 62
     7
 10
138.13841249999999
 20
-0.8926299999999999
 30
0.0
 40
3.9357000000000002
  1
KC11107
 41
0.5
 72
     1
 11
143.55000000000001
 21
-0.8926299999999999
 31
0.0
  0
TEXT
  5
1F4
  8
_________2
 62
     7
 10
39.364090666666669
 20
13.603400000000001
 30
0.0
 40
3.6545800000000002
  1
石原
 41
0.5
 72
     1
 11
41.313200000000002
 21
13.603400000000001
 31
0.0
  0
TEXT
  5
1F5
  8
_________2
 62
     7
 10
20.790090666666661
 20
13.603400000000001
 30
0.0
 40
3.6545800000000002
  1
菅原
 41
0.5
 72
     1
 11
22.73919999999999
 21
13.603400000000001
 31
0.0
  0
TEXT
  5
1F6
  8
_________2
 62
     7
 10
67.785399999999996
 20
13.218199999999991
 30
0.0
 40
3.6545800000000002
  1
11.10.25
 41
0.5
  0
TEXT
  5
1F7
  8
_________2
 62
     7
 10
66.592699999999994
 20
19.410799999999991
 30
0.0
 40
3.0923400000000001
  1
日付
 41
0.5
  0
TEXT
  5
1F8
  8
_________2
 62
     7
 10
29.638999999999999
 20
19.410799999999991
 30
0.0
 40
3.0923400000000001
  1
検図
 41
0.5
  0
TEXT
  5
1F9
  8
_________2
 62
     7
 10
18.020700000000001
 20
5.21143
 30
0.0
 40
3.0923400000000001
  1
備考
 41
0.5
  0
TEXT
  5
1FA
  8
_________2
 62
     7
 10
18.020700000000001
 20
19.410799999999991
 30
0.0
 40
3.0923400000000001
  1
製図
 41
0.5
  0
TEXT
  5
1FB
  8
_________2
 62
     7
 10
23.788165333333328
 20
27.936800000000002
 30
0.0
 40
4.4979399999999989
  1
セラトレーディング株式会社
 41
0.5
 72
     1
 11
41.180199999999999
 21
27.936800000000002
 31
0.0
  0
LINE
  5
1FC
  8
_________2
 62
     7
 10
183.55099999999999
 20
-4.0910799999999998
 30
0.0
 11
17.049199999999988
 21
-4.0910799999999998
 31
0.0
  0
LINE
  5
1FD
  8
_________2
 62
     7
 10
17.049199999999988
 20
-4.0910799999999998
 30
0.0
 11
17.049199999999988
 21
258.911
 31
0.0
  0
LINE
  5
1FE
  8
_________2
 62
     7
 10
17.049199999999988
 20
258.911
 30
0.0
 11
183.55099999999999
 21
258.911
 31
0.0
  0
LINE
  5
1FF
  8
_________2
 62
     7
 10
183.55099999999999
 20
258.911
 30
0.0
 11
183.55099999999999
 21
-4.0910799999999998
 31
0.0
  0
LINE
  5
200
  8
_________2
 62
     7
 10
65.549599999999998
 20
9.4092999999999982
 30
0.0
 11
65.549599999999998
 21
35.909100000000002
 31
0.0
  0
LINE
  5
201
  8
_________2
 62
     7
 10
84.549400000000006
 20
9.4092999999999982
 30
0.0
 11
84.549400000000006
 21
35.909100000000002
 31
0.0
  0
LINE
  5
202
  8
_________2
 62
     7
 10
103.55
 20
-4.0910799999999998
 30
0.0
 11
103.55
 21
35.909100000000002
 31
0.0
  0
LINE
  5
203
  8
_________2
 62
     7
 10
28.548999999999999
 20
9.4092999999999982
 30
0.0
 11
28.548999999999999
 21
23.409199999999998
 31
0.0
  0
LINE
  5
204
  8
_________2
 62
     7
 10
17.049199999999988
 20
9.4092999999999982
 30
0.0
 11
103.55
 21
9.4092999999999982
 31
0.0
  0
LINE
  5
205
  8
_________2
 62
     7
 10
17.049199999999988
 20
23.409199999999998
 30
0.0
 11
103.55
 21
23.409199999999998
 31
0.0
  0
LINE
  5
206
  8
_________2
 62
     7
 10
103.55
 20
15.9085
 30
0.0
 11
183.55099999999999
 21
15.9085
 31
0.0
  0
LINE
  5
207
  8
_________2
 62
     7
 10
17.049199999999988
 20
35.909100000000002
 30
0.0
 11
183.55099999999999
 21
35.909100000000002
 31
0.0
  0
ENDSEC
  0
EOF
