  0
SECTION
  2
HEADER
  9
$ACADVER
  1
AC1009
  9
$INSBASE
 10
0.0
 20
0.0
 30
0.0
  9
$EXTMIN
 10
-4.7012099999999988
 20
-21.070999999999991
 30
0.0
  9
$EXTMAX
 10
205.30099999999999
 20
275.93099999999993
 30
0.0
  9
$LIMMIN
 10
0.0
 20
0.0
  9
$LIMMAX
 10
12.0
 20
9.0
  9
$ORTHOMODE
 70
     0
  9
$REGENMODE
 70
     1
  9
$FILLMODE
 70
     1
  9
$QTEXTMODE
 70
     0
  9
$MIRRTEXT
 70
     1
  9
$DRAGMODE
 70
     2
  9
$LTSCALE
 40
1.0
  9
$OSMODE
 70
    37
  9
$ATTMODE
 70
     1
  9
$TEXTSIZE
 40
0.0
  9
$TRACEWID
 40
0.05
  9
$TEXTSTYLE
  7
STANDARD
  9
$CLAYER
  8
0
  9
$CELTYPE
  6
CONTINUOUS
  9
$CECOLOR
 62
   256
  9
$DIMSCALE
 40
1.0
  9
$DIMASZ
 40
0.18
  9
$DIMEXO
 40
0.0625
  9
$DIMDLI
 40
0.38
  9
$DIMRND
 40
0.0
  9
$DIMDLE
 40
0.0
  9
$DIMEXE
 40
0.18
  9
$DIMTP
 40
0.0
  9
$DIMTM
 40
0.0
  9
$DIMTXT
 40
0.18
  9
$DIMCEN
 40
0.09
  9
$DIMTSZ
 40
0.0
  9
$DIMTOL
 70
     0
  9
$DIMLIM
 70
     0
  9
$DIMTIH
 70
     1
  9
$DIMTOH
 70
     1
  9
$DIMSE1
 70
     0
  9
$DIMSE2
 70
     0
  9
$DIMTAD
 70
     0
  9
$DIMZIN
 70
     0
  9
$DIMBLK
  1

  9
$DIMASO
 70
     1
  9
$DIMSHO
 70
     1
  9
$DIMPOST
  1

  9
$DIMAPOST
  1

  9
$DIMALT
 70
     0
  9
$DIMALTD
 70
     2
  9
$DIMALTF
 40
25.399999999999999
  9
$DIMLFAC
 40
1.0
  9
$DIMTOFL
 70
     0
  9
$DIMTVP
 40
0.0
  9
$DIMTIX
 70
     0
  9
$DIMSOXD
 70
     0
  9
$DIMSAH
 70
     0
  9
$DIMBLK1
  1

  9
$DIMBLK2
  1

  9
$DIMSTYLE
  2
STANDARD
  9
$DIMCLRD
 70
     0
  9
$DIMCLRE
 70
     0
  9
$DIMCLRT
 70
     0
  9
$DIMTFAC
 40
1.0
  9
$DIMGAP
 40
0.09
  9
$LUNITS
 70
     2
  9
$LUPREC
 70
     4
  9
$SKETCHINC
 40
0.1
  9
$FILLETRAD
 40
0.0
  9
$AUNITS
 70
     0
  9
$AUPREC
 70
     0
  9
$MENU
  1
.
  9
$ELEVATION
 40
0.0
  9
$PELEVATION
 40
0.0
  9
$THICKNESS
 40
0.0
  9
$LIMCHECK
 70
     0
  9
$BLIPMODE
 70
     0
  9
$CHAMFERA
 40
0.0
  9
$CHAMFERB
 40
0.0
  9
$SKPOLY
 70
     0
  9
$TDCREATE
 40
2444972.375
  9
$TDUPDATE
 40
2455980.3587995488
  9
$TDINDWG
 40
0.0000062384
  9
$TDUSRTIMER
 40
0.0000062384
  9
$USRTIMER
 70
     1
  9
$ANGBASE
 50
0.0
  9
$ANGDIR
 70
     0
  9
$PDMODE
 70
     0
  9
$PDSIZE
 40
0.0
  9
$PLINEWID
 40
0.0
  9
$COORDS
 70
     1
  9
$SPLFRAME
 70
     0
  9
$SPLINETYPE
 70
     6
  9
$SPLINESEGS
 70
     8
  9
$ATTDIA
 70
     0
  9
$ATTREQ
 70
     1
  9
$HANDLING
 70
     1
  9
$HANDSEED
  5
D5
  9
$SURFTAB1
 70
     6
  9
$SURFTAB2
 70
     6
  9
$SURFTYPE
 70
     6
  9
$SURFU
 70
     6
  9
$SURFV
 70
     6
  9
$UCSNAME
  2

  9
$UCSORG
 10
0.0
 20
0.0
 30
0.0
  9
$UCSXDIR
 10
1.0
 20
0.0
 30
0.0
  9
$UCSYDIR
 10
0.0
 20
1.0
 30
0.0
  9
$PUCSNAME
  2

  9
$PUCSORG
 10
0.0
 20
0.0
 30
0.0
  9
$PUCSXDIR
 10
1.0
 20
0.0
 30
0.0
  9
$PUCSYDIR
 10
0.0
 20
1.0
 30
0.0
  9
$USERI1
 70
     0
  9
$USERI2
 70
     0
  9
$USERI3
 70
     0
  9
$USERI4
 70
     0
  9
$USERI5
 70
     0
  9
$USERR1
 40
0.0
  9
$USERR2
 40
0.0
  9
$USERR3
 40
0.0
  9
$USERR4
 40
0.0
  9
$USERR5
 40
0.0
  9
$WORLDVIEW
 70
     1
  9
$SHADEDGE
 70
     3
  9
$SHADEDIF
 70
    70
  9
$TILEMODE
 70
     1
  9
$MAXACTVP
 70
    48
  9
$PLIMCHECK
 70
     0
  9
$PEXTMIN
 10
1.0000000000000000E+020
 20
1.0000000000000000E+020
 30
1.0000000000000000E+020
  9
$PEXTMAX
 10
-1.0000000000000000E+020
 20
-1.0000000000000000E+020
 30
-1.0000000000000000E+020
  9
$PLIMMIN
 10
0.0
 20
0.0
  9
$PLIMMAX
 10
12.0
 20
9.0
  9
$UNITMODE
 70
     0
  9
$VISRETAIN
 70
     1
  9
$PLINEGEN
 70
     0
  9
$PSLTSCALE
 70
     1
  0
ENDSEC
  0
SECTION
  2
TABLES
  0
TABLE
  2
VPORT
 70
     2
  0
VPORT
  2
*ACTIVE
 70
     0
 10
0.0
 20
0.0
 11
1.0
 21
1.0
 12
205.31019906752431
 22
127.42999999999989
 13
0.0
 23
0.0
 14
1.0
 24
1.0
 15
0.0
 25
0.0
 16
0.0
 26
0.0
 36
1.0
 17
0.0
 27
0.0
 37
0.0
 40
299.24634760705283
 41
2.2894736842105261
 42
50.0
 43
0.0
 44
0.0
 50
0.0
 51
0.0
 71
     0
 72
   100
 73
     1
 74
     1
 75
     0
 76
     0
 77
     0
 78
     0
  0
ENDTAB
  0
TABLE
  2
LTYPE
 70
     3
  0
LTYPE
  2
CONTINUOUS
 70
     0
  3
Solid line
 72
    65
 73
     0
 40
0.0
  0
LTYPE
  2
AIGENLINE001
 70
     0
  3
generate AI->DXF Converter
 72
    65
 73
     2
 40
1.5522299999999991
 49
0.776115
 49
-0.776115
  0
LTYPE
  2
AIGENLINE002
 70
     0
  3
generate AI->DXF Converter
 72
    65
 73
     4
 40
5.8561449999999988
 49
3.5278
 49
-0.776115
 49
0.776115
 49
-0.776115
  0
ENDTAB
  0
TABLE
  2
LAYER
 70
     2
  0
LAYER
  2
0
 70
     0
 62
     7
  6
CONTINUOUS
  0
LAYER
  2
_________2
 70
     0
 62
     7
  6
CONTINUOUS
  0
ENDTAB
  0
TABLE
  2
STYLE
 70
     1
  0
STYLE
  2
STANDARD
 70
     0
 40
0.0
 41
0.0
 50
0.0
 71
     0
 42
0.0
  3
TXT
  4
EXTFONT.SHX
  0
ENDTAB
  0
TABLE
  2
VIEW
 70
     0
  0
ENDTAB
  0
TABLE
  2
UCS
 70
     0
  0
ENDTAB
  0
TABLE
  2
APPID
 70
     1
  0
APPID
  2
ACAD
 70
     0
  0
ENDTAB
  0
TABLE
  2
DIMSTYLE
 70
     1
  0
DIMSTYLE
  2
STANDARD
 70
     0
  3

  4

  5

  6

  7

 40
1.0
 41
0.18
 42
0.0625
 43
0.38
 44
0.18
 45
0.0
 46
0.0
 47
0.0
 48
0.0
140
0.18
141
0.09
142
0.0
143
25.399999999999999
144
1.0
145
0.0
146
1.0
147
0.09
 71
     0
 72
     0
 73
     1
 74
     1
 75
     0
 76
     0
 77
     0
 78
     0
170
     0
171
     2
172
     0
173
     0
174
     0
175
     0
176
     0
177
     0
178
     0
  0
ENDTAB
  0
ENDSEC
  0
SECTION
  2
BLOCKS
  0
BLOCK
  8
0
  2
$MODEL_SPACE
 70
     0
 10
0.0
 20
0.0
 30
0.0
  3
$MODEL_SPACE
  1

  0
ENDBLK
  5
1A
  8
0
  0
BLOCK
 67
     1
  8
0
  2
$PAPER_SPACE
 70
     0
 10
0.0
 20
0.0
 30
0.0
  3
$PAPER_SPACE
  1

  0
ENDBLK
  5
17
 67
     1
  8
0
  0
ENDSEC
  0
SECTION
  2
ENTITIES
  0
TEXT
  5
23
  8
0
 62
     7
 10
93.824200000000005
 20
157.786
 30
0.0
 40
3.0923400000000001
  1
（%%c6×45 樹脂プラグ付）
 41
0.5
  0
TEXT
  5
24
  8
0
 62
     7
 10
93.824200000000005
 20
162.827
 30
0.0
 40
3.0923400000000001
  1
%%c4×60 SUS十字穴付丸頭木ネジ
 41
0.5
  0
TEXT
  5
25
  8
0
 62
     7
 10
29.977820000000001
 20
119.76600000000001
 30
0.0
 40
3.0923400000000001
  1
15
 41
0.5
 72
     1
 11
31.008600000000001
 21
119.76600000000001
 31
0.0
  0
TEXT
  5
26
  8
0
 62
     7
 10
85.182024999999996
 20
119.76600000000001
 30
0.0
 40
3.0923400000000001
  1
67
 41
0.5
 72
     1
 11
86.470500000000001
 21
119.76600000000001
 31
0.0
  0
TEXT
  5
27
  8
0
 62
     7
 10
45.726700000000001
 20
141.64022
 30
0.0
 40
3.0923400000000001
  1
21
 50
90.0
 41
0.5
 72
     1
 11
45.726700000000001
 21
142.67099999999991
 31
0.0
  0
TEXT
  5
28
  8
0
 62
     7
 10
171.8249999999999
 20
136.26906750000001
 30
0.0
 40
3.0923400000000001
  1
10
 50
90.0
 41
0.5
 72
     1
 11
171.8249999999999
 21
137.17099999999991
 31
0.0
  0
TEXT
  5
29
  8
0
 62
     7
 10
178.28899999999999
 20
139.14021999999991
 30
0.0
 40
3.0923400000000001
  1
16
 50
90.0
 41
0.5
 72
     1
 11
178.28899999999999
 21
140.17099999999999
 31
0.0
  0
ARC
  5
2A
  8
0
 62
     7
 10
24.877264
 20
152.1334249999999
 30
0.0
 40
1.0383459999999991
 50
92.028964000000002
 51
176.9555379999999
  0
ARC
  5
2B
  8
0
 62
     7
 10
37.139173
 20
152.13223099999999
 30
0.0
 40
1.0395939999999999
 50
3.106676999999999
 51
87.889043999999984
  0
ARC
  5
2C
  8
0
 62
     7
 10
24.521207
 20
133.175332
 30
0.0
 40
1.011981999999999
 50
179.269507
 51
224.19109800000001
  0
ARC
  5
2D
  8
0
 62
     7
 10
24.516062999999988
 20
133.1870449999999
 30
0.0
 40
1.0165280000000001
 50
224.86662499999991
 51
269.56764700000002
  0
ARC
  5
2E
  8
0
 62
     7
 10
37.502617999999998
 20
133.18537599999991
 30
0.0
 40
1.0148449999999991
 50
270.31500999999997
 51
315.17179199999993
  0
ARC
  5
2F
  8
0
 62
     7
 10
37.49969999999999
 20
133.173676
 30
0.0
 40
1.0087200000000001
 50
315.75995599999987
 51
0.8268720000000001
  0
ARC
  5
30
  8
0
  6
AIGENLINE001
 62
     7
 10
30.904019999999999
 20
142.06534600000001
 30
0.0
 40
2.857149999999999
 50
2.1163939999999992
 51
87.901539999999983
  0
ARC
  5
31
  8
0
  6
AIGENLINE001
 62
     7
 10
31.114101999999999
 20
142.06521900000001
 30
0.0
 40
2.8573080000000002
 50
92.115239000000017
 51
177.8811419999999
  0
ARC
  5
32
  8
0
  6
AIGENLINE001
 62
     7
 10
31.114612000000001
 20
142.276296
 30
0.0
 40
2.857810999999999
 50
182.11436499999991
 51
267.87489900000003
  0
ARC
  5
33
  8
0
  6
AIGENLINE001
 62
     7
 10
30.903159999999989
 20
142.2765179999999
 30
0.0
 40
2.8580139999999989
 50
272.11506600000001
 51
357.88135599999993
  0
ARC
  5
34
  8
0
 62
     7
 10
54.338726000000001
 20
152.13432700000001
 30
0.0
 40
1.037463
 50
92.060650999999993
 51
177.0028409999999
  0
ARC
  5
35
  8
0
 62
     7
 10
58.156629000000002
 20
152.142887
 30
0.0
 40
1.028451
 50
17.780484000000001
 51
88.816683999999995
  0
ARC
  5
36
  8
0
 62
     7
 10
53.975904000000007
 20
133.18450999999999
 30
0.0
 40
1.0139759999999991
 50
224.80809300000001
 51
269.72484600000001
  0
ARC
  5
37
  8
0
 62
     7
 10
53.979486999999999
 20
133.17379600000001
 30
0.0
 40
1.0090179999999991
 50
179.1801199999999
 51
224.23305199999999
  0
ARC
  5
38
  8
0
 62
     7
 10
65.014063000000007
 20
154.3427639999999
 30
0.0
 40
6.1732050000000003
 50
197.78732299999999
 51
268.81638199999992
  0
LINE
  5
39
  8
0
 62
     7
 10
24.840499999999992
 20
153.17099999999991
 30
0.0
 11
37.177500000000002
 21
153.17099999999991
 31
0.0
  0
LINE
  5
3A
  8
0
  6
AIGENLINE002
 62
     7
 10
31.008299999999998
 20
154.94099999999989
 30
0.0
 11
31.008299999999998
 21
130.06999999999991
 31
0.0
  0
LINE
  5
3B
  8
0
 62
     7
 10
38.508299999999998
 20
132.29900000000001
 30
0.0
 11
38.508299999999998
 21
118.3659999999999
 31
0.0
  0
LINE
  5
3C
  8
0
 62
     7
 10
38.508299999999998
 20
133.1879999999999
 30
0.0
 11
38.176600000000001
 21
152.18899999999991
 31
0.0
  0
LINE
  5
3D
  8
0
 62
     7
 10
23.840399999999999
 20
152.18899999999991
 30
0.0
 11
23.509299999999989
 21
133.1879999999999
 31
0.0
  0
LINE
  5
3E
  8
0
 62
     7
 10
23.509299999999989
 20
132.29900000000001
 30
0.0
 11
23.509299999999989
 21
118.3659999999999
 31
0.0
  0
LINE
  5
3F
  8
0
 62
     7
 10
24.508400000000002
 20
132.17099999999991
 30
0.0
 11
37.508200000000002
 21
132.17099999999991
 31
0.0
  0
LINE
  5
40
  8
0
 62
     7
 10
25.7197
 20
119.651
 30
0.0
 11
23.507899999999989
 21
119.059
 31
0.0
  0
LINE
  5
41
  8
0
 62
     7
 10
23.507899999999989
 20
119.059
 30
0.0
 11
25.7197
 21
118.46599999999999
 31
0.0
  0
LINE
  5
42
  8
0
 62
     7
 10
25.7197
 20
118.46599999999999
 30
0.0
 11
25.7197
 21
119.651
 31
0.0
  0
LINE
  5
43
  8
0
 62
     7
 10
36.297600000000003
 20
118.48099999999999
 30
0.0
 11
38.509300000000003
 21
119.07299999999999
 31
0.0
  0
LINE
  5
44
  8
0
 62
     7
 10
38.509300000000003
 20
119.07299999999999
 30
0.0
 11
36.297600000000003
 21
119.666
 31
0.0
  0
LINE
  5
45
  8
0
 62
     7
 10
36.297600000000003
 20
119.666
 30
0.0
 11
36.297600000000003
 21
118.48099999999999
 31
0.0
  0
LINE
  5
46
  8
0
 62
     7
 10
23.509299999999989
 20
119.066
 30
0.0
 11
38.508299999999998
 21
119.066
 31
0.0
  0
LINE
  5
47
  8
0
 62
     7
 10
47.01209999999999
 20
134.38099999999989
 30
0.0
 11
46.419499999999999
 21
132.1689999999999
 31
0.0
  0
LINE
  5
48
  8
0
 62
     7
 10
46.419499999999999
 20
132.1689999999999
 30
0.0
 11
45.826900000000002
 21
134.38099999999989
 31
0.0
  0
LINE
  5
49
  8
0
 62
     7
 10
45.826900000000002
 20
134.38099999999989
 30
0.0
 11
47.01209999999999
 21
134.38099999999989
 31
0.0
  0
LINE
  5
4A
  8
0
 62
     7
 10
45.8414
 20
150.96000000000001
 30
0.0
 11
46.43399999999999
 21
153.17199999999991
 31
0.0
  0
LINE
  5
4B
  8
0
 62
     7
 10
46.43399999999999
 20
153.17199999999991
 30
0.0
 11
47.026499999999999
 21
150.96000000000001
 31
0.0
  0
LINE
  5
4C
  8
0
 62
     7
 10
47.026499999999999
 20
150.96000000000001
 30
0.0
 11
45.8414
 21
150.96000000000001
 31
0.0
  0
LINE
  5
4D
  8
0
 62
     7
 10
46.42669999999999
 20
132.17099999999991
 30
0.0
 11
46.42669999999999
 21
153.17099999999991
 31
0.0
  0
LINE
  5
4E
  8
0
 62
     7
 10
52.970599999999997
 20
132.29900000000001
 30
0.0
 11
52.970599999999997
 21
118.3659999999999
 31
0.0
  0
LINE
  5
4F
  8
0
 62
     7
 10
53.302700000000002
 20
152.18899999999991
 30
0.0
 11
52.970599999999997
 21
133.1879999999999
 31
0.0
  0
LINE
  5
50
  8
0
 62
     7
 10
53.4129
 20
153.17099999999991
 30
0.0
 11
45.726700000000001
 21
153.17099999999991
 31
0.0
  0
LINE
  5
51
  8
0
 62
     7
 10
58.177900000000001
 20
153.17099999999991
 30
0.0
 11
54.301400000000001
 21
153.17099999999991
 31
0.0
  0
LINE
  5
52
  8
0
  6
AIGENLINE002
 62
     7
 10
25.1967
 20
142.17099999999999
 30
0.0
 11
35.956499999999998
 21
142.17099999999999
 31
0.0
  0
LINE
  5
53
  8
0
  6
AIGENLINE002
 62
     7
 10
166.70599999999999
 20
142.17099999999999
 30
0.0
 11
49.817599999999999
 21
142.17099999999999
 31
0.0
  0
LINE
  5
54
  8
0
 62
     7
 10
119.971
 20
148.17099999999991
 30
0.0
 11
64.886499999999984
 21
148.17099999999991
 31
0.0
  0
LINE
  5
55
  8
0
 62
     7
 10
167.40599999999989
 20
142.17099999999999
 30
0.0
 11
173.22499999999999
 21
142.17099999999999
 31
0.0
  0
LINE
  5
56
  8
0
 62
     7
 10
173.11000000000001
 20
134.38099999999989
 30
0.0
 11
172.51799999999989
 21
132.1689999999999
 31
0.0
  0
LINE
  5
57
  8
0
 62
     7
 10
172.51799999999989
 20
132.1689999999999
 30
0.0
 11
171.92500000000001
 21
134.38099999999989
 31
0.0
  0
LINE
  5
58
  8
0
 62
     7
 10
171.92500000000001
 20
134.38099999999989
 30
0.0
 11
173.11000000000001
 21
134.38099999999989
 31
0.0
  0
LINE
  5
59
  8
0
 62
     7
 10
171.94
 20
139.96000000000001
 30
0.0
 11
172.53200000000001
 21
142.172
 31
0.0
  0
LINE
  5
5A
  8
0
 62
     7
 10
172.53200000000001
 20
142.172
 30
0.0
 11
173.125
 21
139.96000000000001
 31
0.0
  0
LINE
  5
5B
  8
0
 62
     7
 10
173.125
 20
139.96000000000001
 30
0.0
 11
171.94
 21
139.96000000000001
 31
0.0
  0
LINE
  5
5C
  8
0
 62
     7
 10
172.52500000000001
 20
132.17099999999991
 30
0.0
 11
172.52500000000001
 21
142.17099999999999
 31
0.0
  0
LINE
  5
5D
  8
0
 62
     7
 10
120.86
 20
148.17099999999991
 30
0.0
 11
179.68899999999999
 21
148.17099999999991
 31
0.0
  0
LINE
  5
5E
  8
0
 62
     7
 10
53.080800000000004
 20
132.17099999999991
 30
0.0
 11
45.726700000000001
 21
132.17099999999991
 31
0.0
  0
LINE
  5
5F
  8
0
 62
     7
 10
119.971
 20
132.17099999999991
 30
0.0
 11
53.970999999999997
 21
132.17099999999991
 31
0.0
  0
LINE
  5
60
  8
0
 62
     7
 10
120.86
 20
132.17099999999991
 30
0.0
 11
179.68899999999999
 21
132.17099999999991
 31
0.0
  0
LINE
  5
61
  8
0
 62
     7
 10
119.971
 20
132.17099999999991
 30
0.0
 11
119.971
 21
148.17099999999991
 31
0.0
  0
LINE
  5
62
  8
0
 62
     7
 10
119.971
 20
131.28100000000001
 30
0.0
 11
119.971
 21
118.3659999999999
 31
0.0
  0
LINE
  5
63
  8
0
 62
     7
 10
179.57400000000001
 20
134.38099999999989
 30
0.0
 11
178.98099999999991
 21
132.1689999999999
 31
0.0
  0
LINE
  5
64
  8
0
 62
     7
 10
178.98099999999991
 20
132.1689999999999
 30
0.0
 11
178.38900000000001
 21
134.38099999999989
 31
0.0
  0
LINE
  5
65
  8
0
 62
     7
 10
178.38900000000001
 20
134.38099999999989
 30
0.0
 11
179.57400000000001
 21
134.38099999999989
 31
0.0
  0
LINE
  5
66
  8
0
 62
     7
 10
178.40299999999999
 20
145.96000000000001
 30
0.0
 11
178.9959999999999
 21
148.17199999999991
 31
0.0
  0
LINE
  5
67
  8
0
 62
     7
 10
178.9959999999999
 20
148.17199999999991
 30
0.0
 11
179.58799999999991
 21
145.96000000000001
 31
0.0
  0
LINE
  5
68
  8
0
 62
     7
 10
179.58799999999991
 20
145.96000000000001
 30
0.0
 11
178.40299999999999
 21
145.96000000000001
 31
0.0
  0
LINE
  5
69
  8
0
 62
     7
 10
178.98899999999989
 20
132.17099999999991
 30
0.0
 11
178.98899999999989
 21
148.17099999999991
 31
0.0
  0
LINE
  5
6A
  8
0
 62
     7
 10
117.75999999999991
 20
119.651
 30
0.0
 11
119.97199999999999
 21
119.059
 31
0.0
  0
LINE
  5
6B
  8
0
 62
     7
 10
119.97199999999999
 20
119.059
 30
0.0
 11
117.75999999999991
 21
118.46599999999999
 31
0.0
  0
LINE
  5
6C
  8
0
 62
     7
 10
117.75999999999991
 20
118.46599999999999
 30
0.0
 11
117.75999999999991
 21
119.651
 31
0.0
  0
LINE
  5
6D
  8
0
 62
     7
 10
55.180999999999997
 20
118.48099999999999
 30
0.0
 11
52.969200000000001
 21
119.07299999999999
 31
0.0
  0
LINE
  5
6E
  8
0
 62
     7
 10
52.969200000000001
 20
119.07299999999999
 30
0.0
 11
55.180999999999997
 21
119.666
 31
0.0
  0
LINE
  5
6F
  8
0
 62
     7
 10
55.180999999999997
 20
119.666
 30
0.0
 11
55.180999999999997
 21
118.48099999999999
 31
0.0
  0
LINE
  5
70
  8
0
 62
     7
 10
119.971
 20
119.066
 30
0.0
 11
52.970599999999997
 21
119.066
 31
0.0
  0
LINE
  5
71
  8
0
 62
     7
 10
151.31800000000001
 20
146.17399999999989
 30
0.0
 11
152.42599999999999
 21
144.1699999999999
 31
0.0
  0
LINE
  5
72
  8
0
 62
     7
 10
152.42599999999999
 20
144.1699999999999
 30
0.0
 11
150.464
 21
145.352
 31
0.0
  0
LINE
  5
73
  8
0
 62
     7
 10
150.464
 20
145.352
 30
0.0
 11
151.31800000000001
 21
146.17399999999989
 31
0.0
  0
LINE
  5
74
  8
0
 62
     7
 10
152.43000000000001
 20
144.17699999999999
 30
0.0
 11
135.47200000000001
 21
161.77699999999999
 31
0.0
  0
LINE
  5
75
  8
0
 62
     7
 10
135.47200000000001
 20
161.77699999999999
 30
0.0
 11
93.824200000000005
 21
161.77699999999999
 31
0.0
  0
LINE
  5
76
  8
0
 62
     7
 10
119.971
 20
141.0689999999999
 30
0.0
 11
119.971
 21
142.17099999999999
 31
0.0
  0
LINE
  5
77
  8
0
 62
     7
 10
119.971
 20
142.17099999999999
 30
0.0
 11
119.971
 21
143.273
 31
0.0
  0
LINE
  5
78
  8
0
 62
     7
 10
119.971
 20
143.27099999999999
 30
0.0
 11
161.24700000000001
 21
143.27099999999999
 31
0.0
  0
LINE
  5
79
  8
0
 62
     7
 10
119.971
 20
141.0679999999999
 30
0.0
 11
161.24700000000001
 21
141.0679999999999
 31
0.0
  0
LINE
  5
7A
  8
0
 62
     7
 10
159.63599999999991
 20
144.1699999999999
 30
0.0
 11
161.172
 21
140.1699999999999
 31
0.0
  0
LINE
  5
7B
  8
0
 62
     7
 10
156.03100000000001
 20
144.1699999999999
 30
0.0
 11
157.56700000000001
 21
140.1699999999999
 31
0.0
  0
LINE
  5
7C
  8
0
 62
     7
 10
152.42599999999999
 20
144.1699999999999
 30
0.0
 11
153.96199999999999
 21
140.1699999999999
 31
0.0
  0
LINE
  5
7D
  8
0
 62
     7
 10
148.821
 20
144.1699999999999
 30
0.0
 11
150.357
 21
140.1699999999999
 31
0.0
  0
LINE
  5
7E
  8
0
 62
     7
 10
145.21700000000001
 20
144.1699999999999
 30
0.0
 11
146.75200000000001
 21
140.1699999999999
 31
0.0
  0
LINE
  5
7F
  8
0
 62
     7
 10
141.61199999999999
 20
144.1699999999999
 30
0.0
 11
143.14699999999999
 21
140.1699999999999
 31
0.0
  0
LINE
  5
80
  8
0
 62
     7
 10
138.00700000000001
 20
144.1699999999999
 30
0.0
 11
139.542
 21
140.1699999999999
 31
0.0
  0
LINE
  5
81
  8
0
 62
     7
 10
134.40199999999999
 20
144.1699999999999
 30
0.0
 11
135.9379999999999
 21
140.1699999999999
 31
0.0
  0
LINE
  5
82
  8
0
 62
     7
 10
130.798
 20
144.1699999999999
 30
0.0
 11
132.333
 21
140.1699999999999
 31
0.0
  0
LINE
  5
83
  8
0
 62
     7
 10
161.24700000000001
 20
143.27099999999999
 30
0.0
 11
164.97099999999989
 21
142.1689999999999
 31
0.0
  0
LINE
  5
84
  8
0
 62
     7
 10
164.97099999999989
 20
142.1689999999999
 30
0.0
 11
161.24700000000001
 21
141.0679999999999
 31
0.0
  0
LINE
  5
85
  8
0
 62
     7
 10
129.971
 20
143.27099999999999
 30
0.0
 11
129.971
 21
141.0679999999999
 31
0.0
  0
TEXT
  5
86
  8
_________2
 62
     7
 10
109.179
 20
24.226099999999999
 30
0.0
 40
3.9357000000000002
  1
エディション11 フック
 41
0.5
  0
LINE
  5
87
  8
_________2
 62
     7
 10
205.30099999999999
 20
127.411
 30
0.0
 11
183.55099999999999
 21
127.411
 31
0.0
  0
LINE
  5
88
  8
_________2
 62
     7
 10
100.2999999999999
 20
-4.0910799999999998
 30
0.0
 11
100.2999999999999
 21
-21.070999999999991
 31
0.0
  0
LINE
  5
89
  8
_________2
 62
     7
 10
100.2999999999999
 20
275.93099999999993
 30
0.0
 11
100.2999999999999
 21
258.911
 31
0.0
  0
LINE
  5
8A
  8
_________2
 62
     7
 10
17.049199999999988
 20
127.411
 30
0.0
 11
-4.7012099999999988
 21
127.411
 31
0.0
  0
LINE
  5
8B
  8
_________2
 62
     7
 10
76.740700000000004
 20
29.8047
 30
0.0
 11
74.554400000000001
 21
29.8047
 31
0.0
  0
LINE
  5
8C
  8
_________2
 62
     7
 10
77.2333
 20
29.8047
 30
0.0
 11
76.981099999999984
 21
29.8047
 31
0.0
  0
LINE
  5
8D
  8
_________2
 62
     7
 10
77.725999999999999
 20
29.8047
 30
0.0
 11
80.650899999999993
 21
29.8047
 31
0.0
  0
LINE
  5
8E
  8
_________2
 62
     7
 10
77.2333
 20
29.8047
 30
0.0
 11
77.485500000000002
 21
29.8047
 31
0.0
  0
LINE
  5
8F
  8
_________2
 62
     7
 10
70.837100000000007
 20
29.8047
 30
0.0
 11
68.650199999999998
 21
29.8047
 31
0.0
  0
LINE
  5
90
  8
_________2
 62
     7
 10
71.329099999999997
 20
29.8047
 30
0.0
 11
71.077600000000004
 21
29.8047
 31
0.0
  0
LINE
  5
91
  8
_________2
 62
     7
 10
71.329099999999997
 20
30.2974
 30
0.0
 11
71.329099999999997
 21
32.484400000000001
 31
0.0
  0
LINE
  5
92
  8
_________2
 62
     7
 10
71.329099999999997
 20
29.8047
 30
0.0
 11
71.329099999999997
 21
30.057300000000001
 31
0.0
  0
LINE
  5
93
  8
_________2
 62
     7
 10
71.821700000000007
 20
29.8047
 30
0.0
 11
74.008700000000005
 21
29.8047
 31
0.0
  0
LINE
  5
94
  8
_________2
 62
     7
 10
71.329099999999997
 20
29.8047
 30
0.0
 11
71.581299999999985
 21
29.8047
 31
0.0
  0
LINE
  5
95
  8
_________2
 62
     7
 10
71.329099999999997
 20
29.312799999999999
 30
0.0
 11
71.329099999999997
 21
27.126200000000001
 31
0.0
  0
LINE
  5
96
  8
_________2
 62
     7
 10
71.329099999999997
 20
29.8047
 30
0.0
 11
71.329099999999997
 21
29.5532
 31
0.0
  0
LINE
  5
97
  8
_________2
 62
     7
 10
75.040199999999999
 20
28.5852
 30
0.0
 11
80.218199999999996
 21
27.720400000000001
 31
0.0
  0
LINE
  5
98
  8
_________2
 62
     7
 10
75.040199999999999
 20
31.024699999999999
 30
0.0
 11
80.218199999999996
 21
31.8901
 31
0.0
  0
LINE
  5
99
  8
_________2
 62
     7
 10
80.218199999999996
 20
27.720400000000001
 30
0.0
 11
80.218199999999996
 21
31.8901
 31
0.0
  0
LINE
  5
9A
  8
_________2
 62
     7
 10
75.040199999999999
 20
28.5852
 30
0.0
 11
75.040199999999999
 21
31.024699999999999
 31
0.0
  0
ARC
  5
9B
  8
_________2
 62
     7
 10
71.282501999999994
 20
29.757801000000001
 30
0.0
 40
1.267714
 50
2.1220840000000001
 51
87.894083999999992
  0
ARC
  5
9C
  8
_________2
 62
     7
 10
71.375640000000004
 20
29.758545999999999
 30
0.0
 40
1.2669680000000001
 50
92.105782999999988
 51
177.91037
  0
ARC
  5
9D
  8
_________2
 62
     7
 10
71.376013999999998
 20
29.851671
 30
0.0
 40
1.2673680000000001
 50
182.12203600000001
 51
267.877993
  0
ARC
  5
9E
  8
_________2
 62
     7
 10
71.282195999999999
 20
29.852347999999999
 30
0.0
 40
1.2680439999999991
 50
272.11916400000001
 51
357.84848499999993
  0
ARC
  5
9F
  8
_________2
 62
     7
 10
71.248716999999985
 20
29.724731999999989
 30
0.0
 40
2.1668310000000002
 50
2.1161439999999989
 51
87.874379000000005
  0
ARC
  5
A0
  8
_________2
 62
     7
 10
71.408756000000011
 20
29.726146
 30
0.0
 40
2.165392999999999
 50
92.108508999999998
 51
177.91986499999999
  0
ARC
  5
A1
  8
_________2
 62
     7
 10
71.409094999999994
 20
29.884751999999999
 30
0.0
 40
2.1657829999999998
 50
182.117133
 51
267.88289700000001
  0
ARC
  5
A2
  8
_________2
 62
     7
 10
71.249115000000003
 20
29.885429999999989
 30
0.0
 40
2.1664590000000001
 50
272.11546800000002
 51
357.86560400000002
  0
TEXT
  5
A3
  8
_________2
 62
     7
 10
104.605
 20
1.6794899999999999
 30
0.0
 40
3.0923400000000001
  1
図番
 41
0.5
  0
LINE
  5
A4
  8
_________2
 62
     7
 10
103.55
 20
5.9087199999999989
 30
0.0
 11
183.55099999999999
 21
5.9087199999999989
 31
0.0
  0
TEXT
  5
A5
  8
_________2
 62
     7
 10
104.605
 20
11.679299999999991
 30
0.0
 40
3.0923400000000001
  1
品番
 41
0.5
  0
TEXT
  5
A6
  8
_________2
 62
     7
 10
104.605
 20
31.8184
 30
0.0
 40
3.0923400000000001
  1
名称
 41
0.5
  0
TEXT
  5
A7
  8
_________2
 62
     7
 10
91.844758333333345
 20
26.822299999999998
 30
0.0
 40
3.6545800000000002
  1
mm
 41
0.5
 72
     1
 11
93.367500000000007
 21
26.822299999999998
 31
0.0
  0
TEXT
  5
A8
  8
_________2
 62
     7
 10
85.642899999999983
 20
31.8184
 30
0.0
 40
3.0923400000000001
  1
単位
 41
0.5
  0
TEXT
  5
A9
  8
_________2
 62
     7
 10
85.642899999999983
 20
19.410799999999991
 30
0.0
 40
3.0923400000000001
  1
尺度
 41
0.5
  0
TEXT
  5
AA
  8
_________2
 62
     7
 10
90.853007000000005
 20
13.218199999999991
 30
0.0
 40
3.6545800000000002
  1
1 ： 1
 41
0.5
 72
     1
 11
93.959400000000016
 21
13.218199999999991
 31
0.0
  0
TEXT
  5
AB
  8
_________2
 62
     7
 10
138.30240000000001
 20
9.1082000000000001
 30
0.0
 40
3.9357000000000002
  1
KC11116
 41
0.5
 72
     1
 11
143.55000000000001
 21
9.1082000000000001
 31
0.0
  0
TEXT
  5
AC
  8
_________2
 62
     7
 10
138.30240000000001
 20
-0.8926299999999999
 30
0.0
 40
3.9357000000000002
  1
KC11116
 41
0.5
 72
     1
 11
143.55000000000001
 21
-0.8926299999999999
 31
0.0
  0
TEXT
  5
AD
  8
_________2
 62
     7
 10
39.364090666666669
 20
13.603400000000001
 30
0.0
 40
3.6545800000000002
  1
石原
 41
0.5
 72
     1
 11
41.313200000000002
 21
13.603400000000001
 31
0.0
  0
TEXT
  5
AE
  8
_________2
 62
     7
 10
20.790090666666661
 20
13.603400000000001
 30
0.0
 40
3.6545800000000002
  1
菅原
 41
0.5
 72
     1
 11
22.73919999999999
 21
13.603400000000001
 31
0.0
  0
TEXT
  5
AF
  8
_________2
 62
     7
 10
67.785399999999996
 20
13.218199999999991
 30
0.0
 40
3.6545800000000002
  1
11.10.25
 41
0.5
  0
TEXT
  5
B0
  8
_________2
 62
     7
 10
66.592699999999994
 20
19.410799999999991
 30
0.0
 40
3.0923400000000001
  1
日付
 41
0.5
  0
TEXT
  5
B1
  8
_________2
 62
     7
 10
29.638999999999999
 20
19.410799999999991
 30
0.0
 40
3.0923400000000001
  1
検図
 41
0.5
  0
TEXT
  5
B2
  8
_________2
 62
     7
 10
18.020700000000001
 20
5.21143
 30
0.0
 40
3.0923400000000001
  1
備考
 41
0.5
  0
TEXT
  5
B3
  8
_________2
 62
     7
 10
18.020700000000001
 20
19.410799999999991
 30
0.0
 40
3.0923400000000001
  1
製図
 41
0.5
  0
TEXT
  5
B4
  8
_________2
 62
     7
 10
23.788165333333328
 20
27.936800000000002
 30
0.0
 40
4.4979399999999989
  1
セラトレーディング株式会社
 41
0.5
 72
     1
 11
41.180199999999999
 21
27.936800000000002
 31
0.0
  0
LINE
  5
B5
  8
_________2
 62
     7
 10
183.55099999999999
 20
-4.0910799999999998
 30
0.0
 11
17.049199999999988
 21
-4.0910799999999998
 31
0.0
  0
LINE
  5
B6
  8
_________2
 62
     7
 10
17.049199999999988
 20
-4.0910799999999998
 30
0.0
 11
17.049199999999988
 21
258.911
 31
0.0
  0
LINE
  5
B7
  8
_________2
 62
     7
 10
17.049199999999988
 20
258.911
 30
0.0
 11
183.55099999999999
 21
258.911
 31
0.0
  0
LINE
  5
B8
  8
_________2
 62
     7
 10
183.55099999999999
 20
258.911
 30
0.0
 11
183.55099999999999
 21
-4.0910799999999998
 31
0.0
  0
LINE
  5
B9
  8
_________2
 62
     7
 10
65.549599999999998
 20
9.4092999999999982
 30
0.0
 11
65.549599999999998
 21
35.909100000000002
 31
0.0
  0
LINE
  5
BA
  8
_________2
 62
     7
 10
84.549400000000006
 20
9.4092999999999982
 30
0.0
 11
84.549400000000006
 21
35.909100000000002
 31
0.0
  0
LINE
  5
BB
  8
_________2
 62
     7
 10
103.55
 20
-4.0910799999999998
 30
0.0
 11
103.55
 21
35.909100000000002
 31
0.0
  0
LINE
  5
BC
  8
_________2
 62
     7
 10
28.548999999999999
 20
9.4092999999999982
 30
0.0
 11
28.548999999999999
 21
23.409199999999998
 31
0.0
  0
LINE
  5
BD
  8
_________2
 62
     7
 10
17.049199999999988
 20
9.4092999999999982
 30
0.0
 11
103.55
 21
9.4092999999999982
 31
0.0
  0
LINE
  5
BE
  8
_________2
 62
     7
 10
17.049199999999988
 20
23.409199999999998
 30
0.0
 11
103.55
 21
23.409199999999998
 31
0.0
  0
LINE
  5
BF
  8
_________2
 62
     7
 10
103.55
 20
15.9085
 30
0.0
 11
183.55099999999999
 21
15.9085
 31
0.0
  0
LINE
  5
C0
  8
_________2
 62
     7
 10
17.049199999999988
 20
35.909100000000002
 30
0.0
 11
183.55099999999999
 21
35.909100000000002
 31
0.0
  0
ENDSEC
  0
EOF
