  0
SECTION
  2
HEADER
  9
$ACADVER
  1
AC1009
  9
$INSBASE
 10
0.0
 20
0.0
 30
0.0
  9
$EXTMIN
 10
-4.7012099999999988
 20
-21.070999999999991
 30
0.0
  9
$EXTMAX
 10
205.30099999999999
 20
275.93099999999993
 30
0.0
  9
$LIMMIN
 10
0.0
 20
0.0
  9
$LIMMAX
 10
12.0
 20
9.0
  9
$ORTHOMODE
 70
     0
  9
$REGENMODE
 70
     1
  9
$FILLMODE
 70
     1
  9
$QTEXTMODE
 70
     0
  9
$MIRRTEXT
 70
     1
  9
$DRAGMODE
 70
     2
  9
$LTSCALE
 40
1.0
  9
$OSMODE
 70
    37
  9
$ATTMODE
 70
     1
  9
$TEXTSIZE
 40
0.0
  9
$TRACEWID
 40
0.05
  9
$TEXTSTYLE
  7
STANDARD
  9
$CLAYER
  8
0
  9
$CELTYPE
  6
CONTINUOUS
  9
$CECOLOR
 62
   256
  9
$DIMSCALE
 40
1.0
  9
$DIMASZ
 40
0.18
  9
$DIMEXO
 40
0.0625
  9
$DIMDLI
 40
0.38
  9
$DIMRND
 40
0.0
  9
$DIMDLE
 40
0.0
  9
$DIMEXE
 40
0.18
  9
$DIMTP
 40
0.0
  9
$DIMTM
 40
0.0
  9
$DIMTXT
 40
0.18
  9
$DIMCEN
 40
0.09
  9
$DIMTSZ
 40
0.0
  9
$DIMTOL
 70
     0
  9
$DIMLIM
 70
     0
  9
$DIMTIH
 70
     1
  9
$DIMTOH
 70
     1
  9
$DIMSE1
 70
     0
  9
$DIMSE2
 70
     0
  9
$DIMTAD
 70
     0
  9
$DIMZIN
 70
     0
  9
$DIMBLK
  1

  9
$DIMASO
 70
     1
  9
$DIMSHO
 70
     1
  9
$DIMPOST
  1

  9
$DIMAPOST
  1

  9
$DIMALT
 70
     0
  9
$DIMALTD
 70
     2
  9
$DIMALTF
 40
25.399999999999999
  9
$DIMLFAC
 40
1.0
  9
$DIMTOFL
 70
     0
  9
$DIMTVP
 40
0.0
  9
$DIMTIX
 70
     0
  9
$DIMSOXD
 70
     0
  9
$DIMSAH
 70
     0
  9
$DIMBLK1
  1

  9
$DIMBLK2
  1

  9
$DIMSTYLE
  2
STANDARD
  9
$DIMCLRD
 70
     0
  9
$DIMCLRE
 70
     0
  9
$DIMCLRT
 70
     0
  9
$DIMTFAC
 40
1.0
  9
$DIMGAP
 40
0.09
  9
$LUNITS
 70
     2
  9
$LUPREC
 70
     4
  9
$SKETCHINC
 40
0.1
  9
$FILLETRAD
 40
0.0
  9
$AUNITS
 70
     0
  9
$AUPREC
 70
     0
  9
$MENU
  1
.
  9
$ELEVATION
 40
0.0
  9
$PELEVATION
 40
0.0
  9
$THICKNESS
 40
0.0
  9
$LIMCHECK
 70
     0
  9
$BLIPMODE
 70
     0
  9
$CHAMFERA
 40
0.0
  9
$CHAMFERB
 40
0.0
  9
$SKPOLY
 70
     0
  9
$TDCREATE
 40
2444972.375
  9
$TDUPDATE
 40
2455980.3588257632
  9
$TDINDWG
 40
0.0000082292
  9
$TDUSRTIMER
 40
0.0000082292
  9
$USRTIMER
 70
     1
  9
$ANGBASE
 50
0.0
  9
$ANGDIR
 70
     0
  9
$PDMODE
 70
     0
  9
$PDSIZE
 40
0.0
  9
$PLINEWID
 40
0.0
  9
$COORDS
 70
     1
  9
$SPLFRAME
 70
     0
  9
$SPLINETYPE
 70
     6
  9
$SPLINESEGS
 70
     8
  9
$ATTDIA
 70
     0
  9
$ATTREQ
 70
     1
  9
$HANDLING
 70
     1
  9
$HANDSEED
  5
1D9
  9
$SURFTAB1
 70
     6
  9
$SURFTAB2
 70
     6
  9
$SURFTYPE
 70
     6
  9
$SURFU
 70
     6
  9
$SURFV
 70
     6
  9
$UCSNAME
  2

  9
$UCSORG
 10
0.0
 20
0.0
 30
0.0
  9
$UCSXDIR
 10
1.0
 20
0.0
 30
0.0
  9
$UCSYDIR
 10
0.0
 20
1.0
 30
0.0
  9
$PUCSNAME
  2

  9
$PUCSORG
 10
0.0
 20
0.0
 30
0.0
  9
$PUCSXDIR
 10
1.0
 20
0.0
 30
0.0
  9
$PUCSYDIR
 10
0.0
 20
1.0
 30
0.0
  9
$USERI1
 70
     0
  9
$USERI2
 70
     0
  9
$USERI3
 70
     0
  9
$USERI4
 70
     0
  9
$USERI5
 70
     0
  9
$USERR1
 40
0.0
  9
$USERR2
 40
0.0
  9
$USERR3
 40
0.0
  9
$USERR4
 40
0.0
  9
$USERR5
 40
0.0
  9
$WORLDVIEW
 70
     1
  9
$SHADEDGE
 70
     3
  9
$SHADEDIF
 70
    70
  9
$TILEMODE
 70
     1
  9
$MAXACTVP
 70
    48
  9
$PLIMCHECK
 70
     0
  9
$PEXTMIN
 10
1.0000000000000000E+020
 20
1.0000000000000000E+020
 30
1.0000000000000000E+020
  9
$PEXTMAX
 10
-1.0000000000000000E+020
 20
-1.0000000000000000E+020
 30
-1.0000000000000000E+020
  9
$PLIMMIN
 10
0.0
 20
0.0
  9
$PLIMMAX
 10
12.0
 20
9.0
  9
$UNITMODE
 70
     0
  9
$VISRETAIN
 70
     1
  9
$PLINEGEN
 70
     0
  9
$PSLTSCALE
 70
     1
  0
ENDSEC
  0
SECTION
  2
TABLES
  0
TABLE
  2
VPORT
 70
     2
  0
VPORT
  2
*ACTIVE
 70
     0
 10
0.0
 20
0.0
 11
1.0
 21
1.0
 12
205.31019906752431
 22
127.42999999999989
 13
0.0
 23
0.0
 14
1.0
 24
1.0
 15
0.0
 25
0.0
 16
0.0
 26
0.0
 36
1.0
 17
0.0
 27
0.0
 37
0.0
 40
299.24634760705283
 41
2.2894736842105261
 42
50.0
 43
0.0
 44
0.0
 50
0.0
 51
0.0
 71
     0
 72
   100
 73
     1
 74
     1
 75
     0
 76
     0
 77
     0
 78
     0
  0
ENDTAB
  0
TABLE
  2
LTYPE
 70
     3
  0
LTYPE
  2
CONTINUOUS
 70
     0
  3
Solid line
 72
    65
 73
     0
 40
0.0
  0
LTYPE
  2
AIGENLINE001
 70
     0
  3
generate AI->DXF Converter
 72
    65
 73
     2
 40
1.5522299999999991
 49
0.776115
 49
-0.776115
  0
LTYPE
  2
AIGENLINE002
 70
     0
  3
generate AI->DXF Converter
 72
    65
 73
     4
 40
5.8561449999999988
 49
3.5278
 49
-0.776115
 49
0.776115
 49
-0.776115
  0
ENDTAB
  0
TABLE
  2
LAYER
 70
     2
  0
LAYER
  2
0
 70
     0
 62
     7
  6
CONTINUOUS
  0
LAYER
  2
_________2
 70
     0
 62
     7
  6
CONTINUOUS
  0
ENDTAB
  0
TABLE
  2
STYLE
 70
     1
  0
STYLE
  2
STANDARD
 70
     0
 40
0.0
 41
0.0
 50
0.0
 71
     0
 42
0.0
  3
TXT
  4
EXTFONT.SHX
  0
ENDTAB
  0
TABLE
  2
VIEW
 70
     0
  0
ENDTAB
  0
TABLE
  2
UCS
 70
     0
  0
ENDTAB
  0
TABLE
  2
APPID
 70
     1
  0
APPID
  2
ACAD
 70
     0
  0
ENDTAB
  0
TABLE
  2
DIMSTYLE
 70
     1
  0
DIMSTYLE
  2
STANDARD
 70
     0
  3

  4

  5

  6

  7

 40
1.0
 41
0.18
 42
0.0625
 43
0.38
 44
0.18
 45
0.0
 46
0.0
 47
0.0
 48
0.0
140
0.18
141
0.09
142
0.0
143
25.399999999999999
144
1.0
145
0.0
146
1.0
147
0.09
 71
     0
 72
     0
 73
     1
 74
     1
 75
     0
 76
     0
 77
     0
 78
     0
170
     0
171
     2
172
     0
173
     0
174
     0
175
     0
176
     0
177
     0
178
     0
  0
ENDTAB
  0
ENDSEC
  0
SECTION
  2
BLOCKS
  0
BLOCK
  8
0
  2
$MODEL_SPACE
 70
     0
 10
0.0
 20
0.0
 30
0.0
  3
$MODEL_SPACE
  1

  0
ENDBLK
  5
1A
  8
0
  0
BLOCK
 67
     1
  8
0
  2
$PAPER_SPACE
 70
     0
 10
0.0
 20
0.0
 30
0.0
  3
$PAPER_SPACE
  1

  0
ENDBLK
  5
17
 67
     1
  8
0
  0
ENDSEC
  0
SECTION
  2
ENTITIES
  0
TEXT
  5
23
  8
0
 62
     7
 10
114.04099600000001
 20
198.46299999999991
 30
0.0
 40
3.0923400000000001
  1
（%%c6×45 樹脂プラグ付）
 41
0.5
 72
     2
 11
136.512
 21
198.46299999999991
 31
0.0
  0
TEXT
  5
24
  8
0
 62
     7
 10
106.980153
 20
203.50399999999999
 30
0.0
 40
3.0923400000000001
  1
%%c4×50 SUS十字穴付丸頭木ネジ
 41
0.5
 72
     2
 11
136.512
 21
203.50399999999999
 31
0.0
  0
TEXT
  5
25
  8
0
 62
     7
 10
76.961872499999998
 20
214.38
 30
0.0
 40
3.0923400000000001
  1
60
 41
0.5
 72
     1
 11
78.121499999999983
 21
214.38
 31
0.0
  0
TEXT
  5
26
  8
0
 62
     7
 10
76.833024999999992
 20
208.09
 30
0.0
 40
3.0923400000000001
  1
38
 41
0.5
 72
     1
 11
78.121499999999983
 21
208.09
 31
0.0
  0
TEXT
  5
27
  8
0
 62
     7
 10
137.80821299999991
 20
77.531999999999996
 30
0.0
 40
3.0923400000000001
  1
回転
 41
0.5
 72
     1
 11
139.5089999999999
 21
77.531999999999996
 31
0.0
  0
TEXT
  5
28
  8
0
 62
     7
 10
144.97252499999999
 20
145.54199999999989
 30
0.0
 40
3.0923400000000001
  1
62
 41
0.5
 72
     1
 11
146.26099999999991
 21
145.54199999999989
 31
0.0
  0
TEXT
  5
29
  8
0
 62
     7
 10
76.317634999999996
 20
76.867500000000007
 30
0.0
 40
3.0923400000000001
  1
261
 41
0.5
 72
     1
 11
78.121499999999983
 21
76.867500000000007
 31
0.0
  0
TEXT
  5
2A
  8
0
 62
     7
 10
176.822
 20
132.44221999999991
 30
0.0
 40
3.0923400000000001
  1
17
 50
90.0
 41
0.5
 72
     1
 11
176.822
 21
133.4729999999999
 31
0.0
  0
TEXT
  5
2B
  8
0
 62
     7
 10
24.123899999999999
 20
109.6701349999999
 30
0.0
 40
3.0923400000000001
  1
149
 50
90.0
 41
0.5
 72
     1
 11
24.123899999999999
 21
111.4739999999999
 31
0.0
  0
ARC
  5
2C
  8
0
 62
     7
 10
139.453282
 20
133.4357719999999
 30
0.0
 40
51.290081999999998
 50
254.71097999999989
 51
270.06262599999991
  0
ARC
  5
2D
  8
0
 62
     7
 10
139.50124999999991
 20
133.91045800000001
 30
0.0
 40
51.764738000000001
 50
270.00895800000001
 51
285.21823899999998
  0
LINE
  5
2E
  8
0
 62
     7
 10
156.49999999999989
 20
133.8539999999999
 30
0.0
 11
156.49999999999989
 21
133.48699999999999
 31
0.0
  0
LINE
  5
2F
  8
0
 62
     7
 10
156.49999999999989
 20
133.48699999999999
 30
0.0
 11
156.49999999999989
 21
133.12
 31
0.0
  0
LINE
  5
30
  8
0
  6
AIGENLINE002
 62
     7
 10
156.01900000000001
 20
133.48699999999999
 30
0.0
 11
172.29099999999991
 21
133.48699999999999
 31
0.0
  0
LINE
  5
31
  8
0
 62
     7
 10
156.49999999999989
 20
133.8539999999999
 30
0.0
 11
170.25899999999999
 21
133.8539999999999
 31
0.0
  0
LINE
  5
32
  8
0
 62
     7
 10
156.49999999999989
 20
133.12
 30
0.0
 11
170.25899999999999
 21
133.12
 31
0.0
  0
LINE
  5
33
  8
0
 62
     7
 10
169.72200000000001
 20
134.15399999999991
 30
0.0
 11
170.23400000000001
 21
132.81999999999999
 31
0.0
  0
LINE
  5
34
  8
0
 62
     7
 10
168.52000000000001
 20
134.15399999999991
 30
0.0
 11
169.03200000000001
 21
132.81999999999999
 31
0.0
  0
LINE
  5
35
  8
0
 62
     7
 10
167.3179999999999
 20
134.15399999999991
 30
0.0
 11
167.83000000000001
 21
132.81999999999999
 31
0.0
  0
LINE
  5
36
  8
0
 62
     7
 10
166.11699999999999
 20
134.15399999999991
 30
0.0
 11
166.62899999999999
 21
132.81999999999999
 31
0.0
  0
LINE
  5
37
  8
0
 62
     7
 10
164.916
 20
134.15399999999991
 30
0.0
 11
165.42699999999999
 21
132.81999999999999
 31
0.0
  0
LINE
  5
38
  8
0
 62
     7
 10
163.714
 20
134.15399999999991
 30
0.0
 11
164.22499999999991
 21
132.81999999999999
 31
0.0
  0
LINE
  5
39
  8
0
 62
     7
 10
162.512
 20
134.15399999999991
 30
0.0
 11
163.024
 21
132.81999999999999
 31
0.0
  0
LINE
  5
3A
  8
0
 62
     7
 10
161.31099999999989
 20
134.15399999999991
 30
0.0
 11
161.82299999999989
 21
132.81999999999999
 31
0.0
  0
LINE
  5
3B
  8
0
 62
     7
 10
160.10900000000001
 20
134.15399999999991
 30
0.0
 11
160.62100000000001
 21
132.81999999999999
 31
0.0
  0
LINE
  5
3C
  8
0
 62
     7
 10
170.25899999999999
 20
133.8539999999999
 30
0.0
 11
171.5
 21
133.48699999999999
 31
0.0
  0
LINE
  5
3D
  8
0
 62
     7
 10
171.5
 20
133.48699999999999
 30
0.0
 11
170.25899999999999
 21
133.12
 31
0.0
  0
LINE
  5
3E
  8
0
 62
     7
 10
159.83299999999991
 20
134.15399999999991
 30
0.0
 11
159.83299999999991
 21
132.81999999999999
 31
0.0
  0
LINE
  5
3F
  8
0
 62
     7
 10
86.229600000000005
 20
194.33600000000001
 30
0.0
 11
85.121599999999987
 21
192.33199999999999
 31
0.0
  0
LINE
  5
40
  8
0
 62
     7
 10
85.121599999999987
 20
192.33199999999999
 30
0.0
 11
87.083299999999994
 21
193.51400000000001
 31
0.0
  0
LINE
  5
41
  8
0
 62
     7
 10
87.083299999999994
 20
193.51400000000001
 30
0.0
 11
86.229600000000005
 21
194.33600000000001
 31
0.0
  0
LINE
  5
42
  8
0
 62
     7
 10
85.117500000000007
 20
192.339
 30
0.0
 11
94.863699999999994
 21
202.45500000000001
 31
0.0
  0
LINE
  5
43
  8
0
 62
     7
 10
94.863699999999994
 20
202.45500000000001
 30
0.0
 11
136.512
 21
202.45500000000001
 31
0.0
  0
LINE
  5
44
  8
0
 62
     7
 10
88.121600000000001
 20
214.38
 30
0.0
 11
88.121600000000001
 21
186.27500000000001
 31
0.0
  0
LINE
  5
45
  8
0
 62
     7
 10
68.121300000000005
 20
214.38
 30
0.0
 11
68.121300000000005
 21
186.27500000000001
 31
0.0
  0
LINE
  5
46
  8
0
 62
     7
 10
70.331699999999998
 20
214.26599999999991
 30
0.0
 11
68.120000000000005
 21
213.673
 31
0.0
  0
LINE
  5
47
  8
0
 62
     7
 10
68.120000000000005
 20
213.673
 30
0.0
 11
70.331699999999998
 21
213.08000000000001
 31
0.0
  0
LINE
  5
48
  8
0
 62
     7
 10
70.331699999999998
 20
213.08000000000001
 30
0.0
 11
70.331699999999998
 21
214.26599999999991
 31
0.0
  0
LINE
  5
49
  8
0
 62
     7
 10
85.910499999999999
 20
213.09499999999991
 30
0.0
 11
88.122299999999996
 21
213.68799999999999
 31
0.0
  0
LINE
  5
4A
  8
0
 62
     7
 10
88.122299999999996
 20
213.68799999999999
 30
0.0
 11
85.910499999999999
 21
214.28
 31
0.0
  0
LINE
  5
4B
  8
0
 62
     7
 10
85.910499999999999
 20
214.28
 30
0.0
 11
85.910499999999999
 21
213.09499999999991
 31
0.0
  0
LINE
  5
4C
  8
0
 62
     7
 10
68.121300000000005
 20
213.68000000000001
 30
0.0
 11
88.121600000000001
 21
213.68000000000001
 31
0.0
  0
LINE
  5
4D
  8
0
 62
     7
 10
73.998400000000004
 20
207.97599999999991
 30
0.0
 11
71.786600000000007
 21
207.38300000000001
 31
0.0
  0
LINE
  5
4E
  8
0
 62
     7
 10
71.786600000000007
 20
207.38300000000001
 30
0.0
 11
73.998400000000004
 21
206.78999999999991
 31
0.0
  0
LINE
  5
4F
  8
0
 62
     7
 10
73.998400000000004
 20
206.78999999999991
 30
0.0
 11
73.998400000000004
 21
207.97599999999991
 31
0.0
  0
LINE
  5
50
  8
0
 62
     7
 10
82.244299999999996
 20
206.80499999999989
 30
0.0
 11
84.456000000000003
 21
207.398
 31
0.0
  0
LINE
  5
51
  8
0
 62
     7
 10
84.456000000000003
 20
207.398
 30
0.0
 11
82.244299999999996
 21
207.99000000000001
 31
0.0
  0
LINE
  5
52
  8
0
 62
     7
 10
82.244299999999996
 20
207.99000000000001
 30
0.0
 11
82.244299999999996
 21
206.80499999999989
 31
0.0
  0
LINE
  5
53
  8
0
 62
     7
 10
71.787999999999997
 20
207.38999999999999
 30
0.0
 11
84.454599999999999
 21
207.38999999999999
 31
0.0
  0
LINE
  5
54
  8
0
 62
     7
 10
84.454599999999999
 20
202.06699999999989
 30
0.0
 11
84.454599999999999
 21
208.09
 31
0.0
  0
LINE
  5
55
  8
0
 62
     7
 10
71.787999999999997
 20
202.06699999999989
 30
0.0
 11
71.787999999999997
 21
208.09
 31
0.0
  0
LINE
  5
56
  8
0
  6
AIGENLINE002
 62
     7
 10
84.454599999999999
 20
135.10299999999989
 30
0.0
 11
84.454599999999999
 21
131.71100000000001
 31
0.0
  0
LINE
  5
57
  8
0
  6
AIGENLINE002
 62
     7
 10
150.63599999999991
 20
133.48699999999999
 30
0.0
 11
135.875
 21
133.48699999999999
 31
0.0
  0
LINE
  5
58
  8
0
  6
AIGENLINE002
 62
     7
 10
86.425200000000004
 20
133.48699999999999
 30
0.0
 11
82.466099999999997
 21
133.48699999999999
 31
0.0
  0
LINE
  5
59
  8
0
  6
AIGENLINE002
 62
     7
 10
71.787999999999997
 20
135.10299999999989
 30
0.0
 11
71.787999999999997
 21
131.71100000000001
 31
0.0
  0
ARC
  5
5A
  8
0
  6
AIGENLINE001
 62
     7
 10
84.777525999999995
 20
133.506933
 30
0.0
 40
0.856212
 50
270.75540599999999
 51
329.20001999999988
  0
ARC
  5
5B
  8
0
  6
AIGENLINE001
 62
     7
 10
84.765616000000009
 20
133.48675299999991
 30
0.0
 40
0.8564299999999999
 50
330.76784300000003
 51
29.232157000000001
  0
ARC
  5
5C
  8
0
  6
AIGENLINE001
 62
     7
 10
84.779269999999997
 20
133.46924399999989
 30
0.0
 40
0.8533469999999999
 50
30.705874000000001
 51
89.359155000000001
  0
ARC
  5
5D
  8
0
  6
AIGENLINE001
 62
     7
 10
84.151838999999995
 20
133.45501799999991
 30
0.0
 40
0.8680999999999999
 50
92.094114999999988
 51
177.88223300000001
  0
ARC
  5
5E
  8
0
  6
AIGENLINE001
 62
     7
 10
84.152777999999998
 20
133.5192219999999
 30
0.0
 40
0.8690399999999998
 50
182.1184539999999
 51
267.84615999999988
  0
ARC
  5
5F
  8
0
  6
AIGENLINE001
 62
     7
 10
71.485511000000002
 20
133.45502799999991
 30
0.0
 40
0.8680899999999999
 50
92.093495999999988
 51
177.88285200000001
  0
ARC
  5
60
  8
0
  6
AIGENLINE001
 62
     7
 10
71.486459999999994
 20
133.5192219999999
 30
0.0
 40
0.8690399999999998
 50
182.1184539999999
 51
267.84615999999988
  0
ARC
  5
61
  8
0
  6
AIGENLINE001
 62
     7
 10
72.112030000000004
 20
133.50550899999999
 30
0.0
 40
0.8547779999999999
 50
270.70161200000001
 51
329.25381399999998
  0
ARC
  5
62
  8
0
  6
AIGENLINE001
 62
     7
 10
72.097610000000003
 20
133.48675299999991
 30
0.0
 40
0.8579030000000001
 50
330.822881
 51
29.177119000000001
  0
ARC
  5
63
  8
0
  6
AIGENLINE001
 62
     7
 10
72.112983999999997
 20
133.46929900000001
 30
0.0
 40
0.8532920000000001
 50
30.703790999999999
 51
89.361238
  0
LINE
  5
64
  8
0
  6
AIGENLINE001
 62
     7
 10
84.120099999999994
 20
134.32299999999989
 30
0.0
 11
84.788799999999995
 21
134.32299999999989
 31
0.0
  0
LINE
  5
65
  8
0
  6
AIGENLINE002
 62
     7
 10
73.758200000000002
 20
133.48699999999999
 30
0.0
 11
69.799499999999995
 21
133.48699999999999
 31
0.0
  0
LINE
  5
66
  8
0
  6
AIGENLINE001
 62
     7
 10
71.453800000000001
 20
134.32299999999989
 30
0.0
 11
72.122500000000002
 21
134.32299999999989
 31
0.0
  0
LINE
  5
67
  8
0
  6
AIGENLINE001
 62
     7
 10
72.122500000000002
 20
132.65100000000001
 30
0.0
 11
71.453800000000001
 21
132.65100000000001
 31
0.0
  0
LINE
  5
68
  8
0
  6
AIGENLINE001
 62
     7
 10
84.788799999999995
 20
132.65100000000001
 30
0.0
 11
84.120099999999994
 21
132.65100000000001
 31
0.0
  0
ARC
  5
69
  8
0
 62
     7
 10
136.1790389999999
 20
135.58494599999989
 30
0.0
 40
0.3462070000000001
 50
92.868405000000024
 51
177.9662439999999
  0
ARC
  5
6A
  8
0
 62
     7
 10
136.17915999999991
 20
87.073273999999998
 30
0.0
 40
0.346332
 50
182.052682
 51
267.11266899999993
  0
ARC
  5
6B
  8
0
 62
     7
 10
141.17483100000001
 20
135.68110399999989
 30
0.0
 40
0.33698
 50
45.741987000000009
 51
90.782976000000005
  0
ARC
  5
6C
  8
0
 62
     7
 10
141.17066
 20
135.68298799999999
 30
0.0
 40
0.338568
 50
0.266926
 51
45.014035999999983
  0
ARC
  5
6D
  8
0
 62
     7
 10
141.17657700000001
 20
86.972647999999992
 30
0.0
 40
0.332651
 50
314.56539099999998
 51
0.241925
  0
ARC
  5
6E
  8
0
 62
     7
 10
141.17561199999989
 20
86.974432999999991
 30
0.0
 40
0.3346
 50
269.07754799999992
 51
314.468501
  0
ARC
  5
6F
  8
0
 62
     7
 10
138.80745999999999
 20
135.575467
 30
0.0
 40
0.4234010000000001
 50
91.291409999999999
 51
108.97923400000001
  0
ARC
  5
70
  8
0
 62
     7
 10
121.287904
 20
135.684358
 30
0.0
 40
0.3336969999999999
 50
0.272185
 51
89.787210000000002
  0
ARC
  5
71
  8
0
 62
     7
 10
34.967562000000001
 20
135.6714649999999
 30
0.0
 40
0.3468469999999999
 50
92.214388999999997
 51
177.607552
  0
ARC
  5
72
  8
0
 62
     7
 10
42.413736
 20
125.8620699999999
 30
0.0
 40
3.9570589999999992
 50
90.282353000000001
 51
134.723983
  0
ARC
  5
73
  8
0
 62
     7
 10
42.44288499999999
 20
125.88763
 30
0.0
 40
3.9596
 50
135.28393899999989
 51
179.7050539999999
  0
ARC
  5
74
  8
0
 62
     7
 10
42.44118499999999
 20
94.432252999999989
 30
0.0
 40
3.9578949999999988
 50
180.28236299999989
 51
224.72612100000001
  0
ARC
  5
75
  8
0
 62
     7
 10
42.41163199999999
 20
94.454627999999985
 30
0.0
 40
3.952814
 50
225.25800699999999
 51
269.74784399999987
  0
ARC
  5
76
  8
0
 62
     7
 10
113.82921499999991
 20
94.460564000000005
 30
0.0
 40
3.9587599999999989
 50
270.28235599999999
 51
314.70678599999991
  0
ARC
  5
77
  8
0
 62
     7
 10
113.80285499999999
 20
94.430469999999985
 30
0.0
 40
3.9561160000000002
 50
315.28474499999999
 51
359.74336399999987
  0
ARC
  5
78
  8
0
 62
     7
 10
113.79993899999999
 20
125.88891099999999
 30
0.0
 40
3.9590379999999992
 50
0.276422
 51
44.697990999999988
  0
ARC
  5
79
  8
0
 62
     7
 10
113.8292059999999
 20
125.861193
 30
0.0
 40
3.9579360000000001
 50
45.281218000000003
 51
89.717454000000004
  0
LINE
  5
7A
  8
0
 62
     7
 10
154.2889999999999
 20
144.256
 30
0.0
 11
156.501
 21
144.8489999999999
 31
0.0
  0
LINE
  5
7B
  8
0
 62
     7
 10
156.501
 20
144.8489999999999
 30
0.0
 11
154.2889999999999
 21
145.441
 31
0.0
  0
LINE
  5
7C
  8
0
 62
     7
 10
154.2889999999999
 20
145.441
 30
0.0
 11
154.2889999999999
 21
144.256
 31
0.0
  0
LINE
  5
7D
  8
0
 62
     7
 10
138.04300000000001
 20
145.42699999999999
 30
0.0
 11
135.83199999999991
 21
144.83399999999989
 31
0.0
  0
LINE
  5
7E
  8
0
 62
     7
 10
135.83199999999991
 20
144.83399999999989
 30
0.0
 11
138.04300000000001
 21
144.24199999999999
 31
0.0
  0
LINE
  5
7F
  8
0
 62
     7
 10
138.04300000000001
 20
144.24199999999999
 30
0.0
 11
138.04300000000001
 21
145.42699999999999
 31
0.0
  0
LINE
  5
80
  8
0
 62
     7
 10
156.49999999999989
 20
144.84200000000001
 30
0.0
 11
135.833
 21
144.84200000000001
 31
0.0
  0
LINE
  5
81
  8
0
 62
     7
 10
138.79799999999989
 20
135.999
 30
0.0
 11
156.49999999999989
 21
136.30699999999999
 31
0.0
  0
LINE
  5
82
  8
0
 62
     7
 10
136.16200000000001
 20
135.93100000000001
 30
0.0
 11
141.1699999999999
 21
136.01799999999989
 31
0.0
  0
LINE
  5
83
  8
0
 62
     7
 10
157.40899999999991
 20
136.30699999999999
 30
0.0
 11
178.58799999999991
 21
136.30699999999999
 31
0.0
  0
LINE
  5
84
  8
0
 62
     7
 10
157.40899999999991
 20
130.6399999999999
 30
0.0
 11
178.58799999999991
 21
130.6399999999999
 31
0.0
  0
LINE
  5
85
  8
0
 62
     7
 10
156.49999999999989
 20
130.6399999999999
 30
0.0
 11
141.51199999999989
 21
130.90100000000001
 31
0.0
  0
LINE
  5
86
  8
0
 62
     7
 10
135.833
 20
136.50599999999989
 30
0.0
 11
135.833
 21
145.54199999999989
 31
0.0
  0
LINE
  5
87
  8
0
 62
     7
 10
135.833
 20
135.59700000000001
 30
0.0
 11
135.833
 21
87.060900000000004
 31
0.0
  0
LINE
  5
88
  8
0
 62
     7
 10
138.79699999999991
 20
135.977
 30
0.0
 11
138.79699999999991
 21
135.983
 31
0.0
  0
LINE
  5
89
  8
0
 62
     7
 10
138.79699999999991
 20
135.983
 30
0.0
 11
138.79699999999991
 21
135.99499999999989
 31
0.0
  0
LINE
  5
8A
  8
0
 62
     7
 10
138.79699999999991
 20
135.99499999999989
 30
0.0
 11
138.79799999999989
 21
135.999
 31
0.0
  0
LINE
  5
8B
  8
0
 62
     7
 10
141.50899999999999
 20
86.974100000000007
 30
0.0
 11
141.50899999999999
 21
135.685
 31
0.0
  0
LINE
  5
8C
  8
0
 62
     7
 10
156.49999999999989
 20
137.21499999999989
 30
0.0
 11
156.49999999999989
 21
145.54199999999989
 31
0.0
  0
LINE
  5
8D
  8
0
 62
     7
 10
156.49999999999989
 20
130.6399999999999
 30
0.0
 11
156.49999999999989
 21
136.30699999999999
 31
0.0
  0
LINE
  5
8E
  8
0
 62
     7
 10
178.4729999999999
 20
134.096
 30
0.0
 11
177.88099999999989
 21
136.30799999999991
 31
0.0
  0
LINE
  5
8F
  8
0
 62
     7
 10
177.88099999999989
 20
136.30799999999991
 30
0.0
 11
177.2879999999999
 21
134.096
 31
0.0
  0
LINE
  5
90
  8
0
 62
     7
 10
177.2879999999999
 20
134.096
 30
0.0
 11
178.4729999999999
 21
134.096
 31
0.0
  0
LINE
  5
91
  8
0
 62
     7
 10
177.303
 20
132.851
 30
0.0
 11
177.89500000000001
 21
130.63900000000001
 31
0.0
  0
LINE
  5
92
  8
0
 62
     7
 10
177.89500000000001
 20
130.63900000000001
 30
0.0
 11
178.488
 21
132.851
 31
0.0
  0
LINE
  5
93
  8
0
 62
     7
 10
178.488
 20
132.851
 30
0.0
 11
177.303
 21
132.851
 31
0.0
  0
LINE
  5
94
  8
0
 62
     7
 10
177.88800000000001
 20
136.30699999999999
 30
0.0
 11
177.88800000000001
 21
130.6399999999999
 31
0.0
  0
LINE
  5
95
  8
0
 62
     7
 10
136.16200000000001
 20
86.727400000000003
 30
0.0
 11
141.1699999999999
 21
86.639899999999997
 31
0.0
  0
LINE
  5
96
  8
0
 62
     7
 10
121.622
 20
87.974500000000006
 30
0.0
 11
121.622
 21
135.685
 31
0.0
  0
LINE
  5
97
  8
0
 62
     7
 10
121.622
 20
87.066400000000002
 30
0.0
 11
121.622
 21
75.467399999999984
 31
0.0
  0
LINE
  5
98
  8
0
 62
     7
 10
117.759
 20
125.9079999999999
 30
0.0
 11
117.759
 21
94.412700000000015
 31
0.0
  0
LINE
  5
99
  8
0
 62
     7
 10
67.298299999999983
 20
136.30699999999999
 30
0.0
 11
24.123899999999999
 21
136.30699999999999
 31
0.0
  0
LINE
  5
9A
  8
0
 62
     7
 10
88.035799999999995
 20
136.30699999999999
 30
0.0
 11
68.206800000000001
 21
136.30699999999999
 31
0.0
  0
LINE
  5
9B
  8
0
 62
     7
 10
70.331699999999998
 20
136.01799999999989
 30
0.0
 11
34.955500000000001
 21
136.01799999999989
 31
0.0
  0
LINE
  5
9C
  8
0
 62
     7
 10
121.2879999999999
 20
136.01799999999989
 30
0.0
 11
69.615099999999998
 21
136.01799999999989
 31
0.0
  0
LINE
  5
9D
  8
0
 62
     7
 10
68.206800000000001
 20
136.30699999999999
 30
0.0
 11
68.153700000000001
 21
136.30199999999999
 31
0.0
  0
LINE
  5
9E
  8
0
 62
     7
 10
68.153700000000001
 20
136.30199999999999
 30
0.0
 11
68.103099999999998
 21
136.28999999999999
 31
0.0
  0
LINE
  5
9F
  8
0
 62
     7
 10
68.103099999999998
 20
136.28999999999999
 30
0.0
 11
68.0548
 21
136.27000000000001
 31
0.0
  0
LINE
  5
A0
  8
0
 62
     7
 10
68.0548
 20
136.27000000000001
 30
0.0
 11
68.011399999999995
 21
136.24299999999999
 31
0.0
  0
LINE
  5
A1
  8
0
 62
     7
 10
68.011399999999995
 20
136.24299999999999
 30
0.0
 11
67.970799999999997
 21
136.209
 31
0.0
  0
LINE
  5
A2
  8
0
 62
     7
 10
67.970799999999997
 20
136.209
 30
0.0
 11
67.936300000000003
 21
136.1689999999999
 31
0.0
  0
LINE
  5
A3
  8
0
 62
     7
 10
67.936300000000003
 20
136.1689999999999
 30
0.0
 11
67.910200000000003
 21
136.125
 31
0.0
  0
LINE
  5
A4
  8
0
 62
     7
 10
67.910200000000003
 20
136.125
 30
0.0
 11
67.889499999999984
 21
136.07599999999991
 31
0.0
  0
LINE
  5
A5
  8
0
 62
     7
 10
67.889499999999984
 20
136.07599999999991
 30
0.0
 11
67.877799999999993
 21
136.02600000000001
 31
0.0
  0
LINE
  5
A6
  8
0
 62
     7
 10
42.394199999999991
 20
129.8189999999999
 30
0.0
 11
113.849
 21
129.8189999999999
 31
0.0
  0
LINE
  5
A7
  8
0
 62
     7
 10
88.364799999999988
 20
136.02600000000001
 30
0.0
 11
88.353499999999997
 21
136.07599999999991
 31
0.0
  0
LINE
  5
A8
  8
0
 62
     7
 10
88.353499999999997
 20
136.07599999999991
 30
0.0
 11
88.332800000000006
 21
136.125
 31
0.0
  0
LINE
  5
A9
  8
0
 62
     7
 10
88.332800000000006
 20
136.125
 30
0.0
 11
88.306299999999993
 21
136.1689999999999
 31
0.0
  0
LINE
  5
AA
  8
0
 62
     7
 10
88.306299999999993
 20
136.1689999999999
 30
0.0
 11
88.271799999999999
 21
136.209
 31
0.0
  0
LINE
  5
AB
  8
0
 62
     7
 10
88.271799999999999
 20
136.209
 30
0.0
 11
88.231499999999997
 21
136.24299999999999
 31
0.0
  0
LINE
  5
AC
  8
0
 62
     7
 10
88.231499999999997
 20
136.24299999999999
 30
0.0
 11
88.187799999999996
 21
136.27000000000001
 31
0.0
  0
LINE
  5
AD
  8
0
 62
     7
 10
88.187799999999996
 20
136.27000000000001
 30
0.0
 11
88.139200000000017
 21
136.28999999999999
 31
0.0
  0
LINE
  5
AE
  8
0
 62
     7
 10
88.139200000000017
 20
136.28999999999999
 30
0.0
 11
88.088899999999995
 21
136.30199999999999
 31
0.0
  0
LINE
  5
AF
  8
0
 62
     7
 10
88.088899999999995
 20
136.30199999999999
 30
0.0
 11
88.035799999999995
 21
136.30699999999999
 31
0.0
  0
LINE
  5
B0
  8
0
 62
     7
 10
113.849
 20
90.501900000000006
 30
0.0
 11
42.394199999999991
 21
90.501900000000006
 31
0.0
  0
LINE
  5
B1
  8
0
 62
     7
 10
35.047899999999991
 20
86.639899999999997
 30
0.0
 11
24.123899999999999
 21
86.639899999999997
 31
0.0
  0
LINE
  5
B2
  8
0
 62
     7
 10
35.956699999999998
 20
86.639899999999997
 30
0.0
 11
120.286
 21
86.639899999999997
 31
0.0
  0
LINE
  5
B3
  8
0
 62
     7
 10
120.286
 20
86.639899999999997
 30
0.0
 11
120.45999999999989
 21
86.650199999999998
 31
0.0
  0
LINE
  5
B4
  8
0
 62
     7
 10
120.45999999999989
 20
86.650199999999998
 30
0.0
 11
120.6309999999999
 21
86.684700000000007
 31
0.0
  0
LINE
  5
B5
  8
0
 62
     7
 10
120.6309999999999
 20
86.684700000000007
 30
0.0
 11
120.797
 21
86.741200000000006
 31
0.0
  0
LINE
  5
B6
  8
0
 62
     7
 10
120.797
 20
86.741200000000006
 30
0.0
 11
120.9529999999999
 21
86.818299999999994
 31
0.0
  0
LINE
  5
B7
  8
0
 62
     7
 10
120.9529999999999
 20
86.818299999999994
 30
0.0
 11
121.099
 21
86.9148
 31
0.0
  0
LINE
  5
B8
  8
0
 62
     7
 10
121.099
 20
86.9148
 30
0.0
 11
121.23
 21
87.031199999999998
 31
0.0
  0
LINE
  5
B9
  8
0
 62
     7
 10
121.23
 20
87.031199999999998
 30
0.0
 11
121.3449999999999
 21
87.162199999999984
 31
0.0
  0
LINE
  5
BA
  8
0
 62
     7
 10
121.3449999999999
 20
87.162199999999984
 30
0.0
 11
121.44199999999999
 21
87.307500000000005
 31
0.0
  0
LINE
  5
BB
  8
0
 62
     7
 10
121.44199999999999
 20
87.307500000000005
 30
0.0
 11
121.51899999999991
 21
87.463300000000004
 31
0.0
  0
LINE
  5
BC
  8
0
 62
     7
 10
121.51899999999991
 20
87.463300000000004
 30
0.0
 11
121.575
 21
87.629300000000001
 31
0.0
  0
LINE
  5
BD
  8
0
 62
     7
 10
121.575
 20
87.629300000000001
 30
0.0
 11
121.6099999999999
 21
87.800899999999984
 31
0.0
  0
LINE
  5
BE
  8
0
 62
     7
 10
121.6099999999999
 20
87.800899999999984
 30
0.0
 11
121.622
 21
87.974500000000006
 31
0.0
  0
LINE
  5
BF
  8
0
 62
     7
 10
36.831699999999998
 20
76.752399999999994
 30
0.0
 11
34.61999999999999
 21
76.159800000000004
 31
0.0
  0
LINE
  5
C0
  8
0
 62
     7
 10
34.61999999999999
 20
76.159800000000004
 30
0.0
 11
36.831699999999998
 21
75.567300000000003
 31
0.0
  0
LINE
  5
C1
  8
0
 62
     7
 10
36.831699999999998
 20
75.567300000000003
 30
0.0
 11
36.831699999999998
 21
76.752399999999994
 31
0.0
  0
LINE
  5
C2
  8
0
 62
     7
 10
127.949
 20
82.882599999999996
 30
0.0
 11
125.929
 21
83.960999999999999
 31
0.0
  0
LINE
  5
C3
  8
0
 62
     7
 10
125.929
 20
83.960999999999999
 30
0.0
 11
128.21700000000001
 21
84.037099999999995
 31
0.0
  0
LINE
  5
C4
  8
0
 62
     7
 10
128.21700000000001
 20
84.037099999999995
 30
0.0
 11
127.949
 21
82.882599999999996
 31
0.0
  0
LINE
  5
C5
  8
0
 62
     7
 10
151.0689999999999
 20
82.882599999999996
 30
0.0
 11
153.089
 21
83.960999999999999
 31
0.0
  0
LINE
  5
C6
  8
0
 62
     7
 10
153.089
 20
83.960999999999999
 30
0.0
 11
150.80099999999999
 21
84.037099999999995
 31
0.0
  0
LINE
  5
C7
  8
0
 62
     7
 10
150.80099999999999
 20
84.037099999999995
 30
0.0
 11
151.0689999999999
 21
82.882599999999996
 31
0.0
  0
LINE
  5
C8
  8
0
 62
     7
 10
119.411
 20
75.581699999999998
 30
0.0
 11
121.62299999999991
 21
76.174300000000002
 31
0.0
  0
LINE
  5
C9
  8
0
 62
     7
 10
121.62299999999991
 20
76.174300000000002
 30
0.0
 11
119.411
 21
76.766900000000007
 31
0.0
  0
LINE
  5
CA
  8
0
 62
     7
 10
119.411
 20
76.766900000000007
 30
0.0
 11
119.411
 21
75.581699999999998
 31
0.0
  0
LINE
  5
CB
  8
0
 62
     7
 10
34.621000000000002
 20
76.167400000000001
 30
0.0
 11
121.622
 21
76.167400000000001
 31
0.0
  0
LINE
  5
CC
  8
0
 62
     7
 10
38.4833
 20
94.412700000000015
 30
0.0
 11
38.4833
 21
125.9079999999999
 31
0.0
  0
LINE
  5
CD
  8
0
 62
     7
 10
34.621000000000002
 20
87.066400000000002
 30
0.0
 11
34.621000000000002
 21
75.467399999999984
 31
0.0
  0
LINE
  5
CE
  8
0
 62
     7
 10
34.621000000000002
 20
135.685
 30
0.0
 11
34.621000000000002
 21
87.974500000000006
 31
0.0
  0
LINE
  5
CF
  8
0
 62
     7
 10
34.621000000000002
 20
87.974500000000006
 30
0.0
 11
34.6327
 21
87.800899999999984
 31
0.0
  0
LINE
  5
D0
  8
0
 62
     7
 10
34.6327
 20
87.800899999999984
 30
0.0
 11
34.667200000000001
 21
87.629300000000001
 31
0.0
  0
LINE
  5
D1
  8
0
 62
     7
 10
34.667200000000001
 20
87.629300000000001
 30
0.0
 11
34.722999999999999
 21
87.463300000000004
 31
0.0
  0
LINE
  5
D2
  8
0
 62
     7
 10
34.722999999999999
 20
87.463300000000004
 30
0.0
 11
34.8005
 21
87.307500000000005
 31
0.0
  0
LINE
  5
D3
  8
0
 62
     7
 10
34.8005
 20
87.307500000000005
 30
0.0
 11
34.897300000000001
 21
87.162199999999984
 31
0.0
  0
LINE
  5
D4
  8
0
 62
     7
 10
34.897300000000001
 20
87.162199999999984
 30
0.0
 11
35.012700000000002
 21
87.031199999999998
 31
0.0
  0
LINE
  5
D5
  8
0
 62
     7
 10
35.012700000000002
 20
87.031199999999998
 30
0.0
 11
35.143999999999998
 21
86.9148
 31
0.0
  0
LINE
  5
D6
  8
0
 62
     7
 10
35.143999999999998
 20
86.9148
 30
0.0
 11
35.289000000000001
 21
86.818299999999994
 31
0.0
  0
LINE
  5
D7
  8
0
 62
     7
 10
35.289000000000001
 20
86.818299999999994
 30
0.0
 11
35.446100000000001
 21
86.741200000000006
 31
0.0
  0
LINE
  5
D8
  8
0
 62
     7
 10
35.446100000000001
 20
86.741200000000006
 30
0.0
 11
35.610799999999998
 21
86.684700000000007
 31
0.0
  0
LINE
  5
D9
  8
0
 62
     7
 10
35.610799999999998
 20
86.684700000000007
 30
0.0
 11
35.782400000000003
 21
86.650199999999998
 31
0.0
  0
LINE
  5
DA
  8
0
 62
     7
 10
35.782400000000003
 20
86.650199999999998
 30
0.0
 11
35.956699999999998
 21
86.639899999999997
 31
0.0
  0
LINE
  5
DB
  8
0
 62
     7
 10
24.238600000000002
 20
88.850999999999985
 30
0.0
 11
24.831199999999988
 21
86.639200000000002
 31
0.0
  0
LINE
  5
DC
  8
0
 62
     7
 10
24.831199999999988
 20
86.639200000000002
 30
0.0
 11
25.4238
 21
88.850999999999985
 31
0.0
  0
LINE
  5
DD
  8
0
 62
     7
 10
25.4238
 20
88.850999999999985
 30
0.0
 11
24.238600000000002
 21
88.850999999999985
 31
0.0
  0
LINE
  5
DE
  8
0
 62
     7
 10
25.409300000000002
 20
134.096
 30
0.0
 11
24.816700000000001
 21
136.30799999999991
 31
0.0
  0
LINE
  5
DF
  8
0
 62
     7
 10
24.816700000000001
 20
136.30799999999991
 30
0.0
 11
24.2242
 21
134.096
 31
0.0
  0
LINE
  5
E0
  8
0
 62
     7
 10
24.2242
 20
134.096
 30
0.0
 11
25.409300000000002
 21
134.096
 31
0.0
  0
LINE
  5
E1
  8
0
 62
     7
 10
24.824000000000002
 20
86.639899999999997
 30
0.0
 11
24.824000000000002
 21
136.30699999999999
 31
0.0
  0
LINE
  5
E2
  8
0
 62
     7
 10
83.743200000000002
 20
184.6109999999999
 30
0.0
 11
84.125600000000006
 21
184.12
 31
0.0
  0
LINE
  5
E3
  8
0
 62
     7
 10
84.125600000000006
 20
184.12
 30
0.0
 11
83.963700000000003
 21
184.12
 31
0.0
  0
LINE
  5
E4
  8
0
 62
     7
 10
83.963700000000003
 20
184.12
 30
0.0
 11
83.587500000000006
 21
184.60299999999989
 31
0.0
  0
LINE
  5
E5
  8
0
 62
     7
 10
83.587500000000006
 20
184.60299999999989
 30
0.0
 11
83.587500000000006
 21
184.12
 31
0.0
  0
LINE
  5
E6
  8
0
 62
     7
 10
83.587500000000006
 20
184.12
 30
0.0
 11
83.455200000000005
 21
184.12
 31
0.0
  0
LINE
  5
E7
  8
0
 62
     7
 10
83.455200000000005
 20
184.12
 30
0.0
 11
83.455200000000005
 21
185.142
 31
0.0
  0
LINE
  5
E8
  8
0
 62
     7
 10
83.455200000000005
 20
185.142
 30
0.0
 11
83.587500000000006
 21
185.142
 31
0.0
  0
LINE
  5
E9
  8
0
 62
     7
 10
83.587500000000006
 20
185.142
 30
0.0
 11
83.587500000000006
 21
184.619
 31
0.0
  0
LINE
  5
EA
  8
0
 62
     7
 10
83.587500000000006
 20
184.619
 30
0.0
 11
83.972000000000008
 21
185.142
 31
0.0
  0
LINE
  5
EB
  8
0
 62
     7
 10
83.972000000000008
 20
185.142
 30
0.0
 11
84.133200000000002
 21
185.142
 31
0.0
  0
LINE
  5
EC
  8
0
 62
     7
 10
84.133200000000002
 20
185.142
 30
0.0
 11
83.743200000000002
 21
184.6109999999999
 31
0.0
  0
LINE
  5
ED
  8
0
 62
     7
 10
84.344399999999993
 20
185.00999999999991
 30
0.0
 11
84.867000000000004
 21
185.00999999999991
 31
0.0
  0
LINE
  5
EE
  8
0
 62
     7
 10
84.867000000000004
 20
185.00999999999991
 30
0.0
 11
84.867000000000004
 21
185.142
 31
0.0
  0
LINE
  5
EF
  8
0
 62
     7
 10
84.867000000000004
 20
185.142
 30
0.0
 11
84.208299999999994
 21
185.142
 31
0.0
  0
LINE
  5
F0
  8
0
 62
     7
 10
84.208299999999994
 20
185.142
 30
0.0
 11
84.208299999999994
 21
184.12
 31
0.0
  0
LINE
  5
F1
  8
0
 62
     7
 10
84.208299999999994
 20
184.12
 30
0.0
 11
84.867000000000004
 21
184.12
 31
0.0
  0
LINE
  5
F2
  8
0
 62
     7
 10
84.867000000000004
 20
184.12
 30
0.0
 11
84.867000000000004
 21
184.25200000000001
 31
0.0
  0
LINE
  5
F3
  8
0
 62
     7
 10
84.867000000000004
 20
184.25200000000001
 30
0.0
 11
84.344399999999993
 21
184.25200000000001
 31
0.0
  0
LINE
  5
F4
  8
0
 62
     7
 10
84.344399999999993
 20
184.25200000000001
 30
0.0
 11
84.344399999999993
 21
184.62499999999989
 31
0.0
  0
LINE
  5
F5
  8
0
 62
     7
 10
84.344399999999993
 20
184.62499999999989
 30
0.0
 11
84.867000000000004
 21
184.62499999999989
 31
0.0
  0
LINE
  5
F6
  8
0
 62
     7
 10
84.867000000000004
 20
184.62499999999989
 30
0.0
 11
84.867000000000004
 21
184.75700000000001
 31
0.0
  0
LINE
  5
F7
  8
0
 62
     7
 10
84.867000000000004
 20
184.75700000000001
 30
0.0
 11
84.344399999999993
 21
184.75700000000001
 31
0.0
  0
LINE
  5
F8
  8
0
 62
     7
 10
84.344399999999993
 20
184.75700000000001
 30
0.0
 11
84.344399999999993
 21
185.00999999999991
 31
0.0
  0
LINE
  5
F9
  8
0
 62
     7
 10
85.103699999999989
 20
185.142
 30
0.0
 11
84.971800000000002
 21
185.142
 31
0.0
  0
LINE
  5
FA
  8
0
 62
     7
 10
84.971800000000002
 20
185.142
 30
0.0
 11
84.971800000000002
 21
184.49700000000001
 31
0.0
  0
LINE
  5
FB
  8
0
 62
     7
 10
84.971800000000002
 20
184.49700000000001
 30
0.0
 11
84.993499999999983
 21
184.369
 31
0.0
  0
LINE
  5
FC
  8
0
 62
     7
 10
84.993499999999983
 20
184.369
 30
0.0
 11
85.060599999999994
 21
184.25399999999999
 31
0.0
  0
LINE
  5
FD
  8
0
 62
     7
 10
85.060599999999994
 20
184.25399999999999
 30
0.0
 11
85.159199999999984
 21
184.17099999999991
 31
0.0
  0
LINE
  5
FE
  8
0
 62
     7
 10
85.159199999999984
 20
184.17099999999991
 30
0.0
 11
85.281499999999994
 21
184.12599999999989
 31
0.0
  0
LINE
  5
FF
  8
0
 62
     7
 10
85.281499999999994
 20
184.12599999999989
 30
0.0
 11
85.411299999999997
 21
184.12599999999989
 31
0.0
  0
LINE
  5
100
  8
0
 62
     7
 10
85.411299999999997
 20
184.12599999999989
 30
0.0
 11
85.533600000000007
 21
184.17099999999991
 31
0.0
  0
LINE
  5
101
  8
0
 62
     7
 10
85.533600000000007
 20
184.17099999999991
 30
0.0
 11
85.636700000000005
 21
184.25399999999999
 31
0.0
  0
LINE
  5
102
  8
0
 62
     7
 10
85.636700000000005
 20
184.25399999999999
 30
0.0
 11
85.699399999999997
 21
184.369
 31
0.0
  0
LINE
  5
103
  8
0
 62
     7
 10
85.699399999999997
 20
184.369
 30
0.0
 11
85.722800000000007
 21
184.49700000000001
 31
0.0
  0
LINE
  5
104
  8
0
 62
     7
 10
85.722800000000007
 20
184.49700000000001
 30
0.0
 11
85.722800000000007
 21
185.142
 31
0.0
  0
LINE
  5
105
  8
0
 62
     7
 10
85.722800000000007
 20
185.142
 30
0.0
 11
85.591200000000001
 21
185.142
 31
0.0
  0
LINE
  5
106
  8
0
 62
     7
 10
85.591200000000001
 20
185.142
 30
0.0
 11
85.591200000000001
 21
184.49700000000001
 31
0.0
  0
LINE
  5
107
  8
0
 62
     7
 10
85.591200000000001
 20
184.49700000000001
 30
0.0
 11
85.573300000000003
 21
184.404
 31
0.0
  0
LINE
  5
108
  8
0
 62
     7
 10
85.573300000000003
 20
184.404
 30
0.0
 11
85.519900000000007
 21
184.32299999999989
 31
0.0
  0
LINE
  5
109
  8
0
 62
     7
 10
85.519900000000007
 20
184.32299999999989
 30
0.0
 11
85.439599999999999
 21
184.27199999999999
 31
0.0
  0
LINE
  5
10A
  8
0
 62
     7
 10
85.439599999999999
 20
184.27199999999999
 30
0.0
 11
85.347999999999999
 21
184.25200000000001
 31
0.0
  0
LINE
  5
10B
  8
0
 62
     7
 10
85.347999999999999
 20
184.25200000000001
 30
0.0
 11
85.253600000000006
 21
184.27199999999999
 31
0.0
  0
LINE
  5
10C
  8
0
 62
     7
 10
85.253600000000006
 20
184.27199999999999
 30
0.0
 11
85.174300000000002
 21
184.32299999999989
 31
0.0
  0
LINE
  5
10D
  8
0
 62
     7
 10
85.174300000000002
 20
184.32299999999989
 30
0.0
 11
85.121599999999987
 21
184.404
 31
0.0
  0
LINE
  5
10E
  8
0
 62
     7
 10
85.121599999999987
 20
184.404
 30
0.0
 11
85.103699999999989
 21
184.49700000000001
 31
0.0
  0
LINE
  5
10F
  8
0
 62
     7
 10
85.103699999999989
 20
184.49700000000001
 30
0.0
 11
85.103699999999989
 21
185.142
 31
0.0
  0
LINE
  5
110
  8
0
 62
     7
 10
86.488299999999995
 20
184.952
 30
0.0
 11
86.3643
 21
184.9959999999999
 31
0.0
  0
LINE
  5
111
  8
0
 62
     7
 10
86.3643
 20
184.9959999999999
 30
0.0
 11
86.232299999999995
 21
184.9959999999999
 31
0.0
  0
LINE
  5
112
  8
0
 62
     7
 10
86.232299999999995
 20
184.9959999999999
 30
0.0
 11
86.109700000000004
 21
184.9499999999999
 31
0.0
  0
LINE
  5
113
  8
0
 62
     7
 10
86.109700000000004
 20
184.9499999999999
 30
0.0
 11
86.011499999999998
 21
184.8659999999999
 31
0.0
  0
LINE
  5
114
  8
0
 62
     7
 10
86.011499999999998
 20
184.8659999999999
 30
0.0
 11
85.945999999999984
 21
184.749
 31
0.0
  0
LINE
  5
115
  8
0
 62
     7
 10
85.945999999999984
 20
184.749
 30
0.0
 11
85.923999999999992
 21
184.6209999999999
 31
0.0
  0
LINE
  5
116
  8
0
 62
     7
 10
85.923999999999992
 20
184.6209999999999
 30
0.0
 11
85.950199999999995
 21
184.4909999999999
 31
0.0
  0
LINE
  5
117
  8
0
 62
     7
 10
85.950199999999995
 20
184.4909999999999
 30
0.0
 11
86.01700000000001
 21
184.3779999999999
 31
0.0
  0
LINE
  5
118
  8
0
 62
     7
 10
86.01700000000001
 20
184.3779999999999
 30
0.0
 11
86.119699999999995
 21
184.29599999999991
 31
0.0
  0
LINE
  5
119
  8
0
 62
     7
 10
86.119699999999995
 20
184.29599999999991
 30
0.0
 11
86.190600000000003
 21
184.26599999999999
 31
0.0
  0
LINE
  5
11A
  8
0
 62
     7
 10
86.190600000000003
 20
184.26599999999999
 30
0.0
 11
86.2654
 21
184.25200000000001
 31
0.0
  0
LINE
  5
11B
  8
0
 62
     7
 10
86.2654
 20
184.25200000000001
 30
0.0
 11
86.342200000000005
 21
184.25200000000001
 31
0.0
  0
LINE
  5
11C
  8
0
 62
     7
 10
86.342200000000005
 20
184.25200000000001
 30
0.0
 11
86.417000000000002
 21
184.27000000000001
 31
0.0
  0
LINE
  5
11D
  8
0
 62
     7
 10
86.417000000000002
 20
184.27000000000001
 30
0.0
 11
86.488299999999995
 21
184.30000000000001
 31
0.0
  0
LINE
  5
11E
  8
0
 62
     7
 10
86.488299999999995
 20
184.30000000000001
 30
0.0
 11
86.553399999999996
 21
184.18700000000001
 31
0.0
  0
LINE
  5
11F
  8
0
 62
     7
 10
86.553399999999996
 20
184.18700000000001
 30
0.0
 11
86.405600000000007
 21
184.13
 31
0.0
  0
LINE
  5
120
  8
0
 62
     7
 10
86.405600000000007
 20
184.13
 30
0.0
 11
86.243700000000004
 21
184.12200000000001
 31
0.0
  0
LINE
  5
121
  8
0
 62
     7
 10
86.243700000000004
 20
184.12200000000001
 30
0.0
 11
86.089999999999989
 21
184.1629999999999
 31
0.0
  0
LINE
  5
122
  8
0
 62
     7
 10
86.089999999999989
 20
184.1629999999999
 30
0.0
 11
85.957699999999988
 21
184.25200000000001
 31
0.0
  0
LINE
  5
123
  8
0
 62
     7
 10
85.957699999999988
 20
184.25200000000001
 30
0.0
 11
85.857500000000002
 21
184.37700000000001
 31
0.0
  0
LINE
  5
124
  8
0
 62
     7
 10
85.857500000000002
 20
184.37700000000001
 30
0.0
 11
85.802000000000007
 21
184.52699999999999
 31
0.0
  0
LINE
  5
125
  8
0
 62
     7
 10
85.802000000000007
 20
184.52699999999999
 30
0.0
 11
85.797899999999998
 21
184.68599999999989
 31
0.0
  0
LINE
  5
126
  8
0
 62
     7
 10
85.797899999999998
 20
184.68599999999989
 30
0.0
 11
85.841300000000004
 21
184.83999999999989
 31
0.0
  0
LINE
  5
127
  8
0
 62
     7
 10
85.841300000000004
 20
184.83999999999989
 30
0.0
 11
85.930199999999999
 21
184.97199999999989
 31
0.0
  0
LINE
  5
128
  8
0
 62
     7
 10
85.930199999999999
 20
184.97199999999989
 30
0.0
 11
86.056299999999993
 21
185.071
 31
0.0
  0
LINE
  5
129
  8
0
 62
     7
 10
86.056299999999993
 20
185.071
 30
0.0
 11
86.153400000000005
 21
185.11199999999991
 31
0.0
  0
LINE
  5
12A
  8
0
 62
     7
 10
86.153400000000005
 20
185.11199999999991
 30
0.0
 11
86.253999999999991
 21
185.13200000000001
 31
0.0
  0
LINE
  5
12B
  8
0
 62
     7
 10
86.253999999999991
 20
185.13200000000001
 30
0.0
 11
86.358099999999993
 21
185.12999999999991
 31
0.0
  0
LINE
  5
12C
  8
0
 62
     7
 10
86.358099999999993
 20
185.12999999999991
 30
0.0
 11
86.458699999999993
 21
185.10799999999989
 31
0.0
  0
LINE
  5
12D
  8
0
 62
     7
 10
86.458699999999993
 20
185.10799999999989
 30
0.0
 11
86.553399999999996
 21
185.06700000000001
 31
0.0
  0
LINE
  5
12E
  8
0
 62
     7
 10
86.553399999999996
 20
185.06700000000001
 30
0.0
 11
86.488299999999995
 21
184.952
 31
0.0
  0
LINE
  5
12F
  8
0
 62
     7
 10
87.298900000000003
 20
184.755
 30
0.0
 11
87.233800000000002
 21
184.86799999999991
 31
0.0
  0
LINE
  5
130
  8
0
 62
     7
 10
87.233800000000002
 20
184.86799999999991
 30
0.0
 11
87.135300000000001
 21
184.952
 31
0.0
  0
LINE
  5
131
  8
0
 62
     7
 10
87.135300000000001
 20
184.952
 30
0.0
 11
87.010900000000007
 21
184.9959999999999
 31
0.0
  0
LINE
  5
132
  8
0
 62
     7
 10
87.010900000000007
 20
184.9959999999999
 30
0.0
 11
86.881
 21
184.9959999999999
 31
0.0
  0
LINE
  5
133
  8
0
 62
     7
 10
86.881
 20
184.9959999999999
 30
0.0
 11
86.757000000000005
 21
184.952
 31
0.0
  0
LINE
  5
134
  8
0
 62
     7
 10
86.757000000000005
 20
184.952
 30
0.0
 11
86.658100000000005
 21
184.86799999999991
 31
0.0
  0
LINE
  5
135
  8
0
 62
     7
 10
86.658100000000005
 20
184.86799999999991
 30
0.0
 11
86.592999999999989
 21
184.755
 31
0.0
  0
LINE
  5
136
  8
0
 62
     7
 10
86.592999999999989
 20
184.755
 30
0.0
 11
86.571299999999994
 21
184.62700000000001
 31
0.0
  0
LINE
  5
137
  8
0
 62
     7
 10
86.571299999999994
 20
184.62700000000001
 30
0.0
 11
86.592999999999989
 21
184.49700000000001
 31
0.0
  0
LINE
  5
138
  8
0
 62
     7
 10
86.592999999999989
 20
184.49700000000001
 30
0.0
 11
86.658100000000005
 21
184.38399999999999
 31
0.0
  0
LINE
  5
139
  8
0
 62
     7
 10
86.658100000000005
 20
184.38399999999999
 30
0.0
 11
86.758700000000005
 21
184.30199999999999
 31
0.0
  0
LINE
  5
13A
  8
0
 62
     7
 10
86.758700000000005
 20
184.30199999999999
 30
0.0
 11
86.881
 21
184.25599999999989
 31
0.0
  0
LINE
  5
13B
  8
0
 62
     7
 10
86.881
 20
184.25599999999989
 30
0.0
 11
87.010900000000007
 21
184.25599999999989
 31
0.0
  0
LINE
  5
13C
  8
0
 62
     7
 10
87.010900000000007
 20
184.25599999999989
 30
0.0
 11
87.135300000000001
 21
184.30199999999999
 31
0.0
  0
LINE
  5
13D
  8
0
 62
     7
 10
87.135300000000001
 20
184.30199999999999
 30
0.0
 11
87.233800000000002
 21
184.38399999999999
 31
0.0
  0
LINE
  5
13E
  8
0
 62
     7
 10
87.233800000000002
 20
184.38399999999999
 30
0.0
 11
87.298900000000003
 21
184.49700000000001
 31
0.0
  0
LINE
  5
13F
  8
0
 62
     7
 10
87.298900000000003
 20
184.49700000000001
 30
0.0
 11
87.320599999999999
 21
184.62700000000001
 31
0.0
  0
LINE
  5
140
  8
0
 62
     7
 10
87.320599999999999
 20
184.62700000000001
 30
0.0
 11
87.298900000000003
 21
184.755
 31
0.0
  0
LINE
  5
141
  8
0
 62
     7
 10
87.454599999999985
 20
184.62700000000001
 30
0.0
 11
87.427400000000006
 21
184.46899999999999
 31
0.0
  0
LINE
  5
142
  8
0
 62
     7
 10
87.427400000000006
 20
184.46899999999999
 30
0.0
 11
87.356499999999997
 21
184.327
 31
0.0
  0
LINE
  5
143
  8
0
 62
     7
 10
87.356499999999997
 20
184.327
 30
0.0
 11
87.245500000000007
 21
184.215
 31
0.0
  0
LINE
  5
144
  8
0
 62
     7
 10
87.245500000000007
 20
184.215
 30
0.0
 11
87.103599999999986
 21
184.14400000000001
 31
0.0
  0
LINE
  5
145
  8
0
 62
     7
 10
87.103599999999986
 20
184.14400000000001
 30
0.0
 11
86.945800000000006
 21
184.11799999999991
 31
0.0
  0
LINE
  5
146
  8
0
 62
     7
 10
86.945800000000006
 20
184.11799999999991
 30
0.0
 11
86.787999999999997
 21
184.14400000000001
 31
0.0
  0
LINE
  5
147
  8
0
 62
     7
 10
86.787999999999997
 20
184.14400000000001
 30
0.0
 11
86.648100000000014
 21
184.215
 31
0.0
  0
LINE
  5
148
  8
0
 62
     7
 10
86.648100000000014
 20
184.215
 30
0.0
 11
86.535499999999999
 21
184.327
 31
0.0
  0
LINE
  5
149
  8
0
 62
     7
 10
86.535499999999999
 20
184.327
 30
0.0
 11
86.4649
 21
184.46899999999999
 31
0.0
  0
LINE
  5
14A
  8
0
 62
     7
 10
86.4649
 20
184.46899999999999
 30
0.0
 11
86.437299999999993
 21
184.62700000000001
 31
0.0
  0
LINE
  5
14B
  8
0
 62
     7
 10
86.437299999999993
 20
184.62700000000001
 30
0.0
 11
86.4649
 21
184.7829999999999
 31
0.0
  0
LINE
  5
14C
  8
0
 62
     7
 10
86.4649
 20
184.7829999999999
 30
0.0
 11
86.535499999999999
 21
184.9249999999999
 31
0.0
  0
LINE
  5
14D
  8
0
 62
     7
 10
86.535499999999999
 20
184.9249999999999
 30
0.0
 11
86.648100000000014
 21
185.03700000000001
 31
0.0
  0
LINE
  5
14E
  8
0
 62
     7
 10
86.648100000000014
 20
185.03700000000001
 30
0.0
 11
86.787999999999997
 21
185.10799999999989
 31
0.0
  0
LINE
  5
14F
  8
0
 62
     7
 10
86.787999999999997
 20
185.10799999999989
 30
0.0
 11
86.945800000000006
 21
185.13399999999999
 31
0.0
  0
LINE
  5
150
  8
0
 62
     7
 10
86.945800000000006
 20
185.13399999999999
 30
0.0
 11
87.103599999999986
 21
185.10799999999989
 31
0.0
  0
LINE
  5
151
  8
0
 62
     7
 10
87.103599999999986
 20
185.10799999999989
 30
0.0
 11
87.245500000000007
 21
185.03700000000001
 31
0.0
  0
LINE
  5
152
  8
0
 62
     7
 10
87.245500000000007
 20
185.03700000000001
 30
0.0
 11
87.356499999999997
 21
184.9249999999999
 31
0.0
  0
LINE
  5
153
  8
0
 62
     7
 10
87.356499999999997
 20
184.9249999999999
 30
0.0
 11
87.427400000000006
 21
184.7829999999999
 31
0.0
  0
LINE
  5
154
  8
0
 62
     7
 10
87.427400000000006
 20
184.7829999999999
 30
0.0
 11
87.454599999999985
 21
184.62700000000001
 31
0.0
  0
LINE
  5
155
  8
0
 62
     7
 10
88.121600000000001
 20
167.97399999999999
 30
0.0
 11
88.455100000000002
 21
167.97399999999999
 31
0.0
  0
LINE
  5
156
  8
0
 62
     7
 10
67.788200000000003
 20
167.97399999999999
 30
0.0
 11
68.120999999999995
 21
167.97399999999999
 31
0.0
  0
LINE
  5
157
  8
0
 62
     7
 10
88.121600000000001
 20
169.64199999999991
 30
0.0
 11
88.455100000000002
 21
169.64199999999991
 31
0.0
  0
LINE
  5
158
  8
0
 62
     7
 10
67.788200000000003
 20
169.64199999999991
 30
0.0
 11
68.120999999999995
 21
169.64199999999991
 31
0.0
  0
LINE
  5
159
  8
0
 62
     7
 10
68.120999999999995
 20
185.80799999999991
 30
0.0
 11
88.121600000000001
 21
185.80799999999991
 31
0.0
  0
LINE
  5
15A
  8
0
 62
     7
 10
68.120999999999995
 20
167.80799999999999
 30
0.0
 11
88.121600000000001
 21
167.80799999999999
 31
0.0
  0
LINE
  5
15B
  8
0
 62
     7
 10
88.454800000000006
 20
167.47499999999991
 30
0.0
 11
88.454800000000006
 21
170.80799999999991
 31
0.0
  0
LINE
  5
15C
  8
0
 62
     7
 10
67.788200000000003
 20
167.47499999999991
 30
0.0
 11
67.788200000000003
 21
170.80799999999991
 31
0.0
  0
LINE
  5
15D
  8
0
  6
AIGENLINE002
 62
     7
 10
139.5089999999999
 20
137.40700000000001
 30
0.0
 11
139.5089999999999
 21
127.04299999999991
 31
0.0
  0
LINE
  5
15E
  8
0
  6
AIGENLINE002
 62
     7
 10
86.219399999999993
 20
168.80799999999999
 30
0.0
 11
90.596599999999995
 21
168.80799999999999
 31
0.0
  0
LINE
  5
15F
  8
0
  6
AIGENLINE002
 62
     7
 10
65.580399999999997
 20
168.80799999999999
 30
0.0
 11
69.957599999999999
 21
168.80799999999999
 31
0.0
  0
LINE
  5
160
  8
0
 62
     7
 10
67.788200000000003
 20
167.47499999999991
 30
0.0
 11
88.455100000000002
 21
167.47499999999991
 31
0.0
  0
LINE
  5
161
  8
0
 62
     7
 10
88.121600000000001
 20
167.80799999999999
 30
0.0
 11
88.121600000000001
 21
185.80799999999991
 31
0.0
  0
LINE
  5
162
  8
0
 62
     7
 10
68.120999999999995
 20
167.80799999999999
 30
0.0
 11
68.120999999999995
 21
185.80799999999991
 31
0.0
  0
LINE
  5
163
  8
0
 62
     7
 10
88.455100000000002
 20
170.80799999999991
 30
0.0
 11
121.621
 21
170.80799999999991
 31
0.0
  0
LINE
  5
164
  8
0
 62
     7
 10
34.621000000000002
 20
170.80799999999991
 30
0.0
 11
67.788200000000003
 21
170.80799999999991
 31
0.0
  0
LINE
  5
165
  8
0
 62
     7
 10
121.622
 20
165.14099999999999
 30
0.0
 11
121.622
 21
170.80799999999991
 31
0.0
  0
LINE
  5
166
  8
0
 62
     7
 10
34.621000000000002
 20
165.14099999999999
 30
0.0
 11
34.621000000000002
 21
170.80799999999991
 31
0.0
  0
LINE
  5
167
  8
0
 62
     7
 10
34.621000000000002
 20
165.14099999999999
 30
0.0
 11
121.621
 21
165.14099999999999
 31
0.0
  0
LINE
  5
168
  8
0
 62
     7
 10
71.420699999999997
 20
185.80799999999991
 30
0.0
 11
71.787999999999997
 21
185.80799999999991
 31
0.0
  0
LINE
  5
169
  8
0
 62
     7
 10
71.787999999999997
 20
185.80799999999991
 30
0.0
 11
72.155199999999994
 21
185.80799999999991
 31
0.0
  0
LINE
  5
16A
  8
0
  6
AIGENLINE002
 62
     7
 10
71.787999999999997
 20
185.32799999999989
 30
0.0
 11
71.787999999999997
 21
201.59999999999999
 31
0.0
  0
LINE
  5
16B
  8
0
 62
     7
 10
71.420699999999997
 20
185.80799999999991
 30
0.0
 11
71.420699999999997
 21
199.5679999999999
 31
0.0
  0
LINE
  5
16C
  8
0
 62
     7
 10
72.155199999999994
 20
185.80799999999991
 30
0.0
 11
72.155199999999994
 21
199.5679999999999
 31
0.0
  0
LINE
  5
16D
  8
0
 62
     7
 10
71.121000000000009
 20
199.02999999999989
 30
0.0
 11
72.454599999999999
 21
199.542
 31
0.0
  0
LINE
  5
16E
  8
0
 62
     7
 10
71.121000000000009
 20
197.82900000000001
 30
0.0
 11
72.454599999999999
 21
198.34099999999989
 31
0.0
  0
LINE
  5
16F
  8
0
 62
     7
 10
71.121000000000009
 20
196.62700000000001
 30
0.0
 11
72.454599999999999
 21
197.13900000000001
 31
0.0
  0
LINE
  5
170
  8
0
 62
     7
 10
71.121000000000009
 20
195.4259999999999
 30
0.0
 11
72.454599999999999
 21
195.93700000000001
 31
0.0
  0
LINE
  5
171
  8
0
 62
     7
 10
71.121000000000009
 20
194.22399999999999
 30
0.0
 11
72.454599999999999
 21
194.7359999999999
 31
0.0
  0
LINE
  5
172
  8
0
 62
     7
 10
71.121000000000009
 20
193.023
 30
0.0
 11
72.454599999999999
 21
193.53399999999999
 31
0.0
  0
LINE
  5
173
  8
0
 62
     7
 10
71.121000000000009
 20
191.821
 30
0.0
 11
72.454599999999999
 21
192.33199999999999
 31
0.0
  0
LINE
  5
174
  8
0
 62
     7
 10
71.121000000000009
 20
190.619
 30
0.0
 11
72.454599999999999
 21
191.13099999999989
 31
0.0
  0
LINE
  5
175
  8
0
 62
     7
 10
71.121000000000009
 20
189.41800000000001
 30
0.0
 11
72.454599999999999
 21
189.93000000000001
 31
0.0
  0
LINE
  5
176
  8
0
 62
     7
 10
71.420699999999997
 20
199.5679999999999
 30
0.0
 11
71.787999999999997
 21
200.809
 31
0.0
  0
LINE
  5
177
  8
0
 62
     7
 10
71.787999999999997
 20
200.809
 30
0.0
 11
72.155199999999994
 21
199.5679999999999
 31
0.0
  0
LINE
  5
178
  8
0
 62
     7
 10
71.121000000000009
 20
189.142
 30
0.0
 11
72.454599999999999
 21
189.142
 31
0.0
  0
LINE
  5
179
  8
0
 62
     7
 10
84.087699999999998
 20
185.80799999999991
 30
0.0
 11
84.454599999999999
 21
185.80799999999991
 31
0.0
  0
LINE
  5
17A
  8
0
 62
     7
 10
84.454599999999999
 20
185.80799999999991
 30
0.0
 11
84.822199999999995
 21
185.80799999999991
 31
0.0
  0
LINE
  5
17B
  8
0
  6
AIGENLINE002
 62
     7
 10
84.454599999999999
 20
185.32799999999989
 30
0.0
 11
84.454599999999999
 21
201.59999999999999
 31
0.0
  0
LINE
  5
17C
  8
0
 62
     7
 10
84.087699999999998
 20
185.80799999999991
 30
0.0
 11
84.087699999999998
 21
199.5679999999999
 31
0.0
  0
LINE
  5
17D
  8
0
 62
     7
 10
84.822199999999995
 20
185.80799999999991
 30
0.0
 11
84.822199999999995
 21
199.5679999999999
 31
0.0
  0
LINE
  5
17E
  8
0
 62
     7
 10
83.787999999999997
 20
199.02999999999989
 30
0.0
 11
85.121599999999987
 21
199.542
 31
0.0
  0
LINE
  5
17F
  8
0
 62
     7
 10
83.787999999999997
 20
197.82900000000001
 30
0.0
 11
85.121599999999987
 21
198.34099999999989
 31
0.0
  0
LINE
  5
180
  8
0
 62
     7
 10
83.787999999999997
 20
196.62700000000001
 30
0.0
 11
85.121599999999987
 21
197.13900000000001
 31
0.0
  0
LINE
  5
181
  8
0
 62
     7
 10
83.787999999999997
 20
195.4259999999999
 30
0.0
 11
85.121599999999987
 21
195.93700000000001
 31
0.0
  0
LINE
  5
182
  8
0
 62
     7
 10
83.787999999999997
 20
194.22399999999999
 30
0.0
 11
85.121599999999987
 21
194.7359999999999
 31
0.0
  0
LINE
  5
183
  8
0
 62
     7
 10
83.787999999999997
 20
193.023
 30
0.0
 11
85.121599999999987
 21
193.53399999999999
 31
0.0
  0
LINE
  5
184
  8
0
 62
     7
 10
83.787999999999997
 20
191.821
 30
0.0
 11
85.121599999999987
 21
192.33199999999999
 31
0.0
  0
LINE
  5
185
  8
0
 62
     7
 10
83.787999999999997
 20
190.619
 30
0.0
 11
85.121599999999987
 21
191.13099999999989
 31
0.0
  0
LINE
  5
186
  8
0
 62
     7
 10
83.787999999999997
 20
189.41800000000001
 30
0.0
 11
85.121599999999987
 21
189.93000000000001
 31
0.0
  0
LINE
  5
187
  8
0
 62
     7
 10
84.087699999999998
 20
199.5679999999999
 30
0.0
 11
84.454599999999999
 21
200.809
 31
0.0
  0
LINE
  5
188
  8
0
 62
     7
 10
84.454599999999999
 20
200.809
 30
0.0
 11
84.822199999999995
 21
199.5679999999999
 31
0.0
  0
LINE
  5
189
  8
0
 62
     7
 10
83.787999999999997
 20
189.142
 30
0.0
 11
85.121599999999987
 21
189.142
 31
0.0
  0
TEXT
  5
18A
  8
_________2
 62
     7
 10
109.179
 20
24.226099999999999
 30
0.0
 40
3.9357000000000002
  1
エディション11 タオルリング
 41
0.5
  0
LINE
  5
18B
  8
_________2
 62
     7
 10
205.30099999999999
 20
127.411
 30
0.0
 11
183.55099999999999
 21
127.411
 31
0.0
  0
LINE
  5
18C
  8
_________2
 62
     7
 10
100.2999999999999
 20
-4.0910799999999998
 30
0.0
 11
100.2999999999999
 21
-21.070999999999991
 31
0.0
  0
LINE
  5
18D
  8
_________2
 62
     7
 10
100.2999999999999
 20
275.93099999999993
 30
0.0
 11
100.2999999999999
 21
258.911
 31
0.0
  0
LINE
  5
18E
  8
_________2
 62
     7
 10
17.049199999999988
 20
127.411
 30
0.0
 11
-4.7012099999999988
 21
127.411
 31
0.0
  0
LINE
  5
18F
  8
_________2
 62
     7
 10
76.740700000000004
 20
29.8047
 30
0.0
 11
74.554400000000001
 21
29.8047
 31
0.0
  0
LINE
  5
190
  8
_________2
 62
     7
 10
77.2333
 20
29.8047
 30
0.0
 11
76.981099999999984
 21
29.8047
 31
0.0
  0
LINE
  5
191
  8
_________2
 62
     7
 10
77.725999999999999
 20
29.8047
 30
0.0
 11
80.650899999999993
 21
29.8047
 31
0.0
  0
LINE
  5
192
  8
_________2
 62
     7
 10
77.2333
 20
29.8047
 30
0.0
 11
77.485500000000002
 21
29.8047
 31
0.0
  0
LINE
  5
193
  8
_________2
 62
     7
 10
70.837100000000007
 20
29.8047
 30
0.0
 11
68.650199999999998
 21
29.8047
 31
0.0
  0
LINE
  5
194
  8
_________2
 62
     7
 10
71.329099999999997
 20
29.8047
 30
0.0
 11
71.077600000000004
 21
29.8047
 31
0.0
  0
LINE
  5
195
  8
_________2
 62
     7
 10
71.329099999999997
 20
30.2974
 30
0.0
 11
71.329099999999997
 21
32.484400000000001
 31
0.0
  0
LINE
  5
196
  8
_________2
 62
     7
 10
71.329099999999997
 20
29.8047
 30
0.0
 11
71.329099999999997
 21
30.057300000000001
 31
0.0
  0
LINE
  5
197
  8
_________2
 62
     7
 10
71.821700000000007
 20
29.8047
 30
0.0
 11
74.008700000000005
 21
29.8047
 31
0.0
  0
LINE
  5
198
  8
_________2
 62
     7
 10
71.329099999999997
 20
29.8047
 30
0.0
 11
71.581299999999985
 21
29.8047
 31
0.0
  0
LINE
  5
199
  8
_________2
 62
     7
 10
71.329099999999997
 20
29.312799999999999
 30
0.0
 11
71.329099999999997
 21
27.126200000000001
 31
0.0
  0
LINE
  5
19A
  8
_________2
 62
     7
 10
71.329099999999997
 20
29.8047
 30
0.0
 11
71.329099999999997
 21
29.5532
 31
0.0
  0
LINE
  5
19B
  8
_________2
 62
     7
 10
75.040199999999999
 20
28.5852
 30
0.0
 11
80.218199999999996
 21
27.720400000000001
 31
0.0
  0
LINE
  5
19C
  8
_________2
 62
     7
 10
75.040199999999999
 20
31.024699999999999
 30
0.0
 11
80.218199999999996
 21
31.8901
 31
0.0
  0
LINE
  5
19D
  8
_________2
 62
     7
 10
80.218199999999996
 20
27.720400000000001
 30
0.0
 11
80.218199999999996
 21
31.8901
 31
0.0
  0
LINE
  5
19E
  8
_________2
 62
     7
 10
75.040199999999999
 20
28.5852
 30
0.0
 11
75.040199999999999
 21
31.024699999999999
 31
0.0
  0
ARC
  5
19F
  8
_________2
 62
     7
 10
71.282501999999994
 20
29.757801000000001
 30
0.0
 40
1.267714
 50
2.1220840000000001
 51
87.894083999999992
  0
ARC
  5
1A0
  8
_________2
 62
     7
 10
71.375640000000004
 20
29.758545999999999
 30
0.0
 40
1.2669680000000001
 50
92.105782999999988
 51
177.91037
  0
ARC
  5
1A1
  8
_________2
 62
     7
 10
71.376013999999998
 20
29.851671
 30
0.0
 40
1.2673680000000001
 50
182.12203600000001
 51
267.877993
  0
ARC
  5
1A2
  8
_________2
 62
     7
 10
71.282195999999999
 20
29.852347999999999
 30
0.0
 40
1.2680439999999991
 50
272.11916400000001
 51
357.84848499999993
  0
ARC
  5
1A3
  8
_________2
 62
     7
 10
71.248716999999985
 20
29.724731999999989
 30
0.0
 40
2.1668310000000002
 50
2.1161439999999989
 51
87.874379000000005
  0
ARC
  5
1A4
  8
_________2
 62
     7
 10
71.408756000000011
 20
29.726146
 30
0.0
 40
2.165392999999999
 50
92.108508999999998
 51
177.91986499999999
  0
ARC
  5
1A5
  8
_________2
 62
     7
 10
71.409094999999994
 20
29.884751999999999
 30
0.0
 40
2.1657829999999998
 50
182.117133
 51
267.88289700000001
  0
ARC
  5
1A6
  8
_________2
 62
     7
 10
71.249115000000003
 20
29.885429999999989
 30
0.0
 40
2.1664590000000001
 50
272.11546800000002
 51
357.86560400000002
  0
TEXT
  5
1A7
  8
_________2
 62
     7
 10
104.605
 20
1.6794899999999999
 30
0.0
 40
3.0923400000000001
  1
図番
 41
0.5
  0
LINE
  5
1A8
  8
_________2
 62
     7
 10
103.55
 20
5.9087199999999989
 30
0.0
 11
183.55099999999999
 21
5.9087199999999989
 31
0.0
  0
TEXT
  5
1A9
  8
_________2
 62
     7
 10
104.605
 20
11.679299999999991
 30
0.0
 40
3.0923400000000001
  1
品番
 41
0.5
  0
TEXT
  5
1AA
  8
_________2
 62
     7
 10
104.605
 20
31.8184
 30
0.0
 40
3.0923400000000001
  1
名称
 41
0.5
  0
TEXT
  5
1AB
  8
_________2
 62
     7
 10
91.844758333333345
 20
26.822299999999998
 30
0.0
 40
3.6545800000000002
  1
mm
 41
0.5
 72
     1
 11
93.367500000000007
 21
26.822299999999998
 31
0.0
  0
TEXT
  5
1AC
  8
_________2
 62
     7
 10
85.642899999999983
 20
31.8184
 30
0.0
 40
3.0923400000000001
  1
単位
 41
0.5
  0
TEXT
  5
1AD
  8
_________2
 62
     7
 10
85.642899999999983
 20
19.410799999999991
 30
0.0
 40
3.0923400000000001
  1
尺度
 41
0.5
  0
TEXT
  5
1AE
  8
_________2
 62
     7
 10
90.548458666666676
 20
13.218199999999991
 30
0.0
 40
3.6545800000000002
  1
1 ： 3
 41
0.5
 72
     1
 11
93.959400000000016
 21
13.218199999999991
 31
0.0
  0
TEXT
  5
1AF
  8
_________2
 62
     7
 10
138.30240000000001
 20
9.1082000000000001
 30
0.0
 40
3.9357000000000002
  1
KC11121
 41
0.5
 72
     1
 11
143.55000000000001
 21
9.1082000000000001
 31
0.0
  0
TEXT
  5
1B0
  8
_________2
 62
     7
 10
138.30240000000001
 20
-0.8926299999999999
 30
0.0
 40
3.9357000000000002
  1
KC11121
 41
0.5
 72
     1
 11
143.55000000000001
 21
-0.8926299999999999
 31
0.0
  0
TEXT
  5
1B1
  8
_________2
 62
     7
 10
39.364090666666669
 20
13.603400000000001
 30
0.0
 40
3.6545800000000002
  1
石原
 41
0.5
 72
     1
 11
41.313200000000002
 21
13.603400000000001
 31
0.0
  0
TEXT
  5
1B2
  8
_________2
 62
     7
 10
20.790090666666661
 20
13.603400000000001
 30
0.0
 40
3.6545800000000002
  1
菅原
 41
0.5
 72
     1
 11
22.73919999999999
 21
13.603400000000001
 31
0.0
  0
TEXT
  5
1B3
  8
_________2
 62
     7
 10
67.785399999999996
 20
13.218199999999991
 30
0.0
 40
3.6545800000000002
  1
11.12.22
 41
0.5
  0
TEXT
  5
1B4
  8
_________2
 62
     7
 10
66.592699999999994
 20
19.410799999999991
 30
0.0
 40
3.0923400000000001
  1
日付
 41
0.5
  0
TEXT
  5
1B5
  8
_________2
 62
     7
 10
29.638999999999999
 20
19.410799999999991
 30
0.0
 40
3.0923400000000001
  1
検図
 41
0.5
  0
TEXT
  5
1B6
  8
_________2
 62
     7
 10
18.020700000000001
 20
5.21143
 30
0.0
 40
3.0923400000000001
  1
備考
 41
0.5
  0
TEXT
  5
1B7
  8
_________2
 62
     7
 10
18.020700000000001
 20
19.410799999999991
 30
0.0
 40
3.0923400000000001
  1
製図
 41
0.5
  0
TEXT
  5
1B8
  8
_________2
 62
     7
 10
23.788165333333328
 20
27.936800000000002
 30
0.0
 40
4.4979399999999989
  1
セラトレーディング株式会社
 41
0.5
 72
     1
 11
41.180199999999999
 21
27.936800000000002
 31
0.0
  0
LINE
  5
1B9
  8
_________2
 62
     7
 10
183.55099999999999
 20
-4.0910799999999998
 30
0.0
 11
17.049199999999988
 21
-4.0910799999999998
 31
0.0
  0
LINE
  5
1BA
  8
_________2
 62
     7
 10
17.049199999999988
 20
-4.0910799999999998
 30
0.0
 11
17.049199999999988
 21
258.911
 31
0.0
  0
LINE
  5
1BB
  8
_________2
 62
     7
 10
17.049199999999988
 20
258.911
 30
0.0
 11
183.55099999999999
 21
258.911
 31
0.0
  0
LINE
  5
1BC
  8
_________2
 62
     7
 10
183.55099999999999
 20
258.911
 30
0.0
 11
183.55099999999999
 21
-4.0910799999999998
 31
0.0
  0
LINE
  5
1BD
  8
_________2
 62
     7
 10
65.549599999999998
 20
9.4092999999999982
 30
0.0
 11
65.549599999999998
 21
35.909100000000002
 31
0.0
  0
LINE
  5
1BE
  8
_________2
 62
     7
 10
84.549400000000006
 20
9.4092999999999982
 30
0.0
 11
84.549400000000006
 21
35.909100000000002
 31
0.0
  0
LINE
  5
1BF
  8
_________2
 62
     7
 10
103.55
 20
-4.0910799999999998
 30
0.0
 11
103.55
 21
35.909100000000002
 31
0.0
  0
LINE
  5
1C0
  8
_________2
 62
     7
 10
28.548999999999999
 20
9.4092999999999982
 30
0.0
 11
28.548999999999999
 21
23.409199999999998
 31
0.0
  0
LINE
  5
1C1
  8
_________2
 62
     7
 10
17.049199999999988
 20
9.4092999999999982
 30
0.0
 11
103.55
 21
9.4092999999999982
 31
0.0
  0
LINE
  5
1C2
  8
_________2
 62
     7
 10
17.049199999999988
 20
23.409199999999998
 30
0.0
 11
103.55
 21
23.409199999999998
 31
0.0
  0
LINE
  5
1C3
  8
_________2
 62
     7
 10
103.55
 20
15.9085
 30
0.0
 11
183.55099999999999
 21
15.9085
 31
0.0
  0
LINE
  5
1C4
  8
_________2
 62
     7
 10
17.049199999999988
 20
35.909100000000002
 30
0.0
 11
183.55099999999999
 21
35.909100000000002
 31
0.0
  0
ENDSEC
  0
EOF
