  0
SECTION
  2
HEADER
  9
$ACADVER
  1
AC1009
  9
$INSBASE
 10
0.0
 20
0.0
 30
0.0
  9
$EXTMIN
 10
-4.7012099999999988
 20
-21.070999999999991
 30
0.0
  9
$EXTMAX
 10
205.30099999999999
 20
275.93099999999993
 30
0.0
  9
$LIMMIN
 10
0.0
 20
0.0
  9
$LIMMAX
 10
12.0
 20
9.0
  9
$ORTHOMODE
 70
     0
  9
$REGENMODE
 70
     1
  9
$FILLMODE
 70
     1
  9
$QTEXTMODE
 70
     0
  9
$MIRRTEXT
 70
     1
  9
$DRAGMODE
 70
     2
  9
$LTSCALE
 40
1.0
  9
$OSMODE
 70
    37
  9
$ATTMODE
 70
     1
  9
$TEXTSIZE
 40
0.0
  9
$TRACEWID
 40
0.05
  9
$TEXTSTYLE
  7
STANDARD
  9
$CLAYER
  8
0
  9
$CELTYPE
  6
CONTINUOUS
  9
$CECOLOR
 62
   256
  9
$DIMSCALE
 40
1.0
  9
$DIMASZ
 40
0.18
  9
$DIMEXO
 40
0.0625
  9
$DIMDLI
 40
0.38
  9
$DIMRND
 40
0.0
  9
$DIMDLE
 40
0.0
  9
$DIMEXE
 40
0.18
  9
$DIMTP
 40
0.0
  9
$DIMTM
 40
0.0
  9
$DIMTXT
 40
0.18
  9
$DIMCEN
 40
0.09
  9
$DIMTSZ
 40
0.0
  9
$DIMTOL
 70
     0
  9
$DIMLIM
 70
     0
  9
$DIMTIH
 70
     1
  9
$DIMTOH
 70
     1
  9
$DIMSE1
 70
     0
  9
$DIMSE2
 70
     0
  9
$DIMTAD
 70
     0
  9
$DIMZIN
 70
     0
  9
$DIMBLK
  1

  9
$DIMASO
 70
     1
  9
$DIMSHO
 70
     1
  9
$DIMPOST
  1

  9
$DIMAPOST
  1

  9
$DIMALT
 70
     0
  9
$DIMALTD
 70
     2
  9
$DIMALTF
 40
25.399999999999999
  9
$DIMLFAC
 40
1.0
  9
$DIMTOFL
 70
     0
  9
$DIMTVP
 40
0.0
  9
$DIMTIX
 70
     0
  9
$DIMSOXD
 70
     0
  9
$DIMSAH
 70
     0
  9
$DIMBLK1
  1

  9
$DIMBLK2
  1

  9
$DIMSTYLE
  2
STANDARD
  9
$DIMCLRD
 70
     0
  9
$DIMCLRE
 70
     0
  9
$DIMCLRT
 70
     0
  9
$DIMTFAC
 40
1.0
  9
$DIMGAP
 40
0.09
  9
$LUNITS
 70
     2
  9
$LUPREC
 70
     4
  9
$SKETCHINC
 40
0.1
  9
$FILLETRAD
 40
0.0
  9
$AUNITS
 70
     0
  9
$AUPREC
 70
     0
  9
$MENU
  1
.
  9
$ELEVATION
 40
0.0
  9
$PELEVATION
 40
0.0
  9
$THICKNESS
 40
0.0
  9
$LIMCHECK
 70
     0
  9
$BLIPMODE
 70
     0
  9
$CHAMFERA
 40
0.0
  9
$CHAMFERB
 40
0.0
  9
$SKPOLY
 70
     0
  9
$TDCREATE
 40
2444972.375
  9
$TDUPDATE
 40
2455980.359906863
  9
$TDINDWG
 40
0.0000079398
  9
$TDUSRTIMER
 40
0.0000079398
  9
$USRTIMER
 70
     1
  9
$ANGBASE
 50
0.0
  9
$ANGDIR
 70
     0
  9
$PDMODE
 70
     0
  9
$PDSIZE
 40
0.0
  9
$PLINEWID
 40
0.0
  9
$COORDS
 70
     1
  9
$SPLFRAME
 70
     0
  9
$SPLINETYPE
 70
     6
  9
$SPLINESEGS
 70
     8
  9
$ATTDIA
 70
     0
  9
$ATTREQ
 70
     1
  9
$HANDLING
 70
     1
  9
$HANDSEED
  5
19C
  9
$SURFTAB1
 70
     6
  9
$SURFTAB2
 70
     6
  9
$SURFTYPE
 70
     6
  9
$SURFU
 70
     6
  9
$SURFV
 70
     6
  9
$UCSNAME
  2

  9
$UCSORG
 10
0.0
 20
0.0
 30
0.0
  9
$UCSXDIR
 10
1.0
 20
0.0
 30
0.0
  9
$UCSYDIR
 10
0.0
 20
1.0
 30
0.0
  9
$PUCSNAME
  2

  9
$PUCSORG
 10
0.0
 20
0.0
 30
0.0
  9
$PUCSXDIR
 10
1.0
 20
0.0
 30
0.0
  9
$PUCSYDIR
 10
0.0
 20
1.0
 30
0.0
  9
$USERI1
 70
     0
  9
$USERI2
 70
     0
  9
$USERI3
 70
     0
  9
$USERI4
 70
     0
  9
$USERI5
 70
     0
  9
$USERR1
 40
0.0
  9
$USERR2
 40
0.0
  9
$USERR3
 40
0.0
  9
$USERR4
 40
0.0
  9
$USERR5
 40
0.0
  9
$WORLDVIEW
 70
     1
  9
$SHADEDGE
 70
     3
  9
$SHADEDIF
 70
    70
  9
$TILEMODE
 70
     1
  9
$MAXACTVP
 70
    48
  9
$PLIMCHECK
 70
     0
  9
$PEXTMIN
 10
1.0000000000000000E+020
 20
1.0000000000000000E+020
 30
1.0000000000000000E+020
  9
$PEXTMAX
 10
-1.0000000000000000E+020
 20
-1.0000000000000000E+020
 30
-1.0000000000000000E+020
  9
$PLIMMIN
 10
0.0
 20
0.0
  9
$PLIMMAX
 10
12.0
 20
9.0
  9
$UNITMODE
 70
     0
  9
$VISRETAIN
 70
     1
  9
$PLINEGEN
 70
     0
  9
$PSLTSCALE
 70
     1
  0
ENDSEC
  0
SECTION
  2
TABLES
  0
TABLE
  2
VPORT
 70
     2
  0
VPORT
  2
*ACTIVE
 70
     0
 10
0.0
 20
0.0
 11
1.0
 21
1.0
 12
205.31019906752431
 22
127.42999999999989
 13
0.0
 23
0.0
 14
1.0
 24
1.0
 15
0.0
 25
0.0
 16
0.0
 26
0.0
 36
1.0
 17
0.0
 27
0.0
 37
0.0
 40
299.24634760705283
 41
2.2894736842105261
 42
50.0
 43
0.0
 44
0.0
 50
0.0
 51
0.0
 71
     0
 72
   100
 73
     1
 74
     1
 75
     0
 76
     0
 77
     0
 78
     0
  0
ENDTAB
  0
TABLE
  2
LTYPE
 70
     3
  0
LTYPE
  2
CONTINUOUS
 70
     0
  3
Solid line
 72
    65
 73
     0
 40
0.0
  0
LTYPE
  2
AIGENLINE001
 70
     0
  3
generate AI->DXF Converter
 72
    65
 73
     2
 40
1.5522299999999991
 49
0.776115
 49
-0.776115
  0
LTYPE
  2
AIGENLINE002
 70
     0
  3
generate AI->DXF Converter
 72
    65
 73
     4
 40
5.8561449999999988
 49
3.5278
 49
-0.776115
 49
0.776115
 49
-0.776115
  0
ENDTAB
  0
TABLE
  2
LAYER
 70
     2
  0
LAYER
  2
0
 70
     0
 62
     7
  6
CONTINUOUS
  0
LAYER
  2
_________2
 70
     0
 62
     7
  6
CONTINUOUS
  0
ENDTAB
  0
TABLE
  2
STYLE
 70
     1
  0
STYLE
  2
STANDARD
 70
     0
 40
0.0
 41
0.0
 50
0.0
 71
     0
 42
0.0
  3
TXT
  4
EXTFONT.SHX
  0
ENDTAB
  0
TABLE
  2
VIEW
 70
     0
  0
ENDTAB
  0
TABLE
  2
UCS
 70
     0
  0
ENDTAB
  0
TABLE
  2
APPID
 70
     1
  0
APPID
  2
ACAD
 70
     0
  0
ENDTAB
  0
TABLE
  2
DIMSTYLE
 70
     1
  0
DIMSTYLE
  2
STANDARD
 70
     0
  3

  4

  5

  6

  7

 40
1.0
 41
0.18
 42
0.0625
 43
0.38
 44
0.18
 45
0.0
 46
0.0
 47
0.0
 48
0.0
140
0.18
141
0.09
142
0.0
143
25.399999999999999
144
1.0
145
0.0
146
1.0
147
0.09
 71
     0
 72
     0
 73
     1
 74
     1
 75
     0
 76
     0
 77
     0
 78
     0
170
     0
171
     2
172
     0
173
     0
174
     0
175
     0
176
     0
177
     0
178
     0
  0
ENDTAB
  0
ENDSEC
  0
SECTION
  2
BLOCKS
  0
BLOCK
  8
0
  2
$MODEL_SPACE
 70
     0
 10
0.0
 20
0.0
 30
0.0
  3
$MODEL_SPACE
  1

  0
ENDBLK
  5
1A
  8
0
  0
BLOCK
 67
     1
  8
0
  2
$PAPER_SPACE
 70
     0
 10
0.0
 20
0.0
 30
0.0
  3
$PAPER_SPACE
  1

  0
ENDBLK
  5
17
 67
     1
  8
0
  0
ENDSEC
  0
SECTION
  2
ENTITIES
  0
TEXT
  5
23
  8
0
 62
     7
 10
97.823996000000008
 20
208.63599999999991
 30
0.0
 40
3.0923400000000001
  1
（%%c6×45 樹脂プラグ付）
 41
0.5
 72
     2
 11
120.2949999999999
 21
208.63599999999991
 31
0.0
  0
TEXT
  5
24
  8
0
 62
     7
 10
90.763153000000017
 20
213.67699999999999
 30
0.0
 40
3.0923400000000001
  1
%%c4×50 SUS十字穴付丸頭木ネジ
 41
0.5
 72
     2
 11
120.2949999999999
 21
213.67699999999999
 31
0.0
  0
TEXT
  5
25
  8
0
 62
     7
 10
50.240472500000003
 20
222.44499999999999
 30
0.0
 40
3.0923400000000001
  1
60
 41
0.5
 72
     1
 11
51.400100000000002
 21
222.44499999999999
 31
0.0
  0
TEXT
  5
26
  8
0
 62
     7
 10
53.7062825
 20
84.033299999999997
 30
0.0
 40
3.0923400000000001
  1
120
 41
0.5
 72
     1
 11
55.381300000000003
 21
84.033299999999997
 31
0.0
  0
TEXT
  5
27
  8
0
 62
     7
 10
54.220972500000002
 20
92.856899999999996
 30
0.0
 40
3.0923400000000001
  1
60
 41
0.5
 72
     1
 11
55.380600000000001
 21
92.856899999999996
 31
0.0
  0
TEXT
  5
28
  8
0
 62
     7
 10
123.7859825
 20
92.856899999999996
 30
0.0
 40
3.0923400000000001
  1
105
 41
0.5
 72
     1
 11
125.461
 21
92.856899999999996
 31
0.0
  0
TEXT
  5
29
  8
0
 62
     7
 10
91.860100000000017
 20
107.35021999999999
 30
0.0
 40
3.0923400000000001
  1
21
 50
90.0
 41
0.5
 72
     1
 11
91.860100000000017
 21
108.3809999999999
 31
0.0
  0
TEXT
  5
2A
  8
0
 62
     7
 10
179.66399999999999
 20
105.85021999999999
 30
0.0
 40
3.0923400000000001
  1
15
 50
90.0
 41
0.5
 72
     1
 11
179.66399999999999
 21
106.881
 31
0.0
  0
ARC
  5
2B
  8
0
  6
AIGENLINE001
 62
     7
 10
105.126896
 20
113.8447189999999
 30
0.0
 40
2.213651
 50
225.27659700000001
 51
269.68335999999999
  0
LINE
  5
2C
  8
0
  6
AIGENLINE001
 62
     7
 10
103.5689999999999
 20
112.27200000000001
 30
0.0
 11
102.20999999999999
 21
113.6309999999999
 31
0.0
  0
ARC
  5
2D
  8
0
  6
AIGENLINE001
 62
     7
 10
79.465350000000001
 20
113.8432279999999
 30
0.0
 40
2.2121539999999991
 50
270.28289100000001
 51
314.739124
  0
LINE
  5
2E
  8
0
  6
AIGENLINE001
 62
     7
 10
81.022400000000005
 20
112.27200000000001
 30
0.0
 11
82.381200000000007
 21
113.6309999999999
 31
0.0
  0
ARC
  5
2F
  8
0
  6
AIGENLINE001
 62
     7
 10
138.294062
 20
113.8447409999999
 30
0.0
 40
2.21367
 50
270.29892599999988
 51
314.7230879999999
  0
LINE
  5
30
  8
0
  6
AIGENLINE001
 62
     7
 10
138.30600000000001
 20
111.631
 30
0.0
 11
105.11499999999999
 21
111.631
 31
0.0
  0
LINE
  5
31
  8
0
  6
AIGENLINE001
 62
     7
 10
139.85199999999989
 20
112.27200000000001
 30
0.0
 11
141.21100000000001
 21
113.6309999999999
 31
0.0
  0
ARC
  5
32
  8
0
  6
AIGENLINE001
 62
     7
 10
31.296029000000001
 20
113.843216
 30
0.0
 40
2.212143999999999
 50
225.26072899999991
 51
269.70826399999999
  0
LINE
  5
33
  8
0
 62
     7
 10
71.340500000000006
 20
189.63099999999989
 30
0.0
 11
71.915800000000004
 21
188.893
 31
0.0
  0
LINE
  5
34
  8
0
 62
     7
 10
71.915800000000004
 20
188.893
 30
0.0
 11
71.672600000000003
 21
188.893
 31
0.0
  0
LINE
  5
35
  8
0
 62
     7
 10
71.672600000000003
 20
188.893
 30
0.0
 11
71.108299999999986
 21
189.619
 31
0.0
  0
LINE
  5
36
  8
0
 62
     7
 10
71.108299999999986
 20
189.619
 30
0.0
 11
71.108299999999986
 21
188.893
 31
0.0
  0
LINE
  5
37
  8
0
 62
     7
 10
71.108299999999986
 20
188.893
 30
0.0
 11
70.909800000000004
 21
188.893
 31
0.0
  0
LINE
  5
38
  8
0
 62
     7
 10
70.909800000000004
 20
188.893
 30
0.0
 11
70.909800000000004
 21
190.42699999999999
 31
0.0
  0
LINE
  5
39
  8
0
 62
     7
 10
70.909800000000004
 20
190.42699999999999
 30
0.0
 11
71.108299999999986
 21
190.42699999999999
 31
0.0
  0
LINE
  5
3A
  8
0
 62
     7
 10
71.108299999999986
 20
190.42699999999999
 30
0.0
 11
71.108299999999986
 21
189.643
 31
0.0
  0
LINE
  5
3B
  8
0
 62
     7
 10
71.108299999999986
 20
189.643
 30
0.0
 11
71.685000000000002
 21
190.42699999999999
 31
0.0
  0
LINE
  5
3C
  8
0
 62
     7
 10
71.685000000000002
 20
190.42699999999999
 30
0.0
 11
71.926100000000005
 21
190.42699999999999
 31
0.0
  0
LINE
  5
3D
  8
0
 62
     7
 10
71.926100000000005
 20
190.42699999999999
 30
0.0
 11
71.340500000000006
 21
189.63099999999989
 31
0.0
  0
LINE
  5
3E
  8
0
 62
     7
 10
72.243799999999993
 20
190.22799999999989
 30
0.0
 11
73.027900000000002
 21
190.22799999999989
 31
0.0
  0
LINE
  5
3F
  8
0
 62
     7
 10
73.027900000000002
 20
190.22799999999989
 30
0.0
 11
73.027900000000002
 21
190.42699999999999
 31
0.0
  0
LINE
  5
40
  8
0
 62
     7
 10
73.027900000000002
 20
190.42699999999999
 30
0.0
 11
72.0398
 21
190.42699999999999
 31
0.0
  0
LINE
  5
41
  8
0
 62
     7
 10
72.0398
 20
190.42699999999999
 30
0.0
 11
72.0398
 21
188.893
 31
0.0
  0
LINE
  5
42
  8
0
 62
     7
 10
72.0398
 20
188.893
 30
0.0
 11
73.027900000000002
 21
188.893
 31
0.0
  0
LINE
  5
43
  8
0
 62
     7
 10
73.027900000000002
 20
188.893
 30
0.0
 11
73.027900000000002
 21
189.09200000000001
 31
0.0
  0
LINE
  5
44
  8
0
 62
     7
 10
73.027900000000002
 20
189.09200000000001
 30
0.0
 11
72.243799999999993
 21
189.09200000000001
 31
0.0
  0
LINE
  5
45
  8
0
 62
     7
 10
72.243799999999993
 20
189.09200000000001
 30
0.0
 11
72.243799999999993
 21
189.6509999999999
 31
0.0
  0
LINE
  5
46
  8
0
 62
     7
 10
72.243799999999993
 20
189.6509999999999
 30
0.0
 11
73.027900000000002
 21
189.6509999999999
 31
0.0
  0
LINE
  5
47
  8
0
 62
     7
 10
73.027900000000002
 20
189.6509999999999
 30
0.0
 11
73.027900000000002
 21
189.84999999999999
 31
0.0
  0
LINE
  5
48
  8
0
 62
     7
 10
73.027900000000002
 20
189.84999999999999
 30
0.0
 11
72.243799999999993
 21
189.84999999999999
 31
0.0
  0
LINE
  5
49
  8
0
 62
     7
 10
72.243799999999993
 20
189.84999999999999
 30
0.0
 11
72.243799999999993
 21
190.22799999999989
 31
0.0
  0
LINE
  5
4A
  8
0
 62
     7
 10
73.3827
 20
190.42699999999999
 30
0.0
 11
73.184299999999993
 21
190.42699999999999
 31
0.0
  0
LINE
  5
4B
  8
0
 62
     7
 10
73.184299999999993
 20
190.42699999999999
 30
0.0
 11
73.184299999999993
 21
189.45899999999989
 31
0.0
  0
LINE
  5
4C
  8
0
 62
     7
 10
73.184299999999993
 20
189.45899999999989
 30
0.0
 11
73.218000000000004
 21
189.267
 31
0.0
  0
LINE
  5
4D
  8
0
 62
     7
 10
73.218000000000004
 20
189.267
 30
0.0
 11
73.317300000000003
 21
189.095
 31
0.0
  0
LINE
  5
4E
  8
0
 62
     7
 10
73.317300000000003
 20
189.095
 30
0.0
 11
73.466099999999997
 21
188.97099999999989
 31
0.0
  0
LINE
  5
4F
  8
0
 62
     7
 10
73.466099999999997
 20
188.97099999999989
 30
0.0
 11
73.6494
 21
188.90299999999991
 31
0.0
  0
LINE
  5
50
  8
0
 62
     7
 10
73.6494
 20
188.90299999999991
 30
0.0
 11
73.845699999999994
 21
188.90299999999991
 31
0.0
  0
LINE
  5
51
  8
0
 62
     7
 10
73.845699999999994
 20
188.90299999999991
 30
0.0
 11
74.028999999999996
 21
188.97099999999989
 31
0.0
  0
LINE
  5
52
  8
0
 62
     7
 10
74.028999999999996
 20
188.97099999999989
 30
0.0
 11
74.183400000000006
 21
189.095
 31
0.0
  0
LINE
  5
53
  8
0
 62
     7
 10
74.183400000000006
 20
189.095
 30
0.0
 11
74.277100000000004
 21
189.267
 31
0.0
  0
LINE
  5
54
  8
0
 62
     7
 10
74.277100000000004
 20
189.267
 30
0.0
 11
74.312899999999999
 21
189.45899999999989
 31
0.0
  0
LINE
  5
55
  8
0
 62
     7
 10
74.312899999999999
 20
189.45899999999989
 30
0.0
 11
74.312899999999999
 21
190.42699999999999
 31
0.0
  0
LINE
  5
56
  8
0
 62
     7
 10
74.312899999999999
 20
190.42699999999999
 30
0.0
 11
74.113799999999998
 21
190.42699999999999
 31
0.0
  0
LINE
  5
57
  8
0
 62
     7
 10
74.113799999999998
 20
190.42699999999999
 30
0.0
 11
74.113799999999998
 21
189.45899999999989
 31
0.0
  0
LINE
  5
58
  8
0
 62
     7
 10
74.113799999999998
 20
189.45899999999989
 30
0.0
 11
74.087599999999995
 21
189.31999999999999
 31
0.0
  0
LINE
  5
59
  8
0
 62
     7
 10
74.087599999999995
 20
189.31999999999999
 30
0.0
 11
74.0077
 21
189.19799999999989
 31
0.0
  0
LINE
  5
5A
  8
0
 62
     7
 10
74.0077
 20
189.19799999999989
 30
0.0
 11
73.887100000000004
 21
189.12200000000001
 31
0.0
  0
LINE
  5
5B
  8
0
 62
     7
 10
73.887100000000004
 20
189.12200000000001
 30
0.0
 11
73.75
 21
189.09200000000001
 31
0.0
  0
LINE
  5
5C
  8
0
 62
     7
 10
73.75
 20
189.09200000000001
 30
0.0
 11
73.608000000000004
 21
189.12200000000001
 31
0.0
  0
LINE
  5
5D
  8
0
 62
     7
 10
73.608000000000004
 20
189.12200000000001
 30
0.0
 11
73.489500000000007
 21
189.19799999999989
 31
0.0
  0
LINE
  5
5E
  8
0
 62
     7
 10
73.489500000000007
 20
189.19799999999989
 30
0.0
 11
73.409599999999983
 21
189.31999999999999
 31
0.0
  0
LINE
  5
5F
  8
0
 62
     7
 10
73.409599999999983
 20
189.31999999999999
 30
0.0
 11
73.3827
 21
189.45899999999989
 31
0.0
  0
LINE
  5
60
  8
0
 62
     7
 10
73.3827
 20
189.45899999999989
 30
0.0
 11
73.3827
 21
190.42699999999999
 31
0.0
  0
LINE
  5
61
  8
0
 62
     7
 10
75.460800000000006
 20
190.14199999999991
 30
0.0
 11
75.274100000000004
 21
190.20799999999991
 31
0.0
  0
LINE
  5
62
  8
0
 62
     7
 10
75.274100000000004
 20
190.20799999999991
 30
0.0
 11
75.075699999999998
 21
190.20799999999991
 31
0.0
  0
LINE
  5
63
  8
0
 62
     7
 10
75.075699999999998
 20
190.20799999999991
 30
0.0
 11
74.893100000000004
 21
190.1399999999999
 31
0.0
  0
LINE
  5
64
  8
0
 62
     7
 10
74.893100000000004
 20
190.1399999999999
 30
0.0
 11
74.743499999999997
 21
190.012
 31
0.0
  0
LINE
  5
65
  8
0
 62
     7
 10
74.743499999999997
 20
190.012
 30
0.0
 11
74.6464
 21
189.83799999999991
 31
0.0
  0
LINE
  5
66
  8
0
 62
     7
 10
74.6464
 20
189.83799999999991
 30
0.0
 11
74.61399999999999
 21
189.64500000000001
 31
0.0
  0
LINE
  5
67
  8
0
 62
     7
 10
74.61399999999999
 20
189.64500000000001
 30
0.0
 11
74.653300000000002
 21
189.4499999999999
 31
0.0
  0
LINE
  5
68
  8
0
 62
     7
 10
74.653300000000002
 20
189.4499999999999
 30
0.0
 11
74.754599999999996
 21
189.28099999999989
 31
0.0
  0
LINE
  5
69
  8
0
 62
     7
 10
74.754599999999996
 20
189.28099999999989
 30
0.0
 11
74.906800000000004
 21
189.15700000000001
 31
0.0
  0
LINE
  5
6A
  8
0
 62
     7
 10
74.906800000000004
 20
189.15700000000001
 30
0.0
 11
75.013599999999997
 21
189.113
 31
0.0
  0
LINE
  5
6B
  8
0
 62
     7
 10
75.013599999999997
 20
189.113
 30
0.0
 11
75.127300000000005
 21
189.09200000000001
 31
0.0
  0
LINE
  5
6C
  8
0
 62
     7
 10
75.127300000000005
 20
189.09200000000001
 30
0.0
 11
75.242400000000004
 21
189.09200000000001
 31
0.0
  0
LINE
  5
6D
  8
0
 62
     7
 10
75.242400000000004
 20
189.09200000000001
 30
0.0
 11
75.353999999999999
 21
189.119
 31
0.0
  0
LINE
  5
6E
  8
0
 62
     7
 10
75.353999999999999
 20
189.119
 30
0.0
 11
75.460800000000006
 21
189.1629999999999
 31
0.0
  0
LINE
  5
6F
  8
0
 62
     7
 10
75.460800000000006
 20
189.1629999999999
 30
0.0
 11
75.558000000000007
 21
188.994
 31
0.0
  0
LINE
  5
70
  8
0
 62
     7
 10
75.558000000000007
 20
188.994
 30
0.0
 11
75.336100000000002
 21
188.90899999999999
 31
0.0
  0
LINE
  5
71
  8
0
 62
     7
 10
75.336100000000002
 20
188.90899999999999
 30
0.0
 11
75.093599999999995
 21
188.89699999999999
 31
0.0
  0
LINE
  5
72
  8
0
 62
     7
 10
75.093599999999995
 20
188.89699999999999
 30
0.0
 11
74.862700000000004
 21
188.959
 31
0.0
  0
LINE
  5
73
  8
0
 62
     7
 10
74.862700000000004
 20
188.959
 30
0.0
 11
74.663600000000002
 21
189.09200000000001
 31
0.0
  0
LINE
  5
74
  8
0
 62
     7
 10
74.663600000000002
 20
189.09200000000001
 30
0.0
 11
74.513400000000004
 21
189.27799999999991
 31
0.0
  0
LINE
  5
75
  8
0
 62
     7
 10
74.513400000000004
 20
189.27799999999991
 30
0.0
 11
74.431399999999996
 21
189.50299999999999
 31
0.0
  0
LINE
  5
76
  8
0
 62
     7
 10
74.431399999999996
 20
189.50299999999999
 30
0.0
 11
74.424499999999995
 21
189.74299999999991
 31
0.0
  0
LINE
  5
77
  8
0
 62
     7
 10
74.424499999999995
 20
189.74299999999991
 30
0.0
 11
74.489999999999995
 21
189.97399999999999
 31
0.0
  0
LINE
  5
78
  8
0
 62
     7
 10
74.489999999999995
 20
189.97399999999999
 30
0.0
 11
74.623000000000005
 21
190.172
 31
0.0
  0
LINE
  5
79
  8
0
 62
     7
 10
74.623000000000005
 20
190.172
 30
0.0
 11
74.813100000000006
 21
190.31999999999999
 31
0.0
  0
LINE
  5
7A
  8
0
 62
     7
 10
74.813100000000006
 20
190.31999999999999
 30
0.0
 11
74.958500000000001
 21
190.38199999999989
 31
0.0
  0
LINE
  5
7B
  8
0
 62
     7
 10
74.958500000000001
 20
190.38199999999989
 30
0.0
 11
75.109399999999994
 21
190.41199999999989
 31
0.0
  0
LINE
  5
7C
  8
0
 62
     7
 10
75.109399999999994
 20
190.41199999999989
 30
0.0
 11
75.265100000000004
 21
190.40899999999999
 31
0.0
  0
LINE
  5
7D
  8
0
 62
     7
 10
75.265100000000004
 20
190.40899999999999
 30
0.0
 11
75.415999999999997
 21
190.37599999999989
 31
0.0
  0
LINE
  5
7E
  8
0
 62
     7
 10
75.415999999999997
 20
190.37599999999989
 30
0.0
 11
75.558000000000007
 21
190.31399999999999
 31
0.0
  0
LINE
  5
7F
  8
0
 62
     7
 10
75.558000000000007
 20
190.31399999999999
 30
0.0
 11
75.460800000000006
 21
190.14199999999991
 31
0.0
  0
LINE
  5
80
  8
0
 62
     7
 10
76.676299999999983
 20
189.84700000000001
 30
0.0
 11
76.580500000000001
 21
190.01499999999999
 31
0.0
  0
LINE
  5
81
  8
0
 62
     7
 10
76.580500000000001
 20
190.01499999999999
 30
0.0
 11
76.430999999999997
 21
190.14199999999991
 31
0.0
  0
LINE
  5
82
  8
0
 62
     7
 10
76.430999999999997
 20
190.14199999999991
 30
0.0
 11
76.244900000000001
 21
190.20799999999991
 31
0.0
  0
LINE
  5
83
  8
0
 62
     7
 10
76.244900000000001
 20
190.20799999999991
 30
0.0
 11
76.049899999999994
 21
190.20799999999991
 31
0.0
  0
LINE
  5
84
  8
0
 62
     7
 10
76.049899999999994
 20
190.20799999999991
 30
0.0
 11
75.863200000000006
 21
190.14199999999991
 31
0.0
  0
LINE
  5
85
  8
0
 62
     7
 10
75.863200000000006
 20
190.14199999999991
 30
0.0
 11
75.716399999999993
 21
190.01499999999999
 31
0.0
  0
LINE
  5
86
  8
0
 62
     7
 10
75.716399999999993
 20
190.01499999999999
 30
0.0
 11
75.618600000000001
 21
189.84700000000001
 31
0.0
  0
LINE
  5
87
  8
0
 62
     7
 10
75.618600000000001
 20
189.84700000000001
 30
0.0
 11
75.584800000000001
 21
189.654
 31
0.0
  0
LINE
  5
88
  8
0
 62
     7
 10
75.584800000000001
 20
189.654
 30
0.0
 11
75.618600000000001
 21
189.45899999999989
 31
0.0
  0
LINE
  5
89
  8
0
 62
     7
 10
75.618600000000001
 20
189.45899999999989
 30
0.0
 11
75.716399999999993
 21
189.28999999999999
 31
0.0
  0
LINE
  5
8A
  8
0
 62
     7
 10
75.716399999999993
 20
189.28999999999999
 30
0.0
 11
75.866600000000005
 21
189.16599999999991
 31
0.0
  0
LINE
  5
8B
  8
0
 62
     7
 10
75.866600000000005
 20
189.16599999999991
 30
0.0
 11
76.049899999999994
 21
189.0979999999999
 31
0.0
  0
LINE
  5
8C
  8
0
 62
     7
 10
76.049899999999994
 20
189.0979999999999
 30
0.0
 11
76.244900000000001
 21
189.0979999999999
 31
0.0
  0
LINE
  5
8D
  8
0
 62
     7
 10
76.244900000000001
 20
189.0979999999999
 30
0.0
 11
76.430999999999997
 21
189.16599999999991
 31
0.0
  0
LINE
  5
8E
  8
0
 62
     7
 10
76.430999999999997
 20
189.16599999999991
 30
0.0
 11
76.580500000000001
 21
189.28999999999999
 31
0.0
  0
LINE
  5
8F
  8
0
 62
     7
 10
76.580500000000001
 20
189.28999999999999
 30
0.0
 11
76.676299999999983
 21
189.45899999999989
 31
0.0
  0
LINE
  5
90
  8
0
 62
     7
 10
76.676299999999983
 20
189.45899999999989
 30
0.0
 11
76.709999999999994
 21
189.654
 31
0.0
  0
LINE
  5
91
  8
0
 62
     7
 10
76.709999999999994
 20
189.654
 30
0.0
 11
76.676299999999983
 21
189.84700000000001
 31
0.0
  0
LINE
  5
92
  8
0
 62
     7
 10
76.910499999999999
 20
189.654
 30
0.0
 11
76.869200000000006
 21
189.417
 31
0.0
  0
LINE
  5
93
  8
0
 62
     7
 10
76.869200000000006
 20
189.417
 30
0.0
 11
76.763099999999994
 21
189.20400000000001
 31
0.0
  0
LINE
  5
94
  8
0
 62
     7
 10
76.763099999999994
 20
189.20400000000001
 30
0.0
 11
76.597700000000003
 21
189.03599999999989
 31
0.0
  0
LINE
  5
95
  8
0
 62
     7
 10
76.597700000000003
 20
189.03599999999989
 30
0.0
 11
76.384799999999998
 21
188.929
 31
0.0
  0
LINE
  5
96
  8
0
 62
     7
 10
76.384799999999998
 20
188.929
 30
0.0
 11
76.147099999999995
 21
188.89099999999991
 31
0.0
  0
LINE
  5
97
  8
0
 62
     7
 10
76.147099999999995
 20
188.89099999999991
 30
0.0
 11
75.9114
 21
188.929
 31
0.0
  0
LINE
  5
98
  8
0
 62
     7
 10
75.9114
 20
188.929
 30
0.0
 11
75.6999
 21
189.03599999999989
 31
0.0
  0
LINE
  5
99
  8
0
 62
     7
 10
75.6999
 20
189.03599999999989
 30
0.0
 11
75.531800000000004
 21
189.20400000000001
 31
0.0
  0
LINE
  5
9A
  8
0
 62
     7
 10
75.531800000000004
 20
189.20400000000001
 30
0.0
 11
75.424999999999997
 21
189.417
 31
0.0
  0
LINE
  5
9B
  8
0
 62
     7
 10
75.424999999999997
 20
189.417
 30
0.0
 11
75.384299999999996
 21
189.654
 31
0.0
  0
LINE
  5
9C
  8
0
 62
     7
 10
75.384299999999996
 20
189.654
 30
0.0
 11
75.424999999999997
 21
189.88800000000001
 31
0.0
  0
LINE
  5
9D
  8
0
 62
     7
 10
75.424999999999997
 20
189.88800000000001
 30
0.0
 11
75.531800000000004
 21
190.101
 31
0.0
  0
LINE
  5
9E
  8
0
 62
     7
 10
75.531800000000004
 20
190.101
 30
0.0
 11
75.6999
 21
190.27000000000001
 31
0.0
  0
LINE
  5
9F
  8
0
 62
     7
 10
75.6999
 20
190.27000000000001
 30
0.0
 11
75.9114
 21
190.37599999999989
 31
0.0
  0
LINE
  5
A0
  8
0
 62
     7
 10
75.9114
 20
190.37599999999989
 30
0.0
 11
76.147099999999995
 21
190.41499999999991
 31
0.0
  0
LINE
  5
A1
  8
0
 62
     7
 10
76.147099999999995
 20
190.41499999999991
 30
0.0
 11
76.384799999999998
 21
190.37599999999989
 31
0.0
  0
LINE
  5
A2
  8
0
 62
     7
 10
76.384799999999998
 20
190.37599999999989
 30
0.0
 11
76.597700000000003
 21
190.27000000000001
 31
0.0
  0
LINE
  5
A3
  8
0
 62
     7
 10
76.597700000000003
 20
190.27000000000001
 30
0.0
 11
76.763099999999994
 21
190.101
 31
0.0
  0
LINE
  5
A4
  8
0
 62
     7
 10
76.763099999999994
 20
190.101
 30
0.0
 11
76.869200000000006
 21
189.88800000000001
 31
0.0
  0
LINE
  5
A5
  8
0
 62
     7
 10
76.869200000000006
 20
189.88800000000001
 30
0.0
 11
76.910499999999999
 21
189.654
 31
0.0
  0
LINE
  5
A6
  8
0
 62
     7
 10
66.660300000000007
 20
222.44499999999999
 30
0.0
 11
66.660300000000007
 21
215.81399999999999
 31
0.0
  0
LINE
  5
A7
  8
0
 62
     7
 10
36.660200000000003
 20
222.44499999999999
 30
0.0
 11
36.660200000000003
 21
215.81399999999999
 31
0.0
  0
LINE
  5
A8
  8
0
 62
     7
 10
38.870899999999999
 20
222.33000000000001
 30
0.0
 11
36.659100000000002
 21
221.73699999999991
 31
0.0
  0
LINE
  5
A9
  8
0
 62
     7
 10
36.659100000000002
 20
221.73699999999991
 30
0.0
 11
38.870899999999999
 21
221.14400000000001
 31
0.0
  0
LINE
  5
AA
  8
0
 62
     7
 10
38.870899999999999
 20
221.14400000000001
 30
0.0
 11
38.870899999999999
 21
222.33000000000001
 31
0.0
  0
LINE
  5
AB
  8
0
 62
     7
 10
64.4495
 20
221.15899999999999
 30
0.0
 11
66.661299999999983
 21
221.7519999999999
 31
0.0
  0
LINE
  5
AC
  8
0
 62
     7
 10
66.661299999999983
 20
221.7519999999999
 30
0.0
 11
64.4495
 21
222.34399999999999
 31
0.0
  0
LINE
  5
AD
  8
0
 62
     7
 10
64.4495
 20
222.34399999999999
 30
0.0
 11
64.4495
 21
221.15899999999999
 31
0.0
  0
LINE
  5
AE
  8
0
 62
     7
 10
36.660200000000003
 20
221.744
 30
0.0
 11
66.660300000000007
 21
221.744
 31
0.0
  0
LINE
  5
AF
  8
0
 62
     7
 10
30.410099999999989
 20
141.92699999999999
 30
0.0
 11
72.910399999999996
 21
141.92699999999999
 31
0.0
  0
LINE
  5
B0
  8
0
 62
     7
 10
28.4102
 20
178.92699999999999
 30
0.0
 11
28.4102
 21
143.92699999999999
 31
0.0
  0
ARC
  5
B1
  8
0
 62
     7
 10
30.410308000000001
 20
143.9270939999999
 30
0.0
 40
2.0001489999999991
 50
179.992569
 51
269.99261799999988
  0
LINE
  5
B2
  8
0
 62
     7
 10
74.910300000000007
 20
178.92699999999999
 30
0.0
 11
74.910300000000007
 21
143.92699999999999
 31
0.0
  0
ARC
  5
B3
  8
0
 62
     7
 10
72.910135999999994
 20
143.92709500000001
 30
0.0
 40
2.0001489999999991
 50
270.00742100000002
 51
0.007392
  0
LINE
  5
B4
  8
0
 62
     7
 10
30.410099999999989
 20
180.92699999999999
 30
0.0
 11
72.910399999999996
 21
180.92699999999999
 31
0.0
  0
ARC
  5
B5
  8
0
 62
     7
 10
72.91022199999999
 20
178.92715999999999
 30
0.0
 40
2.000062999999999
 50
359.99507499999999
 51
89.995045999999988
  0
ARC
  5
B6
  8
0
 62
     7
 10
30.410222999999991
 20
178.92715999999999
 30
0.0
 40
2.000062999999999
 50
90.004935000000003
 51
180.00494499999991
  0
LINE
  5
B7
  8
0
 62
     7
 10
25.4102
 20
183.92699999999999
 30
0.0
 11
77.910099999999986
 21
183.92699999999999
 31
0.0
  0
LINE
  5
B8
  8
0
 62
     7
 10
25.4102
 20
191.42699999999999
 30
0.0
 11
25.4102
 21
138.92699999999999
 31
0.0
  0
LINE
  5
B9
  8
0
 62
     7
 10
77.910099999999986
 20
191.42699999999999
 30
0.0
 11
77.910099999999986
 21
138.92699999999999
 31
0.0
  0
LINE
  5
BA
  8
0
 62
     7
 10
25.4102
 20
138.92699999999999
 30
0.0
 11
77.910099999999986
 21
138.92699999999999
 31
0.0
  0
LINE
  5
BB
  8
0
 62
     7
 10
25.4102
 20
191.42699999999999
 30
0.0
 11
77.910099999999986
 21
191.42699999999999
 31
0.0
  0
LINE
  5
BC
  8
0
  6
AIGENLINE002
 62
     7
 10
40.380600000000001
 20
104.77799999999991
 30
0.0
 11
40.380600000000001
 21
109.452
 31
0.0
  0
LINE
  5
BD
  8
0
  6
AIGENLINE002
 62
     7
 10
70.380600000000001
 20
104.337
 30
0.0
 11
70.380600000000001
 21
109.452
 31
0.0
  0
LINE
  5
BE
  8
0
  6
AIGENLINE001
 62
     7
 10
31.284800000000001
 20
111.631
 30
0.0
 11
79.476299999999995
 21
111.631
 31
0.0
  0
LINE
  5
BF
  8
0
  6
AIGENLINE001
 62
     7
 10
29.738900000000001
 20
112.27200000000001
 30
0.0
 11
28.379799999999989
 21
113.6309999999999
 31
0.0
  0
LINE
  5
C0
  8
0
 62
     7
 10
85.381200000000007
 20
110.631
 30
0.0
 11
25.379799999999999
 21
110.631
 31
0.0
  0
LINE
  5
C1
  8
0
 62
     7
 10
25.379799999999999
 20
110.631
 30
0.0
 11
25.379799999999999
 21
113.6309999999999
 31
0.0
  0
LINE
  5
C2
  8
0
 62
     7
 10
25.379799999999999
 20
113.6309999999999
 30
0.0
 11
85.381200000000007
 21
113.6309999999999
 31
0.0
  0
LINE
  5
C3
  8
0
 62
     7
 10
85.381200000000007
 20
113.6309999999999
 30
0.0
 11
85.381200000000007
 21
110.631
 31
0.0
  0
LINE
  5
C4
  8
0
 62
     7
 10
99.209900000000005
 20
110.631
 30
0.0
 11
144.21100000000001
 21
110.631
 31
0.0
  0
LINE
  5
C5
  8
0
 62
     7
 10
144.21100000000001
 20
110.631
 30
0.0
 11
144.21100000000001
 21
113.6309999999999
 31
0.0
  0
LINE
  5
C6
  8
0
 62
     7
 10
144.21100000000001
 20
113.6309999999999
 30
0.0
 11
99.209900000000005
 21
113.6309999999999
 31
0.0
  0
LINE
  5
C7
  8
0
 62
     7
 10
99.209900000000005
 20
113.6309999999999
 30
0.0
 11
99.209900000000005
 21
110.631
 31
0.0
  0
ARC
  5
C8
  8
0
 62
     7
 10
84.863675000000001
 20
103.6489009999999
 30
0.0
 40
0.51825
 50
271.98882400000002
 51
356.97454699999997
  0
ARC
  5
C9
  8
0
 62
     7
 10
84.806706000000005
 20
110.112816
 30
0.0
 40
0.518496
 50
2.5158299999999989
 51
87.960300000000004
  0
ARC
  5
CA
  8
0
 62
     7
 10
25.956015000000001
 20
110.111786
 30
0.0
 40
0.5195370000000001
 50
92.069399000000004
 51
177.375461
  0
ARC
  5
CB
  8
0
 62
     7
 10
25.896771999999999
 20
103.64689799999989
 30
0.0
 40
0.516183
 50
182.814931
 51
268.22173700000002
  0
ARC
  5
CC
  8
0
  6
AIGENLINE001
 62
     7
 10
70.381333999999995
 20
107.330561
 30
0.0
 40
1.094859
 50
0.036068
 51
90.036038000000005
  0
ARC
  5
CD
  8
0
  6
AIGENLINE001
 62
     7
 10
70.422342
 20
107.289553
 30
0.0
 40
1.1366309999999991
 50
92.102349000000004
 51
177.8976209999999
  0
ARC
  5
CE
  8
0
  6
AIGENLINE001
 62
     7
 10
70.423412999999996
 20
106.622955
 30
0.0
 40
1.137713999999999
 50
182.118244
 51
267.84571599999998
  0
ARC
  5
CF
  8
0
  6
AIGENLINE001
 62
     7
 10
70.338965000000002
 20
106.623299
 30
0.0
 40
1.1380170000000001
 50
272.09895099999989
 51
357.86501299999992
  0
ARC
  5
D0
  8
0
  6
AIGENLINE001
 62
     7
 10
40.993107999999999
 20
106.97691
 30
0.0
 40
1.1154159999999991
 50
270.63699400000002
 51
329.37198100000001
  0
ARC
  5
D1
  8
0
  6
AIGENLINE001
 62
     7
 10
40.980052999999998
 20
106.95607699999999
 30
0.0
 40
1.116306
 50
330.63356499999992
 51
29.366434999999999
  0
ARC
  5
D2
  8
0
  6
AIGENLINE001
 62
     7
 10
40.992128999999998
 20
106.933549
 30
0.0
 40
1.1171219999999991
 50
30.677244999999999
 51
89.313781000000006
  0
ARC
  5
D3
  8
0
  6
AIGENLINE001
 62
     7
 10
39.797283999999998
 20
106.9140419999999
 30
0.0
 40
1.137313
 50
92.099441999999996
 51
177.86445900000001
  0
ARC
  5
D4
  8
0
  6
AIGENLINE001
 62
     7
 10
39.797709999999988
 20
106.99851099999999
 30
0.0
 40
1.137726999999999
 50
182.1201439999999
 51
267.879885
  0
ARC
  5
D5
  8
0
 62
     7
 10
99.728654000000006
 20
103.65017399999989
 30
0.0
 40
0.5195410000000001
 50
183.15849899999989
 51
267.95713000000001
  0
ARC
  5
D6
  8
0
 62
     7
 10
99.785088000000002
 20
110.112816
 30
0.0
 40
0.518496
 50
92.039680000000004
 51
177.48414999999989
  0
LINE
  5
D7
  8
0
 62
     7
 10
85.381200000000007
 20
103.631
 30
0.0
 11
85.381200000000007
 21
103.622
 31
0.0
  0
LINE
  5
D8
  8
0
 62
     7
 10
85.381200000000007
 20
102.7379999999999
 30
0.0
 11
85.381200000000007
 21
82.633200000000002
 31
0.0
  0
LINE
  5
D9
  8
0
 62
     7
 10
85.381200000000007
 20
103.631
 30
0.0
 11
85.324700000000007
 21
110.136
 31
0.0
  0
LINE
  5
DA
  8
0
  6
AIGENLINE001
 62
     7
 10
71.476200000000006
 20
106.581
 30
0.0
 11
71.476200000000006
 21
107.3309999999999
 31
0.0
  0
LINE
  5
DB
  8
0
 62
     7
 10
70.380600000000001
 20
103.637
 30
0.0
 11
70.380600000000001
 21
91.456800000000001
 31
0.0
  0
LINE
  5
DC
  8
0
  6
AIGENLINE001
 62
     7
 10
69.286500000000004
 20
107.3309999999999
 30
0.0
 11
69.286500000000004
 21
106.581
 31
0.0
  0
LINE
  5
DD
  8
0
 62
     7
 10
25.9373
 20
110.631
 30
0.0
 11
84.825199999999995
 21
110.631
 31
0.0
  0
LINE
  5
DE
  8
0
  6
AIGENLINE002
 62
     7
 10
68.170299999999983
 20
106.956
 30
0.0
 11
72.558599999999998
 21
106.956
 31
0.0
  0
LINE
  5
DF
  8
0
  6
AIGENLINE002
 62
     7
 10
37.610700000000001
 20
106.956
 30
0.0
 11
43.146999999999998
 21
106.956
 31
0.0
  0
LINE
  5
E0
  8
0
  6
AIGENLINE001
 62
     7
 10
41.005499999999998
 20
108.051
 30
0.0
 11
39.755600000000001
 21
108.051
 31
0.0
  0
LINE
  5
E1
  8
0
  6
AIGENLINE001
 62
     7
 10
39.755600000000001
 20
105.86199999999999
 30
0.0
 11
41.005499999999998
 21
105.86199999999999
 31
0.0
  0
LINE
  5
E2
  8
0
 62
     7
 10
84.881699999999995
 20
103.1309999999999
 30
0.0
 11
25.880800000000001
 21
103.1309999999999
 31
0.0
  0
LINE
  5
E3
  8
0
 62
     7
 10
42.5916
 20
92.741900000000001
 30
0.0
 11
40.379899999999992
 21
92.149299999999997
 31
0.0
  0
LINE
  5
E4
  8
0
 62
     7
 10
40.379899999999992
 20
92.149299999999997
 30
0.0
 11
42.5916
 21
91.556700000000006
 31
0.0
  0
LINE
  5
E5
  8
0
 62
     7
 10
42.5916
 20
91.556700000000006
 30
0.0
 11
42.5916
 21
92.741900000000001
 31
0.0
  0
LINE
  5
E6
  8
0
 62
     7
 10
68.170299999999983
 20
91.571200000000005
 30
0.0
 11
70.382000000000005
 21
92.163799999999995
 31
0.0
  0
LINE
  5
E7
  8
0
 62
     7
 10
70.382000000000005
 20
92.163799999999995
 30
0.0
 11
68.170299999999983
 21
92.756299999999996
 31
0.0
  0
LINE
  5
E8
  8
0
 62
     7
 10
68.170299999999983
 20
92.756299999999996
 30
0.0
 11
68.170299999999983
 21
91.571200000000005
 31
0.0
  0
LINE
  5
E9
  8
0
 62
     7
 10
40.380600000000001
 20
92.156899999999993
 30
0.0
 11
70.380600000000001
 21
92.156899999999993
 31
0.0
  0
LINE
  5
EA
  8
0
 62
     7
 10
40.380600000000001
 20
104.0779999999999
 30
0.0
 11
40.380600000000001
 21
91.456800000000001
 31
0.0
  0
LINE
  5
EB
  8
0
 62
     7
 10
27.5916
 20
83.918199999999999
 30
0.0
 11
25.379799999999999
 21
83.325699999999998
 31
0.0
  0
LINE
  5
EC
  8
0
 62
     7
 10
25.379799999999999
 20
83.325699999999998
 30
0.0
 11
27.5916
 21
82.733099999999993
 31
0.0
  0
LINE
  5
ED
  8
0
 62
     7
 10
27.5916
 20
82.733099999999993
 30
0.0
 11
27.5916
 21
83.918199999999999
 31
0.0
  0
LINE
  5
EE
  8
0
 62
     7
 10
83.1708
 20
82.747600000000006
 30
0.0
 11
85.382599999999996
 21
83.340100000000007
 31
0.0
  0
LINE
  5
EF
  8
0
 62
     7
 10
85.382599999999996
 20
83.340100000000007
 30
0.0
 11
83.1708
 21
83.932699999999997
 31
0.0
  0
LINE
  5
F0
  8
0
 62
     7
 10
83.1708
 20
83.932699999999997
 30
0.0
 11
83.1708
 21
82.747600000000006
 31
0.0
  0
LINE
  5
F1
  8
0
 62
     7
 10
25.3812
 20
83.333299999999994
 30
0.0
 11
85.381200000000007
 21
83.333299999999994
 31
0.0
  0
LINE
  5
F2
  8
0
 62
     7
 10
25.436999999999991
 20
110.136
 30
0.0
 11
25.379799999999999
 21
103.631
 31
0.0
  0
LINE
  5
F3
  8
0
 62
     7
 10
25.3812
 20
102.7379999999999
 30
0.0
 11
25.3812
 21
82.633200000000002
 31
0.0
  0
LINE
  5
F4
  8
0
 62
     7
 10
25.3812
 20
103.622
 30
0.0
 11
25.379799999999999
 21
103.631
 31
0.0
  0
LINE
  5
F5
  8
0
 62
     7
 10
99.209900000000005
 20
103.631
 30
0.0
 11
99.209900000000005
 21
103.622
 31
0.0
  0
LINE
  5
F6
  8
0
 62
     7
 10
93.145799999999994
 20
105.34099999999999
 30
0.0
 11
92.553200000000004
 21
103.1299999999999
 31
0.0
  0
LINE
  5
F7
  8
0
 62
     7
 10
92.553200000000004
 20
103.1299999999999
 30
0.0
 11
91.960700000000003
 21
105.34099999999999
 31
0.0
  0
LINE
  5
F8
  8
0
 62
     7
 10
91.960700000000003
 20
105.34099999999999
 30
0.0
 11
93.145799999999994
 21
105.34099999999999
 31
0.0
  0
LINE
  5
F9
  8
0
 62
     7
 10
91.975200000000001
 20
111.42100000000001
 30
0.0
 11
92.567700000000016
 21
113.63199999999991
 31
0.0
  0
LINE
  5
FA
  8
0
 62
     7
 10
92.567700000000016
 20
113.63199999999991
 30
0.0
 11
93.160300000000007
 21
111.42100000000001
 31
0.0
  0
LINE
  5
FB
  8
0
 62
     7
 10
93.160300000000007
 20
111.42100000000001
 30
0.0
 11
91.975200000000001
 21
111.42100000000001
 31
0.0
  0
LINE
  5
FC
  8
0
 62
     7
 10
92.560100000000006
 20
103.1309999999999
 30
0.0
 11
92.560100000000006
 21
113.6309999999999
 31
0.0
  0
LINE
  5
FD
  8
0
 62
     7
 10
99.209900000000005
 20
102.7379999999999
 30
0.0
 11
99.209900000000005
 21
91.456800000000001
 31
0.0
  0
LINE
  5
FE
  8
0
 62
     7
 10
99.267099999999985
 20
110.136
 30
0.0
 11
99.209900000000005
 21
103.631
 31
0.0
  0
LINE
  5
FF
  8
0
 62
     7
 10
98.509900000000016
 20
113.6309999999999
 30
0.0
 11
91.860100000000017
 21
113.6309999999999
 31
0.0
  0
LINE
  5
100
  8
0
 62
     7
 10
152.59499999999991
 20
110.631
 30
0.0
 11
181.27399999999989
 21
110.631
 31
0.0
  0
LINE
  5
101
  8
0
 62
     7
 10
99.710099999999997
 20
110.631
 30
0.0
 11
151.71100000000001
 21
110.631
 31
0.0
  0
LINE
  5
102
  8
0
 62
     7
 10
99.010099999999994
 20
103.1309999999999
 30
0.0
 11
91.860100000000017
 21
103.1309999999999
 31
0.0
  0
LINE
  5
103
  8
0
 62
     7
 10
151.71100000000001
 20
103.1309999999999
 30
0.0
 11
99.710099999999997
 21
103.1309999999999
 31
0.0
  0
LINE
  5
104
  8
0
 62
     7
 10
152.59499999999991
 20
103.1309999999999
 30
0.0
 11
181.27399999999989
 21
103.1309999999999
 31
0.0
  0
LINE
  5
105
  8
0
 62
     7
 10
149.501
 20
92.741900000000001
 30
0.0
 11
151.71299999999991
 21
92.149299999999997
 31
0.0
  0
LINE
  5
106
  8
0
 62
     7
 10
151.71299999999991
 20
92.149299999999997
 30
0.0
 11
149.501
 21
91.556700000000006
 31
0.0
  0
LINE
  5
107
  8
0
 62
     7
 10
149.501
 20
91.556700000000006
 30
0.0
 11
149.501
 21
92.741900000000001
 31
0.0
  0
LINE
  5
108
  8
0
 62
     7
 10
101.42100000000001
 20
91.571200000000005
 30
0.0
 11
99.209199999999996
 21
92.163799999999995
 31
0.0
  0
LINE
  5
109
  8
0
 62
     7
 10
99.209199999999996
 20
92.163799999999995
 30
0.0
 11
101.42100000000001
 21
92.756299999999996
 31
0.0
  0
LINE
  5
10A
  8
0
 62
     7
 10
101.42100000000001
 20
92.756299999999996
 30
0.0
 11
101.42100000000001
 21
91.571200000000005
 31
0.0
  0
LINE
  5
10B
  8
0
 62
     7
 10
151.71100000000001
 20
92.156899999999993
 30
0.0
 11
99.209900000000005
 21
92.156899999999993
 31
0.0
  0
LINE
  5
10C
  8
0
 62
     7
 10
151.71100000000001
 20
103.1309999999999
 30
0.0
 11
151.71100000000001
 21
110.631
 31
0.0
  0
LINE
  5
10D
  8
0
 62
     7
 10
151.71100000000001
 20
102.247
 30
0.0
 11
151.71100000000001
 21
91.456800000000001
 31
0.0
  0
LINE
  5
10E
  8
0
 62
     7
 10
181.15899999999999
 20
105.34099999999999
 30
0.0
 11
180.56700000000001
 21
103.1299999999999
 31
0.0
  0
LINE
  5
10F
  8
0
 62
     7
 10
180.56700000000001
 20
103.1299999999999
 30
0.0
 11
179.97399999999999
 21
105.34099999999999
 31
0.0
  0
LINE
  5
110
  8
0
 62
     7
 10
179.97399999999999
 20
105.34099999999999
 30
0.0
 11
181.15899999999999
 21
105.34099999999999
 31
0.0
  0
LINE
  5
111
  8
0
 62
     7
 10
179.98899999999989
 20
108.42100000000001
 30
0.0
 11
180.5809999999999
 21
110.63199999999991
 31
0.0
  0
LINE
  5
112
  8
0
 62
     7
 10
180.5809999999999
 20
110.63199999999991
 30
0.0
 11
181.17400000000001
 21
108.42100000000001
 31
0.0
  0
LINE
  5
113
  8
0
 62
     7
 10
181.17400000000001
 20
108.42100000000001
 30
0.0
 11
179.98899999999989
 21
108.42100000000001
 31
0.0
  0
LINE
  5
114
  8
0
 62
     7
 10
180.57400000000001
 20
103.1309999999999
 30
0.0
 11
180.57400000000001
 21
110.631
 31
0.0
  0
LINE
  5
115
  8
0
 62
     7
 10
68.768000000000001
 20
203.21599999999989
 30
0.0
 11
67.659999999999997
 21
201.21299999999991
 31
0.0
  0
LINE
  5
116
  8
0
 62
     7
 10
67.659999999999997
 20
201.21299999999991
 30
0.0
 11
69.621700000000004
 21
202.39400000000001
 31
0.0
  0
LINE
  5
117
  8
0
 62
     7
 10
69.621700000000004
 20
202.39400000000001
 30
0.0
 11
68.768000000000001
 21
203.21599999999989
 31
0.0
  0
LINE
  5
118
  8
0
 62
     7
 10
67.655900000000003
 20
201.21899999999999
 30
0.0
 11
78.647400000000005
 21
212.62700000000001
 31
0.0
  0
LINE
  5
119
  8
0
 62
     7
 10
78.647400000000005
 20
212.62700000000001
 30
0.0
 11
120.2949999999999
 21
212.62700000000001
 31
0.0
  0
LINE
  5
11A
  8
0
 62
     7
 10
66.108999999999995
 20
191.42699999999999
 30
0.0
 11
66.660300000000007
 21
191.42699999999999
 31
0.0
  0
LINE
  5
11B
  8
0
 62
     7
 10
66.660300000000007
 20
191.42699999999999
 30
0.0
 11
67.210800000000006
 21
191.42699999999999
 31
0.0
  0
LINE
  5
11C
  8
0
  6
AIGENLINE002
 62
     7
 10
66.660300000000007
 20
189.48099999999991
 30
0.0
 11
66.660300000000007
 21
215.114
 31
0.0
  0
LINE
  5
11D
  8
0
 62
     7
 10
66.108999999999995
 20
191.42699999999999
 30
0.0
 11
66.108999999999995
 21
212.06599999999989
 31
0.0
  0
LINE
  5
11E
  8
0
 62
     7
 10
67.210800000000006
 20
191.42699999999999
 30
0.0
 11
67.210800000000006
 21
212.06599999999989
 31
0.0
  0
LINE
  5
11F
  8
0
 62
     7
 10
65.659800000000004
 20
211.25999999999999
 30
0.0
 11
67.659999999999997
 21
212.02799999999999
 31
0.0
  0
LINE
  5
120
  8
0
 62
     7
 10
65.659800000000004
 20
209.45699999999999
 30
0.0
 11
67.659999999999997
 21
210.22499999999999
 31
0.0
  0
LINE
  5
121
  8
0
 62
     7
 10
65.659800000000004
 20
207.655
 30
0.0
 11
67.659999999999997
 21
208.423
 31
0.0
  0
LINE
  5
122
  8
0
 62
     7
 10
65.659800000000004
 20
205.85299999999989
 30
0.0
 11
67.659999999999997
 21
206.62
 31
0.0
  0
LINE
  5
123
  8
0
 62
     7
 10
65.659800000000004
 20
204.0509999999999
 30
0.0
 11
67.659999999999997
 21
204.8179999999999
 31
0.0
  0
LINE
  5
124
  8
0
 62
     7
 10
65.659800000000004
 20
202.24799999999991
 30
0.0
 11
67.659999999999997
 21
203.0149999999999
 31
0.0
  0
LINE
  5
125
  8
0
 62
     7
 10
65.659800000000004
 20
200.44599999999991
 30
0.0
 11
67.659999999999997
 21
201.21299999999991
 31
0.0
  0
LINE
  5
126
  8
0
 62
     7
 10
65.659800000000004
 20
198.643
 30
0.0
 11
67.659999999999997
 21
199.41099999999989
 31
0.0
  0
LINE
  5
127
  8
0
 62
     7
 10
65.659800000000004
 20
196.84099999999989
 30
0.0
 11
67.659999999999997
 21
197.60799999999989
 31
0.0
  0
LINE
  5
128
  8
0
 62
     7
 10
66.108999999999995
 20
212.06599999999989
 30
0.0
 11
66.660300000000007
 21
213.92699999999999
 31
0.0
  0
LINE
  5
129
  8
0
 62
     7
 10
66.660300000000007
 20
213.92699999999999
 30
0.0
 11
67.210800000000006
 21
212.06599999999989
 31
0.0
  0
LINE
  5
12A
  8
0
 62
     7
 10
66.108999999999995
 20
196.42699999999999
 30
0.0
 11
67.210800000000006
 21
196.42699999999999
 31
0.0
  0
LINE
  5
12B
  8
0
 62
     7
 10
151.71100000000001
 20
107.506
 30
0.0
 11
151.71100000000001
 21
106.955
 31
0.0
  0
LINE
  5
12C
  8
0
 62
     7
 10
151.71100000000001
 20
106.955
 30
0.0
 11
151.71100000000001
 21
106.4049999999999
 31
0.0
  0
LINE
  5
12D
  8
0
  6
AIGENLINE002
 62
     7
 10
149.7649999999999
 20
106.955
 30
0.0
 11
175.398
 21
106.955
 31
0.0
  0
LINE
  5
12E
  8
0
 62
     7
 10
151.71100000000001
 20
107.506
 30
0.0
 11
172.34999999999999
 21
107.506
 31
0.0
  0
LINE
  5
12F
  8
0
 62
     7
 10
151.71100000000001
 20
106.4049999999999
 30
0.0
 11
172.34999999999999
 21
106.4049999999999
 31
0.0
  0
LINE
  5
130
  8
0
 62
     7
 10
171.54300000000001
 20
107.956
 30
0.0
 11
172.31200000000001
 21
105.9549999999999
 31
0.0
  0
LINE
  5
131
  8
0
 62
     7
 10
169.7409999999999
 20
107.956
 30
0.0
 11
170.50899999999999
 21
105.9549999999999
 31
0.0
  0
LINE
  5
132
  8
0
 62
     7
 10
167.9379999999999
 20
107.956
 30
0.0
 11
168.70699999999999
 21
105.9549999999999
 31
0.0
  0
LINE
  5
133
  8
0
 62
     7
 10
166.13699999999989
 20
107.956
 30
0.0
 11
166.904
 21
105.9549999999999
 31
0.0
  0
LINE
  5
134
  8
0
 62
     7
 10
164.334
 20
107.956
 30
0.0
 11
165.102
 21
105.9549999999999
 31
0.0
  0
LINE
  5
135
  8
0
 62
     7
 10
162.53200000000001
 20
107.956
 30
0.0
 11
163.29900000000001
 21
105.9549999999999
 31
0.0
  0
LINE
  5
136
  8
0
 62
     7
 10
160.7289999999999
 20
107.956
 30
0.0
 11
161.49700000000001
 21
105.9549999999999
 31
0.0
  0
LINE
  5
137
  8
0
 62
     7
 10
158.92699999999999
 20
107.956
 30
0.0
 11
159.69499999999991
 21
105.9549999999999
 31
0.0
  0
LINE
  5
138
  8
0
 62
     7
 10
157.125
 20
107.956
 30
0.0
 11
157.892
 21
105.9549999999999
 31
0.0
  0
LINE
  5
139
  8
0
 62
     7
 10
172.34999999999999
 20
107.506
 30
0.0
 11
174.2109999999999
 21
106.955
 31
0.0
  0
LINE
  5
13A
  8
0
 62
     7
 10
174.2109999999999
 20
106.955
 30
0.0
 11
172.34999999999999
 21
106.4049999999999
 31
0.0
  0
LINE
  5
13B
  8
0
 62
     7
 10
156.71100000000001
 20
107.506
 30
0.0
 11
156.71100000000001
 21
106.4049999999999
 31
0.0
  0
LINE
  5
13C
  8
0
 62
     7
 10
36.109000000000002
 20
191.42699999999999
 30
0.0
 11
36.660200000000003
 21
191.42699999999999
 31
0.0
  0
LINE
  5
13D
  8
0
 62
     7
 10
36.660200000000003
 20
191.42699999999999
 30
0.0
 11
37.210700000000003
 21
191.42699999999999
 31
0.0
  0
LINE
  5
13E
  8
0
  6
AIGENLINE002
 62
     7
 10
36.660200000000003
 20
189.48099999999991
 30
0.0
 11
36.660200000000003
 21
215.114
 31
0.0
  0
LINE
  5
13F
  8
0
 62
     7
 10
36.109000000000002
 20
191.42699999999999
 30
0.0
 11
36.109000000000002
 21
212.06599999999989
 31
0.0
  0
LINE
  5
140
  8
0
 62
     7
 10
37.210700000000003
 20
191.42699999999999
 30
0.0
 11
37.210700000000003
 21
212.06599999999989
 31
0.0
  0
LINE
  5
141
  8
0
 62
     7
 10
35.659700000000001
 20
211.25999999999999
 30
0.0
 11
37.659999999999997
 21
212.02799999999999
 31
0.0
  0
LINE
  5
142
  8
0
 62
     7
 10
35.659700000000001
 20
209.45699999999999
 30
0.0
 11
37.659999999999997
 21
210.22499999999999
 31
0.0
  0
LINE
  5
143
  8
0
 62
     7
 10
35.659700000000001
 20
207.655
 30
0.0
 11
37.659999999999997
 21
208.423
 31
0.0
  0
LINE
  5
144
  8
0
 62
     7
 10
35.659700000000001
 20
205.85299999999989
 30
0.0
 11
37.659999999999997
 21
206.62
 31
0.0
  0
LINE
  5
145
  8
0
 62
     7
 10
35.659700000000001
 20
204.0509999999999
 30
0.0
 11
37.659999999999997
 21
204.8179999999999
 31
0.0
  0
LINE
  5
146
  8
0
 62
     7
 10
35.659700000000001
 20
202.24799999999991
 30
0.0
 11
37.659999999999997
 21
203.0149999999999
 31
0.0
  0
LINE
  5
147
  8
0
 62
     7
 10
35.659700000000001
 20
200.44599999999991
 30
0.0
 11
37.659999999999997
 21
201.21299999999991
 31
0.0
  0
LINE
  5
148
  8
0
 62
     7
 10
35.659700000000001
 20
198.643
 30
0.0
 11
37.659999999999997
 21
199.41099999999989
 31
0.0
  0
LINE
  5
149
  8
0
 62
     7
 10
35.659700000000001
 20
196.84099999999989
 30
0.0
 11
37.659999999999997
 21
197.60799999999989
 31
0.0
  0
LINE
  5
14A
  8
0
 62
     7
 10
36.109000000000002
 20
212.06599999999989
 30
0.0
 11
36.660200000000003
 21
213.92699999999999
 31
0.0
  0
LINE
  5
14B
  8
0
 62
     7
 10
36.660200000000003
 20
213.92699999999999
 30
0.0
 11
37.210700000000003
 21
212.06599999999989
 31
0.0
  0
LINE
  5
14C
  8
0
 62
     7
 10
36.109000000000002
 20
196.42699999999999
 30
0.0
 11
37.210700000000003
 21
196.42699999999999
 31
0.0
  0
TEXT
  5
14D
  8
_________2
 62
     7
 10
109.179
 20
24.226099999999999
 30
0.0
 40
3.9357000000000002
  1
エディション11 ソープディッシュ
 41
0.5
  0
LINE
  5
14E
  8
_________2
 62
     7
 10
205.30099999999999
 20
127.411
 30
0.0
 11
183.55099999999999
 21
127.411
 31
0.0
  0
LINE
  5
14F
  8
_________2
 62
     7
 10
100.2999999999999
 20
-4.0910799999999998
 30
0.0
 11
100.2999999999999
 21
-21.070999999999991
 31
0.0
  0
LINE
  5
150
  8
_________2
 62
     7
 10
100.2999999999999
 20
275.93099999999993
 30
0.0
 11
100.2999999999999
 21
258.911
 31
0.0
  0
LINE
  5
151
  8
_________2
 62
     7
 10
17.049199999999988
 20
127.411
 30
0.0
 11
-4.7012099999999988
 21
127.411
 31
0.0
  0
LINE
  5
152
  8
_________2
 62
     7
 10
76.740700000000004
 20
29.8047
 30
0.0
 11
74.554400000000001
 21
29.8047
 31
0.0
  0
LINE
  5
153
  8
_________2
 62
     7
 10
77.2333
 20
29.8047
 30
0.0
 11
76.981099999999984
 21
29.8047
 31
0.0
  0
LINE
  5
154
  8
_________2
 62
     7
 10
77.725999999999999
 20
29.8047
 30
0.0
 11
80.650899999999993
 21
29.8047
 31
0.0
  0
LINE
  5
155
  8
_________2
 62
     7
 10
77.2333
 20
29.8047
 30
0.0
 11
77.485500000000002
 21
29.8047
 31
0.0
  0
LINE
  5
156
  8
_________2
 62
     7
 10
70.837100000000007
 20
29.8047
 30
0.0
 11
68.650199999999998
 21
29.8047
 31
0.0
  0
LINE
  5
157
  8
_________2
 62
     7
 10
71.329099999999997
 20
29.8047
 30
0.0
 11
71.077600000000004
 21
29.8047
 31
0.0
  0
LINE
  5
158
  8
_________2
 62
     7
 10
71.329099999999997
 20
30.2974
 30
0.0
 11
71.329099999999997
 21
32.484400000000001
 31
0.0
  0
LINE
  5
159
  8
_________2
 62
     7
 10
71.329099999999997
 20
29.8047
 30
0.0
 11
71.329099999999997
 21
30.057300000000001
 31
0.0
  0
LINE
  5
15A
  8
_________2
 62
     7
 10
71.821700000000007
 20
29.8047
 30
0.0
 11
74.008700000000005
 21
29.8047
 31
0.0
  0
LINE
  5
15B
  8
_________2
 62
     7
 10
71.329099999999997
 20
29.8047
 30
0.0
 11
71.581299999999985
 21
29.8047
 31
0.0
  0
LINE
  5
15C
  8
_________2
 62
     7
 10
71.329099999999997
 20
29.312799999999999
 30
0.0
 11
71.329099999999997
 21
27.126200000000001
 31
0.0
  0
LINE
  5
15D
  8
_________2
 62
     7
 10
71.329099999999997
 20
29.8047
 30
0.0
 11
71.329099999999997
 21
29.5532
 31
0.0
  0
LINE
  5
15E
  8
_________2
 62
     7
 10
75.040199999999999
 20
28.5852
 30
0.0
 11
80.218199999999996
 21
27.720400000000001
 31
0.0
  0
LINE
  5
15F
  8
_________2
 62
     7
 10
75.040199999999999
 20
31.024699999999999
 30
0.0
 11
80.218199999999996
 21
31.8901
 31
0.0
  0
LINE
  5
160
  8
_________2
 62
     7
 10
80.218199999999996
 20
27.720400000000001
 30
0.0
 11
80.218199999999996
 21
31.8901
 31
0.0
  0
LINE
  5
161
  8
_________2
 62
     7
 10
75.040199999999999
 20
28.5852
 30
0.0
 11
75.040199999999999
 21
31.024699999999999
 31
0.0
  0
ARC
  5
162
  8
_________2
 62
     7
 10
71.282501999999994
 20
29.757801000000001
 30
0.0
 40
1.267714
 50
2.1220840000000001
 51
87.894083999999992
  0
ARC
  5
163
  8
_________2
 62
     7
 10
71.375640000000004
 20
29.758545999999999
 30
0.0
 40
1.2669680000000001
 50
92.105782999999988
 51
177.91037
  0
ARC
  5
164
  8
_________2
 62
     7
 10
71.376013999999998
 20
29.851671
 30
0.0
 40
1.2673680000000001
 50
182.12203600000001
 51
267.877993
  0
ARC
  5
165
  8
_________2
 62
     7
 10
71.282195999999999
 20
29.852347999999999
 30
0.0
 40
1.2680439999999991
 50
272.11916400000001
 51
357.84848499999993
  0
ARC
  5
166
  8
_________2
 62
     7
 10
71.248716999999985
 20
29.724731999999989
 30
0.0
 40
2.1668310000000002
 50
2.1161439999999989
 51
87.874379000000005
  0
ARC
  5
167
  8
_________2
 62
     7
 10
71.408756000000011
 20
29.726146
 30
0.0
 40
2.165392999999999
 50
92.108508999999998
 51
177.91986499999999
  0
ARC
  5
168
  8
_________2
 62
     7
 10
71.409094999999994
 20
29.884751999999999
 30
0.0
 40
2.1657829999999998
 50
182.117133
 51
267.88289700000001
  0
ARC
  5
169
  8
_________2
 62
     7
 10
71.249115000000003
 20
29.885429999999989
 30
0.0
 40
2.1664590000000001
 50
272.11546800000002
 51
357.86560400000002
  0
TEXT
  5
16A
  8
_________2
 62
     7
 10
104.605
 20
1.6794899999999999
 30
0.0
 40
3.0923400000000001
  1
図番
 41
0.5
  0
LINE
  5
16B
  8
_________2
 62
     7
 10
103.55
 20
5.9087199999999989
 30
0.0
 11
183.55099999999999
 21
5.9087199999999989
 31
0.0
  0
TEXT
  5
16C
  8
_________2
 62
     7
 10
104.605
 20
11.679299999999991
 30
0.0
 40
3.0923400000000001
  1
品番
 41
0.5
  0
TEXT
  5
16D
  8
_________2
 62
     7
 10
104.605
 20
31.8184
 30
0.0
 40
3.0923400000000001
  1
名称
 41
0.5
  0
TEXT
  5
16E
  8
_________2
 62
     7
 10
91.844758333333345
 20
26.822299999999998
 30
0.0
 40
3.6545800000000002
  1
mm
 41
0.5
 72
     1
 11
93.367500000000007
 21
26.822299999999998
 31
0.0
  0
TEXT
  5
16F
  8
_________2
 62
     7
 10
85.642899999999983
 20
31.8184
 30
0.0
 40
3.0923400000000001
  1
単位
 41
0.5
  0
TEXT
  5
170
  8
_________2
 62
     7
 10
85.642899999999983
 20
19.410799999999991
 30
0.0
 40
3.0923400000000001
  1
尺度
 41
0.5
  0
TEXT
  5
171
  8
_________2
 62
     7
 10
90.548458666666676
 20
13.218199999999991
 30
0.0
 40
3.6545800000000002
  1
1 ： 2
 41
0.5
 72
     1
 11
93.959400000000016
 21
13.218199999999991
 31
0.0
  0
TEXT
  5
172
  8
_________2
 62
     7
 10
137.97442499999991
 20
9.1082000000000001
 30
0.0
 40
3.9357000000000002
  1
KC11155
 41
0.5
 72
     1
 11
143.55000000000001
 21
9.1082000000000001
 31
0.0
  0
TEXT
  5
173
  8
_________2
 62
     7
 10
137.97442499999991
 20
-0.8926299999999999
 30
0.0
 40
3.9357000000000002
  1
KC11155
 41
0.5
 72
     1
 11
143.55000000000001
 21
-0.8926299999999999
 31
0.0
  0
TEXT
  5
174
  8
_________2
 62
     7
 10
39.364090666666669
 20
13.603400000000001
 30
0.0
 40
3.6545800000000002
  1
石原
 41
0.5
 72
     1
 11
41.313200000000002
 21
13.603400000000001
 31
0.0
  0
TEXT
  5
175
  8
_________2
 62
     7
 10
20.790090666666661
 20
13.603400000000001
 30
0.0
 40
3.6545800000000002
  1
菅原
 41
0.5
 72
     1
 11
22.73919999999999
 21
13.603400000000001
 31
0.0
  0
TEXT
  5
176
  8
_________2
 62
     7
 10
67.785399999999996
 20
13.218199999999991
 30
0.0
 40
3.6545800000000002
  1
11.10.25
 41
0.5
  0
TEXT
  5
177
  8
_________2
 62
     7
 10
66.592699999999994
 20
19.410799999999991
 30
0.0
 40
3.0923400000000001
  1
日付
 41
0.5
  0
TEXT
  5
178
  8
_________2
 62
     7
 10
29.638999999999999
 20
19.410799999999991
 30
0.0
 40
3.0923400000000001
  1
検図
 41
0.5
  0
TEXT
  5
179
  8
_________2
 62
     7
 10
18.020700000000001
 20
5.21143
 30
0.0
 40
3.0923400000000001
  1
備考
 41
0.5
  0
TEXT
  5
17A
  8
_________2
 62
     7
 10
18.020700000000001
 20
19.410799999999991
 30
0.0
 40
3.0923400000000001
  1
製図
 41
0.5
  0
TEXT
  5
17B
  8
_________2
 62
     7
 10
23.788165333333328
 20
27.936800000000002
 30
0.0
 40
4.4979399999999989
  1
セラトレーディング株式会社
 41
0.5
 72
     1
 11
41.180199999999999
 21
27.936800000000002
 31
0.0
  0
LINE
  5
17C
  8
_________2
 62
     7
 10
183.55099999999999
 20
-4.0910799999999998
 30
0.0
 11
17.049199999999988
 21
-4.0910799999999998
 31
0.0
  0
LINE
  5
17D
  8
_________2
 62
     7
 10
17.049199999999988
 20
-4.0910799999999998
 30
0.0
 11
17.049199999999988
 21
258.911
 31
0.0
  0
LINE
  5
17E
  8
_________2
 62
     7
 10
17.049199999999988
 20
258.911
 30
0.0
 11
183.55099999999999
 21
258.911
 31
0.0
  0
LINE
  5
17F
  8
_________2
 62
     7
 10
183.55099999999999
 20
258.911
 30
0.0
 11
183.55099999999999
 21
-4.0910799999999998
 31
0.0
  0
LINE
  5
180
  8
_________2
 62
     7
 10
65.549599999999998
 20
9.4092999999999982
 30
0.0
 11
65.549599999999998
 21
35.909100000000002
 31
0.0
  0
LINE
  5
181
  8
_________2
 62
     7
 10
84.549400000000006
 20
9.4092999999999982
 30
0.0
 11
84.549400000000006
 21
35.909100000000002
 31
0.0
  0
LINE
  5
182
  8
_________2
 62
     7
 10
103.55
 20
-4.0910799999999998
 30
0.0
 11
103.55
 21
35.909100000000002
 31
0.0
  0
LINE
  5
183
  8
_________2
 62
     7
 10
28.548999999999999
 20
9.4092999999999982
 30
0.0
 11
28.548999999999999
 21
23.409199999999998
 31
0.0
  0
LINE
  5
184
  8
_________2
 62
     7
 10
17.049199999999988
 20
9.4092999999999982
 30
0.0
 11
103.55
 21
9.4092999999999982
 31
0.0
  0
LINE
  5
185
  8
_________2
 62
     7
 10
17.049199999999988
 20
23.409199999999998
 30
0.0
 11
103.55
 21
23.409199999999998
 31
0.0
  0
LINE
  5
186
  8
_________2
 62
     7
 10
103.55
 20
15.9085
 30
0.0
 11
183.55099999999999
 21
15.9085
 31
0.0
  0
LINE
  5
187
  8
_________2
 62
     7
 10
17.049199999999988
 20
35.909100000000002
 30
0.0
 11
183.55099999999999
 21
35.909100000000002
 31
0.0
  0
ENDSEC
  0
EOF
