  0
SECTION
  2
HEADER
  9
$ACADVER
  1
AC1009
  9
$INSBASE
 10
0.0
 20
0.0
 30
0.0
  9
$EXTMIN
 10
-4.7012099999999988
 20
-21.070999999999991
 30
0.0
  9
$EXTMAX
 10
205.30099999999999
 20
275.93099999999993
 30
0.0
  9
$LIMMIN
 10
0.0
 20
0.0
  9
$LIMMAX
 10
12.0
 20
9.0
  9
$ORTHOMODE
 70
     0
  9
$REGENMODE
 70
     1
  9
$FILLMODE
 70
     1
  9
$QTEXTMODE
 70
     0
  9
$MIRRTEXT
 70
     1
  9
$DRAGMODE
 70
     2
  9
$LTSCALE
 40
1.0
  9
$OSMODE
 70
    37
  9
$ATTMODE
 70
     1
  9
$TEXTSIZE
 40
0.0
  9
$TRACEWID
 40
0.05
  9
$TEXTSTYLE
  7
STANDARD
  9
$CLAYER
  8
0
  9
$CELTYPE
  6
CONTINUOUS
  9
$CECOLOR
 62
   256
  9
$DIMSCALE
 40
1.0
  9
$DIMASZ
 40
0.18
  9
$DIMEXO
 40
0.0625
  9
$DIMDLI
 40
0.38
  9
$DIMRND
 40
0.0
  9
$DIMDLE
 40
0.0
  9
$DIMEXE
 40
0.18
  9
$DIMTP
 40
0.0
  9
$DIMTM
 40
0.0
  9
$DIMTXT
 40
0.18
  9
$DIMCEN
 40
0.09
  9
$DIMTSZ
 40
0.0
  9
$DIMTOL
 70
     0
  9
$DIMLIM
 70
     0
  9
$DIMTIH
 70
     1
  9
$DIMTOH
 70
     1
  9
$DIMSE1
 70
     0
  9
$DIMSE2
 70
     0
  9
$DIMTAD
 70
     0
  9
$DIMZIN
 70
     0
  9
$DIMBLK
  1

  9
$DIMASO
 70
     1
  9
$DIMSHO
 70
     1
  9
$DIMPOST
  1

  9
$DIMAPOST
  1

  9
$DIMALT
 70
     0
  9
$DIMALTD
 70
     2
  9
$DIMALTF
 40
25.399999999999999
  9
$DIMLFAC
 40
1.0
  9
$DIMTOFL
 70
     0
  9
$DIMTVP
 40
0.0
  9
$DIMTIX
 70
     0
  9
$DIMSOXD
 70
     0
  9
$DIMSAH
 70
     0
  9
$DIMBLK1
  1

  9
$DIMBLK2
  1

  9
$DIMSTYLE
  2
STANDARD
  9
$DIMCLRD
 70
     0
  9
$DIMCLRE
 70
     0
  9
$DIMCLRT
 70
     0
  9
$DIMTFAC
 40
1.0
  9
$DIMGAP
 40
0.09
  9
$LUNITS
 70
     2
  9
$LUPREC
 70
     4
  9
$SKETCHINC
 40
0.1
  9
$FILLETRAD
 40
0.0
  9
$AUNITS
 70
     0
  9
$AUPREC
 70
     0
  9
$MENU
  1
.
  9
$ELEVATION
 40
0.0
  9
$PELEVATION
 40
0.0
  9
$THICKNESS
 40
0.0
  9
$LIMCHECK
 70
     0
  9
$BLIPMODE
 70
     0
  9
$CHAMFERA
 40
0.0
  9
$CHAMFERB
 40
0.0
  9
$SKPOLY
 70
     0
  9
$TDCREATE
 40
2444972.375
  9
$TDUPDATE
 40
2455980.3589689932
  9
$TDINDWG
 40
0.0000075463
  9
$TDUSRTIMER
 40
0.0000075463
  9
$USRTIMER
 70
     1
  9
$ANGBASE
 50
0.0
  9
$ANGDIR
 70
     0
  9
$PDMODE
 70
     0
  9
$PDSIZE
 40
0.0
  9
$PLINEWID
 40
0.0
  9
$COORDS
 70
     1
  9
$SPLFRAME
 70
     0
  9
$SPLINETYPE
 70
     6
  9
$SPLINESEGS
 70
     8
  9
$ATTDIA
 70
     0
  9
$ATTREQ
 70
     1
  9
$HANDLING
 70
     1
  9
$HANDSEED
  5
1E9
  9
$SURFTAB1
 70
     6
  9
$SURFTAB2
 70
     6
  9
$SURFTYPE
 70
     6
  9
$SURFU
 70
     6
  9
$SURFV
 70
     6
  9
$UCSNAME
  2

  9
$UCSORG
 10
0.0
 20
0.0
 30
0.0
  9
$UCSXDIR
 10
1.0
 20
0.0
 30
0.0
  9
$UCSYDIR
 10
0.0
 20
1.0
 30
0.0
  9
$PUCSNAME
  2

  9
$PUCSORG
 10
0.0
 20
0.0
 30
0.0
  9
$PUCSXDIR
 10
1.0
 20
0.0
 30
0.0
  9
$PUCSYDIR
 10
0.0
 20
1.0
 30
0.0
  9
$USERI1
 70
     0
  9
$USERI2
 70
     0
  9
$USERI3
 70
     0
  9
$USERI4
 70
     0
  9
$USERI5
 70
     0
  9
$USERR1
 40
0.0
  9
$USERR2
 40
0.0
  9
$USERR3
 40
0.0
  9
$USERR4
 40
0.0
  9
$USERR5
 40
0.0
  9
$WORLDVIEW
 70
     1
  9
$SHADEDGE
 70
     3
  9
$SHADEDIF
 70
    70
  9
$TILEMODE
 70
     1
  9
$MAXACTVP
 70
    48
  9
$PLIMCHECK
 70
     0
  9
$PEXTMIN
 10
1.0000000000000000E+020
 20
1.0000000000000000E+020
 30
1.0000000000000000E+020
  9
$PEXTMAX
 10
-1.0000000000000000E+020
 20
-1.0000000000000000E+020
 30
-1.0000000000000000E+020
  9
$PLIMMIN
 10
0.0
 20
0.0
  9
$PLIMMAX
 10
12.0
 20
9.0
  9
$UNITMODE
 70
     0
  9
$VISRETAIN
 70
     1
  9
$PLINEGEN
 70
     0
  9
$PSLTSCALE
 70
     1
  0
ENDSEC
  0
SECTION
  2
TABLES
  0
TABLE
  2
VPORT
 70
     2
  0
VPORT
  2
*ACTIVE
 70
     0
 10
0.0
 20
0.0
 11
1.0
 21
1.0
 12
205.31019906752431
 22
127.42999999999989
 13
0.0
 23
0.0
 14
1.0
 24
1.0
 15
0.0
 25
0.0
 16
0.0
 26
0.0
 36
1.0
 17
0.0
 27
0.0
 37
0.0
 40
299.24634760705283
 41
2.2894736842105261
 42
50.0
 43
0.0
 44
0.0
 50
0.0
 51
0.0
 71
     0
 72
   100
 73
     1
 74
     1
 75
     0
 76
     0
 77
     0
 78
     0
  0
ENDTAB
  0
TABLE
  2
LTYPE
 70
     3
  0
LTYPE
  2
CONTINUOUS
 70
     0
  3
Solid line
 72
    65
 73
     0
 40
0.0
  0
LTYPE
  2
AIGENLINE001
 70
     0
  3
generate AI->DXF Converter
 72
    65
 73
     2
 40
1.5522299999999991
 49
0.776115
 49
-0.776115
  0
LTYPE
  2
AIGENLINE002
 70
     0
  3
generate AI->DXF Converter
 72
    65
 73
     4
 40
5.8561449999999988
 49
3.5278
 49
-0.776115
 49
0.776115
 49
-0.776115
  0
ENDTAB
  0
TABLE
  2
LAYER
 70
     2
  0
LAYER
  2
0
 70
     0
 62
     7
  6
CONTINUOUS
  0
LAYER
  2
_________2
 70
     0
 62
     7
  6
CONTINUOUS
  0
ENDTAB
  0
TABLE
  2
STYLE
 70
     1
  0
STYLE
  2
STANDARD
 70
     0
 40
0.0
 41
0.0
 50
0.0
 71
     0
 42
0.0
  3
TXT
  4
EXTFONT.SHX
  0
ENDTAB
  0
TABLE
  2
VIEW
 70
     0
  0
ENDTAB
  0
TABLE
  2
UCS
 70
     0
  0
ENDTAB
  0
TABLE
  2
APPID
 70
     1
  0
APPID
  2
ACAD
 70
     0
  0
ENDTAB
  0
TABLE
  2
DIMSTYLE
 70
     1
  0
DIMSTYLE
  2
STANDARD
 70
     0
  3

  4

  5

  6

  7

 40
1.0
 41
0.18
 42
0.0625
 43
0.38
 44
0.18
 45
0.0
 46
0.0
 47
0.0
 48
0.0
140
0.18
141
0.09
142
0.0
143
25.399999999999999
144
1.0
145
0.0
146
1.0
147
0.09
 71
     0
 72
     0
 73
     1
 74
     1
 75
     0
 76
     0
 77
     0
 78
     0
170
     0
171
     2
172
     0
173
     0
174
     0
175
     0
176
     0
177
     0
178
     0
  0
ENDTAB
  0
ENDSEC
  0
SECTION
  2
BLOCKS
  0
BLOCK
  8
0
  2
$MODEL_SPACE
 70
     0
 10
0.0
 20
0.0
 30
0.0
  3
$MODEL_SPACE
  1

  0
ENDBLK
  5
1A
  8
0
  0
BLOCK
 67
     1
  8
0
  2
$PAPER_SPACE
 70
     0
 10
0.0
 20
0.0
 30
0.0
  3
$PAPER_SPACE
  1

  0
ENDBLK
  5
17
 67
     1
  8
0
  0
ENDSEC
  0
SECTION
  2
ENTITIES
  0
TEXT
  5
23
  8
0
 62
     7
 10
68.691472500000003
 20
192.745
 30
0.0
 40
3.0923400000000001
  1
60
 41
0.5
 72
     1
 11
69.851100000000002
 21
192.745
 31
0.0
  0
TEXT
  5
24
  8
0
 62
     7
 10
68.047235000000001
 20
199.49199999999999
 30
0.0
 40
3.0923400000000001
  1
300
 41
0.5
 72
     1
 11
69.851100000000002
 21
199.49199999999999
 31
0.0
  0
TEXT
  5
25
  8
0
 62
     7
 10
126.001
 20
120.1459999999999
 30
0.0
 40
3.0923400000000001
  1
（%%c6×45 樹脂プラグ付）
 41
0.5
  0
TEXT
  5
26
  8
0
 62
     7
 10
126.001
 20
125.187
 30
0.0
 40
3.0923400000000001
  1
%%c4.3×60 SUS十字穴付皿頭木ネジ
 41
0.5
  0
TEXT
  5
27
  8
0
 62
     7
 10
113.315
 20
110.16037249999989
 30
0.0
 40
3.0923400000000001
  1
40
 50
90.0
 41
0.5
 72
     1
 11
113.315
 21
111.31999999999989
 31
0.0
  0
TEXT
  5
28
  8
0
 62
     7
 10
118.751
 20
106.6565249999999
 30
0.0
 40
3.0923400000000001
  1
67
 50
90.0
 41
0.5
 72
     1
 11
118.751
 21
107.94499999999999
 31
0.0
  0
TEXT
  5
29
  8
0
 62
     7
 10
147.66137249999991
 20
92.942700000000002
 30
0.0
 40
3.0923400000000001
  1
80
 41
0.5
 72
     1
 11
148.821
 21
92.942700000000002
 31
0.0
  0
TEXT
  5
2A
  8
0
 62
     7
 10
114.6789999999999
 20
158.65152499999991
 30
0.0
 40
3.0923400000000001
  1
95
 50
90.0
 41
0.5
 72
     1
 11
114.6789999999999
 21
159.93999999999991
 31
0.0
  0
LINE
  5
2B
  8
0
 62
     7
 10
102.56699999999999
 20
115.422
 30
0.0
 11
102.855
 21
115.053
 31
0.0
  0
LINE
  5
2C
  8
0
 62
     7
 10
102.855
 20
115.053
 30
0.0
 11
102.7329999999999
 21
115.053
 31
0.0
  0
LINE
  5
2D
  8
0
 62
     7
 10
102.7329999999999
 20
115.053
 30
0.0
 11
102.45099999999999
 21
115.416
 31
0.0
  0
LINE
  5
2E
  8
0
 62
     7
 10
102.45099999999999
 20
115.416
 30
0.0
 11
102.45099999999999
 21
115.053
 31
0.0
  0
LINE
  5
2F
  8
0
 62
     7
 10
102.45099999999999
 20
115.053
 30
0.0
 11
102.3519999999999
 21
115.053
 31
0.0
  0
LINE
  5
30
  8
0
 62
     7
 10
102.3519999999999
 20
115.053
 30
0.0
 11
102.3519999999999
 21
115.81999999999989
 31
0.0
  0
LINE
  5
31
  8
0
 62
     7
 10
102.3519999999999
 20
115.81999999999989
 30
0.0
 11
102.45099999999999
 21
115.81999999999989
 31
0.0
  0
LINE
  5
32
  8
0
 62
     7
 10
102.45099999999999
 20
115.81999999999989
 30
0.0
 11
102.45099999999999
 21
115.4279999999999
 31
0.0
  0
LINE
  5
33
  8
0
 62
     7
 10
102.45099999999999
 20
115.4279999999999
 30
0.0
 11
102.7399999999999
 21
115.81999999999989
 31
0.0
  0
LINE
  5
34
  8
0
 62
     7
 10
102.7399999999999
 20
115.81999999999989
 30
0.0
 11
102.8599999999999
 21
115.81999999999989
 31
0.0
  0
LINE
  5
35
  8
0
 62
     7
 10
102.8599999999999
 20
115.81999999999989
 30
0.0
 11
102.56699999999999
 21
115.422
 31
0.0
  0
LINE
  5
36
  8
0
 62
     7
 10
103.01899999999991
 20
115.72
 30
0.0
 11
103.411
 21
115.72
 31
0.0
  0
LINE
  5
37
  8
0
 62
     7
 10
103.411
 20
115.72
 30
0.0
 11
103.411
 21
115.81999999999989
 31
0.0
  0
LINE
  5
38
  8
0
 62
     7
 10
103.411
 20
115.81999999999989
 30
0.0
 11
102.917
 21
115.81999999999989
 31
0.0
  0
LINE
  5
39
  8
0
 62
     7
 10
102.917
 20
115.81999999999989
 30
0.0
 11
102.917
 21
115.053
 31
0.0
  0
LINE
  5
3A
  8
0
 62
     7
 10
102.917
 20
115.053
 30
0.0
 11
103.411
 21
115.053
 31
0.0
  0
LINE
  5
3B
  8
0
 62
     7
 10
103.411
 20
115.053
 30
0.0
 11
103.411
 21
115.152
 31
0.0
  0
LINE
  5
3C
  8
0
 62
     7
 10
103.411
 20
115.152
 30
0.0
 11
103.01899999999991
 21
115.152
 31
0.0
  0
LINE
  5
3D
  8
0
 62
     7
 10
103.01899999999991
 20
115.152
 30
0.0
 11
103.01899999999991
 21
115.432
 31
0.0
  0
LINE
  5
3E
  8
0
 62
     7
 10
103.01899999999991
 20
115.432
 30
0.0
 11
103.411
 21
115.432
 31
0.0
  0
LINE
  5
3F
  8
0
 62
     7
 10
103.411
 20
115.432
 30
0.0
 11
103.411
 21
115.53100000000001
 31
0.0
  0
LINE
  5
40
  8
0
 62
     7
 10
103.411
 20
115.53100000000001
 30
0.0
 11
103.01899999999991
 21
115.53100000000001
 31
0.0
  0
LINE
  5
41
  8
0
 62
     7
 10
103.01899999999991
 20
115.53100000000001
 30
0.0
 11
103.01899999999991
 21
115.72
 31
0.0
  0
LINE
  5
42
  8
0
 62
     7
 10
103.58799999999989
 20
115.81999999999989
 30
0.0
 11
103.4889999999999
 21
115.81999999999989
 31
0.0
  0
LINE
  5
43
  8
0
 62
     7
 10
103.4889999999999
 20
115.81999999999989
 30
0.0
 11
103.4889999999999
 21
115.3359999999999
 31
0.0
  0
LINE
  5
44
  8
0
 62
     7
 10
103.4889999999999
 20
115.3359999999999
 30
0.0
 11
103.506
 21
115.2399999999999
 31
0.0
  0
LINE
  5
45
  8
0
 62
     7
 10
103.506
 20
115.2399999999999
 30
0.0
 11
103.55500000000001
 21
115.154
 31
0.0
  0
LINE
  5
46
  8
0
 62
     7
 10
103.55500000000001
 20
115.154
 30
0.0
 11
103.6299999999999
 21
115.092
 31
0.0
  0
LINE
  5
47
  8
0
 62
     7
 10
103.6299999999999
 20
115.092
 30
0.0
 11
103.7209999999999
 21
115.05799999999989
 31
0.0
  0
LINE
  5
48
  8
0
 62
     7
 10
103.7209999999999
 20
115.05799999999989
 30
0.0
 11
103.8189999999999
 21
115.05799999999989
 31
0.0
  0
LINE
  5
49
  8
0
 62
     7
 10
103.8189999999999
 20
115.05799999999989
 30
0.0
 11
103.9109999999999
 21
115.092
 31
0.0
  0
LINE
  5
4A
  8
0
 62
     7
 10
103.9109999999999
 20
115.092
 30
0.0
 11
103.9879999999999
 21
115.154
 31
0.0
  0
LINE
  5
4B
  8
0
 62
     7
 10
103.9879999999999
 20
115.154
 30
0.0
 11
104.0349999999999
 21
115.2399999999999
 31
0.0
  0
LINE
  5
4C
  8
0
 62
     7
 10
104.0349999999999
 20
115.2399999999999
 30
0.0
 11
104.0529999999999
 21
115.3359999999999
 31
0.0
  0
LINE
  5
4D
  8
0
 62
     7
 10
104.0529999999999
 20
115.3359999999999
 30
0.0
 11
104.0529999999999
 21
115.81999999999989
 31
0.0
  0
LINE
  5
4E
  8
0
 62
     7
 10
104.0529999999999
 20
115.81999999999989
 30
0.0
 11
103.95399999999989
 21
115.81999999999989
 31
0.0
  0
LINE
  5
4F
  8
0
 62
     7
 10
103.95399999999989
 20
115.81999999999989
 30
0.0
 11
103.95399999999989
 21
115.3359999999999
 31
0.0
  0
LINE
  5
50
  8
0
 62
     7
 10
103.95399999999989
 20
115.3359999999999
 30
0.0
 11
103.94
 21
115.26600000000001
 31
0.0
  0
LINE
  5
51
  8
0
 62
     7
 10
103.94
 20
115.26600000000001
 30
0.0
 11
103.90000000000001
 21
115.205
 31
0.0
  0
LINE
  5
52
  8
0
 62
     7
 10
103.90000000000001
 20
115.205
 30
0.0
 11
103.8399999999999
 21
115.1669999999999
 31
0.0
  0
LINE
  5
53
  8
0
 62
     7
 10
103.8399999999999
 20
115.1669999999999
 30
0.0
 11
103.77199999999991
 21
115.152
 31
0.0
  0
LINE
  5
54
  8
0
 62
     7
 10
103.77199999999991
 20
115.152
 30
0.0
 11
103.70099999999989
 21
115.1669999999999
 31
0.0
  0
LINE
  5
55
  8
0
 62
     7
 10
103.70099999999989
 20
115.1669999999999
 30
0.0
 11
103.642
 21
115.205
 31
0.0
  0
LINE
  5
56
  8
0
 62
     7
 10
103.642
 20
115.205
 30
0.0
 11
103.602
 21
115.26600000000001
 31
0.0
  0
LINE
  5
57
  8
0
 62
     7
 10
103.602
 20
115.26600000000001
 30
0.0
 11
103.58799999999989
 21
115.3359999999999
 31
0.0
  0
LINE
  5
58
  8
0
 62
     7
 10
103.58799999999989
 20
115.3359999999999
 30
0.0
 11
103.58799999999989
 21
115.81999999999989
 31
0.0
  0
LINE
  5
59
  8
0
 62
     7
 10
104.627
 20
115.67700000000001
 30
0.0
 11
104.53399999999991
 21
115.70999999999999
 31
0.0
  0
LINE
  5
5A
  8
0
 62
     7
 10
104.53399999999991
 20
115.70999999999999
 30
0.0
 11
104.435
 21
115.70999999999999
 31
0.0
  0
LINE
  5
5B
  8
0
 62
     7
 10
104.435
 20
115.70999999999999
 30
0.0
 11
104.3429999999999
 21
115.676
 31
0.0
  0
LINE
  5
5C
  8
0
 62
     7
 10
104.3429999999999
 20
115.676
 30
0.0
 11
104.26899999999991
 21
115.613
 31
0.0
  0
LINE
  5
5D
  8
0
 62
     7
 10
104.26899999999991
 20
115.613
 30
0.0
 11
104.22
 21
115.52500000000001
 31
0.0
  0
LINE
  5
5E
  8
0
 62
     7
 10
104.22
 20
115.52500000000001
 30
0.0
 11
104.20399999999989
 21
115.429
 31
0.0
  0
LINE
  5
5F
  8
0
 62
     7
 10
104.20399999999989
 20
115.429
 30
0.0
 11
104.2229999999999
 21
115.33199999999999
 31
0.0
  0
LINE
  5
60
  8
0
 62
     7
 10
104.2229999999999
 20
115.33199999999999
 30
0.0
 11
104.274
 21
115.247
 31
0.0
  0
LINE
  5
61
  8
0
 62
     7
 10
104.274
 20
115.247
 30
0.0
 11
104.34999999999989
 21
115.185
 31
0.0
  0
LINE
  5
62
  8
0
 62
     7
 10
104.34999999999989
 20
115.185
 30
0.0
 11
104.404
 21
115.1629999999999
 31
0.0
  0
LINE
  5
63
  8
0
 62
     7
 10
104.404
 20
115.1629999999999
 30
0.0
 11
104.45999999999989
 21
115.152
 31
0.0
  0
LINE
  5
64
  8
0
 62
     7
 10
104.45999999999989
 20
115.152
 30
0.0
 11
104.5179999999999
 21
115.152
 31
0.0
  0
LINE
  5
65
  8
0
 62
     7
 10
104.5179999999999
 20
115.152
 30
0.0
 11
104.5739999999999
 21
115.1659999999999
 31
0.0
  0
LINE
  5
66
  8
0
 62
     7
 10
104.5739999999999
 20
115.1659999999999
 30
0.0
 11
104.627
 21
115.187
 31
0.0
  0
LINE
  5
67
  8
0
 62
     7
 10
104.627
 20
115.187
 30
0.0
 11
104.676
 21
115.10299999999989
 31
0.0
  0
LINE
  5
68
  8
0
 62
     7
 10
104.676
 20
115.10299999999989
 30
0.0
 11
104.56399999999989
 21
115.06100000000001
 31
0.0
  0
LINE
  5
69
  8
0
 62
     7
 10
104.56399999999989
 20
115.06100000000001
 30
0.0
 11
104.4429999999999
 21
115.05500000000001
 31
0.0
  0
LINE
  5
6A
  8
0
 62
     7
 10
104.4429999999999
 20
115.05500000000001
 30
0.0
 11
104.3279999999999
 21
115.0859999999999
 31
0.0
  0
LINE
  5
6B
  8
0
 62
     7
 10
104.3279999999999
 20
115.0859999999999
 30
0.0
 11
104.2289999999999
 21
115.152
 31
0.0
  0
LINE
  5
6C
  8
0
 62
     7
 10
104.2289999999999
 20
115.152
 30
0.0
 11
104.15299999999991
 21
115.24499999999991
 31
0.0
  0
LINE
  5
6D
  8
0
 62
     7
 10
104.15299999999991
 20
115.24499999999991
 30
0.0
 11
104.113
 21
115.3579999999999
 31
0.0
  0
LINE
  5
6E
  8
0
 62
     7
 10
104.113
 20
115.3579999999999
 30
0.0
 11
104.10899999999999
 21
115.47799999999989
 31
0.0
  0
LINE
  5
6F
  8
0
 62
     7
 10
104.10899999999999
 20
115.47799999999989
 30
0.0
 11
104.142
 21
115.5929999999999
 31
0.0
  0
LINE
  5
70
  8
0
 62
     7
 10
104.142
 20
115.5929999999999
 30
0.0
 11
104.2089999999999
 21
115.69199999999999
 31
0.0
  0
LINE
  5
71
  8
0
 62
     7
 10
104.2089999999999
 20
115.69199999999999
 30
0.0
 11
104.3029999999999
 21
115.76600000000001
 31
0.0
  0
LINE
  5
72
  8
0
 62
     7
 10
104.3029999999999
 20
115.76600000000001
 30
0.0
 11
104.376
 21
115.798
 31
0.0
  0
LINE
  5
73
  8
0
 62
     7
 10
104.376
 20
115.798
 30
0.0
 11
104.45099999999999
 21
115.812
 31
0.0
  0
LINE
  5
74
  8
0
 62
     7
 10
104.45099999999999
 20
115.812
 30
0.0
 11
104.529
 21
115.81100000000001
 31
0.0
  0
LINE
  5
75
  8
0
 62
     7
 10
104.529
 20
115.81100000000001
 30
0.0
 11
104.605
 21
115.795
 31
0.0
  0
LINE
  5
76
  8
0
 62
     7
 10
104.605
 20
115.795
 30
0.0
 11
104.676
 21
115.76299999999991
 31
0.0
  0
LINE
  5
77
  8
0
 62
     7
 10
104.676
 20
115.76299999999991
 30
0.0
 11
104.627
 21
115.67700000000001
 31
0.0
  0
LINE
  5
78
  8
0
 62
     7
 10
105.235
 20
115.5299999999999
 30
0.0
 11
105.187
 21
115.6139999999999
 31
0.0
  0
LINE
  5
79
  8
0
 62
     7
 10
105.187
 20
115.6139999999999
 30
0.0
 11
105.11199999999999
 21
115.67700000000001
 31
0.0
  0
LINE
  5
7A
  8
0
 62
     7
 10
105.11199999999999
 20
115.67700000000001
 30
0.0
 11
105.01899999999991
 21
115.70999999999999
 31
0.0
  0
LINE
  5
7B
  8
0
 62
     7
 10
105.01899999999991
 20
115.70999999999999
 30
0.0
 11
104.922
 21
115.70999999999999
 31
0.0
  0
LINE
  5
7C
  8
0
 62
     7
 10
104.922
 20
115.70999999999999
 30
0.0
 11
104.8279999999999
 21
115.67700000000001
 31
0.0
  0
LINE
  5
7D
  8
0
 62
     7
 10
104.8279999999999
 20
115.67700000000001
 30
0.0
 11
104.7549999999999
 21
115.6139999999999
 31
0.0
  0
LINE
  5
7E
  8
0
 62
     7
 10
104.7549999999999
 20
115.6139999999999
 30
0.0
 11
104.706
 21
115.5299999999999
 31
0.0
  0
LINE
  5
7F
  8
0
 62
     7
 10
104.706
 20
115.5299999999999
 30
0.0
 11
104.68899999999989
 21
115.43299999999989
 31
0.0
  0
LINE
  5
80
  8
0
 62
     7
 10
104.68899999999989
 20
115.43299999999989
 30
0.0
 11
104.706
 21
115.3359999999999
 31
0.0
  0
LINE
  5
81
  8
0
 62
     7
 10
104.706
 20
115.3359999999999
 30
0.0
 11
104.7549999999999
 21
115.252
 31
0.0
  0
LINE
  5
82
  8
0
 62
     7
 10
104.7549999999999
 20
115.252
 30
0.0
 11
104.83
 21
115.1899999999999
 31
0.0
  0
LINE
  5
83
  8
0
 62
     7
 10
104.83
 20
115.1899999999999
 30
0.0
 11
104.922
 21
115.155
 31
0.0
  0
LINE
  5
84
  8
0
 62
     7
 10
104.922
 20
115.155
 30
0.0
 11
105.01899999999991
 21
115.155
 31
0.0
  0
LINE
  5
85
  8
0
 62
     7
 10
105.01899999999991
 20
115.155
 30
0.0
 11
105.11199999999999
 21
115.1899999999999
 31
0.0
  0
LINE
  5
86
  8
0
 62
     7
 10
105.11199999999999
 20
115.1899999999999
 30
0.0
 11
105.187
 21
115.252
 31
0.0
  0
LINE
  5
87
  8
0
 62
     7
 10
105.187
 20
115.252
 30
0.0
 11
105.235
 21
115.3359999999999
 31
0.0
  0
LINE
  5
88
  8
0
 62
     7
 10
105.235
 20
115.3359999999999
 30
0.0
 11
105.251
 21
115.43299999999989
 31
0.0
  0
LINE
  5
89
  8
0
 62
     7
 10
105.251
 20
115.43299999999989
 30
0.0
 11
105.235
 21
115.5299999999999
 31
0.0
  0
LINE
  5
8A
  8
0
 62
     7
 10
105.352
 20
115.43299999999989
 30
0.0
 11
105.3309999999999
 21
115.3149999999999
 31
0.0
  0
LINE
  5
8B
  8
0
 62
     7
 10
105.3309999999999
 20
115.3149999999999
 30
0.0
 11
105.27799999999991
 21
115.209
 31
0.0
  0
LINE
  5
8C
  8
0
 62
     7
 10
105.27799999999991
 20
115.209
 30
0.0
 11
105.19499999999989
 21
115.124
 31
0.0
  0
LINE
  5
8D
  8
0
 62
     7
 10
105.19499999999989
 20
115.124
 30
0.0
 11
105.089
 21
115.06999999999999
 31
0.0
  0
LINE
  5
8E
  8
0
 62
     7
 10
105.089
 20
115.06999999999999
 30
0.0
 11
104.97
 21
115.05199999999989
 31
0.0
  0
LINE
  5
8F
  8
0
 62
     7
 10
104.97
 20
115.05199999999989
 30
0.0
 11
104.852
 21
115.06999999999999
 31
0.0
  0
LINE
  5
90
  8
0
 62
     7
 10
104.852
 20
115.06999999999999
 30
0.0
 11
104.747
 21
115.124
 31
0.0
  0
LINE
  5
91
  8
0
 62
     7
 10
104.747
 20
115.124
 30
0.0
 11
104.66200000000001
 21
115.209
 31
0.0
  0
LINE
  5
92
  8
0
 62
     7
 10
104.66200000000001
 20
115.209
 30
0.0
 11
104.6089999999999
 21
115.3149999999999
 31
0.0
  0
LINE
  5
93
  8
0
 62
     7
 10
104.6089999999999
 20
115.3149999999999
 30
0.0
 11
104.5889999999999
 21
115.43299999999989
 31
0.0
  0
LINE
  5
94
  8
0
 62
     7
 10
104.5889999999999
 20
115.43299999999989
 30
0.0
 11
104.6089999999999
 21
115.551
 31
0.0
  0
LINE
  5
95
  8
0
 62
     7
 10
104.6089999999999
 20
115.551
 30
0.0
 11
104.66200000000001
 21
115.657
 31
0.0
  0
LINE
  5
96
  8
0
 62
     7
 10
104.66200000000001
 20
115.657
 30
0.0
 11
104.747
 21
115.741
 31
0.0
  0
LINE
  5
97
  8
0
 62
     7
 10
104.747
 20
115.741
 30
0.0
 11
104.852
 21
115.795
 31
0.0
  0
LINE
  5
98
  8
0
 62
     7
 10
104.852
 20
115.795
 30
0.0
 11
104.97
 21
115.81399999999989
 31
0.0
  0
LINE
  5
99
  8
0
 62
     7
 10
104.97
 20
115.81399999999989
 30
0.0
 11
105.089
 21
115.795
 31
0.0
  0
LINE
  5
9A
  8
0
 62
     7
 10
105.089
 20
115.795
 30
0.0
 11
105.19499999999989
 21
115.741
 31
0.0
  0
LINE
  5
9B
  8
0
 62
     7
 10
105.19499999999989
 20
115.741
 30
0.0
 11
105.27799999999991
 21
115.657
 31
0.0
  0
LINE
  5
9C
  8
0
 62
     7
 10
105.27799999999991
 20
115.657
 30
0.0
 11
105.3309999999999
 21
115.551
 31
0.0
  0
LINE
  5
9D
  8
0
 62
     7
 10
105.3309999999999
 20
115.551
 30
0.0
 11
105.352
 21
115.43299999999989
 31
0.0
  0
LINE
  5
9E
  8
0
  6
AIGENLINE002
 62
     7
 10
62.288800000000002
 20
107.7919999999999
 30
0.0
 11
62.288800000000002
 21
112.3779999999999
 31
0.0
  0
LINE
  5
9F
  8
0
  6
AIGENLINE002
 62
     7
 10
77.288799999999995
 20
108.232
 30
0.0
 11
77.288799999999995
 21
111.584
 31
0.0
  0
ARC
  5
A0
  8
0
 62
     7
 10
105.6991
 20
169.19510299999999
 30
0.0
 40
0.129503
 50
272.06975999999997
 51
357.61282199999999
  0
ARC
  5
A1
  8
0
 62
     7
 10
34.003757999999998
 20
169.19502299999991
 30
0.0
 40
0.129408
 50
182.35340400000001
 51
268.12210599999997
  0
ARC
  5
A2
  8
0
 62
     7
 10
36.620519999999999
 20
152.0846709999999
 30
0.0
 40
0.519149
 50
182.126397
 51
267.9131339999999
  0
ARC
  5
A3
  8
0
 62
     7
 10
103.08292299999989
 20
152.0845239999999
 30
0.0
 40
0.5189960000000001
 50
272.07119099999989
 51
357.889318
  0
ARC
  5
A4
  8
0
 62
     7
 10
104.882848
 20
150.09471099999999
 30
0.0
 40
0.779718
 50
272.098545
 51
357.37290899999999
  0
ARC
  5
A5
  8
0
 62
     7
 10
34.819977000000002
 20
150.094933
 30
0.0
 40
0.7799470000000001
 50
182.64263099999999
 51
267.88595400000003
  0
ARC
  5
A6
  8
0
 62
     7
 10
83.313158000000001
 20
169.10330899999991
 30
0.0
 40
1.0388079999999991
 50
272.13488999999993
 51
357.92434100000003
  0
ARC
  5
A7
  8
0
 62
     7
 10
56.390019000000002
 20
169.103894
 30
0.0
 40
1.0394000000000001
 50
182.10672999999991
 51
267.85382599999991
  0
ARC
  5
A8
  8
0
 62
     7
 10
33.845320000000001
 20
149.36260599999989
 30
0.0
 40
1.298530999999999
 50
182.56509199999991
 51
267.91068200000001
  0
ARC
  5
A9
  8
0
 62
     7
 10
105.858437
 20
149.36178000000001
 30
0.0
 40
1.297688999999999
 50
272.07028700000001
 51
357.46977299999998
  0
ARC
  5
AA
  8
0
  6
AIGENLINE001
 62
     7
 10
62.30989799999999
 20
109.5906999999999
 30
0.0
 40
0.584128
 50
182.1095619999999
 51
267.92556400000001
  0
ARC
  5
AB
  8
0
  6
AIGENLINE001
 62
     7
 10
62.267691000000013
 20
109.59061799999991
 30
0.0
 40
0.584043
 50
272.06670600000001
 51
357.89820700000001
  0
ARC
  5
AC
  8
0
  6
AIGENLINE001
 62
     7
 10
77.65735699999999
 20
109.9559519999999
 30
0.0
 40
0.5735170000000001
 50
270.66040199999992
 51
329.35202199999998
  0
ARC
  5
AD
  8
0
  6
AIGENLINE001
 62
     7
 10
77.652141
 20
109.9447159999999
 30
0.0
 40
0.5724100000000001
 50
330.58580399999988
 51
29.414196
  0
ARC
  5
AE
  8
0
  6
AIGENLINE001
 62
     7
 10
77.657631999999992
 20
109.93395599999999
 30
0.0
 40
0.5730390000000001
 50
30.621109000000001
 51
89.366466000000017
  0
ARC
  5
AF
  8
0
  6
AIGENLINE001
 62
     7
 10
76.935061000000005
 20
109.922918
 30
0.0
 40
0.5844350000000002
 50
92.102397999999994
 51
177.8624749999999
  0
ARC
  5
B0
  8
0
  6
AIGENLINE001
 62
     7
 10
76.934735000000003
 20
109.9661879999999
 30
0.0
 40
0.584096
 50
182.106706
 51
267.92842100000001
  0
ARC
  5
B1
  8
0
  6
AIGENLINE001
 62
     7
 10
62.267618999999989
 20
110.2980529999999
 30
0.0
 40
0.5841180000000001
 50
2.1086070000000001
 51
87.926479999999984
  0
ARC
  5
B2
  8
0
  6
AIGENLINE001
 62
     7
 10
62.310194000000003
 20
110.297747
 30
0.0
 40
0.5844350000000002
 50
92.102397999999994
 51
177.8624749999999
  0
LINE
  5
B3
  8
0
 62
     7
 10
32.350999999999999
 20
172.62700000000001
 30
0.0
 11
32.350999999999999
 21
199.49199999999999
 31
0.0
  0
LINE
  5
B4
  8
0
 62
     7
 10
32.350999999999999
 20
171.81599999999989
 30
0.0
 11
32.548099999999991
 21
149.31200000000001
 31
0.0
  0
LINE
  5
B5
  8
0
 62
     7
 10
34.040900000000001
 20
150.059
 30
0.0
 11
33.851700000000001
 21
171.81599999999989
 31
0.0
  0
LINE
  5
B6
  8
0
 62
     7
 10
33.87789999999999
 20
169.2299999999999
 30
0.0
 11
33.873800000000003
 21
169.26199999999989
 31
0.0
  0
LINE
  5
B7
  8
0
 62
     7
 10
36.101700000000001
 20
169.06599999999989
 30
0.0
 11
36.101700000000001
 21
152.065
 31
0.0
  0
LINE
  5
B8
  8
0
 62
     7
 10
33.911000000000001
 20
169.17400000000001
 30
0.0
 11
33.890999999999998
 21
169.19900000000001
 31
0.0
  0
LINE
  5
B9
  8
0
 62
     7
 10
33.890999999999998
 20
169.19900000000001
 30
0.0
 11
33.87789999999999
 21
169.2299999999999
 31
0.0
  0
LINE
  5
BA
  8
0
 62
     7
 10
138.82099999999991
 20
98.870000000000005
 30
0.0
 11
138.82099999999991
 21
91.542599999999979
 31
0.0
  0
LINE
  5
BB
  8
0
 62
     7
 10
158.82199999999989
 20
98.870000000000005
 30
0.0
 11
158.82199999999989
 21
91.542599999999979
 31
0.0
  0
LINE
  5
BC
  8
0
 62
     7
 10
156.6109999999999
 20
91.657300000000006
 30
0.0
 11
158.82299999999989
 21
92.249899999999997
 31
0.0
  0
LINE
  5
BD
  8
0
 62
     7
 10
158.82299999999989
 20
92.249899999999997
 30
0.0
 11
156.6109999999999
 21
92.842500000000001
 31
0.0
  0
LINE
  5
BE
  8
0
 62
     7
 10
156.6109999999999
 20
92.842500000000001
 30
0.0
 11
156.6109999999999
 21
91.657300000000006
 31
0.0
  0
LINE
  5
BF
  8
0
 62
     7
 10
141.03200000000001
 20
92.827999999999989
 30
0.0
 11
138.81999999999991
 21
92.235399999999984
 31
0.0
  0
LINE
  5
C0
  8
0
 62
     7
 10
138.81999999999991
 20
92.235399999999984
 30
0.0
 11
141.03200000000001
 21
91.642899999999983
 31
0.0
  0
LINE
  5
C1
  8
0
 62
     7
 10
141.03200000000001
 20
91.642899999999983
 30
0.0
 11
141.03200000000001
 21
92.827999999999989
 31
0.0
  0
LINE
  5
C2
  8
0
 62
     7
 10
158.82199999999989
 20
92.242699999999999
 30
0.0
 11
138.82099999999991
 21
92.242699999999999
 31
0.0
  0
LINE
  5
C3
  8
0
 62
     7
 10
106.709
 20
148.06499999999991
 30
0.0
 11
116.07899999999989
 21
148.06499999999991
 31
0.0
  0
LINE
  5
C4
  8
0
 62
     7
 10
33.805900000000001
 20
148.06499999999991
 30
0.0
 11
105.898
 21
148.06499999999991
 31
0.0
  0
LINE
  5
C5
  8
0
 62
     7
 10
104.9109999999999
 20
149.316
 30
0.0
 11
34.791200000000003
 21
149.316
 31
0.0
  0
LINE
  5
C6
  8
0
 62
     7
 10
36.601599999999991
 20
151.566
 30
0.0
 11
103.102
 21
151.566
 31
0.0
  0
LINE
  5
C7
  8
0
 62
     7
 10
36.11099999999999
 20
151.96600000000001
 30
0.0
 11
103.592
 21
151.96600000000001
 31
0.0
  0
LINE
  5
C8
  8
0
 62
     7
 10
36.101700000000001
 20
153.21600000000001
 30
0.0
 11
103.602
 21
153.21600000000001
 31
0.0
  0
LINE
  5
C9
  8
0
 62
     7
 10
36.101700000000001
 20
153.61600000000001
 30
0.0
 11
103.602
 21
153.61600000000001
 31
0.0
  0
LINE
  5
CA
  8
0
 62
     7
 10
36.101700000000001
 20
154.86600000000001
 30
0.0
 11
103.602
 21
154.86600000000001
 31
0.0
  0
LINE
  5
CB
  8
0
 62
     7
 10
36.101700000000001
 20
155.26599999999991
 30
0.0
 11
103.602
 21
155.26599999999991
 31
0.0
  0
LINE
  5
CC
  8
0
 62
     7
 10
36.101700000000001
 20
156.51599999999991
 30
0.0
 11
103.602
 21
156.51599999999991
 31
0.0
  0
LINE
  5
CD
  8
0
 62
     7
 10
36.101700000000001
 20
156.91499999999999
 30
0.0
 11
103.602
 21
156.91499999999999
 31
0.0
  0
LINE
  5
CE
  8
0
 62
     7
 10
36.101700000000001
 20
158.166
 30
0.0
 11
103.602
 21
158.166
 31
0.0
  0
LINE
  5
CF
  8
0
 62
     7
 10
36.101700000000001
 20
158.565
 30
0.0
 11
103.602
 21
158.565
 31
0.0
  0
LINE
  5
D0
  8
0
 62
     7
 10
36.101700000000001
 20
159.816
 30
0.0
 11
103.602
 21
159.816
 31
0.0
  0
LINE
  5
D1
  8
0
 62
     7
 10
36.101700000000001
 20
160.21600000000001
 30
0.0
 11
103.602
 21
160.21600000000001
 31
0.0
  0
LINE
  5
D2
  8
0
 62
     7
 10
36.101700000000001
 20
161.46600000000001
 30
0.0
 11
103.602
 21
161.46600000000001
 31
0.0
  0
LINE
  5
D3
  8
0
 62
     7
 10
36.101700000000001
 20
161.86600000000001
 30
0.0
 11
103.602
 21
161.86600000000001
 31
0.0
  0
LINE
  5
D4
  8
0
 62
     7
 10
33.998800000000003
 20
169.13800000000001
 30
0.0
 11
33.965800000000002
 21
169.14299999999989
 31
0.0
  0
LINE
  5
D5
  8
0
 62
     7
 10
33.965800000000002
 20
169.14299999999989
 30
0.0
 11
33.936500000000002
 21
169.155
 31
0.0
  0
LINE
  5
D6
  8
0
 62
     7
 10
33.936500000000002
 20
169.155
 30
0.0
 11
33.911000000000001
 21
169.17400000000001
 31
0.0
  0
LINE
  5
D7
  8
0
 62
     7
 10
36.101700000000001
 20
163.11500000000001
 30
0.0
 11
103.602
 21
163.11500000000001
 31
0.0
  0
LINE
  5
D8
  8
0
 62
     7
 10
36.101700000000001
 20
163.5149999999999
 30
0.0
 11
103.602
 21
163.5149999999999
 31
0.0
  0
LINE
  5
D9
  8
0
 62
     7
 10
36.101700000000001
 20
164.7649999999999
 30
0.0
 11
103.602
 21
164.7649999999999
 31
0.0
  0
LINE
  5
DA
  8
0
 62
     7
 10
36.101700000000001
 20
165.16499999999999
 30
0.0
 11
103.602
 21
165.16499999999999
 31
0.0
  0
LINE
  5
DB
  8
0
 62
     7
 10
36.101700000000001
 20
166.416
 30
0.0
 11
103.602
 21
166.416
 31
0.0
  0
LINE
  5
DC
  8
0
 62
     7
 10
36.101700000000001
 20
166.81599999999989
 30
0.0
 11
103.602
 21
166.81599999999989
 31
0.0
  0
LINE
  5
DD
  8
0
 62
     7
 10
56.351100000000002
 20
168.06499999999991
 30
0.0
 11
83.351900000000001
 21
168.06499999999991
 31
0.0
  0
LINE
  5
DE
  8
0
 62
     7
 10
33.999499999999998
 20
169.06599999999989
 30
0.0
 11
105.70399999999989
 21
169.06599999999989
 31
0.0
  0
LINE
  5
DF
  8
0
 62
     7
 10
107.352
 20
171.81599999999989
 30
0.0
 11
32.350999999999999
 21
171.81599999999989
 31
0.0
  0
LINE
  5
E0
  8
0
 62
     7
 10
108.05200000000001
 20
171.81599999999989
 30
0.0
 11
116.07899999999989
 21
171.81599999999989
 31
0.0
  0
LINE
  5
E1
  8
0
 62
     7
 10
105.14100000000001
 20
198.2059999999999
 30
0.0
 11
107.35299999999989
 21
198.79900000000001
 31
0.0
  0
LINE
  5
E2
  8
0
 62
     7
 10
107.35299999999989
 20
198.79900000000001
 30
0.0
 11
105.14100000000001
 21
199.39199999999991
 31
0.0
  0
LINE
  5
E3
  8
0
 62
     7
 10
105.14100000000001
 20
199.39199999999991
 30
0.0
 11
105.14100000000001
 21
198.2059999999999
 31
0.0
  0
LINE
  5
E4
  8
0
 62
     7
 10
34.561399999999992
 20
199.3769999999999
 30
0.0
 11
32.349699999999999
 21
198.78399999999999
 31
0.0
  0
LINE
  5
E5
  8
0
 62
     7
 10
32.349699999999999
 20
198.78399999999999
 30
0.0
 11
34.561399999999992
 21
198.19200000000001
 31
0.0
  0
LINE
  5
E6
  8
0
 62
     7
 10
34.561399999999992
 20
198.19200000000001
 30
0.0
 11
34.561399999999992
 21
199.3769999999999
 31
0.0
  0
LINE
  5
E7
  8
0
 62
     7
 10
107.352
 20
198.792
 30
0.0
 11
32.350999999999999
 21
198.792
 31
0.0
  0
LINE
  5
E8
  8
0
 62
     7
 10
103.602
 20
169.06599999999989
 30
0.0
 11
103.602
 21
152.065
 31
0.0
  0
LINE
  5
E9
  8
0
 62
     7
 10
105.852
 20
171.81599999999989
 30
0.0
 11
105.66200000000001
 21
150.059
 31
0.0
  0
LINE
  5
EA
  8
0
 62
     7
 10
107.155
 20
149.31200000000001
 30
0.0
 11
107.352
 21
171.81599999999989
 31
0.0
  0
LINE
  5
EB
  8
0
 62
     7
 10
107.352
 20
172.62700000000001
 30
0.0
 11
107.352
 21
199.49199999999999
 31
0.0
  0
LINE
  5
EC
  8
0
 62
     7
 10
115.964
 20
169.6049999999999
 30
0.0
 11
115.372
 21
171.81700000000001
 31
0.0
  0
LINE
  5
ED
  8
0
 62
     7
 10
115.372
 20
171.81700000000001
 30
0.0
 11
114.779
 21
169.6049999999999
 31
0.0
  0
LINE
  5
EE
  8
0
 62
     7
 10
114.779
 20
169.6049999999999
 30
0.0
 11
115.964
 21
169.6049999999999
 31
0.0
  0
LINE
  5
EF
  8
0
 62
     7
 10
114.7939999999999
 20
150.27499999999989
 30
0.0
 11
115.386
 21
148.06399999999999
 31
0.0
  0
LINE
  5
F0
  8
0
 62
     7
 10
115.386
 20
148.06399999999999
 30
0.0
 11
115.979
 21
150.27499999999989
 31
0.0
  0
LINE
  5
F1
  8
0
 62
     7
 10
115.979
 20
150.27499999999989
 30
0.0
 11
114.7939999999999
 21
150.27499999999989
 31
0.0
  0
LINE
  5
F2
  8
0
 62
     7
 10
115.37899999999991
 20
171.81599999999989
 30
0.0
 11
115.37899999999991
 21
148.06499999999991
 31
0.0
  0
LINE
  5
F3
  8
0
 62
     7
 10
107.2799999999999
 20
116.19799999999999
 30
0.0
 11
107.27500000000001
 21
116.23099999999999
 31
0.0
  0
LINE
  5
F4
  8
0
 62
     7
 10
107.27500000000001
 20
116.23099999999999
 30
0.0
 11
107.262
 21
116.259
 31
0.0
  0
LINE
  5
F5
  8
0
 62
     7
 10
107.262
 20
116.259
 30
0.0
 11
107.242
 21
116.28399999999991
 31
0.0
  0
LINE
  5
F6
  8
0
 62
     7
 10
107.242
 20
116.28399999999991
 30
0.0
 11
107.21599999999999
 21
116.303
 31
0.0
  0
LINE
  5
F7
  8
0
 62
     7
 10
107.21599999999999
 20
116.303
 30
0.0
 11
107.1879999999999
 21
116.3149999999999
 31
0.0
  0
LINE
  5
F8
  8
0
 62
     7
 10
107.1879999999999
 20
116.3149999999999
 30
0.0
 11
107.155
 21
116.31999999999999
 31
0.0
  0
LINE
  5
F9
  8
0
 62
     7
 10
107.2799999999999
 20
116.19799999999999
 30
0.0
 11
107.31999999999989
 21
114.572
 31
0.0
  0
LINE
  5
FA
  8
0
 62
     7
 10
107.31999999999989
 20
114.572
 30
0.0
 11
107.3429999999999
 21
112.9459999999999
 31
0.0
  0
LINE
  5
FB
  8
0
 62
     7
 10
107.3429999999999
 20
112.9459999999999
 30
0.0
 11
107.352
 21
111.319
 31
0.0
  0
LINE
  5
FC
  8
0
 62
     7
 10
107.352
 20
111.319
 30
0.0
 11
107.3429999999999
 21
109.6929999999999
 31
0.0
  0
LINE
  5
FD
  8
0
 62
     7
 10
107.3429999999999
 20
109.6929999999999
 30
0.0
 11
107.31999999999989
 21
108.06699999999999
 31
0.0
  0
LINE
  5
FE
  8
0
 62
     7
 10
107.31999999999989
 20
108.06699999999999
 30
0.0
 11
107.2799999999999
 21
106.441
 31
0.0
  0
LINE
  5
FF
  8
0
 62
     7
 10
103.726
 20
106.194
 30
0.0
 11
103.73099999999999
 21
106.227
 31
0.0
  0
LINE
  5
100
  8
0
 62
     7
 10
103.73099999999999
 20
106.227
 30
0.0
 11
103.74299999999999
 21
106.25700000000001
 31
0.0
  0
LINE
  5
101
  8
0
 62
     7
 10
103.74299999999999
 20
106.25700000000001
 30
0.0
 11
103.76299999999991
 21
106.2829999999999
 31
0.0
  0
LINE
  5
102
  8
0
 62
     7
 10
103.76299999999991
 20
106.2829999999999
 30
0.0
 11
103.7889999999999
 21
106.3029999999999
 31
0.0
  0
LINE
  5
103
  8
0
 62
     7
 10
103.7889999999999
 20
106.3029999999999
 30
0.0
 11
103.818
 21
106.315
 31
0.0
  0
LINE
  5
104
  8
0
 62
     7
 10
103.818
 20
106.315
 30
0.0
 11
103.851
 21
106.319
 31
0.0
  0
LINE
  5
105
  8
0
 62
     7
 10
103.726
 20
102.194
 30
0.0
 11
103.726
 21
106.194
 31
0.0
  0
LINE
  5
106
  8
0
 62
     7
 10
103.601
 20
99.570099999999996
 30
0.0
 11
103.601
 21
102.06999999999989
 31
0.0
  0
LINE
  5
107
  8
0
 62
     7
 10
32.548099999999991
 20
116.31999999999999
 30
0.0
 11
32.515000000000001
 21
116.3149999999999
 31
0.0
  0
LINE
  5
108
  8
0
 62
     7
 10
32.515000000000001
 20
116.3149999999999
 30
0.0
 11
32.486400000000003
 21
116.303
 31
0.0
  0
LINE
  5
109
  8
0
 62
     7
 10
32.486400000000003
 20
116.303
 30
0.0
 11
32.460599999999992
 21
116.28399999999991
 31
0.0
  0
LINE
  5
10A
  8
0
 62
     7
 10
32.460599999999992
 20
116.28399999999991
 30
0.0
 11
32.440300000000001
 21
116.259
 31
0.0
  0
LINE
  5
10B
  8
0
 62
     7
 10
32.440300000000001
 20
116.259
 30
0.0
 11
32.427900000000001
 21
116.23099999999999
 31
0.0
  0
LINE
  5
10C
  8
0
 62
     7
 10
32.427900000000001
 20
116.23099999999999
 30
0.0
 11
32.422699999999992
 21
116.19799999999999
 31
0.0
  0
LINE
  5
10D
  8
0
 62
     7
 10
84.351299999999995
 20
100.3449999999999
 30
0.0
 11
84.351299999999995
 21
102.06999999999989
 31
0.0
  0
LINE
  5
10E
  8
0
 62
     7
 10
32.548099999999991
 20
116.31999999999999
 30
0.0
 11
107.155
 21
116.31999999999999
 31
0.0
  0
LINE
  5
10F
  8
0
 62
     7
 10
108.102
 20
106.31999999999989
 30
0.0
 11
114.71599999999999
 21
106.31999999999989
 31
0.0
  0
LINE
  5
110
  8
0
 62
     7
 10
108.102
 20
116.31999999999999
 30
0.0
 11
120.152
 21
116.31999999999999
 31
0.0
  0
LINE
  5
111
  8
0
  6
AIGENLINE002
 62
     7
 10
60.560000000000002
 20
109.9379999999999
 30
0.0
 11
63.9786
 21
109.9379999999999
 31
0.0
  0
LINE
  5
112
  8
0
  6
AIGENLINE002
 62
     7
 10
75.568600000000004
 20
109.9379999999999
 30
0.0
 11
78.986900000000006
 21
109.9379999999999
 31
0.0
  0
LINE
  5
113
  8
0
  6
AIGENLINE001
 62
     7
 10
77.664000000000001
 20
110.50699999999991
 30
0.0
 11
76.913600000000002
 21
110.50699999999991
 31
0.0
  0
LINE
  5
114
  8
0
 62
     7
 10
33.9161
 20
106.319
 30
0.0
 11
33.947499999999998
 21
106.32299999999989
 31
0.0
  0
LINE
  5
115
  8
0
 62
     7
 10
77.288799999999995
 20
187.983
 30
0.0
 11
77.288799999999995
 21
192.745
 31
0.0
  0
LINE
  5
116
  8
0
  6
AIGENLINE001
 62
     7
 10
76.913600000000002
 20
109.38200000000001
 30
0.0
 11
77.664000000000001
 21
109.38200000000001
 31
0.0
  0
LINE
  5
117
  8
0
 62
     7
 10
35.851300000000002
 20
106.319
 30
0.0
 11
107.155
 21
106.319
 31
0.0
  0
LINE
  5
118
  8
0
 62
     7
 10
33.976100000000002
 20
106.319
 30
0.0
 11
35.851300000000002
 21
106.319
 31
0.0
  0
LINE
  5
119
  8
0
 62
     7
 10
32.548099999999991
 20
106.319
 30
0.0
 11
33.92819999999999
 21
106.319
 31
0.0
  0
LINE
  5
11A
  8
0
 62
     7
 10
35.851300000000002
 20
106.319
 30
0.0
 11
35.884300000000003
 21
106.315
 31
0.0
  0
LINE
  5
11B
  8
0
 62
     7
 10
35.884300000000003
 20
106.315
 30
0.0
 11
35.914000000000001
 21
106.3029999999999
 31
0.0
  0
LINE
  5
11C
  8
0
 62
     7
 10
35.914000000000001
 20
106.3029999999999
 30
0.0
 11
35.939799999999998
 21
106.2829999999999
 31
0.0
  0
LINE
  5
11D
  8
0
 62
     7
 10
35.939799999999998
 20
106.2829999999999
 30
0.0
 11
35.959400000000002
 21
106.25700000000001
 31
0.0
  0
LINE
  5
11E
  8
0
 62
     7
 10
35.959400000000002
 20
106.25700000000001
 30
0.0
 11
35.971800000000002
 21
106.227
 31
0.0
  0
LINE
  5
11F
  8
0
 62
     7
 10
35.971800000000002
 20
106.227
 30
0.0
 11
35.976300000000002
 21
106.194
 31
0.0
  0
LINE
  5
120
  8
0
 62
     7
 10
103.601
 20
102.06999999999989
 30
0.0
 11
36.100999999999999
 21
102.06999999999989
 31
0.0
  0
LINE
  5
121
  8
0
 62
     7
 10
33.942700000000002
 20
106.3239999999999
 30
0.0
 11
33.976100000000002
 21
106.319
 31
0.0
  0
LINE
  5
122
  8
0
 62
     7
 10
103.601
 20
100.3449999999999
 30
0.0
 11
36.100999999999999
 21
100.3449999999999
 31
0.0
  0
LINE
  5
123
  8
0
 62
     7
 10
138.82099999999991
 20
100.3449999999999
 30
0.0
 11
156.57199999999989
 21
100.3449999999999
 31
0.0
  0
LINE
  5
124
  8
0
 62
     7
 10
138.82099999999991
 20
99.570099999999996
 30
0.0
 11
158.82199999999989
 21
99.570099999999996
 31
0.0
  0
LINE
  5
125
  8
0
 62
     7
 10
36.100999999999999
 20
99.570099999999996
 30
0.0
 11
103.601
 21
99.570099999999996
 31
0.0
  0
LINE
  5
126
  8
0
 62
     7
 10
104.6599999999999
 20
99.570099999999996
 30
0.0
 11
120.152
 21
99.570099999999996
 31
0.0
  0
LINE
  5
127
  8
0
 62
     7
 10
107.155
 20
106.319
 30
0.0
 11
107.1879999999999
 21
106.3239999999999
 31
0.0
  0
LINE
  5
128
  8
0
 62
     7
 10
107.1879999999999
 20
106.3239999999999
 30
0.0
 11
107.21599999999999
 21
106.336
 31
0.0
  0
LINE
  5
129
  8
0
 62
     7
 10
107.21599999999999
 20
106.336
 30
0.0
 11
107.242
 21
106.3549999999999
 31
0.0
  0
LINE
  5
12A
  8
0
 62
     7
 10
107.242
 20
106.3549999999999
 30
0.0
 11
107.262
 21
106.38
 31
0.0
  0
LINE
  5
12B
  8
0
 62
     7
 10
107.262
 20
106.38
 30
0.0
 11
107.27500000000001
 21
106.4079999999999
 31
0.0
  0
LINE
  5
12C
  8
0
 62
     7
 10
107.27500000000001
 20
106.4079999999999
 30
0.0
 11
107.2799999999999
 21
106.441
 31
0.0
  0
LINE
  5
12D
  8
0
 62
     7
 10
103.601
 20
102.06999999999989
 30
0.0
 11
103.63500000000001
 21
102.0739999999999
 31
0.0
  0
LINE
  5
12E
  8
0
 62
     7
 10
103.63500000000001
 20
102.0739999999999
 30
0.0
 11
103.664
 21
102.086
 31
0.0
  0
LINE
  5
12F
  8
0
 62
     7
 10
103.664
 20
102.086
 30
0.0
 11
103.68899999999989
 21
102.10599999999999
 31
0.0
  0
LINE
  5
130
  8
0
 62
     7
 10
103.68899999999989
 20
102.10599999999999
 30
0.0
 11
103.70999999999989
 21
102.13200000000001
 31
0.0
  0
LINE
  5
131
  8
0
 62
     7
 10
103.70999999999989
 20
102.13200000000001
 30
0.0
 11
103.7209999999999
 21
102.161
 31
0.0
  0
LINE
  5
132
  8
0
 62
     7
 10
103.7209999999999
 20
102.161
 30
0.0
 11
103.726
 21
102.194
 31
0.0
  0
LINE
  5
133
  8
0
  6
AIGENLINE001
 62
     7
 10
62.851300000000002
 20
109.569
 30
0.0
 11
62.851300000000002
 21
110.31999999999989
 31
0.0
  0
LINE
  5
134
  8
0
 62
     7
 10
62.288800000000002
 20
187.542
 30
0.0
 11
62.288800000000002
 21
192.745
 31
0.0
  0
LINE
  5
135
  8
0
  6
AIGENLINE001
 62
     7
 10
61.726199999999999
 20
110.31999999999989
 30
0.0
 11
61.726199999999999
 21
109.569
 31
0.0
  0
LINE
  5
136
  8
0
 62
     7
 10
64.499499999999998
 20
192.63099999999989
 30
0.0
 11
62.287700000000001
 21
192.0379999999999
 31
0.0
  0
LINE
  5
137
  8
0
 62
     7
 10
62.287700000000001
 20
192.0379999999999
 30
0.0
 11
64.499499999999998
 21
191.44499999999999
 31
0.0
  0
LINE
  5
138
  8
0
 62
     7
 10
64.499499999999998
 20
191.44499999999999
 30
0.0
 11
64.499499999999998
 21
192.63099999999989
 31
0.0
  0
LINE
  5
139
  8
0
 62
     7
 10
75.078100000000006
 20
191.46000000000001
 30
0.0
 11
77.289799999999985
 21
192.053
 31
0.0
  0
LINE
  5
13A
  8
0
 62
     7
 10
77.289799999999985
 20
192.053
 30
0.0
 11
75.078100000000006
 21
192.64500000000001
 31
0.0
  0
LINE
  5
13B
  8
0
 62
     7
 10
75.078100000000006
 20
192.64500000000001
 30
0.0
 11
75.078100000000006
 21
191.46000000000001
 31
0.0
  0
LINE
  5
13C
  8
0
 62
     7
 10
62.288800000000002
 20
192.0449999999999
 30
0.0
 11
77.288799999999995
 21
192.0449999999999
 31
0.0
  0
LINE
  5
13D
  8
0
 62
     7
 10
55.351300000000002
 20
100.3449999999999
 30
0.0
 11
55.351300000000002
 21
102.06999999999989
 31
0.0
  0
LINE
  5
13E
  8
0
 62
     7
 10
35.976300000000002
 20
102.194
 30
0.0
 11
35.981099999999998
 21
102.161
 31
0.0
  0
LINE
  5
13F
  8
0
 62
     7
 10
35.981099999999998
 20
102.161
 30
0.0
 11
35.993200000000002
 21
102.13200000000001
 31
0.0
  0
LINE
  5
140
  8
0
 62
     7
 10
35.993200000000002
 20
102.13200000000001
 30
0.0
 11
36.013199999999991
 21
102.10599999999999
 31
0.0
  0
LINE
  5
141
  8
0
 62
     7
 10
36.013199999999991
 20
102.10599999999999
 30
0.0
 11
36.038699999999999
 21
102.086
 31
0.0
  0
LINE
  5
142
  8
0
 62
     7
 10
36.038699999999999
 20
102.086
 30
0.0
 11
36.067999999999998
 21
102.0739999999999
 31
0.0
  0
LINE
  5
143
  8
0
 62
     7
 10
36.067999999999998
 20
102.0739999999999
 30
0.0
 11
36.100999999999999
 21
102.06999999999989
 31
0.0
  0
LINE
  5
144
  8
0
 62
     7
 10
36.100999999999999
 20
99.570099999999996
 30
0.0
 11
36.100999999999999
 21
102.06999999999989
 31
0.0
  0
LINE
  5
145
  8
0
 62
     7
 10
35.976300000000002
 20
102.194
 30
0.0
 11
35.976300000000002
 21
106.194
 31
0.0
  0
LINE
  5
146
  8
0
 62
     7
 10
32.422699999999992
 20
106.441
 30
0.0
 11
32.427900000000001
 21
106.4079999999999
 31
0.0
  0
LINE
  5
147
  8
0
 62
     7
 10
32.427900000000001
 20
106.4079999999999
 30
0.0
 11
32.440300000000001
 21
106.38
 31
0.0
  0
LINE
  5
148
  8
0
 62
     7
 10
32.440300000000001
 20
106.38
 30
0.0
 11
32.460599999999992
 21
106.3549999999999
 31
0.0
  0
LINE
  5
149
  8
0
 62
     7
 10
32.460599999999992
 20
106.3549999999999
 30
0.0
 11
32.486400000000003
 21
106.336
 31
0.0
  0
LINE
  5
14A
  8
0
 62
     7
 10
32.486400000000003
 20
106.336
 30
0.0
 11
32.515000000000001
 21
106.3239999999999
 31
0.0
  0
LINE
  5
14B
  8
0
 62
     7
 10
32.515000000000001
 20
106.3239999999999
 30
0.0
 11
32.548099999999991
 21
106.319
 31
0.0
  0
LINE
  5
14C
  8
0
 62
     7
 10
32.422699999999992
 20
106.441
 30
0.0
 11
32.383099999999999
 21
108.06699999999999
 31
0.0
  0
LINE
  5
14D
  8
0
 62
     7
 10
32.383099999999999
 20
108.06699999999999
 30
0.0
 11
32.35929999999999
 21
109.6929999999999
 31
0.0
  0
LINE
  5
14E
  8
0
 62
     7
 10
32.35929999999999
 20
109.6929999999999
 30
0.0
 11
32.350999999999999
 21
111.319
 31
0.0
  0
LINE
  5
14F
  8
0
 62
     7
 10
32.350999999999999
 20
111.319
 30
0.0
 11
32.35929999999999
 21
112.9459999999999
 31
0.0
  0
LINE
  5
150
  8
0
 62
     7
 10
32.35929999999999
 20
112.9459999999999
 30
0.0
 11
32.383099999999999
 21
114.572
 31
0.0
  0
LINE
  5
151
  8
0
 62
     7
 10
32.383099999999999
 20
114.572
 30
0.0
 11
32.422699999999992
 21
116.19799999999999
 31
0.0
  0
LINE
  5
152
  8
0
 62
     7
 10
113.43000000000001
 20
108.5299999999999
 30
0.0
 11
114.023
 21
106.318
 31
0.0
  0
LINE
  5
153
  8
0
 62
     7
 10
114.023
 20
106.318
 30
0.0
 11
114.61499999999999
 21
108.5299999999999
 31
0.0
  0
LINE
  5
154
  8
0
 62
     7
 10
114.61499999999999
 20
108.5299999999999
 30
0.0
 11
113.43000000000001
 21
108.5299999999999
 31
0.0
  0
LINE
  5
155
  8
0
 62
     7
 10
114.6009999999999
 20
114.1089999999999
 30
0.0
 11
114.0079999999999
 21
116.321
 31
0.0
  0
LINE
  5
156
  8
0
 62
     7
 10
114.0079999999999
 20
116.321
 30
0.0
 11
113.416
 21
114.1089999999999
 31
0.0
  0
LINE
  5
157
  8
0
 62
     7
 10
113.416
 20
114.1089999999999
 30
0.0
 11
114.6009999999999
 21
114.1089999999999
 31
0.0
  0
LINE
  5
158
  8
0
 62
     7
 10
114.0149999999999
 20
106.31999999999989
 30
0.0
 11
114.0149999999999
 21
116.31999999999999
 31
0.0
  0
LINE
  5
159
  8
0
 62
     7
 10
118.866
 20
101.78
 30
0.0
 11
119.459
 21
99.568700000000021
 31
0.0
  0
LINE
  5
15A
  8
0
 62
     7
 10
119.459
 20
99.568700000000021
 30
0.0
 11
120.0509999999999
 21
101.78
 31
0.0
  0
LINE
  5
15B
  8
0
 62
     7
 10
120.0509999999999
 20
101.78
 30
0.0
 11
118.866
 21
101.78
 31
0.0
  0
LINE
  5
15C
  8
0
 62
     7
 10
120.03700000000001
 20
114.1089999999999
 30
0.0
 11
119.4439999999999
 21
116.321
 31
0.0
  0
LINE
  5
15D
  8
0
 62
     7
 10
119.4439999999999
 20
116.321
 30
0.0
 11
118.852
 21
114.1089999999999
 31
0.0
  0
LINE
  5
15E
  8
0
 62
     7
 10
118.852
 20
114.1089999999999
 30
0.0
 11
120.03700000000001
 21
114.1089999999999
 31
0.0
  0
LINE
  5
15F
  8
0
 62
     7
 10
119.452
 20
99.570099999999996
 30
0.0
 11
119.452
 21
116.31999999999999
 31
0.0
  0
LINE
  5
160
  8
0
 62
     7
 10
135.071
 20
105.06999999999989
 30
0.0
 11
135.071
 21
116.31999999999999
 31
0.0
  0
LINE
  5
161
  8
0
 62
     7
 10
156.57199999999989
 20
100.3449999999999
 30
0.0
 11
156.57199999999989
 21
100.819
 31
0.0
  0
LINE
  5
162
  8
0
 62
     7
 10
156.072
 20
100.819
 30
0.0
 11
156.072
 21
105.06999999999989
 31
0.0
  0
LINE
  5
163
  8
0
 62
     7
 10
138.82099999999991
 20
99.570099999999996
 30
0.0
 11
138.82099999999991
 21
100.3449999999999
 31
0.0
  0
LINE
  5
164
  8
0
 62
     7
 10
158.82199999999989
 20
99.570099999999996
 30
0.0
 11
158.82199999999989
 21
116.31999999999999
 31
0.0
  0
LINE
  5
165
  8
0
 62
     7
 10
135.071
 20
116.31999999999999
 30
0.0
 11
158.82199999999989
 21
116.31999999999999
 31
0.0
  0
LINE
  5
166
  8
0
 62
     7
 10
156.072
 20
100.819
 30
0.0
 11
158.82199999999989
 21
100.819
 31
0.0
  0
LINE
  5
167
  8
0
 62
     7
 10
135.071
 20
105.06999999999989
 30
0.0
 11
158.82199999999989
 21
105.06999999999989
 31
0.0
  0
LINE
  5
168
  8
0
 62
     7
 10
61.875
 20
171.81599999999989
 30
0.0
 11
62.288800000000002
 21
171.81599999999989
 31
0.0
  0
LINE
  5
169
  8
0
 62
     7
 10
62.288800000000002
 20
171.81599999999989
 30
0.0
 11
62.70109999999999
 21
171.81599999999989
 31
0.0
  0
LINE
  5
16A
  8
0
  6
AIGENLINE002
 62
     7
 10
62.288800000000002
 20
171.15700000000001
 30
0.0
 11
62.288800000000002
 21
186.79499999999999
 31
0.0
  0
LINE
  5
16B
  8
0
 62
     7
 10
61.875
 20
171.81599999999989
 30
0.0
 11
61.875
 21
184.28299999999999
 31
0.0
  0
LINE
  5
16C
  8
0
 62
     7
 10
62.70109999999999
 20
171.81599999999989
 30
0.0
 11
62.70109999999999
 21
184.28299999999999
 31
0.0
  0
LINE
  5
16D
  8
0
 62
     7
 10
61.5381
 20
183.35400000000001
 30
0.0
 11
63.0381
 21
183.8829999999999
 31
0.0
  0
LINE
  5
16E
  8
0
 62
     7
 10
61.5381
 20
182.113
 30
0.0
 11
63.0381
 21
182.64099999999991
 31
0.0
  0
LINE
  5
16F
  8
0
 62
     7
 10
61.5381
 20
180.8709999999999
 30
0.0
 11
63.0381
 21
181.40000000000001
 31
0.0
  0
LINE
  5
170
  8
0
 62
     7
 10
61.5381
 20
179.63
 30
0.0
 11
63.0381
 21
180.1579999999999
 31
0.0
  0
LINE
  5
171
  8
0
 62
     7
 10
61.5381
 20
178.38800000000001
 30
0.0
 11
63.0381
 21
178.917
 31
0.0
  0
LINE
  5
172
  8
0
 62
     7
 10
61.5381
 20
177.1459999999999
 30
0.0
 11
63.0381
 21
177.6759999999999
 31
0.0
  0
LINE
  5
173
  8
0
 62
     7
 10
61.5381
 20
175.905
 30
0.0
 11
63.0381
 21
176.43299999999991
 31
0.0
  0
LINE
  5
174
  8
0
 62
     7
 10
61.875
 20
184.28299999999999
 30
0.0
 11
62.288800000000002
 21
185.56599999999989
 31
0.0
  0
LINE
  5
175
  8
0
 62
     7
 10
62.288800000000002
 20
185.56599999999989
 30
0.0
 11
62.70109999999999
 21
184.28299999999999
 31
0.0
  0
LINE
  5
176
  8
0
 62
     7
 10
61.875
 20
175.56499999999991
 30
0.0
 11
62.70109999999999
 21
175.56499999999991
 31
0.0
  0
LINE
  5
177
  8
0
 62
     7
 10
76.875
 20
171.81599999999989
 30
0.0
 11
77.288799999999995
 21
171.81599999999989
 31
0.0
  0
LINE
  5
178
  8
0
 62
     7
 10
77.288799999999995
 20
171.81599999999989
 30
0.0
 11
77.7012
 21
171.81599999999989
 31
0.0
  0
LINE
  5
179
  8
0
  6
AIGENLINE002
 62
     7
 10
77.288799999999995
 20
171.15700000000001
 30
0.0
 11
77.288799999999995
 21
186.79499999999999
 31
0.0
  0
LINE
  5
17A
  8
0
 62
     7
 10
76.875
 20
171.81599999999989
 30
0.0
 11
76.875
 21
184.28299999999999
 31
0.0
  0
LINE
  5
17B
  8
0
 62
     7
 10
77.7012
 20
171.81599999999989
 30
0.0
 11
77.7012
 21
184.28299999999999
 31
0.0
  0
LINE
  5
17C
  8
0
 62
     7
 10
76.5381
 20
183.35400000000001
 30
0.0
 11
78.0381
 21
183.8829999999999
 31
0.0
  0
LINE
  5
17D
  8
0
 62
     7
 10
76.5381
 20
182.113
 30
0.0
 11
78.0381
 21
182.64099999999991
 31
0.0
  0
LINE
  5
17E
  8
0
 62
     7
 10
76.5381
 20
180.8709999999999
 30
0.0
 11
78.0381
 21
181.40000000000001
 31
0.0
  0
LINE
  5
17F
  8
0
 62
     7
 10
76.5381
 20
179.63
 30
0.0
 11
78.0381
 21
180.1579999999999
 31
0.0
  0
LINE
  5
180
  8
0
 62
     7
 10
76.5381
 20
178.38800000000001
 30
0.0
 11
78.0381
 21
178.917
 31
0.0
  0
LINE
  5
181
  8
0
 62
     7
 10
76.5381
 20
177.1459999999999
 30
0.0
 11
78.0381
 21
177.6759999999999
 31
0.0
  0
LINE
  5
182
  8
0
 62
     7
 10
76.5381
 20
175.905
 30
0.0
 11
78.0381
 21
176.43299999999991
 31
0.0
  0
LINE
  5
183
  8
0
 62
     7
 10
76.875
 20
184.28299999999999
 30
0.0
 11
77.288799999999995
 21
185.56599999999989
 31
0.0
  0
LINE
  5
184
  8
0
 62
     7
 10
77.288799999999995
 20
185.56599999999989
 30
0.0
 11
77.7012
 21
184.28299999999999
 31
0.0
  0
LINE
  5
185
  8
0
 62
     7
 10
76.875
 20
175.56499999999991
 30
0.0
 11
77.7012
 21
175.56499999999991
 31
0.0
  0
LINE
  5
186
  8
0
 62
     7
 10
158.82199999999989
 20
110.352
 30
0.0
 11
158.82199999999989
 21
109.9379999999999
 31
0.0
  0
LINE
  5
187
  8
0
 62
     7
 10
158.82199999999989
 20
109.9379999999999
 30
0.0
 11
158.82199999999989
 21
109.526
 31
0.0
  0
LINE
  5
188
  8
0
  6
AIGENLINE002
 62
     7
 10
157.37499999999989
 20
109.9379999999999
 30
0.0
 11
173.8009999999999
 21
109.9379999999999
 31
0.0
  0
LINE
  5
189
  8
0
 62
     7
 10
158.82199999999989
 20
110.352
 30
0.0
 11
171.28899999999999
 21
110.352
 31
0.0
  0
LINE
  5
18A
  8
0
 62
     7
 10
158.82199999999989
 20
109.526
 30
0.0
 11
171.28899999999999
 21
109.526
 31
0.0
  0
LINE
  5
18B
  8
0
 62
     7
 10
170.36000000000001
 20
110.68899999999989
 30
0.0
 11
170.88900000000001
 21
109.18899999999999
 31
0.0
  0
LINE
  5
18C
  8
0
 62
     7
 10
169.119
 20
110.68899999999989
 30
0.0
 11
169.64699999999999
 21
109.18899999999999
 31
0.0
  0
LINE
  5
18D
  8
0
 62
     7
 10
167.87700000000001
 20
110.68899999999989
 30
0.0
 11
168.40599999999989
 21
109.18899999999999
 31
0.0
  0
LINE
  5
18E
  8
0
 62
     7
 10
166.636
 20
110.68899999999989
 30
0.0
 11
167.16399999999999
 21
109.18899999999999
 31
0.0
  0
LINE
  5
18F
  8
0
 62
     7
 10
165.39400000000001
 20
110.68899999999989
 30
0.0
 11
165.92299999999989
 21
109.18899999999999
 31
0.0
  0
LINE
  5
190
  8
0
 62
     7
 10
164.15199999999999
 20
110.68899999999989
 30
0.0
 11
164.6809999999999
 21
109.18899999999999
 31
0.0
  0
LINE
  5
191
  8
0
 62
     7
 10
162.911
 20
110.68899999999989
 30
0.0
 11
163.43899999999991
 21
109.18899999999999
 31
0.0
  0
LINE
  5
192
  8
0
 62
     7
 10
171.28899999999999
 20
110.352
 30
0.0
 11
172.572
 21
109.9379999999999
 31
0.0
  0
LINE
  5
193
  8
0
 62
     7
 10
172.572
 20
109.9379999999999
 30
0.0
 11
171.28899999999999
 21
109.526
 31
0.0
  0
LINE
  5
194
  8
0
 62
     7
 10
162.57099999999991
 20
110.352
 30
0.0
 11
162.57099999999991
 21
109.526
 31
0.0
  0
LINE
  5
195
  8
0
 62
     7
 10
168.887
 20
112.967
 30
0.0
 11
169.119
 21
110.68899999999989
 31
0.0
  0
LINE
  5
196
  8
0
 62
     7
 10
169.119
 20
110.68899999999989
 30
0.0
 11
167.77799999999999
 21
112.545
 31
0.0
  0
LINE
  5
197
  8
0
 62
     7
 10
167.77799999999999
 20
112.545
 30
0.0
 11
168.887
 21
112.967
 31
0.0
  0
LINE
  5
198
  8
0
 62
     7
 10
169.125
 20
110.6929999999999
 30
0.0
 11
163.999
 21
124.13799999999991
 31
0.0
  0
LINE
  5
199
  8
0
 62
     7
 10
163.999
 20
124.13799999999991
 30
0.0
 11
125.627
 21
124.13799999999991
 31
0.0
  0
TEXT
  5
19A
  8
_________2
 62
     7
 10
109.179
 20
24.226099999999999
 30
0.0
 40
3.9357000000000002
  1
エディション11 シェルフ
 41
0.5
  0
LINE
  5
19B
  8
_________2
 62
     7
 10
205.30099999999999
 20
127.411
 30
0.0
 11
183.55099999999999
 21
127.411
 31
0.0
  0
LINE
  5
19C
  8
_________2
 62
     7
 10
100.2999999999999
 20
-4.0910799999999998
 30
0.0
 11
100.2999999999999
 21
-21.070999999999991
 31
0.0
  0
LINE
  5
19D
  8
_________2
 62
     7
 10
100.2999999999999
 20
275.93099999999993
 30
0.0
 11
100.2999999999999
 21
258.911
 31
0.0
  0
LINE
  5
19E
  8
_________2
 62
     7
 10
17.049199999999988
 20
127.411
 30
0.0
 11
-4.7012099999999988
 21
127.411
 31
0.0
  0
LINE
  5
19F
  8
_________2
 62
     7
 10
76.740700000000004
 20
29.8047
 30
0.0
 11
74.554400000000001
 21
29.8047
 31
0.0
  0
LINE
  5
1A0
  8
_________2
 62
     7
 10
77.2333
 20
29.8047
 30
0.0
 11
76.981099999999984
 21
29.8047
 31
0.0
  0
LINE
  5
1A1
  8
_________2
 62
     7
 10
77.725999999999999
 20
29.8047
 30
0.0
 11
80.650899999999993
 21
29.8047
 31
0.0
  0
LINE
  5
1A2
  8
_________2
 62
     7
 10
77.2333
 20
29.8047
 30
0.0
 11
77.485500000000002
 21
29.8047
 31
0.0
  0
LINE
  5
1A3
  8
_________2
 62
     7
 10
70.837100000000007
 20
29.8047
 30
0.0
 11
68.650199999999998
 21
29.8047
 31
0.0
  0
LINE
  5
1A4
  8
_________2
 62
     7
 10
71.329099999999997
 20
29.8047
 30
0.0
 11
71.077600000000004
 21
29.8047
 31
0.0
  0
LINE
  5
1A5
  8
_________2
 62
     7
 10
71.329099999999997
 20
30.2974
 30
0.0
 11
71.329099999999997
 21
32.484400000000001
 31
0.0
  0
LINE
  5
1A6
  8
_________2
 62
     7
 10
71.329099999999997
 20
29.8047
 30
0.0
 11
71.329099999999997
 21
30.057300000000001
 31
0.0
  0
LINE
  5
1A7
  8
_________2
 62
     7
 10
71.821700000000007
 20
29.8047
 30
0.0
 11
74.008700000000005
 21
29.8047
 31
0.0
  0
LINE
  5
1A8
  8
_________2
 62
     7
 10
71.329099999999997
 20
29.8047
 30
0.0
 11
71.581299999999985
 21
29.8047
 31
0.0
  0
LINE
  5
1A9
  8
_________2
 62
     7
 10
71.329099999999997
 20
29.312799999999999
 30
0.0
 11
71.329099999999997
 21
27.126200000000001
 31
0.0
  0
LINE
  5
1AA
  8
_________2
 62
     7
 10
71.329099999999997
 20
29.8047
 30
0.0
 11
71.329099999999997
 21
29.5532
 31
0.0
  0
LINE
  5
1AB
  8
_________2
 62
     7
 10
75.040199999999999
 20
28.5852
 30
0.0
 11
80.218199999999996
 21
27.720400000000001
 31
0.0
  0
LINE
  5
1AC
  8
_________2
 62
     7
 10
75.040199999999999
 20
31.024699999999999
 30
0.0
 11
80.218199999999996
 21
31.8901
 31
0.0
  0
LINE
  5
1AD
  8
_________2
 62
     7
 10
80.218199999999996
 20
27.720400000000001
 30
0.0
 11
80.218199999999996
 21
31.8901
 31
0.0
  0
LINE
  5
1AE
  8
_________2
 62
     7
 10
75.040199999999999
 20
28.5852
 30
0.0
 11
75.040199999999999
 21
31.024699999999999
 31
0.0
  0
ARC
  5
1AF
  8
_________2
 62
     7
 10
71.282501999999994
 20
29.757801000000001
 30
0.0
 40
1.267714
 50
2.1220840000000001
 51
87.894083999999992
  0
ARC
  5
1B0
  8
_________2
 62
     7
 10
71.375640000000004
 20
29.758545999999999
 30
0.0
 40
1.2669680000000001
 50
92.105782999999988
 51
177.91037
  0
ARC
  5
1B1
  8
_________2
 62
     7
 10
71.376013999999998
 20
29.851671
 30
0.0
 40
1.2673680000000001
 50
182.12203600000001
 51
267.877993
  0
ARC
  5
1B2
  8
_________2
 62
     7
 10
71.282195999999999
 20
29.852347999999999
 30
0.0
 40
1.2680439999999991
 50
272.11916400000001
 51
357.84848499999993
  0
ARC
  5
1B3
  8
_________2
 62
     7
 10
71.248716999999985
 20
29.724731999999989
 30
0.0
 40
2.1668310000000002
 50
2.1161439999999989
 51
87.874379000000005
  0
ARC
  5
1B4
  8
_________2
 62
     7
 10
71.408756000000011
 20
29.726146
 30
0.0
 40
2.165392999999999
 50
92.108508999999998
 51
177.91986499999999
  0
ARC
  5
1B5
  8
_________2
 62
     7
 10
71.409094999999994
 20
29.884751999999999
 30
0.0
 40
2.1657829999999998
 50
182.117133
 51
267.88289700000001
  0
ARC
  5
1B6
  8
_________2
 62
     7
 10
71.249115000000003
 20
29.885429999999989
 30
0.0
 40
2.1664590000000001
 50
272.11546800000002
 51
357.86560400000002
  0
TEXT
  5
1B7
  8
_________2
 62
     7
 10
104.605
 20
1.6794899999999999
 30
0.0
 40
3.0923400000000001
  1
図番
 41
0.5
  0
LINE
  5
1B8
  8
_________2
 62
     7
 10
103.55
 20
5.9087199999999989
 30
0.0
 11
183.55099999999999
 21
5.9087199999999989
 31
0.0
  0
TEXT
  5
1B9
  8
_________2
 62
     7
 10
104.605
 20
11.679299999999991
 30
0.0
 40
3.0923400000000001
  1
品番
 41
0.5
  0
TEXT
  5
1BA
  8
_________2
 62
     7
 10
104.605
 20
31.8184
 30
0.0
 40
3.0923400000000001
  1
名称
 41
0.5
  0
TEXT
  5
1BB
  8
_________2
 62
     7
 10
91.844758333333345
 20
26.822299999999998
 30
0.0
 40
3.6545800000000002
  1
mm
 41
0.5
 72
     1
 11
93.367500000000007
 21
26.822299999999998
 31
0.0
  0
TEXT
  5
1BC
  8
_________2
 62
     7
 10
85.642899999999983
 20
31.8184
 30
0.0
 40
3.0923400000000001
  1
単位
 41
0.5
  0
TEXT
  5
1BD
  8
_________2
 62
     7
 10
85.642899999999983
 20
19.410799999999991
 30
0.0
 40
3.0923400000000001
  1
尺度
 41
0.5
  0
TEXT
  5
1BE
  8
_________2
 62
     7
 10
90.548458666666676
 20
13.218199999999991
 30
0.0
 40
3.6545800000000002
  1
1 ： 4
 41
0.5
 72
     1
 11
93.959400000000016
 21
13.218199999999991
 31
0.0
  0
TEXT
  5
1BF
  8
_________2
 62
     7
 10
137.97442499999991
 20
9.1082000000000001
 30
0.0
 40
3.9357000000000002
  1
KC11158
 41
0.5
 72
     1
 11
143.55000000000001
 21
9.1082000000000001
 31
0.0
  0
TEXT
  5
1C0
  8
_________2
 62
     7
 10
137.97442499999991
 20
-0.8926299999999999
 30
0.0
 40
3.9357000000000002
  1
KC11158
 41
0.5
 72
     1
 11
143.55000000000001
 21
-0.8926299999999999
 31
0.0
  0
TEXT
  5
1C1
  8
_________2
 62
     7
 10
39.364090666666669
 20
13.603400000000001
 30
0.0
 40
3.6545800000000002
  1
石原
 41
0.5
 72
     1
 11
41.313200000000002
 21
13.603400000000001
 31
0.0
  0
TEXT
  5
1C2
  8
_________2
 62
     7
 10
20.790090666666661
 20
13.603400000000001
 30
0.0
 40
3.6545800000000002
  1
菅原
 41
0.5
 72
     1
 11
22.73919999999999
 21
13.603400000000001
 31
0.0
  0
TEXT
  5
1C3
  8
_________2
 62
     7
 10
67.785399999999996
 20
13.218199999999991
 30
0.0
 40
3.6545800000000002
  1
11.10.25
 41
0.5
  0
TEXT
  5
1C4
  8
_________2
 62
     7
 10
66.592699999999994
 20
19.410799999999991
 30
0.0
 40
3.0923400000000001
  1
日付
 41
0.5
  0
TEXT
  5
1C5
  8
_________2
 62
     7
 10
29.638999999999999
 20
19.410799999999991
 30
0.0
 40
3.0923400000000001
  1
検図
 41
0.5
  0
TEXT
  5
1C6
  8
_________2
 62
     7
 10
18.020700000000001
 20
5.21143
 30
0.0
 40
3.0923400000000001
  1
備考
 41
0.5
  0
TEXT
  5
1C7
  8
_________2
 62
     7
 10
18.020700000000001
 20
19.410799999999991
 30
0.0
 40
3.0923400000000001
  1
製図
 41
0.5
  0
TEXT
  5
1C8
  8
_________2
 62
     7
 10
23.788165333333328
 20
27.936800000000002
 30
0.0
 40
4.4979399999999989
  1
セラトレーディング株式会社
 41
0.5
 72
     1
 11
41.180199999999999
 21
27.936800000000002
 31
0.0
  0
LINE
  5
1C9
  8
_________2
 62
     7
 10
183.55099999999999
 20
-4.0910799999999998
 30
0.0
 11
17.049199999999988
 21
-4.0910799999999998
 31
0.0
  0
LINE
  5
1CA
  8
_________2
 62
     7
 10
17.049199999999988
 20
-4.0910799999999998
 30
0.0
 11
17.049199999999988
 21
258.911
 31
0.0
  0
LINE
  5
1CB
  8
_________2
 62
     7
 10
17.049199999999988
 20
258.911
 30
0.0
 11
183.55099999999999
 21
258.911
 31
0.0
  0
LINE
  5
1CC
  8
_________2
 62
     7
 10
183.55099999999999
 20
258.911
 30
0.0
 11
183.55099999999999
 21
-4.0910799999999998
 31
0.0
  0
LINE
  5
1CD
  8
_________2
 62
     7
 10
65.549599999999998
 20
9.4092999999999982
 30
0.0
 11
65.549599999999998
 21
35.909100000000002
 31
0.0
  0
LINE
  5
1CE
  8
_________2
 62
     7
 10
84.549400000000006
 20
9.4092999999999982
 30
0.0
 11
84.549400000000006
 21
35.909100000000002
 31
0.0
  0
LINE
  5
1CF
  8
_________2
 62
     7
 10
103.55
 20
-4.0910799999999998
 30
0.0
 11
103.55
 21
35.909100000000002
 31
0.0
  0
LINE
  5
1D0
  8
_________2
 62
     7
 10
28.548999999999999
 20
9.4092999999999982
 30
0.0
 11
28.548999999999999
 21
23.409199999999998
 31
0.0
  0
LINE
  5
1D1
  8
_________2
 62
     7
 10
17.049199999999988
 20
9.4092999999999982
 30
0.0
 11
103.55
 21
9.4092999999999982
 31
0.0
  0
LINE
  5
1D2
  8
_________2
 62
     7
 10
17.049199999999988
 20
23.409199999999998
 30
0.0
 11
103.55
 21
23.409199999999998
 31
0.0
  0
LINE
  5
1D3
  8
_________2
 62
     7
 10
103.55
 20
15.9085
 30
0.0
 11
183.55099999999999
 21
15.9085
 31
0.0
  0
LINE
  5
1D4
  8
_________2
 62
     7
 10
17.049199999999988
 20
35.909100000000002
 30
0.0
 11
183.55099999999999
 21
35.909100000000002
 31
0.0
  0
ENDSEC
  0
EOF
