  0
SECTION
  2
HEADER
  9
$ACADVER
  1
AC1009
  9
$INSBASE
 10
0.0
 20
0.0
 30
0.0
  9
$EXTMIN
 10
-4.7012099999999988
 20
-21.070999999999991
 30
0.0
  9
$EXTMAX
 10
205.30099999999999
 20
275.93099999999993
 30
0.0
  9
$LIMMIN
 10
0.0
 20
0.0
  9
$LIMMAX
 10
12.0
 20
9.0
  9
$ORTHOMODE
 70
     0
  9
$REGENMODE
 70
     1
  9
$FILLMODE
 70
     1
  9
$QTEXTMODE
 70
     0
  9
$MIRRTEXT
 70
     1
  9
$DRAGMODE
 70
     2
  9
$LTSCALE
 40
1.0
  9
$OSMODE
 70
    37
  9
$ATTMODE
 70
     1
  9
$TEXTSIZE
 40
0.0
  9
$TRACEWID
 40
0.05
  9
$TEXTSTYLE
  7
STANDARD
  9
$CLAYER
  8
0
  9
$CELTYPE
  6
CONTINUOUS
  9
$CECOLOR
 62
   256
  9
$DIMSCALE
 40
1.0
  9
$DIMASZ
 40
0.18
  9
$DIMEXO
 40
0.0625
  9
$DIMDLI
 40
0.38
  9
$DIMRND
 40
0.0
  9
$DIMDLE
 40
0.0
  9
$DIMEXE
 40
0.18
  9
$DIMTP
 40
0.0
  9
$DIMTM
 40
0.0
  9
$DIMTXT
 40
0.18
  9
$DIMCEN
 40
0.09
  9
$DIMTSZ
 40
0.0
  9
$DIMTOL
 70
     0
  9
$DIMLIM
 70
     0
  9
$DIMTIH
 70
     1
  9
$DIMTOH
 70
     1
  9
$DIMSE1
 70
     0
  9
$DIMSE2
 70
     0
  9
$DIMTAD
 70
     0
  9
$DIMZIN
 70
     0
  9
$DIMBLK
  1

  9
$DIMASO
 70
     1
  9
$DIMSHO
 70
     1
  9
$DIMPOST
  1

  9
$DIMAPOST
  1

  9
$DIMALT
 70
     0
  9
$DIMALTD
 70
     2
  9
$DIMALTF
 40
25.399999999999999
  9
$DIMLFAC
 40
1.0
  9
$DIMTOFL
 70
     0
  9
$DIMTVP
 40
0.0
  9
$DIMTIX
 70
     0
  9
$DIMSOXD
 70
     0
  9
$DIMSAH
 70
     0
  9
$DIMBLK1
  1

  9
$DIMBLK2
  1

  9
$DIMSTYLE
  2
STANDARD
  9
$DIMCLRD
 70
     0
  9
$DIMCLRE
 70
     0
  9
$DIMCLRT
 70
     0
  9
$DIMTFAC
 40
1.0
  9
$DIMGAP
 40
0.09
  9
$LUNITS
 70
     2
  9
$LUPREC
 70
     4
  9
$SKETCHINC
 40
0.1
  9
$FILLETRAD
 40
0.0
  9
$AUNITS
 70
     0
  9
$AUPREC
 70
     0
  9
$MENU
  1
.
  9
$ELEVATION
 40
0.0
  9
$PELEVATION
 40
0.0
  9
$THICKNESS
 40
0.0
  9
$LIMCHECK
 70
     0
  9
$BLIPMODE
 70
     0
  9
$CHAMFERA
 40
0.0
  9
$CHAMFERB
 40
0.0
  9
$SKPOLY
 70
     0
  9
$TDCREATE
 40
2444972.375
  9
$TDUPDATE
 40
2455980.3599719671
  9
$TDINDWG
 40
0.0000078356
  9
$TDUSRTIMER
 40
0.0000078356
  9
$USRTIMER
 70
     1
  9
$ANGBASE
 50
0.0
  9
$ANGDIR
 70
     0
  9
$PDMODE
 70
     0
  9
$PDSIZE
 40
0.0
  9
$PLINEWID
 40
0.0
  9
$COORDS
 70
     1
  9
$SPLFRAME
 70
     0
  9
$SPLINETYPE
 70
     6
  9
$SPLINESEGS
 70
     8
  9
$ATTDIA
 70
     0
  9
$ATTREQ
 70
     1
  9
$HANDLING
 70
     1
  9
$HANDSEED
  5
20C
  9
$SURFTAB1
 70
     6
  9
$SURFTAB2
 70
     6
  9
$SURFTYPE
 70
     6
  9
$SURFU
 70
     6
  9
$SURFV
 70
     6
  9
$UCSNAME
  2

  9
$UCSORG
 10
0.0
 20
0.0
 30
0.0
  9
$UCSXDIR
 10
1.0
 20
0.0
 30
0.0
  9
$UCSYDIR
 10
0.0
 20
1.0
 30
0.0
  9
$PUCSNAME
  2

  9
$PUCSORG
 10
0.0
 20
0.0
 30
0.0
  9
$PUCSXDIR
 10
1.0
 20
0.0
 30
0.0
  9
$PUCSYDIR
 10
0.0
 20
1.0
 30
0.0
  9
$USERI1
 70
     0
  9
$USERI2
 70
     0
  9
$USERI3
 70
     0
  9
$USERI4
 70
     0
  9
$USERI5
 70
     0
  9
$USERR1
 40
0.0
  9
$USERR2
 40
0.0
  9
$USERR3
 40
0.0
  9
$USERR4
 40
0.0
  9
$USERR5
 40
0.0
  9
$WORLDVIEW
 70
     1
  9
$SHADEDGE
 70
     3
  9
$SHADEDIF
 70
    70
  9
$TILEMODE
 70
     1
  9
$MAXACTVP
 70
    48
  9
$PLIMCHECK
 70
     0
  9
$PEXTMIN
 10
1.0000000000000000E+020
 20
1.0000000000000000E+020
 30
1.0000000000000000E+020
  9
$PEXTMAX
 10
-1.0000000000000000E+020
 20
-1.0000000000000000E+020
 30
-1.0000000000000000E+020
  9
$PLIMMIN
 10
0.0
 20
0.0
  9
$PLIMMAX
 10
12.0
 20
9.0
  9
$UNITMODE
 70
     0
  9
$VISRETAIN
 70
     1
  9
$PLINEGEN
 70
     0
  9
$PSLTSCALE
 70
     1
  0
ENDSEC
  0
SECTION
  2
TABLES
  0
TABLE
  2
VPORT
 70
     2
  0
VPORT
  2
*ACTIVE
 70
     0
 10
0.0
 20
0.0
 11
1.0
 21
1.0
 12
205.31019906752431
 22
127.42999999999989
 13
0.0
 23
0.0
 14
1.0
 24
1.0
 15
0.0
 25
0.0
 16
0.0
 26
0.0
 36
1.0
 17
0.0
 27
0.0
 37
0.0
 40
299.24634760705283
 41
2.2894736842105261
 42
50.0
 43
0.0
 44
0.0
 50
0.0
 51
0.0
 71
     0
 72
   100
 73
     1
 74
     1
 75
     0
 76
     0
 77
     0
 78
     0
  0
ENDTAB
  0
TABLE
  2
LTYPE
 70
     3
  0
LTYPE
  2
CONTINUOUS
 70
     0
  3
Solid line
 72
    65
 73
     0
 40
0.0
  0
LTYPE
  2
AIGENLINE001
 70
     0
  3
generate AI->DXF Converter
 72
    65
 73
     2
 40
1.5522299999999991
 49
0.776115
 49
-0.776115
  0
LTYPE
  2
AIGENLINE002
 70
     0
  3
generate AI->DXF Converter
 72
    65
 73
     4
 40
5.8561449999999988
 49
3.5278
 49
-0.776115
 49
0.776115
 49
-0.776115
  0
ENDTAB
  0
TABLE
  2
LAYER
 70
     2
  0
LAYER
  2
0
 70
     0
 62
     7
  6
CONTINUOUS
  0
LAYER
  2
_________2
 70
     0
 62
     7
  6
CONTINUOUS
  0
ENDTAB
  0
TABLE
  2
STYLE
 70
     1
  0
STYLE
  2
STANDARD
 70
     0
 40
0.0
 41
0.0
 50
0.0
 71
     0
 42
0.0
  3
TXT
  4
EXTFONT.SHX
  0
ENDTAB
  0
TABLE
  2
VIEW
 70
     0
  0
ENDTAB
  0
TABLE
  2
UCS
 70
     0
  0
ENDTAB
  0
TABLE
  2
APPID
 70
     1
  0
APPID
  2
ACAD
 70
     0
  0
ENDTAB
  0
TABLE
  2
DIMSTYLE
 70
     1
  0
DIMSTYLE
  2
STANDARD
 70
     0
  3

  4

  5

  6

  7

 40
1.0
 41
0.18
 42
0.0625
 43
0.38
 44
0.18
 45
0.0
 46
0.0
 47
0.0
 48
0.0
140
0.18
141
0.09
142
0.0
143
25.399999999999999
144
1.0
145
0.0
146
1.0
147
0.09
 71
     0
 72
     0
 73
     1
 74
     1
 75
     0
 76
     0
 77
     0
 78
     0
170
     0
171
     2
172
     0
173
     0
174
     0
175
     0
176
     0
177
     0
178
     0
  0
ENDTAB
  0
ENDSEC
  0
SECTION
  2
BLOCKS
  0
BLOCK
  8
0
  2
$MODEL_SPACE
 70
     0
 10
0.0
 20
0.0
 30
0.0
  3
$MODEL_SPACE
  1

  0
ENDBLK
  5
1A
  8
0
  0
BLOCK
 67
     1
  8
0
  2
$PAPER_SPACE
 70
     0
 10
0.0
 20
0.0
 30
0.0
  3
$PAPER_SPACE
  1

  0
ENDBLK
  5
17
 67
     1
  8
0
  0
ENDSEC
  0
SECTION
  2
ENTITIES
  0
TEXT
  5
23
  8
0
 62
     7
 10
130.518213
 20
74.947800000000001
 30
0.0
 40
3.0923400000000001
  1
回転
 41
0.5
 72
     1
 11
132.21899999999991
 21
74.947800000000001
 31
0.0
  0
TEXT
  5
24
  8
0
 62
     7
 10
71.873072500000006
 20
221.64899999999989
 30
0.0
 40
3.0923400000000001
  1
60
 41
0.5
 72
     1
 11
73.032700000000006
 21
221.64899999999989
 31
0.0
  0
TEXT
  5
25
  8
0
 62
     7
 10
71.229334999999992
 20
74.119299999999996
 30
0.0
 40
3.0923400000000001
  1
146
 41
0.5
 72
     1
 11
73.033199999999994
 21
74.119299999999996
 31
0.0
  0
TEXT
  5
26
  8
0
 62
     7
 10
134.521525
 20
138.64500000000001
 30
0.0
 40
3.0923400000000001
  1
36
 41
0.5
 72
     1
 11
135.81
 21
138.64500000000001
 31
0.0
  0
TEXT
  5
27
  8
0
 62
     7
 10
112.45199599999999
 20
198.73699999999999
 30
0.0
 40
3.0923400000000001
  1
（%%c6×45 樹脂プラグ付）
 41
0.5
 72
     2
 11
134.923
 21
198.73699999999999
 31
0.0
  0
TEXT
  5
28
  8
0
 62
     7
 10
105.391153
 20
203.77799999999999
 30
0.0
 40
3.0923400000000001
  1
%%c4×50 SUS十字穴付丸頭木ネジ
 41
0.5
 72
     2
 11
134.923
 21
203.77799999999999
 31
0.0
  0
TEXT
  5
29
  8
0
 62
     7
 10
71.744225
 20
214.57299999999989
 30
0.0
 40
3.0923400000000001
  1
38
 41
0.5
 72
     1
 11
73.032700000000006
 21
214.57299999999989
 31
0.0
  0
TEXT
  5
2A
  8
0
 62
     7
 10
172.5679999999999
 20
125.4472199999999
 30
0.0
 40
3.0923400000000001
  1
16
 50
90.0
 41
0.5
 72
     1
 11
172.5679999999999
 21
126.47799999999999
 31
0.0
  0
TEXT
  5
2B
  8
0
 62
     7
 10
28.795000000000002
 20
105.6895249999999
 30
0.0
 40
3.0923400000000001
  1
94
 50
90.0
 41
0.5
 72
     1
 11
28.795000000000002
 21
106.97799999999989
 31
0.0
  0
ARC
  5
2C
  8
0
 62
     7
 10
132.2746939999999
 20
126.376451
 30
0.0
 40
46.924500000000002
 50
269.93215499999991
 51
288.59849000000003
  0
ARC
  5
2D
  8
0
 62
     7
 10
132.23414700000001
 20
126.805009
 30
0.0
 40
47.353028000000002
 50
251.485423
 51
269.98183
  0
LINE
  5
2E
  8
0
 62
     7
 10
119.14100000000001
 20
80.692599999999985
 30
0.0
 11
117.1969999999999
 21
81.902799999999985
 31
0.0
  0
LINE
  5
2F
  8
0
 62
     7
 10
117.1969999999999
 20
81.902799999999985
 30
0.0
 11
119.486
 21
81.826699999999988
 31
0.0
  0
LINE
  5
30
  8
0
 62
     7
 10
119.486
 20
81.826699999999988
 30
0.0
 11
119.14100000000001
 21
80.692599999999985
 31
0.0
  0
LINE
  5
31
  8
0
 62
     7
 10
145.29599999999999
 20
80.692199999999985
 30
0.0
 11
147.24100000000001
 21
81.902500000000003
 31
0.0
  0
LINE
  5
32
  8
0
 62
     7
 10
147.24100000000001
 20
81.902500000000003
 30
0.0
 11
144.95199999999991
 21
81.826400000000007
 31
0.0
  0
LINE
  5
33
  8
0
 62
     7
 10
144.95199999999991
 20
81.826400000000007
 30
0.0
 11
145.29599999999999
 21
80.692199999999985
 31
0.0
  0
LINE
  5
34
  8
0
 62
     7
 10
81.465299999999999
 20
181.02500000000001
 30
0.0
 11
82.039299999999983
 21
180.2879999999999
 31
0.0
  0
LINE
  5
35
  8
0
 62
     7
 10
82.039299999999983
 20
180.2879999999999
 30
0.0
 11
81.796400000000006
 21
180.2879999999999
 31
0.0
  0
LINE
  5
36
  8
0
 62
     7
 10
81.796400000000006
 20
180.2879999999999
 30
0.0
 11
81.231700000000004
 21
181.01300000000001
 31
0.0
  0
LINE
  5
37
  8
0
 62
     7
 10
81.231700000000004
 20
181.01300000000001
 30
0.0
 11
81.231700000000004
 21
180.2879999999999
 31
0.0
  0
LINE
  5
38
  8
0
 62
     7
 10
81.231700000000004
 20
180.2879999999999
 30
0.0
 11
81.033299999999997
 21
180.2879999999999
 31
0.0
  0
LINE
  5
39
  8
0
 62
     7
 10
81.033299999999997
 20
180.2879999999999
 30
0.0
 11
81.033299999999997
 21
181.821
 31
0.0
  0
LINE
  5
3A
  8
0
 62
     7
 10
81.033299999999997
 20
181.821
 30
0.0
 11
81.231700000000004
 21
181.821
 31
0.0
  0
LINE
  5
3B
  8
0
 62
     7
 10
81.231700000000004
 20
181.821
 30
0.0
 11
81.231700000000004
 21
181.03599999999989
 31
0.0
  0
LINE
  5
3C
  8
0
 62
     7
 10
81.231700000000004
 20
181.03599999999989
 30
0.0
 11
81.808800000000005
 21
181.821
 31
0.0
  0
LINE
  5
3D
  8
0
 62
     7
 10
81.808800000000005
 20
181.821
 30
0.0
 11
82.050600000000017
 21
181.821
 31
0.0
  0
LINE
  5
3E
  8
0
 62
     7
 10
82.050600000000017
 20
181.821
 30
0.0
 11
81.465299999999999
 21
181.02500000000001
 31
0.0
  0
LINE
  5
3F
  8
0
 62
     7
 10
82.367199999999997
 20
181.62200000000001
 30
0.0
 11
83.151700000000005
 21
181.62200000000001
 31
0.0
  0
LINE
  5
40
  8
0
 62
     7
 10
83.151700000000005
 20
181.62200000000001
 30
0.0
 11
83.151700000000005
 21
181.821
 31
0.0
  0
LINE
  5
41
  8
0
 62
     7
 10
83.151700000000005
 20
181.821
 30
0.0
 11
82.163300000000007
 21
181.821
 31
0.0
  0
LINE
  5
42
  8
0
 62
     7
 10
82.163300000000007
 20
181.821
 30
0.0
 11
82.163300000000007
 21
180.2879999999999
 31
0.0
  0
LINE
  5
43
  8
0
 62
     7
 10
82.163300000000007
 20
180.2879999999999
 30
0.0
 11
83.151700000000005
 21
180.2879999999999
 31
0.0
  0
LINE
  5
44
  8
0
 62
     7
 10
83.151700000000005
 20
180.2879999999999
 30
0.0
 11
83.151700000000005
 21
180.4859999999999
 31
0.0
  0
LINE
  5
45
  8
0
 62
     7
 10
83.151700000000005
 20
180.4859999999999
 30
0.0
 11
82.367199999999997
 21
180.4859999999999
 31
0.0
  0
LINE
  5
46
  8
0
 62
     7
 10
82.367199999999997
 20
180.4859999999999
 30
0.0
 11
82.367199999999997
 21
181.0449999999999
 31
0.0
  0
LINE
  5
47
  8
0
 62
     7
 10
82.367199999999997
 20
181.0449999999999
 30
0.0
 11
83.151700000000005
 21
181.0449999999999
 31
0.0
  0
LINE
  5
48
  8
0
 62
     7
 10
83.151700000000005
 20
181.0449999999999
 30
0.0
 11
83.151700000000005
 21
181.24299999999991
 31
0.0
  0
LINE
  5
49
  8
0
 62
     7
 10
83.151700000000005
 20
181.24299999999991
 30
0.0
 11
82.367199999999997
 21
181.24299999999991
 31
0.0
  0
LINE
  5
4A
  8
0
 62
     7
 10
82.367199999999997
 20
181.24299999999991
 30
0.0
 11
82.367199999999997
 21
181.62200000000001
 31
0.0
  0
LINE
  5
4B
  8
0
 62
     7
 10
83.506499999999988
 20
181.821
 30
0.0
 11
83.308400000000006
 21
181.821
 31
0.0
  0
LINE
  5
4C
  8
0
 62
     7
 10
83.308400000000006
 20
181.821
 30
0.0
 11
83.308400000000006
 21
180.85299999999989
 31
0.0
  0
LINE
  5
4D
  8
0
 62
     7
 10
83.308400000000006
 20
180.85299999999989
 30
0.0
 11
83.341200000000001
 21
180.66099999999989
 31
0.0
  0
LINE
  5
4E
  8
0
 62
     7
 10
83.341200000000001
 20
180.66099999999989
 30
0.0
 11
83.441400000000016
 21
180.489
 31
0.0
  0
LINE
  5
4F
  8
0
 62
     7
 10
83.441400000000016
 20
180.489
 30
0.0
 11
83.589600000000004
 21
180.36500000000001
 31
0.0
  0
LINE
  5
50
  8
0
 62
     7
 10
83.589600000000004
 20
180.36500000000001
 30
0.0
 11
83.772800000000004
 21
180.297
 31
0.0
  0
LINE
  5
51
  8
0
 62
     7
 10
83.772800000000004
 20
180.297
 30
0.0
 11
83.968199999999996
 21
180.297
 31
0.0
  0
LINE
  5
52
  8
0
 62
     7
 10
83.968199999999996
 20
180.297
 30
0.0
 11
84.151499999999999
 21
180.36500000000001
 31
0.0
  0
LINE
  5
53
  8
0
 62
     7
 10
84.151499999999999
 20
180.36500000000001
 30
0.0
 11
84.305499999999995
 21
180.489
 31
0.0
  0
LINE
  5
54
  8
0
 62
     7
 10
84.305499999999995
 20
180.489
 30
0.0
 11
84.399899999999988
 21
180.66099999999989
 31
0.0
  0
LINE
  5
55
  8
0
 62
     7
 10
84.399899999999988
 20
180.66099999999989
 30
0.0
 11
84.435299999999998
 21
180.85299999999989
 31
0.0
  0
LINE
  5
56
  8
0
 62
     7
 10
84.435299999999998
 20
180.85299999999989
 30
0.0
 11
84.435299999999998
 21
181.821
 31
0.0
  0
LINE
  5
57
  8
0
 62
     7
 10
84.435299999999998
 20
181.821
 30
0.0
 11
84.237300000000005
 21
181.821
 31
0.0
  0
LINE
  5
58
  8
0
 62
     7
 10
84.237300000000005
 20
181.821
 30
0.0
 11
84.237300000000005
 21
180.85299999999989
 31
0.0
  0
LINE
  5
59
  8
0
 62
     7
 10
84.237300000000005
 20
180.85299999999989
 30
0.0
 11
84.210400000000007
 21
180.714
 31
0.0
  0
LINE
  5
5A
  8
0
 62
     7
 10
84.210400000000007
 20
180.714
 30
0.0
 11
84.130799999999994
 21
180.59299999999999
 31
0.0
  0
LINE
  5
5B
  8
0
 62
     7
 10
84.130799999999994
 20
180.59299999999999
 30
0.0
 11
84.009900000000002
 21
180.51599999999991
 31
0.0
  0
LINE
  5
5C
  8
0
 62
     7
 10
84.009900000000002
 20
180.51599999999991
 30
0.0
 11
83.873099999999994
 21
180.4859999999999
 31
0.0
  0
LINE
  5
5D
  8
0
 62
     7
 10
83.873099999999994
 20
180.4859999999999
 30
0.0
 11
83.731200000000001
 21
180.51599999999991
 31
0.0
  0
LINE
  5
5E
  8
0
 62
     7
 10
83.731200000000001
 20
180.51599999999991
 30
0.0
 11
83.612700000000004
 21
180.59299999999999
 31
0.0
  0
LINE
  5
5F
  8
0
 62
     7
 10
83.612700000000004
 20
180.59299999999999
 30
0.0
 11
83.533100000000005
 21
180.714
 31
0.0
  0
LINE
  5
60
  8
0
 62
     7
 10
83.533100000000005
 20
180.714
 30
0.0
 11
83.506499999999988
 21
180.85299999999989
 31
0.0
  0
LINE
  5
61
  8
0
 62
     7
 10
83.506499999999988
 20
180.85299999999989
 30
0.0
 11
83.506499999999988
 21
181.821
 31
0.0
  0
LINE
  5
62
  8
0
 62
     7
 10
85.583299999999994
 20
181.53599999999989
 30
0.0
 11
85.396900000000002
 21
181.601
 31
0.0
  0
LINE
  5
63
  8
0
 62
     7
 10
85.396900000000002
 20
181.601
 30
0.0
 11
85.199100000000016
 21
181.601
 31
0.0
  0
LINE
  5
64
  8
0
 62
     7
 10
85.199100000000016
 20
181.601
 30
0.0
 11
85.015499999999989
 21
181.5329999999999
 31
0.0
  0
LINE
  5
65
  8
0
 62
     7
 10
85.015499999999989
 20
181.5329999999999
 30
0.0
 11
84.867699999999985
 21
181.40599999999989
 31
0.0
  0
LINE
  5
66
  8
0
 62
     7
 10
84.867699999999985
 20
181.40599999999989
 30
0.0
 11
84.769900000000007
 21
181.23199999999991
 31
0.0
  0
LINE
  5
67
  8
0
 62
     7
 10
84.769900000000007
 20
181.23199999999991
 30
0.0
 11
84.737099999999998
 21
181.03999999999991
 31
0.0
  0
LINE
  5
68
  8
0
 62
     7
 10
84.737099999999998
 20
181.03999999999991
 30
0.0
 11
84.7761
 21
180.84399999999999
 31
0.0
  0
LINE
  5
69
  8
0
 62
     7
 10
84.7761
 20
180.84399999999999
 30
0.0
 11
84.876300000000015
 21
180.67500000000001
 31
0.0
  0
LINE
  5
6A
  8
0
 62
     7
 10
84.876300000000015
 20
180.67500000000001
 30
0.0
 11
85.030299999999997
 21
180.5509999999999
 31
0.0
  0
LINE
  5
6B
  8
0
 62
     7
 10
85.030299999999997
 20
180.5509999999999
 30
0.0
 11
85.136799999999994
 21
180.50700000000001
 31
0.0
  0
LINE
  5
6C
  8
0
 62
     7
 10
85.136799999999994
 20
180.50700000000001
 30
0.0
 11
85.249099999999999
 21
180.4859999999999
 31
0.0
  0
LINE
  5
6D
  8
0
 62
     7
 10
85.249099999999999
 20
180.4859999999999
 30
0.0
 11
85.364099999999993
 21
180.4859999999999
 31
0.0
  0
LINE
  5
6E
  8
0
 62
     7
 10
85.364099999999993
 20
180.4859999999999
 30
0.0
 11
85.476500000000001
 21
180.51300000000001
 31
0.0
  0
LINE
  5
6F
  8
0
 62
     7
 10
85.476500000000001
 20
180.51300000000001
 30
0.0
 11
85.583299999999994
 21
180.55699999999999
 31
0.0
  0
LINE
  5
70
  8
0
 62
     7
 10
85.583299999999994
 20
180.55699999999999
 30
0.0
 11
85.680800000000005
 21
180.38900000000001
 31
0.0
  0
LINE
  5
71
  8
0
 62
     7
 10
85.680800000000005
 20
180.38900000000001
 30
0.0
 11
85.459199999999996
 21
180.30299999999991
 31
0.0
  0
LINE
  5
72
  8
0
 62
     7
 10
85.459199999999996
 20
180.30299999999991
 30
0.0
 11
85.216399999999993
 21
180.29099999999991
 31
0.0
  0
LINE
  5
73
  8
0
 62
     7
 10
85.216399999999993
 20
180.29099999999991
 30
0.0
 11
84.985900000000001
 21
180.35299999999989
 31
0.0
  0
LINE
  5
74
  8
0
 62
     7
 10
84.985900000000001
 20
180.35299999999989
 30
0.0
 11
84.787400000000005
 21
180.4859999999999
 31
0.0
  0
LINE
  5
75
  8
0
 62
     7
 10
84.787400000000005
 20
180.4859999999999
 30
0.0
 11
84.636899999999983
 21
180.67299999999989
 31
0.0
  0
LINE
  5
76
  8
0
 62
     7
 10
84.636899999999983
 20
180.67299999999989
 30
0.0
 11
84.553899999999985
 21
180.898
 31
0.0
  0
LINE
  5
77
  8
0
 62
     7
 10
84.553899999999985
 20
180.898
 30
0.0
 11
84.547700000000006
 21
181.137
 31
0.0
  0
LINE
  5
78
  8
0
 62
     7
 10
84.547700000000006
 20
181.137
 30
0.0
 11
84.613100000000003
 21
181.36799999999991
 31
0.0
  0
LINE
  5
79
  8
0
 62
     7
 10
84.613100000000003
 20
181.36799999999991
 30
0.0
 11
84.746099999999998
 21
181.56599999999989
 31
0.0
  0
LINE
  5
7A
  8
0
 62
     7
 10
84.746099999999998
 20
181.56599999999989
 30
0.0
 11
84.935199999999995
 21
181.714
 31
0.0
  0
LINE
  5
7B
  8
0
 62
     7
 10
84.935199999999995
 20
181.714
 30
0.0
 11
85.080600000000004
 21
181.7759999999999
 31
0.0
  0
LINE
  5
7C
  8
0
 62
     7
 10
85.080600000000004
 20
181.7759999999999
 30
0.0
 11
85.231499999999997
 21
181.8059999999999
 31
0.0
  0
LINE
  5
7D
  8
0
 62
     7
 10
85.231499999999997
 20
181.8059999999999
 30
0.0
 11
85.388300000000001
 21
181.803
 31
0.0
  0
LINE
  5
7E
  8
0
 62
     7
 10
85.388300000000001
 20
181.803
 30
0.0
 11
85.538799999999995
 21
181.77000000000001
 31
0.0
  0
LINE
  5
7F
  8
0
 62
     7
 10
85.538799999999995
 20
181.77000000000001
 30
0.0
 11
85.680800000000005
 21
181.70799999999991
 31
0.0
  0
LINE
  5
80
  8
0
 62
     7
 10
85.680800000000005
 20
181.70799999999991
 30
0.0
 11
85.583299999999994
 21
181.53599999999989
 31
0.0
  0
LINE
  5
81
  8
0
 62
     7
 10
86.798999999999992
 20
181.2409999999999
 30
0.0
 11
86.701499999999996
 21
181.40899999999999
 31
0.0
  0
LINE
  5
82
  8
0
 62
     7
 10
86.701499999999996
 20
181.40899999999999
 30
0.0
 11
86.553700000000006
 21
181.53599999999989
 31
0.0
  0
LINE
  5
83
  8
0
 62
     7
 10
86.553700000000006
 20
181.53599999999989
 30
0.0
 11
86.367400000000004
 21
181.601
 31
0.0
  0
LINE
  5
84
  8
0
 62
     7
 10
86.367400000000004
 20
181.601
 30
0.0
 11
86.172000000000025
 21
181.601
 31
0.0
  0
LINE
  5
85
  8
0
 62
     7
 10
86.172000000000025
 20
181.601
 30
0.0
 11
85.986000000000004
 21
181.53599999999989
 31
0.0
  0
LINE
  5
86
  8
0
 62
     7
 10
85.986000000000004
 20
181.53599999999989
 30
0.0
 11
85.838200000000015
 21
181.40899999999999
 31
0.0
  0
LINE
  5
87
  8
0
 62
     7
 10
85.838200000000015
 20
181.40899999999999
 30
0.0
 11
85.740399999999994
 21
181.2409999999999
 31
0.0
  0
LINE
  5
88
  8
0
 62
     7
 10
85.740399999999994
 20
181.2409999999999
 30
0.0
 11
85.707599999999985
 21
181.048
 31
0.0
  0
LINE
  5
89
  8
0
 62
     7
 10
85.707599999999985
 20
181.048
 30
0.0
 11
85.740399999999994
 21
180.85299999999989
 31
0.0
  0
LINE
  5
8A
  8
0
 62
     7
 10
85.740399999999994
 20
180.85299999999989
 30
0.0
 11
85.838200000000015
 21
180.684
 31
0.0
  0
LINE
  5
8B
  8
0
 62
     7
 10
85.838200000000015
 20
180.684
 30
0.0
 11
85.988699999999994
 21
180.56
 31
0.0
  0
LINE
  5
8C
  8
0
 62
     7
 10
85.988699999999994
 20
180.56
 30
0.0
 11
86.172000000000025
 21
180.49199999999999
 31
0.0
  0
LINE
  5
8D
  8
0
 62
     7
 10
86.172000000000025
 20
180.49199999999999
 30
0.0
 11
86.367400000000004
 21
180.49199999999999
 31
0.0
  0
LINE
  5
8E
  8
0
 62
     7
 10
86.367400000000004
 20
180.49199999999999
 30
0.0
 11
86.553700000000006
 21
180.56
 31
0.0
  0
LINE
  5
8F
  8
0
 62
     7
 10
86.553700000000006
 20
180.56
 30
0.0
 11
86.701499999999996
 21
180.684
 31
0.0
  0
LINE
  5
90
  8
0
 62
     7
 10
86.701499999999996
 20
180.684
 30
0.0
 11
86.798999999999992
 21
180.85299999999989
 31
0.0
  0
LINE
  5
91
  8
0
 62
     7
 10
86.798999999999992
 20
180.85299999999989
 30
0.0
 11
86.831800000000001
 21
181.048
 31
0.0
  0
LINE
  5
92
  8
0
 62
     7
 10
86.831800000000001
 20
181.048
 30
0.0
 11
86.798999999999992
 21
181.2409999999999
 31
0.0
  0
LINE
  5
93
  8
0
 62
     7
 10
87.032999999999987
 20
181.048
 30
0.0
 11
86.992000000000004
 21
180.81099999999989
 31
0.0
  0
LINE
  5
94
  8
0
 62
     7
 10
86.992000000000004
 20
180.81099999999989
 30
0.0
 11
86.885199999999998
 21
180.59899999999999
 31
0.0
  0
LINE
  5
95
  8
0
 62
     7
 10
86.885199999999998
 20
180.59899999999999
 30
0.0
 11
86.719499999999996
 21
180.42999999999989
 31
0.0
  0
LINE
  5
96
  8
0
 62
     7
 10
86.719499999999996
 20
180.42999999999989
 30
0.0
 11
86.506500000000003
 21
180.32299999999989
 31
0.0
  0
LINE
  5
97
  8
0
 62
     7
 10
86.506500000000003
 20
180.32299999999989
 30
0.0
 11
86.269499999999994
 21
180.285
 31
0.0
  0
LINE
  5
98
  8
0
 62
     7
 10
86.269499999999994
 20
180.285
 30
0.0
 11
86.033199999999994
 21
180.32299999999989
 31
0.0
  0
LINE
  5
99
  8
0
 62
     7
 10
86.033199999999994
 20
180.32299999999989
 30
0.0
 11
85.822999999999993
 21
180.42999999999989
 31
0.0
  0
LINE
  5
9A
  8
0
 62
     7
 10
85.822999999999993
 20
180.42999999999989
 30
0.0
 11
85.654200000000003
 21
180.59899999999999
 31
0.0
  0
LINE
  5
9B
  8
0
 62
     7
 10
85.654200000000003
 20
180.59899999999999
 30
0.0
 11
85.547799999999995
 21
180.81099999999989
 31
0.0
  0
LINE
  5
9C
  8
0
 62
     7
 10
85.547799999999995
 20
180.81099999999989
 30
0.0
 11
85.506399999999985
 21
181.048
 31
0.0
  0
LINE
  5
9D
  8
0
 62
     7
 10
85.506399999999985
 20
181.048
 30
0.0
 11
85.547799999999995
 21
181.28200000000001
 31
0.0
  0
LINE
  5
9E
  8
0
 62
     7
 10
85.547799999999995
 20
181.28200000000001
 30
0.0
 11
85.654200000000003
 21
181.49499999999989
 31
0.0
  0
LINE
  5
9F
  8
0
 62
     7
 10
85.654200000000003
 20
181.49499999999989
 30
0.0
 11
85.822999999999993
 21
181.6629999999999
 31
0.0
  0
LINE
  5
A0
  8
0
 62
     7
 10
85.822999999999993
 20
181.6629999999999
 30
0.0
 11
86.033199999999994
 21
181.77000000000001
 31
0.0
  0
LINE
  5
A1
  8
0
 62
     7
 10
86.033199999999994
 20
181.77000000000001
 30
0.0
 11
86.269499999999994
 21
181.80799999999991
 31
0.0
  0
LINE
  5
A2
  8
0
 62
     7
 10
86.269499999999994
 20
181.80799999999991
 30
0.0
 11
86.506500000000003
 21
181.77000000000001
 31
0.0
  0
LINE
  5
A3
  8
0
 62
     7
 10
86.506500000000003
 20
181.77000000000001
 30
0.0
 11
86.719499999999996
 21
181.6629999999999
 31
0.0
  0
LINE
  5
A4
  8
0
 62
     7
 10
86.719499999999996
 20
181.6629999999999
 30
0.0
 11
86.885199999999998
 21
181.49499999999989
 31
0.0
  0
LINE
  5
A5
  8
0
 62
     7
 10
86.885199999999998
 20
181.49499999999989
 30
0.0
 11
86.992000000000004
 21
181.28200000000001
 31
0.0
  0
LINE
  5
A6
  8
0
 62
     7
 10
86.992000000000004
 20
181.28200000000001
 30
0.0
 11
87.032999999999987
 21
181.048
 31
0.0
  0
LINE
  5
A7
  8
0
 62
     7
 10
173.017
 20
124.68899999999999
 30
0.0
 11
173.60900000000001
 21
122.477
 31
0.0
  0
LINE
  5
A8
  8
0
 62
     7
 10
173.60900000000001
 20
122.477
 30
0.0
 11
174.202
 21
124.68899999999999
 31
0.0
  0
LINE
  5
A9
  8
0
 62
     7
 10
174.202
 20
124.68899999999999
 30
0.0
 11
173.017
 21
124.68899999999999
 31
0.0
  0
LINE
  5
AA
  8
0
 62
     7
 10
174.1879999999999
 20
128.268
 30
0.0
 11
173.595
 21
130.4789999999999
 31
0.0
  0
LINE
  5
AB
  8
0
 62
     7
 10
173.595
 20
130.4789999999999
 30
0.0
 11
173.00200000000001
 21
128.268
 31
0.0
  0
LINE
  5
AC
  8
0
 62
     7
 10
173.00200000000001
 20
128.268
 30
0.0
 11
174.1879999999999
 21
128.268
 31
0.0
  0
LINE
  5
AD
  8
0
 62
     7
 10
173.602
 20
122.47799999999989
 30
0.0
 11
173.602
 21
130.47799999999989
 31
0.0
  0
LINE
  5
AE
  8
0
  6
AIGENLINE002
 62
     7
 10
63.533099999999997
 20
128.89500000000001
 30
0.0
 11
63.533099999999997
 21
123.80799999999989
 31
0.0
  0
LINE
  5
AF
  8
0
  6
AIGENLINE002
 62
     7
 10
60.577199999999991
 20
126.47199999999999
 30
0.0
 11
66.515900000000002
 21
126.47199999999999
 31
0.0
  0
LINE
  5
B0
  8
0
  6
AIGENLINE002
 62
     7
 10
82.533299999999997
 20
128.89500000000001
 30
0.0
 11
82.533299999999997
 21
123.80799999999989
 31
0.0
  0
ARC
  5
B1
  8
0
 62
     7
 10
134.74300500000001
 20
129.768867
 30
0.0
 40
0.503148
 50
45.644292999999998
 51
90.979712000000006
  0
ARC
  5
B2
  8
0
 62
     7
 10
134.73677000000001
 20
129.768396
 30
0.0
 40
0.5078600000000001
 50
0.296187
 51
45.178500999999997
  0
ARC
  5
B3
  8
0
 62
     7
 10
134.7395239999999
 20
83.979990999999984
 30
0.0
 40
0.5051000000000001
 50
314.69245100000001
 51
359.98975899999988
  0
ARC
  5
B4
  8
0
 62
     7
 10
134.739654
 20
83.989105000000009
 30
0.0
 40
0.511529
 50
269.41179199999999
 51
313.964203
  0
ARC
  5
B5
  8
0
 62
     7
 10
127.2412759999999
 20
84.131468999999996
 30
0.0
 40
0.5230640000000001
 50
182.33852899999991
 51
266.82797799999992
  0
ARC
  5
B6
  8
0
 62
     7
 10
127.239268
 20
129.62076999999991
 30
0.0
 40
0.5209540000000001
 50
92.963701999999998
 51
177.9485389999999
  0
ARC
  5
B7
  8
0
 62
     7
 10
131.180509
 20
129.641763
 30
0.0
 40
0.601308
 50
90.862115999999986
 51
109.80109399999991
  0
ARC
  5
B8
  8
0
 62
     7
 10
37.054152000000002
 20
83.998641000000006
 30
0.0
 40
0.521483
 50
182.2109209999999
 51
267.63126999999997
  0
ARC
  5
B9
  8
0
 62
     7
 10
37.054001
 20
129.75099800000001
 30
0.0
 40
0.5213830000000002
 50
92.352528000000007
 51
177.6474419999999
  0
ARC
  5
BA
  8
0
 62
     7
 10
109.01279099999989
 20
122.99072199999991
 30
0.0
 40
0.5210040000000001
 50
272.27612999999991
 51
357.68437899999992
  0
ARC
  5
BB
  8
0
 62
     7
 10
109.01379900000001
 20
129.75235699999999
 30
0.0
 40
0.519957
 50
2.2090730000000001
 51
87.830418000000009
  0
ARC
  5
BC
  8
0
  6
AIGENLINE001
 62
     7
 10
63.046453999999997
 20
126.4976639999999
 30
0.0
 40
1.2801370000000001
 50
210.69076199999989
 51
269.34703400000001
  0
ARC
  5
BD
  8
0
  6
AIGENLINE001
 62
     7
 10
63.066737000000003
 20
126.471633
 30
0.0
 40
1.2847090000000001
 50
150.76942999999989
 51
209.23056999999989
  0
ARC
  5
BE
  8
0
  6
AIGENLINE001
 62
     7
 10
63.048043999999997
 20
126.44214099999991
 30
0.0
 40
1.2832719999999991
 50
90.722334999999987
 51
149.2125969999999
  0
ARC
  5
BF
  8
0
  6
AIGENLINE001
 62
     7
 10
63.987067000000003
 20
126.423948
 30
0.0
 40
1.3022359999999991
 50
2.1136939999999989
 51
87.902043000000006
  0
ARC
  5
C0
  8
0
  6
AIGENLINE001
 62
     7
 10
63.986293000000003
 20
126.51970799999999
 30
0.0
 40
1.302999
 50
272.13078899999988
 51
357.90070200000008
  0
ARC
  5
C1
  8
0
  6
AIGENLINE001
 62
     7
 10
82.986554999999996
 20
126.42397199999991
 30
0.0
 40
1.302224
 50
2.1126419999999988
 51
87.887348000000003
  0
ARC
  5
C2
  8
0
  6
AIGENLINE001
 62
     7
 10
82.986106000000007
 20
126.51935899999999
 30
0.0
 40
1.302651
 50
272.13175299999989
 51
357.91548599999999
  0
ARC
  5
C3
  8
0
  6
AIGENLINE001
 62
     7
 10
82.045931999999993
 20
126.4976639999999
 30
0.0
 40
1.2801370000000001
 50
210.69076199999989
 51
269.34703400000001
  0
ARC
  5
C4
  8
0
  6
AIGENLINE001
 62
     7
 10
82.067323999999985
 20
126.471633
 30
0.0
 40
1.2856780000000001
 50
150.7935919999999
 51
209.2064079999999
  0
ARC
  5
C5
  8
0
  6
AIGENLINE001
 62
     7
 10
82.045886999999993
 20
126.444975
 30
0.0
 40
1.2804180000000001
 50
90.650815000000009
 51
149.28411700000001
  0
LINE
  5
C6
  8
0
 62
     7
 10
142.5079999999999
 20
137.35900000000001
 30
0.0
 11
144.72
 21
137.952
 31
0.0
  0
LINE
  5
C7
  8
0
 62
     7
 10
144.72
 20
137.952
 30
0.0
 11
142.5079999999999
 21
138.5439999999999
 31
0.0
  0
LINE
  5
C8
  8
0
 62
     7
 10
142.5079999999999
 20
138.5439999999999
 30
0.0
 11
142.5079999999999
 21
137.35900000000001
 31
0.0
  0
LINE
  5
C9
  8
0
 62
     7
 10
128.929
 20
138.52999999999989
 30
0.0
 11
126.7179999999999
 21
137.93700000000001
 31
0.0
  0
LINE
  5
CA
  8
0
 62
     7
 10
126.7179999999999
 20
137.93700000000001
 30
0.0
 11
128.929
 21
137.345
 31
0.0
  0
LINE
  5
CB
  8
0
 62
     7
 10
128.929
 20
137.345
 30
0.0
 11
128.929
 21
138.52999999999989
 31
0.0
  0
LINE
  5
CC
  8
0
 62
     7
 10
144.71899999999991
 20
137.94499999999999
 30
0.0
 11
126.71899999999999
 21
137.94499999999999
 31
0.0
  0
LINE
  5
CD
  8
0
 62
     7
 10
131.17099999999991
 20
130.24299999999991
 30
0.0
 11
144.71899999999991
 21
130.47799999999989
 31
0.0
  0
LINE
  5
CE
  8
0
 62
     7
 10
127.212
 20
130.14099999999991
 30
0.0
 11
134.73400000000001
 21
130.27199999999999
 31
0.0
  0
LINE
  5
CF
  8
0
 62
     7
 10
145.41800000000001
 20
130.47799999999989
 30
0.0
 11
174.30199999999999
 21
130.47799999999989
 31
0.0
  0
LINE
  5
D0
  8
0
 62
     7
 10
145.41800000000001
 20
122.47799999999989
 30
0.0
 11
174.30199999999999
 21
122.47799999999989
 31
0.0
  0
LINE
  5
D1
  8
0
 62
     7
 10
126.71899999999999
 20
130.58099999999999
 30
0.0
 11
126.71899999999999
 21
138.64500000000001
 31
0.0
  0
LINE
  5
D2
  8
0
 62
     7
 10
126.71899999999999
 20
84.110100000000003
 30
0.0
 11
126.71899999999999
 21
129.63900000000001
 31
0.0
  0
LINE
  5
D3
  8
0
 62
     7
 10
144.71899999999991
 20
122.47799999999989
 30
0.0
 11
135.245
 21
122.642
 31
0.0
  0
LINE
  5
D4
  8
0
 62
     7
 10
131.1689999999999
 20
130.21100000000001
 30
0.0
 11
131.1699999999999
 21
130.21899999999991
 31
0.0
  0
LINE
  5
D5
  8
0
 62
     7
 10
131.1699999999999
 20
130.21899999999991
 30
0.0
 11
131.17099999999991
 21
130.23699999999999
 31
0.0
  0
LINE
  5
D6
  8
0
 62
     7
 10
131.17099999999991
 20
130.23699999999999
 30
0.0
 11
131.17099999999991
 21
130.24299999999991
 31
0.0
  0
LINE
  5
D7
  8
0
 62
     7
 10
135.245
 20
83.979900000000001
 30
0.0
 11
135.245
 21
129.77099999999999
 31
0.0
  0
LINE
  5
D8
  8
0
 62
     7
 10
144.71899999999991
 20
131.17799999999991
 30
0.0
 11
144.71899999999991
 21
138.64500000000001
 31
0.0
  0
LINE
  5
D9
  8
0
 62
     7
 10
144.71899999999991
 20
122.47799999999989
 30
0.0
 11
144.71899999999991
 21
130.47799999999989
 31
0.0
  0
LINE
  5
DA
  8
0
 62
     7
 10
127.212
 20
83.609200000000001
 30
0.0
 11
134.73400000000001
 21
83.477599999999995
 31
0.0
  0
LINE
  5
DB
  8
0
 62
     7
 10
36.53309999999999
 20
83.979900000000001
 30
0.0
 11
36.53309999999999
 21
129.77099999999999
 31
0.0
  0
LINE
  5
DC
  8
0
 62
     7
 10
36.53309999999999
 20
83.038700000000006
 30
0.0
 11
36.53309999999999
 21
72.719200000000001
 31
0.0
  0
LINE
  5
DD
  8
0
 62
     7
 10
42.081800000000001
 20
91.898799999999994
 30
0.0
 11
42.085900000000002
 21
91.821700000000007
 31
0.0
  0
LINE
  5
DE
  8
0
 62
     7
 10
42.085900000000002
 20
91.821700000000007
 30
0.0
 11
42.132800000000003
 21
91.468199999999996
 31
0.0
  0
LINE
  5
DF
  8
0
 62
     7
 10
42.132800000000003
 20
91.468199999999996
 30
0.0
 11
42.220300000000002
 21
91.122299999999996
 31
0.0
  0
LINE
  5
E0
  8
0
 62
     7
 10
42.220300000000002
 20
91.122299999999996
 30
0.0
 11
42.3474
 21
90.788799999999995
 31
0.0
  0
LINE
  5
E1
  8
0
 62
     7
 10
42.3474
 20
90.788799999999995
 30
0.0
 11
42.515500000000003
 21
90.472599999999986
 31
0.0
  0
LINE
  5
E2
  8
0
 62
     7
 10
42.515500000000003
 20
90.472599999999986
 30
0.0
 11
42.718400000000003
 21
90.177700000000002
 31
0.0
  0
LINE
  5
E3
  8
0
 62
     7
 10
42.718400000000003
 20
90.177700000000002
 30
0.0
 11
42.954799999999999
 21
89.911000000000016
 31
0.0
  0
LINE
  5
E4
  8
0
 62
     7
 10
42.954799999999999
 20
89.911000000000016
 30
0.0
 11
43.221800000000002
 21
89.672600000000017
 31
0.0
  0
LINE
  5
E5
  8
0
 62
     7
 10
43.221800000000002
 20
89.672600000000017
 30
0.0
 11
43.515599999999999
 21
89.466599999999985
 31
0.0
  0
LINE
  5
E6
  8
0
 62
     7
 10
43.515599999999999
 20
89.466599999999985
 30
0.0
 11
43.830800000000004
 21
89.299199999999999
 31
0.0
  0
LINE
  5
E7
  8
0
 62
     7
 10
43.830800000000004
 20
89.299199999999999
 30
0.0
 11
44.164700000000003
 21
89.168899999999994
 31
0.0
  0
LINE
  5
E8
  8
0
 62
     7
 10
44.164700000000003
 20
89.168899999999994
 30
0.0
 11
44.510599999999997
 21
89.080100000000002
 31
0.0
  0
LINE
  5
E9
  8
0
 62
     7
 10
44.510599999999997
 20
89.080100000000002
 30
0.0
 11
44.865099999999991
 21
89.031800000000004
 31
0.0
  0
LINE
  5
EA
  8
0
 62
     7
 10
44.865099999999991
 20
89.031800000000004
 30
0.0
 11
45.087999999999987
 21
89.024199999999993
 31
0.0
  0
LINE
  5
EB
  8
0
 62
     7
 10
42.078999999999994
 20
92.033199999999994
 30
0.0
 11
42.081800000000001
 21
91.898799999999994
 31
0.0
  0
LINE
  5
EC
  8
0
 62
     7
 10
42.078999999999994
 20
119.4609999999999
 30
0.0
 11
42.078999999999994
 21
92.033199999999994
 31
0.0
  0
LINE
  5
ED
  8
0
 62
     7
 10
28.802199999999988
 20
130.47799999999989
 30
0.0
 11
35.642499999999991
 21
130.47799999999989
 31
0.0
  0
LINE
  5
EE
  8
0
 62
     7
 10
58.369900000000001
 20
130.47799999999989
 30
0.0
 11
87.697199999999995
 21
130.47799999999989
 31
0.0
  0
LINE
  5
EF
  8
0
 62
     7
 10
87.697199999999995
 20
130.47799999999989
 30
0.0
 11
87.763299999999987
 21
130.47399999999999
 31
0.0
  0
LINE
  5
F0
  8
0
 62
     7
 10
87.763299999999987
 20
130.47399999999999
 30
0.0
 11
87.827399999999997
 21
130.46100000000001
 31
0.0
  0
LINE
  5
F1
  8
0
 62
     7
 10
87.827399999999997
 20
130.46100000000001
 30
0.0
 11
87.889799999999994
 21
130.44
 31
0.0
  0
LINE
  5
F2
  8
0
 62
     7
 10
87.889799999999994
 20
130.44
 30
0.0
 11
87.947999999999993
 21
130.411
 31
0.0
  0
LINE
  5
F3
  8
0
 62
     7
 10
87.947999999999993
 20
130.411
 30
0.0
 11
88.002799999999979
 21
130.37499999999989
 31
0.0
  0
LINE
  5
F4
  8
0
 62
     7
 10
88.002799999999979
 20
130.37499999999989
 30
0.0
 11
88.052000000000007
 21
130.33199999999999
 31
0.0
  0
LINE
  5
F5
  8
0
 62
     7
 10
88.052000000000007
 20
130.33199999999999
 30
0.0
 11
88.095399999999998
 21
130.28200000000001
 31
0.0
  0
LINE
  5
F6
  8
0
 62
     7
 10
57.394599999999997
 20
130.27199999999999
 30
0.0
 11
109.032
 21
130.27199999999999
 31
0.0
  0
LINE
  5
F7
  8
0
 62
     7
 10
37.033999999999999
 20
130.27199999999999
 30
0.0
 11
57.6158
 21
130.27199999999999
 31
0.0
  0
LINE
  5
F8
  8
0
  6
AIGENLINE001
 62
     7
 10
64.034700000000001
 20
127.72499999999989
 30
0.0
 11
63.0319
 21
127.72499999999989
 31
0.0
  0
LINE
  5
F9
  8
0
  6
AIGENLINE002
 62
     7
 10
79.577699999999993
 20
126.47199999999999
 30
0.0
 11
85.516099999999994
 21
126.47199999999999
 31
0.0
  0
LINE
  5
FA
  8
0
  6
AIGENLINE001
 62
     7
 10
83.034599999999983
 20
127.72499999999989
 30
0.0
 11
82.031299999999987
 21
127.72499999999989
 31
0.0
  0
LINE
  5
FB
  8
0
  6
AIGENLINE001
 62
     7
 10
82.031299999999987
 20
125.2179999999999
 30
0.0
 11
83.034599999999983
 21
125.2179999999999
 31
0.0
  0
LINE
  5
FC
  8
0
  6
AIGENLINE001
 62
     7
 10
63.0319
 20
125.2179999999999
 30
0.0
 11
64.034700000000001
 21
125.2179999999999
 31
0.0
  0
LINE
  5
FD
  8
0
 62
     7
 10
44.954300000000003
 20
122.467
 30
0.0
 11
44.877099999999992
 21
122.46299999999989
 31
0.0
  0
LINE
  5
FE
  8
0
 62
     7
 10
44.877099999999992
 20
122.46299999999989
 30
0.0
 11
44.523000000000003
 21
122.4159999999999
 31
0.0
  0
LINE
  5
FF
  8
0
 62
     7
 10
44.523000000000003
 20
122.4159999999999
 30
0.0
 11
44.176400000000001
 21
122.3279999999999
 31
0.0
  0
LINE
  5
100
  8
0
 62
     7
 10
44.176400000000001
 20
122.3279999999999
 30
0.0
 11
43.844299999999997
 21
122.20099999999999
 31
0.0
  0
LINE
  5
101
  8
0
 62
     7
 10
43.844299999999997
 20
122.20099999999999
 30
0.0
 11
43.527999999999999
 21
122.03399999999991
 31
0.0
  0
LINE
  5
102
  8
0
 62
     7
 10
43.527999999999999
 20
122.03399999999991
 30
0.0
 11
43.2331
 21
121.831
 31
0.0
  0
LINE
  5
103
  8
0
 62
     7
 10
43.2331
 20
121.831
 30
0.0
 11
42.9651
 21
121.59399999999999
 31
0.0
  0
LINE
  5
104
  8
0
 62
     7
 10
42.9651
 20
121.59399999999999
 30
0.0
 11
42.726700000000001
 21
121.327
 31
0.0
  0
LINE
  5
105
  8
0
 62
     7
 10
42.726700000000001
 20
121.327
 30
0.0
 11
42.521399999999993
 21
121.0329999999999
 31
0.0
  0
LINE
  5
106
  8
0
 62
     7
 10
42.521399999999993
 20
121.0329999999999
 30
0.0
 11
42.353900000000003
 21
120.7179999999999
 31
0.0
  0
LINE
  5
107
  8
0
 62
     7
 10
42.353900000000003
 20
120.7179999999999
 30
0.0
 11
42.22399999999999
 21
120.384
 31
0.0
  0
LINE
  5
108
  8
0
 62
     7
 10
42.22399999999999
 20
120.384
 30
0.0
 11
42.134799999999991
 21
120.039
 31
0.0
  0
LINE
  5
109
  8
0
 62
     7
 10
42.134799999999991
 20
120.039
 30
0.0
 11
42.087299999999999
 21
119.6839999999999
 31
0.0
  0
LINE
  5
10A
  8
0
 62
     7
 10
42.087299999999999
 20
119.6839999999999
 30
0.0
 11
42.078999999999994
 21
119.4609999999999
 31
0.0
  0
LINE
  5
10B
  8
0
 62
     7
 10
45.087999999999987
 20
122.47
 30
0.0
 11
44.954300000000003
 21
122.467
 31
0.0
  0
LINE
  5
10C
  8
0
 62
     7
 10
135.245
 20
122.47
 30
0.0
 11
126.71899999999999
 21
122.47
 31
0.0
  0
LINE
  5
10D
  8
0
 62
     7
 10
109.032
 20
122.47
 30
0.0
 11
45.087999999999987
 21
122.47
 31
0.0
  0
LINE
  5
10E
  8
0
 62
     7
 10
57.972000000000001
 20
130.28200000000001
 30
0.0
 11
58.014400000000002
 21
130.33199999999999
 31
0.0
  0
LINE
  5
10F
  8
0
 62
     7
 10
58.014400000000002
 20
130.33199999999999
 30
0.0
 11
58.063699999999997
 21
130.37499999999989
 31
0.0
  0
LINE
  5
110
  8
0
 62
     7
 10
58.063699999999997
 20
130.37499999999989
 30
0.0
 11
58.1188
 21
130.411
 31
0.0
  0
LINE
  5
111
  8
0
 62
     7
 10
58.1188
 20
130.411
 30
0.0
 11
58.17669999999999
 21
130.44
 31
0.0
  0
LINE
  5
112
  8
0
 62
     7
 10
58.17669999999999
 20
130.44
 30
0.0
 11
58.238999999999997
 21
130.46100000000001
 31
0.0
  0
LINE
  5
113
  8
0
 62
     7
 10
58.238999999999997
 20
130.46100000000001
 30
0.0
 11
58.302799999999998
 21
130.47399999999999
 31
0.0
  0
LINE
  5
114
  8
0
 62
     7
 10
58.302799999999998
 20
130.47399999999999
 30
0.0
 11
58.369900000000001
 21
130.47799999999989
 31
0.0
  0
LINE
  5
115
  8
0
 62
     7
 10
109.032
 20
91.391000000000005
 30
0.0
 11
109.111
 21
91.385499999999993
 31
0.0
  0
LINE
  5
116
  8
0
 62
     7
 10
109.111
 20
91.385499999999993
 30
0.0
 11
109.1879999999999
 21
91.367599999999996
 31
0.0
  0
LINE
  5
117
  8
0
 62
     7
 10
109.1879999999999
 20
91.367599999999996
 30
0.0
 11
109.261
 21
91.336600000000004
 31
0.0
  0
LINE
  5
118
  8
0
 62
     7
 10
109.261
 20
91.336600000000004
 30
0.0
 11
109.3279999999999
 21
91.295299999999997
 31
0.0
  0
LINE
  5
119
  8
0
 62
     7
 10
109.3279999999999
 20
91.295299999999997
 30
0.0
 11
109.38799999999991
 21
91.243600000000015
 31
0.0
  0
LINE
  5
11A
  8
0
 62
     7
 10
109.38799999999991
 20
91.243600000000015
 30
0.0
 11
109.44
 21
91.182999999999993
 31
0.0
  0
LINE
  5
11B
  8
0
 62
     7
 10
109.44
 20
91.182999999999993
 30
0.0
 11
109.48099999999999
 21
91.114699999999999
 31
0.0
  0
LINE
  5
11C
  8
0
 62
     7
 10
109.48099999999999
 20
91.114699999999999
 30
0.0
 11
109.51000000000001
 21
91.043099999999995
 31
0.0
  0
LINE
  5
11D
  8
0
 62
     7
 10
109.51000000000001
 20
91.043099999999995
 30
0.0
 11
109.52800000000001
 21
90.967299999999994
 31
0.0
  0
LINE
  5
11E
  8
0
 62
     7
 10
109.52800000000001
 20
90.967299999999994
 30
0.0
 11
109.5329999999999
 21
90.890100000000004
 31
0.0
  0
LINE
  5
11F
  8
0
 62
     7
 10
135.245
 20
91.391000000000005
 30
0.0
 11
126.71899999999999
 21
91.391000000000005
 31
0.0
  0
LINE
  5
120
  8
0
 62
     7
 10
109.032
 20
91.391000000000005
 30
0.0
 11
107.767
 21
91.391000000000005
 31
0.0
  0
LINE
  5
121
  8
0
 62
     7
 10
107.767
 20
91.391000000000005
 30
0.0
 11
107.66500000000001
 21
91.380700000000004
 31
0.0
  0
LINE
  5
122
  8
0
 62
     7
 10
107.66500000000001
 20
91.380700000000004
 30
0.0
 11
107.5649999999999
 21
91.350399999999993
 31
0.0
  0
LINE
  5
123
  8
0
 62
     7
 10
107.5649999999999
 20
91.350399999999993
 30
0.0
 11
107.474
 21
91.297999999999988
 31
0.0
  0
LINE
  5
124
  8
0
 62
     7
 10
107.474
 20
91.297999999999988
 30
0.0
 11
107.3979999999999
 21
91.230500000000006
 31
0.0
  0
LINE
  5
125
  8
0
 62
     7
 10
107.3979999999999
 20
91.230500000000006
 30
0.0
 11
107.33799999999999
 21
91.149199999999993
 31
0.0
  0
LINE
  5
126
  8
0
 62
     7
 10
107.33799999999999
 20
91.149199999999993
 30
0.0
 11
107.292
 21
91.053399999999996
 31
0.0
  0
LINE
  5
127
  8
0
 62
     7
 10
104.447
 20
89.024199999999993
 30
0.0
 11
104.6149999999999
 21
89.028400000000005
 31
0.0
  0
LINE
  5
128
  8
0
 62
     7
 10
104.6149999999999
 20
89.028400000000005
 30
0.0
 11
104.794
 21
89.043499999999995
 31
0.0
  0
LINE
  5
129
  8
0
 62
     7
 10
104.794
 20
89.043499999999995
 30
0.0
 11
104.98099999999999
 21
89.071799999999996
 31
0.0
  0
LINE
  5
12A
  8
0
 62
     7
 10
104.98099999999999
 20
89.071799999999996
 30
0.0
 11
105.1779999999999
 21
89.114500000000007
 31
0.0
  0
LINE
  5
12B
  8
0
 62
     7
 10
105.1779999999999
 20
89.114500000000007
 30
0.0
 11
105.3779999999999
 21
89.171700000000001
 31
0.0
  0
LINE
  5
12C
  8
0
 62
     7
 10
105.3779999999999
 20
89.171700000000001
 30
0.0
 11
105.57899999999999
 21
89.244699999999995
 31
0.0
  0
LINE
  5
12D
  8
0
 62
     7
 10
105.57899999999999
 20
89.244699999999995
 30
0.0
 11
105.78100000000001
 21
89.334999999999994
 31
0.0
  0
LINE
  5
12E
  8
0
 62
     7
 10
105.78100000000001
 20
89.334999999999994
 30
0.0
 11
105.97799999999989
 21
89.443200000000004
 31
0.0
  0
LINE
  5
12F
  8
0
 62
     7
 10
105.97799999999989
 20
89.443200000000004
 30
0.0
 11
106.16799999999991
 21
89.565099999999987
 31
0.0
  0
LINE
  5
130
  8
0
 62
     7
 10
106.16799999999991
 20
89.565099999999987
 30
0.0
 11
106.34999999999989
 21
89.701599999999985
 31
0.0
  0
LINE
  5
131
  8
0
 62
     7
 10
106.34999999999989
 20
89.701599999999985
 30
0.0
 11
106.5209999999999
 21
89.851799999999983
 31
0.0
  0
LINE
  5
132
  8
0
 62
     7
 10
106.5209999999999
 20
89.851799999999983
 30
0.0
 11
106.67699999999989
 21
90.011600000000001
 31
0.0
  0
LINE
  5
133
  8
0
 62
     7
 10
106.67699999999989
 20
90.011600000000001
 30
0.0
 11
106.81999999999999
 21
90.181799999999996
 31
0.0
  0
LINE
  5
134
  8
0
 62
     7
 10
106.81999999999999
 20
90.181799999999996
 30
0.0
 11
106.946
 21
90.356099999999998
 31
0.0
  0
LINE
  5
135
  8
0
 62
     7
 10
106.946
 20
90.356099999999998
 30
0.0
 11
107.0559999999999
 21
90.533900000000003
 31
0.0
  0
LINE
  5
136
  8
0
 62
     7
 10
107.0559999999999
 20
90.533900000000003
 30
0.0
 11
107.15000000000001
 21
90.710999999999984
 31
0.0
  0
LINE
  5
137
  8
0
 62
     7
 10
107.15000000000001
 20
90.710999999999984
 30
0.0
 11
107.2289999999999
 21
90.884600000000006
 31
0.0
  0
LINE
  5
138
  8
0
 62
     7
 10
107.2289999999999
 20
90.884600000000006
 30
0.0
 11
107.292
 21
91.053399999999996
 31
0.0
  0
LINE
  5
139
  8
0
 62
     7
 10
45.087999999999987
 20
89.024199999999993
 30
0.0
 11
104.447
 21
89.024199999999993
 31
0.0
  0
LINE
  5
13A
  8
0
 62
     7
 10
28.787700000000001
 20
83.477599999999995
 30
0.0
 11
35.642499999999991
 21
83.477599999999995
 31
0.0
  0
LINE
  5
13B
  8
0
 62
     7
 10
108.53099999999991
 20
83.477599999999995
 30
0.0
 11
37.033999999999999
 21
83.477599999999995
 31
0.0
  0
LINE
  5
13C
  8
0
 62
     7
 10
108.687
 20
83.490700000000004
 30
0.0
 11
108.53099999999991
 21
83.477599999999995
 31
0.0
  0
LINE
  5
13D
  8
0
 62
     7
 10
109.5329999999999
 20
83.539599999999979
 30
0.0
 11
109.5329999999999
 21
72.719200000000001
 31
0.0
  0
LINE
  5
13E
  8
0
 62
     7
 10
109.5329999999999
 20
90.890100000000004
 30
0.0
 11
109.5329999999999
 21
84.481499999999997
 31
0.0
  0
LINE
  5
13F
  8
0
 62
     7
 10
109.5329999999999
 20
129.77099999999999
 30
0.0
 11
109.5329999999999
 21
122.971
 31
0.0
  0
LINE
  5
140
  8
0
 62
     7
 10
109.5329999999999
 20
84.481499999999997
 30
0.0
 11
109.532
 21
84.440200000000004
 31
0.0
  0
LINE
  5
141
  8
0
 62
     7
 10
107.32299999999989
 20
74.004599999999996
 30
0.0
 11
109.53399999999991
 21
73.411999999999992
 31
0.0
  0
LINE
  5
142
  8
0
 62
     7
 10
109.53399999999991
 20
73.411999999999992
 30
0.0
 11
107.32299999999989
 21
72.819400000000002
 31
0.0
  0
LINE
  5
143
  8
0
 62
     7
 10
107.32299999999989
 20
72.819400000000002
 30
0.0
 11
107.32299999999989
 21
74.004599999999996
 31
0.0
  0
LINE
  5
144
  8
0
 62
     7
 10
38.743400000000001
 20
72.8339
 30
0.0
 11
36.531700000000001
 21
73.426500000000004
 31
0.0
  0
LINE
  5
145
  8
0
 62
     7
 10
36.531700000000001
 20
73.426500000000004
 30
0.0
 11
38.743400000000001
 21
74.018999999999991
 31
0.0
  0
LINE
  5
146
  8
0
 62
     7
 10
38.743400000000001
 20
74.018999999999991
 30
0.0
 11
38.743400000000001
 21
72.8339
 31
0.0
  0
LINE
  5
147
  8
0
 62
     7
 10
109.5329999999999
 20
73.419200000000004
 30
0.0
 11
36.53309999999999
 21
73.419200000000004
 31
0.0
  0
LINE
  5
148
  8
0
 62
     7
 10
109.532
 20
84.440200000000004
 30
0.0
 11
109.5239999999999
 21
84.342999999999975
 31
0.0
  0
LINE
  5
149
  8
0
 62
     7
 10
109.5239999999999
 20
84.342999999999975
 30
0.0
 11
109.4899999999999
 21
84.187999999999988
 31
0.0
  0
LINE
  5
14A
  8
0
 62
     7
 10
109.4899999999999
 20
84.187999999999988
 30
0.0
 11
109.4309999999999
 21
84.039199999999994
 31
0.0
  0
LINE
  5
14B
  8
0
 62
     7
 10
109.4309999999999
 20
84.039199999999994
 30
0.0
 11
109.34999999999989
 21
83.902000000000001
 31
0.0
  0
LINE
  5
14C
  8
0
 62
     7
 10
109.34999999999989
 20
83.902000000000001
 30
0.0
 11
109.247
 21
83.779399999999995
 31
0.0
  0
LINE
  5
14D
  8
0
 62
     7
 10
109.247
 20
83.779399999999995
 30
0.0
 11
109.126
 21
83.674700000000001
 31
0.0
  0
LINE
  5
14E
  8
0
 62
     7
 10
109.126
 20
83.674700000000001
 30
0.0
 11
108.9899999999999
 21
83.5899
 31
0.0
  0
LINE
  5
14F
  8
0
 62
     7
 10
108.9899999999999
 20
83.5899
 30
0.0
 11
108.8429999999999
 21
83.527900000000002
 31
0.0
  0
LINE
  5
150
  8
0
 62
     7
 10
108.8429999999999
 20
83.527900000000002
 30
0.0
 11
108.687
 21
83.489300000000014
 31
0.0
  0
LINE
  5
151
  8
0
 62
     7
 10
108.687
 20
83.489300000000014
 30
0.0
 11
108.53099999999991
 21
83.477599999999995
 31
0.0
  0
LINE
  5
152
  8
0
 62
     7
 10
109.532
 20
84.440200000000004
 30
0.0
 11
109.521
 21
84.324399999999983
 31
0.0
  0
LINE
  5
153
  8
0
 62
     7
 10
109.521
 20
84.324399999999983
 30
0.0
 11
109.48399999999999
 21
84.171400000000006
 31
0.0
  0
LINE
  5
154
  8
0
 62
     7
 10
109.48399999999999
 20
84.171400000000006
 30
0.0
 11
109.4249999999999
 21
84.025400000000005
 31
0.0
  0
LINE
  5
155
  8
0
 62
     7
 10
109.4249999999999
 20
84.025400000000005
 30
0.0
 11
109.342
 21
83.891000000000005
 31
0.0
  0
LINE
  5
156
  8
0
 62
     7
 10
109.342
 20
83.891000000000005
 30
0.0
 11
109.23999999999999
 21
83.771100000000004
 31
0.0
  0
LINE
  5
157
  8
0
 62
     7
 10
109.23999999999999
 20
83.771100000000004
 30
0.0
 11
109.12
 21
83.669200000000004
 31
0.0
  0
LINE
  5
158
  8
0
 62
     7
 10
109.12
 20
83.669200000000004
 30
0.0
 11
108.986
 21
83.588499999999996
 31
0.0
  0
LINE
  5
159
  8
0
 62
     7
 10
108.986
 20
83.588499999999996
 30
0.0
 11
108.84099999999999
 21
83.527199999999993
 31
0.0
  0
LINE
  5
15A
  8
0
 62
     7
 10
30.080400000000001
 20
85.687999999999988
 30
0.0
 11
29.4878
 21
83.476200000000006
 31
0.0
  0
LINE
  5
15B
  8
0
 62
     7
 10
29.4878
 20
83.476200000000006
 30
0.0
 11
28.895199999999999
 21
85.687999999999988
 31
0.0
  0
LINE
  5
15C
  8
0
 62
     7
 10
28.895199999999999
 20
85.687999999999988
 30
0.0
 11
30.080400000000001
 21
85.687999999999988
 31
0.0
  0
LINE
  5
15D
  8
0
 62
     7
 10
28.909700000000001
 20
128.268
 30
0.0
 11
29.502300000000002
 21
130.4789999999999
 31
0.0
  0
LINE
  5
15E
  8
0
 62
     7
 10
29.502300000000002
 20
130.4789999999999
 30
0.0
 11
30.094799999999989
 21
128.268
 31
0.0
  0
LINE
  5
15F
  8
0
 62
     7
 10
30.094799999999989
 20
128.268
 30
0.0
 11
28.909700000000001
 21
128.268
 31
0.0
  0
LINE
  5
160
  8
0
 62
     7
 10
29.495000000000001
 20
83.477599999999995
 30
0.0
 11
29.495000000000001
 21
130.47799999999989
 31
0.0
  0
LINE
  5
161
  8
0
 62
     7
 10
88.033100000000005
 20
221.64899999999989
 30
0.0
 11
88.033100000000005
 21
183.52000000000001
 31
0.0
  0
LINE
  5
162
  8
0
 62
     7
 10
58.032699999999998
 20
221.64899999999989
 30
0.0
 11
58.032699999999998
 21
183.52000000000001
 31
0.0
  0
LINE
  5
163
  8
0
 62
     7
 10
84.641000000000005
 20
194.61000000000001
 30
0.0
 11
83.533100000000005
 21
192.60699999999991
 31
0.0
  0
LINE
  5
164
  8
0
 62
     7
 10
83.533100000000005
 20
192.60699999999991
 30
0.0
 11
85.494699999999995
 21
193.7879999999999
 31
0.0
  0
LINE
  5
165
  8
0
 62
     7
 10
85.494699999999995
 20
193.7879999999999
 30
0.0
 11
84.641000000000005
 21
194.61000000000001
 31
0.0
  0
LINE
  5
166
  8
0
 62
     7
 10
83.528899999999993
 20
192.613
 30
0.0
 11
93.275499999999994
 21
202.72900000000001
 31
0.0
  0
LINE
  5
167
  8
0
 62
     7
 10
60.243000000000002
 20
221.53499999999991
 30
0.0
 11
58.031300000000002
 21
220.94200000000001
 31
0.0
  0
LINE
  5
168
  8
0
 62
     7
 10
58.031300000000002
 20
220.94200000000001
 30
0.0
 11
60.243000000000002
 21
220.34899999999999
 31
0.0
  0
LINE
  5
169
  8
0
 62
     7
 10
60.243000000000002
 20
220.34899999999999
 30
0.0
 11
60.243000000000002
 21
221.53499999999991
 31
0.0
  0
LINE
  5
16A
  8
0
 62
     7
 10
85.822299999999998
 20
220.364
 30
0.0
 11
88.034099999999995
 21
220.95699999999991
 31
0.0
  0
LINE
  5
16B
  8
0
 62
     7
 10
88.034099999999995
 20
220.95699999999991
 30
0.0
 11
85.822299999999998
 21
221.54899999999989
 31
0.0
  0
LINE
  5
16C
  8
0
 62
     7
 10
85.822299999999998
 20
221.54899999999989
 30
0.0
 11
85.822299999999998
 21
220.364
 31
0.0
  0
LINE
  5
16D
  8
0
 62
     7
 10
58.032699999999998
 20
220.94900000000001
 30
0.0
 11
88.033100000000005
 21
220.94900000000001
 31
0.0
  0
LINE
  5
16E
  8
0
 62
     7
 10
65.743499999999983
 20
214.45799999999991
 30
0.0
 11
63.531799999999997
 21
213.86500000000001
 31
0.0
  0
LINE
  5
16F
  8
0
 62
     7
 10
63.531799999999997
 20
213.86500000000001
 30
0.0
 11
65.743499999999983
 21
213.273
 31
0.0
  0
LINE
  5
170
  8
0
 62
     7
 10
65.743499999999983
 20
213.273
 30
0.0
 11
65.743499999999983
 21
214.45799999999991
 31
0.0
  0
LINE
  5
171
  8
0
 62
     7
 10
80.322599999999994
 20
213.28700000000001
 30
0.0
 11
82.534299999999988
 21
213.87999999999991
 31
0.0
  0
LINE
  5
172
  8
0
 62
     7
 10
82.534299999999988
 20
213.87999999999991
 30
0.0
 11
80.322599999999994
 21
214.47300000000001
 31
0.0
  0
LINE
  5
173
  8
0
 62
     7
 10
80.322599999999994
 20
214.47300000000001
 30
0.0
 11
80.322599999999994
 21
213.28700000000001
 31
0.0
  0
LINE
  5
174
  8
0
 62
     7
 10
93.275499999999994
 20
202.72900000000001
 30
0.0
 11
134.923
 21
202.72900000000001
 31
0.0
  0
LINE
  5
175
  8
0
 62
     7
 10
63.532800000000002
 20
213.87299999999991
 30
0.0
 11
82.532999999999987
 21
213.87299999999991
 31
0.0
  0
LINE
  5
176
  8
0
 62
     7
 10
82.532999999999987
 20
207.208
 30
0.0
 11
82.532999999999987
 21
214.57299999999989
 31
0.0
  0
LINE
  5
177
  8
0
 62
     7
 10
63.532800000000002
 20
207.208
 30
0.0
 11
63.532800000000002
 21
214.57299999999989
 31
0.0
  0
LINE
  5
178
  8
0
 62
     7
 10
88.033100000000005
 20
169.06999999999991
 30
0.0
 11
88.533299999999997
 21
169.06999999999991
 31
0.0
  0
LINE
  5
179
  8
0
 62
     7
 10
57.532800000000002
 20
169.06999999999991
 30
0.0
 11
58.032699999999998
 21
169.06999999999991
 31
0.0
  0
LINE
  5
17A
  8
0
 62
     7
 10
88.033100000000005
 20
171.571
 30
0.0
 11
88.533299999999997
 21
171.571
 31
0.0
  0
LINE
  5
17B
  8
0
 62
     7
 10
57.532800000000002
 20
171.571
 30
0.0
 11
58.032699999999998
 21
171.571
 31
0.0
  0
LINE
  5
17C
  8
0
 62
     7
 10
58.032699999999998
 20
182.81999999999999
 30
0.0
 11
88.033100000000005
 21
182.81999999999999
 31
0.0
  0
LINE
  5
17D
  8
0
 62
     7
 10
58.032699999999998
 20
168.82099999999991
 30
0.0
 11
88.033100000000005
 21
168.82099999999991
 31
0.0
  0
LINE
  5
17E
  8
0
 62
     7
 10
88.532999999999987
 20
168.321
 30
0.0
 11
88.532999999999987
 21
172.82099999999991
 31
0.0
  0
LINE
  5
17F
  8
0
 62
     7
 10
57.532800000000002
 20
168.321
 30
0.0
 11
57.532800000000002
 21
172.82099999999991
 31
0.0
  0
LINE
  5
180
  8
0
  6
AIGENLINE002
 62
     7
 10
85.938299999999998
 20
170.321
 30
0.0
 11
91.165599999999984
 21
170.321
 31
0.0
  0
LINE
  5
181
  8
0
  6
AIGENLINE002
 62
     7
 10
55.300699999999999
 20
170.321
 30
0.0
 11
60.527999999999999
 21
170.321
 31
0.0
  0
LINE
  5
182
  8
0
 62
     7
 10
57.532800000000002
 20
168.321
 30
0.0
 11
88.533299999999997
 21
168.321
 31
0.0
  0
LINE
  5
183
  8
0
 62
     7
 10
88.033100000000005
 20
168.82099999999991
 30
0.0
 11
88.033100000000005
 21
182.81999999999999
 31
0.0
  0
LINE
  5
184
  8
0
 62
     7
 10
58.032699999999998
 20
168.82099999999991
 30
0.0
 11
58.032699999999998
 21
182.81999999999999
 31
0.0
  0
LINE
  5
185
  8
0
 62
     7
 10
88.533299999999997
 20
172.82099999999991
 30
0.0
 11
109.5329999999999
 21
172.82099999999991
 31
0.0
  0
LINE
  5
186
  8
0
 62
     7
 10
36.532699999999998
 20
172.82099999999991
 30
0.0
 11
57.532800000000002
 21
172.82099999999991
 31
0.0
  0
LINE
  5
187
  8
0
 62
     7
 10
109.5329999999999
 20
164.81999999999991
 30
0.0
 11
109.5329999999999
 21
172.82099999999991
 31
0.0
  0
LINE
  5
188
  8
0
 62
     7
 10
36.532699999999998
 20
164.81999999999991
 30
0.0
 11
36.532699999999998
 21
172.82099999999991
 31
0.0
  0
LINE
  5
189
  8
0
 62
     7
 10
36.532699999999998
 20
164.81999999999991
 30
0.0
 11
109.5329999999999
 21
164.81999999999991
 31
0.0
  0
LINE
  5
18A
  8
0
 62
     7
 10
144.7179999999999
 20
127.0229999999999
 30
0.0
 11
144.7179999999999
 21
126.47199999999999
 31
0.0
  0
LINE
  5
18B
  8
0
 62
     7
 10
144.7179999999999
 20
126.47199999999999
 30
0.0
 11
144.7179999999999
 21
125.92100000000001
 31
0.0
  0
LINE
  5
18C
  8
0
  6
AIGENLINE002
 62
     7
 10
143.29099999999991
 20
126.47199999999999
 30
0.0
 11
168.40599999999989
 21
126.47199999999999
 31
0.0
  0
LINE
  5
18D
  8
0
 62
     7
 10
144.7179999999999
 20
127.0229999999999
 30
0.0
 11
165.357
 21
127.0229999999999
 31
0.0
  0
LINE
  5
18E
  8
0
 62
     7
 10
144.7179999999999
 20
125.92100000000001
 30
0.0
 11
165.357
 21
125.92100000000001
 31
0.0
  0
LINE
  5
18F
  8
0
 62
     7
 10
164.55199999999999
 20
127.47199999999999
 30
0.0
 11
165.31899999999999
 21
125.47199999999999
 31
0.0
  0
LINE
  5
190
  8
0
 62
     7
 10
162.74899999999991
 20
127.47199999999999
 30
0.0
 11
163.517
 21
125.47199999999999
 31
0.0
  0
LINE
  5
191
  8
0
 62
     7
 10
160.94699999999989
 20
127.47199999999999
 30
0.0
 11
161.714
 21
125.47199999999999
 31
0.0
  0
LINE
  5
192
  8
0
 62
     7
 10
159.14400000000001
 20
127.47199999999999
 30
0.0
 11
159.91200000000001
 21
125.47199999999999
 31
0.0
  0
LINE
  5
193
  8
0
 62
     7
 10
157.34200000000001
 20
127.47199999999999
 30
0.0
 11
158.11000000000001
 21
125.47199999999999
 31
0.0
  0
LINE
  5
194
  8
0
 62
     7
 10
155.5389999999999
 20
127.47199999999999
 30
0.0
 11
156.30699999999999
 21
125.47199999999999
 31
0.0
  0
LINE
  5
195
  8
0
 62
     7
 10
153.73699999999991
 20
127.47199999999999
 30
0.0
 11
154.50499999999991
 21
125.47199999999999
 31
0.0
  0
LINE
  5
196
  8
0
 62
     7
 10
151.93399999999991
 20
127.47199999999999
 30
0.0
 11
152.703
 21
125.47199999999999
 31
0.0
  0
LINE
  5
197
  8
0
 62
     7
 10
150.13199999999989
 20
127.47199999999999
 30
0.0
 11
150.90000000000001
 21
125.47199999999999
 31
0.0
  0
LINE
  5
198
  8
0
 62
     7
 10
165.357
 20
127.0229999999999
 30
0.0
 11
167.21899999999999
 21
126.47199999999999
 31
0.0
  0
LINE
  5
199
  8
0
 62
     7
 10
167.21899999999999
 20
126.47199999999999
 30
0.0
 11
165.357
 21
125.92100000000001
 31
0.0
  0
LINE
  5
19A
  8
0
 62
     7
 10
149.71899999999991
 20
127.47199999999999
 30
0.0
 11
149.71899999999991
 21
125.47199999999999
 31
0.0
  0
LINE
  5
19B
  8
0
 62
     7
 10
62.981900000000003
 20
182.81999999999999
 30
0.0
 11
63.532800000000002
 21
182.81999999999999
 31
0.0
  0
LINE
  5
19C
  8
0
 62
     7
 10
63.532800000000002
 20
182.81999999999999
 30
0.0
 11
64.083699999999993
 21
182.81999999999999
 31
0.0
  0
LINE
  5
19D
  8
0
  6
AIGENLINE002
 62
     7
 10
63.532800000000002
 20
182.09999999999991
 30
0.0
 11
63.532800000000002
 21
206.50800000000001
 31
0.0
  0
LINE
  5
19E
  8
0
 62
     7
 10
62.981900000000003
 20
182.81999999999999
 30
0.0
 11
62.981900000000003
 21
203.459
 31
0.0
  0
LINE
  5
19F
  8
0
 62
     7
 10
64.083699999999993
 20
182.81999999999999
 30
0.0
 11
64.083699999999993
 21
203.459
 31
0.0
  0
LINE
  5
1A0
  8
0
 62
     7
 10
62.532699999999998
 20
202.65299999999999
 30
0.0
 11
64.532899999999984
 21
203.42099999999991
 31
0.0
  0
LINE
  5
1A1
  8
0
 62
     7
 10
62.532699999999998
 20
200.851
 30
0.0
 11
64.532899999999984
 21
201.619
 31
0.0
  0
LINE
  5
1A2
  8
0
 62
     7
 10
62.532699999999998
 20
199.04900000000001
 30
0.0
 11
64.532899999999984
 21
199.81599999999989
 31
0.0
  0
LINE
  5
1A3
  8
0
 62
     7
 10
62.532699999999998
 20
197.2459999999999
 30
0.0
 11
64.532899999999984
 21
198.01400000000001
 31
0.0
  0
LINE
  5
1A4
  8
0
 62
     7
 10
62.532699999999998
 20
195.44399999999999
 30
0.0
 11
64.532899999999984
 21
196.21199999999999
 31
0.0
  0
LINE
  5
1A5
  8
0
 62
     7
 10
62.532699999999998
 20
193.64099999999999
 30
0.0
 11
64.532899999999984
 21
194.40899999999999
 31
0.0
  0
LINE
  5
1A6
  8
0
 62
     7
 10
62.532699999999998
 20
191.839
 30
0.0
 11
64.532899999999984
 21
192.60699999999991
 31
0.0
  0
LINE
  5
1A7
  8
0
 62
     7
 10
62.532699999999998
 20
190.03599999999989
 30
0.0
 11
64.532899999999984
 21
190.80500000000001
 31
0.0
  0
LINE
  5
1A8
  8
0
 62
     7
 10
62.532699999999998
 20
188.23400000000001
 30
0.0
 11
64.532899999999984
 21
189.0019999999999
 31
0.0
  0
LINE
  5
1A9
  8
0
 62
     7
 10
62.981900000000003
 20
203.459
 30
0.0
 11
63.532800000000002
 21
205.32099999999991
 31
0.0
  0
LINE
  5
1AA
  8
0
 62
     7
 10
63.532800000000002
 20
205.32099999999991
 30
0.0
 11
64.083699999999993
 21
203.459
 31
0.0
  0
LINE
  5
1AB
  8
0
 62
     7
 10
62.532699999999998
 20
187.82099999999991
 30
0.0
 11
64.532899999999984
 21
187.82099999999991
 31
0.0
  0
LINE
  5
1AC
  8
0
 62
     7
 10
81.982100000000017
 20
182.81999999999999
 30
0.0
 11
82.532999999999987
 21
182.81999999999999
 31
0.0
  0
LINE
  5
1AD
  8
0
 62
     7
 10
82.532999999999987
 20
182.81999999999999
 30
0.0
 11
83.083799999999997
 21
182.81999999999999
 31
0.0
  0
LINE
  5
1AE
  8
0
  6
AIGENLINE002
 62
     7
 10
82.532999999999987
 20
182.09999999999991
 30
0.0
 11
82.532999999999987
 21
206.50800000000001
 31
0.0
  0
LINE
  5
1AF
  8
0
 62
     7
 10
81.982100000000017
 20
182.81999999999999
 30
0.0
 11
81.982100000000017
 21
203.459
 31
0.0
  0
LINE
  5
1B0
  8
0
 62
     7
 10
83.083799999999997
 20
182.81999999999999
 30
0.0
 11
83.083799999999997
 21
203.459
 31
0.0
  0
LINE
  5
1B1
  8
0
 62
     7
 10
81.532799999999995
 20
202.65299999999999
 30
0.0
 11
83.533100000000005
 21
203.42099999999991
 31
0.0
  0
LINE
  5
1B2
  8
0
 62
     7
 10
81.532799999999995
 20
200.851
 30
0.0
 11
83.533100000000005
 21
201.619
 31
0.0
  0
LINE
  5
1B3
  8
0
 62
     7
 10
81.532799999999995
 20
199.04900000000001
 30
0.0
 11
83.533100000000005
 21
199.81599999999989
 31
0.0
  0
LINE
  5
1B4
  8
0
 62
     7
 10
81.532799999999995
 20
197.2459999999999
 30
0.0
 11
83.533100000000005
 21
198.01400000000001
 31
0.0
  0
LINE
  5
1B5
  8
0
 62
     7
 10
81.532799999999995
 20
195.44399999999999
 30
0.0
 11
83.533100000000005
 21
196.21199999999999
 31
0.0
  0
LINE
  5
1B6
  8
0
 62
     7
 10
81.532799999999995
 20
193.64099999999999
 30
0.0
 11
83.533100000000005
 21
194.40899999999999
 31
0.0
  0
LINE
  5
1B7
  8
0
 62
     7
 10
81.532799999999995
 20
191.839
 30
0.0
 11
83.533100000000005
 21
192.60699999999991
 31
0.0
  0
LINE
  5
1B8
  8
0
 62
     7
 10
81.532799999999995
 20
190.03599999999989
 30
0.0
 11
83.533100000000005
 21
190.80500000000001
 31
0.0
  0
LINE
  5
1B9
  8
0
 62
     7
 10
81.532799999999995
 20
188.23400000000001
 30
0.0
 11
83.533100000000005
 21
189.0019999999999
 31
0.0
  0
LINE
  5
1BA
  8
0
 62
     7
 10
81.982100000000017
 20
203.459
 30
0.0
 11
82.532999999999987
 21
205.32099999999991
 31
0.0
  0
LINE
  5
1BB
  8
0
 62
     7
 10
82.532999999999987
 20
205.32099999999991
 30
0.0
 11
83.083799999999997
 21
203.459
 31
0.0
  0
LINE
  5
1BC
  8
0
 62
     7
 10
81.532799999999995
 20
187.82099999999991
 30
0.0
 11
83.533100000000005
 21
187.82099999999991
 31
0.0
  0
TEXT
  5
1BD
  8
_________2
 62
     7
 10
109.179
 20
24.226099999999999
 30
0.0
 40
3.9357000000000002
  1
エディション11 ペーパーホルダー
 41
0.5
  0
LINE
  5
1BE
  8
_________2
 62
     7
 10
205.30099999999999
 20
127.411
 30
0.0
 11
183.55099999999999
 21
127.411
 31
0.0
  0
LINE
  5
1BF
  8
_________2
 62
     7
 10
100.2999999999999
 20
-4.0910799999999998
 30
0.0
 11
100.2999999999999
 21
-21.070999999999991
 31
0.0
  0
LINE
  5
1C0
  8
_________2
 62
     7
 10
100.2999999999999
 20
275.93099999999993
 30
0.0
 11
100.2999999999999
 21
258.911
 31
0.0
  0
LINE
  5
1C1
  8
_________2
 62
     7
 10
17.049199999999988
 20
127.411
 30
0.0
 11
-4.7012099999999988
 21
127.411
 31
0.0
  0
LINE
  5
1C2
  8
_________2
 62
     7
 10
76.740700000000004
 20
29.8047
 30
0.0
 11
74.554400000000001
 21
29.8047
 31
0.0
  0
LINE
  5
1C3
  8
_________2
 62
     7
 10
77.2333
 20
29.8047
 30
0.0
 11
76.981099999999984
 21
29.8047
 31
0.0
  0
LINE
  5
1C4
  8
_________2
 62
     7
 10
77.725999999999999
 20
29.8047
 30
0.0
 11
80.650899999999993
 21
29.8047
 31
0.0
  0
LINE
  5
1C5
  8
_________2
 62
     7
 10
77.2333
 20
29.8047
 30
0.0
 11
77.485500000000002
 21
29.8047
 31
0.0
  0
LINE
  5
1C6
  8
_________2
 62
     7
 10
70.837100000000007
 20
29.8047
 30
0.0
 11
68.650199999999998
 21
29.8047
 31
0.0
  0
LINE
  5
1C7
  8
_________2
 62
     7
 10
71.329099999999997
 20
29.8047
 30
0.0
 11
71.077600000000004
 21
29.8047
 31
0.0
  0
LINE
  5
1C8
  8
_________2
 62
     7
 10
71.329099999999997
 20
30.2974
 30
0.0
 11
71.329099999999997
 21
32.484400000000001
 31
0.0
  0
LINE
  5
1C9
  8
_________2
 62
     7
 10
71.329099999999997
 20
29.8047
 30
0.0
 11
71.329099999999997
 21
30.057300000000001
 31
0.0
  0
LINE
  5
1CA
  8
_________2
 62
     7
 10
71.821700000000007
 20
29.8047
 30
0.0
 11
74.008700000000005
 21
29.8047
 31
0.0
  0
LINE
  5
1CB
  8
_________2
 62
     7
 10
71.329099999999997
 20
29.8047
 30
0.0
 11
71.581299999999985
 21
29.8047
 31
0.0
  0
LINE
  5
1CC
  8
_________2
 62
     7
 10
71.329099999999997
 20
29.312799999999999
 30
0.0
 11
71.329099999999997
 21
27.126200000000001
 31
0.0
  0
LINE
  5
1CD
  8
_________2
 62
     7
 10
71.329099999999997
 20
29.8047
 30
0.0
 11
71.329099999999997
 21
29.5532
 31
0.0
  0
LINE
  5
1CE
  8
_________2
 62
     7
 10
75.040199999999999
 20
28.5852
 30
0.0
 11
80.218199999999996
 21
27.720400000000001
 31
0.0
  0
LINE
  5
1CF
  8
_________2
 62
     7
 10
75.040199999999999
 20
31.024699999999999
 30
0.0
 11
80.218199999999996
 21
31.8901
 31
0.0
  0
LINE
  5
1D0
  8
_________2
 62
     7
 10
80.218199999999996
 20
27.720400000000001
 30
0.0
 11
80.218199999999996
 21
31.8901
 31
0.0
  0
LINE
  5
1D1
  8
_________2
 62
     7
 10
75.040199999999999
 20
28.5852
 30
0.0
 11
75.040199999999999
 21
31.024699999999999
 31
0.0
  0
ARC
  5
1D2
  8
_________2
 62
     7
 10
71.282501999999994
 20
29.757801000000001
 30
0.0
 40
1.267714
 50
2.1220840000000001
 51
87.894083999999992
  0
ARC
  5
1D3
  8
_________2
 62
     7
 10
71.375640000000004
 20
29.758545999999999
 30
0.0
 40
1.2669680000000001
 50
92.105782999999988
 51
177.91037
  0
ARC
  5
1D4
  8
_________2
 62
     7
 10
71.376013999999998
 20
29.851671
 30
0.0
 40
1.2673680000000001
 50
182.12203600000001
 51
267.877993
  0
ARC
  5
1D5
  8
_________2
 62
     7
 10
71.282195999999999
 20
29.852347999999999
 30
0.0
 40
1.2680439999999991
 50
272.11916400000001
 51
357.84848499999993
  0
ARC
  5
1D6
  8
_________2
 62
     7
 10
71.248716999999985
 20
29.724731999999989
 30
0.0
 40
2.1668310000000002
 50
2.1161439999999989
 51
87.874379000000005
  0
ARC
  5
1D7
  8
_________2
 62
     7
 10
71.408756000000011
 20
29.726146
 30
0.0
 40
2.165392999999999
 50
92.108508999999998
 51
177.91986499999999
  0
ARC
  5
1D8
  8
_________2
 62
     7
 10
71.409094999999994
 20
29.884751999999999
 30
0.0
 40
2.1657829999999998
 50
182.117133
 51
267.88289700000001
  0
ARC
  5
1D9
  8
_________2
 62
     7
 10
71.249115000000003
 20
29.885429999999989
 30
0.0
 40
2.1664590000000001
 50
272.11546800000002
 51
357.86560400000002
  0
TEXT
  5
1DA
  8
_________2
 62
     7
 10
104.605
 20
1.6794899999999999
 30
0.0
 40
3.0923400000000001
  1
図番
 41
0.5
  0
LINE
  5
1DB
  8
_________2
 62
     7
 10
103.55
 20
5.9087199999999989
 30
0.0
 11
183.55099999999999
 21
5.9087199999999989
 31
0.0
  0
TEXT
  5
1DC
  8
_________2
 62
     7
 10
104.605
 20
11.679299999999991
 30
0.0
 40
3.0923400000000001
  1
品番
 41
0.5
  0
TEXT
  5
1DD
  8
_________2
 62
     7
 10
104.605
 20
31.8184
 30
0.0
 40
3.0923400000000001
  1
名称
 41
0.5
  0
TEXT
  5
1DE
  8
_________2
 62
     7
 10
91.844758333333345
 20
26.822299999999998
 30
0.0
 40
3.6545800000000002
  1
mm
 41
0.5
 72
     1
 11
93.367500000000007
 21
26.822299999999998
 31
0.0
  0
TEXT
  5
1DF
  8
_________2
 62
     7
 10
85.642899999999983
 20
31.8184
 30
0.0
 40
3.0923400000000001
  1
単位
 41
0.5
  0
TEXT
  5
1E0
  8
_________2
 62
     7
 10
85.642899999999983
 20
19.410799999999991
 30
0.0
 40
3.0923400000000001
  1
尺度
 41
0.5
  0
TEXT
  5
1E1
  8
_________2
 62
     7
 10
90.548458666666676
 20
13.218199999999991
 30
0.0
 40
3.6545800000000002
  1
1 ： 2
 41
0.5
 72
     1
 11
93.959400000000016
 21
13.218199999999991
 31
0.0
  0
TEXT
  5
1E2
  8
_________2
 62
     7
 10
137.974425
 20
9.1082000000000001
 30
0.0
 40
3.9357000000000002
  1
KC11162
 41
0.5
 72
     1
 11
143.55000000000001
 21
9.1082000000000001
 31
0.0
  0
TEXT
  5
1E3
  8
_________2
 62
     7
 10
137.974425
 20
-0.8926299999999999
 30
0.0
 40
3.9357000000000002
  1
KC11162
 41
0.5
 72
     1
 11
143.55000000000001
 21
-0.8926299999999999
 31
0.0
  0
TEXT
  5
1E4
  8
_________2
 62
     7
 10
39.364090666666669
 20
13.603400000000001
 30
0.0
 40
3.6545800000000002
  1
石原
 41
0.5
 72
     1
 11
41.313200000000002
 21
13.603400000000001
 31
0.0
  0
TEXT
  5
1E5
  8
_________2
 62
     7
 10
20.790090666666661
 20
13.603400000000001
 30
0.0
 40
3.6545800000000002
  1
菅原
 41
0.5
 72
     1
 11
22.73919999999999
 21
13.603400000000001
 31
0.0
  0
TEXT
  5
1E6
  8
_________2
 62
     7
 10
67.785399999999996
 20
13.218199999999991
 30
0.0
 40
3.6545800000000002
  1
11.12.22
 41
0.5
  0
TEXT
  5
1E7
  8
_________2
 62
     7
 10
66.592699999999994
 20
19.410799999999991
 30
0.0
 40
3.0923400000000001
  1
日付
 41
0.5
  0
TEXT
  5
1E8
  8
_________2
 62
     7
 10
29.638999999999999
 20
19.410799999999991
 30
0.0
 40
3.0923400000000001
  1
検図
 41
0.5
  0
TEXT
  5
1E9
  8
_________2
 62
     7
 10
18.020700000000001
 20
5.21143
 30
0.0
 40
3.0923400000000001
  1
備考
 41
0.5
  0
TEXT
  5
1EA
  8
_________2
 62
     7
 10
18.020700000000001
 20
19.410799999999991
 30
0.0
 40
3.0923400000000001
  1
製図
 41
0.5
  0
TEXT
  5
1EB
  8
_________2
 62
     7
 10
23.788165333333328
 20
27.936800000000002
 30
0.0
 40
4.4979399999999989
  1
セラトレーディング株式会社
 41
0.5
 72
     1
 11
41.180199999999999
 21
27.936800000000002
 31
0.0
  0
LINE
  5
1EC
  8
_________2
 62
     7
 10
183.55099999999999
 20
-4.0910799999999998
 30
0.0
 11
17.049199999999988
 21
-4.0910799999999998
 31
0.0
  0
LINE
  5
1ED
  8
_________2
 62
     7
 10
17.049199999999988
 20
-4.0910799999999998
 30
0.0
 11
17.049199999999988
 21
258.911
 31
0.0
  0
LINE
  5
1EE
  8
_________2
 62
     7
 10
17.049199999999988
 20
258.911
 30
0.0
 11
183.55099999999999
 21
258.911
 31
0.0
  0
LINE
  5
1EF
  8
_________2
 62
     7
 10
183.55099999999999
 20
258.911
 30
0.0
 11
183.55099999999999
 21
-4.0910799999999998
 31
0.0
  0
LINE
  5
1F0
  8
_________2
 62
     7
 10
65.549599999999998
 20
9.4092999999999982
 30
0.0
 11
65.549599999999998
 21
35.909100000000002
 31
0.0
  0
LINE
  5
1F1
  8
_________2
 62
     7
 10
84.549400000000006
 20
9.4092999999999982
 30
0.0
 11
84.549400000000006
 21
35.909100000000002
 31
0.0
  0
LINE
  5
1F2
  8
_________2
 62
     7
 10
103.55
 20
-4.0910799999999998
 30
0.0
 11
103.55
 21
35.909100000000002
 31
0.0
  0
LINE
  5
1F3
  8
_________2
 62
     7
 10
28.548999999999999
 20
9.4092999999999982
 30
0.0
 11
28.548999999999999
 21
23.409199999999998
 31
0.0
  0
LINE
  5
1F4
  8
_________2
 62
     7
 10
17.049199999999988
 20
9.4092999999999982
 30
0.0
 11
103.55
 21
9.4092999999999982
 31
0.0
  0
LINE
  5
1F5
  8
_________2
 62
     7
 10
17.049199999999988
 20
23.409199999999998
 30
0.0
 11
103.55
 21
23.409199999999998
 31
0.0
  0
LINE
  5
1F6
  8
_________2
 62
     7
 10
103.55
 20
15.9085
 30
0.0
 11
183.55099999999999
 21
15.9085
 31
0.0
  0
LINE
  5
1F7
  8
_________2
 62
     7
 10
17.049199999999988
 20
35.909100000000002
 30
0.0
 11
183.55099999999999
 21
35.909100000000002
 31
0.0
  0
ENDSEC
  0
EOF
