  0
SECTION
  2
HEADER
  9
$ACADVER
  1
AC1015
  9
$ACADMAINTVER
 70
     6
  9
$DWGCODEPAGE
  3
ANSI_932
  9
$INSBASE
 10
0.0
 20
0.0
 30
0.0
  9
$EXTMIN
 10
-4.700689999999999
 20
-21.07099999999999
 30
0.0
  9
$EXTMAX
 10
205.301
 20
275.9309999999999
 30
0.0
  9
$LIMMIN
 10
0.0
 20
0.0
  9
$LIMMAX
 10
12.0
 20
9.0
  9
$ORTHOMODE
 70
     0
  9
$REGENMODE
 70
     1
  9
$FILLMODE
 70
     1
  9
$QTEXTMODE
 70
     0
  9
$MIRRTEXT
 70
     1
  9
$LTSCALE
 40
1.0
  9
$ATTMODE
 70
     1
  9
$TEXTSIZE
 40
0.0
  9
$TRACEWID
 40
0.05
  9
$TEXTSTYLE
  7
STANDARD
  9
$CLAYER
  8
0
  9
$CELTYPE
  6
CONTINUOUS
  9
$CECOLOR
 62
   256
  9
$CELTSCALE
 40
1.0
  9
$DISPSILH
 70
     0
  9
$DIMSCALE
 40
1.0
  9
$DIMASZ
 40
0.18
  9
$DIMEXO
 40
0.0625
  9
$DIMDLI
 40
0.38
  9
$DIMRND
 40
0.0
  9
$DIMDLE
 40
0.0
  9
$DIMEXE
 40
0.18
  9
$DIMTP
 40
0.0
  9
$DIMTM
 40
0.0
  9
$DIMTXT
 40
0.18
  9
$DIMCEN
 40
0.09
  9
$DIMTSZ
 40
0.0
  9
$DIMTOL
 70
     0
  9
$DIMLIM
 70
     0
  9
$DIMTIH
 70
     1
  9
$DIMTOH
 70
     1
  9
$DIMSE1
 70
     0
  9
$DIMSE2
 70
     0
  9
$DIMTAD
 70
     0
  9
$DIMZIN
 70
     0
  9
$DIMBLK
  1

  9
$DIMASO
 70
     1
  9
$DIMSHO
 70
     1
  9
$DIMPOST
  1

  9
$DIMAPOST
  1

  9
$DIMALT
 70
     0
  9
$DIMALTD
 70
     2
  9
$DIMALTF
 40
25.4
  9
$DIMLFAC
 40
1.0
  9
$DIMTOFL
 70
     0
  9
$DIMTVP
 40
0.0
  9
$DIMTIX
 70
     0
  9
$DIMSOXD
 70
     0
  9
$DIMSAH
 70
     0
  9
$DIMBLK1
  1

  9
$DIMBLK2
  1

  9
$DIMSTYLE
  2
STANDARD
  9
$DIMCLRD
 70
     0
  9
$DIMCLRE
 70
     0
  9
$DIMCLRT
 70
     0
  9
$DIMTFAC
 40
1.0
  9
$DIMGAP
 40
0.09
  9
$DIMJUST
 70
     0
  9
$DIMSD1
 70
     0
  9
$DIMSD2
 70
     0
  9
$DIMTOLJ
 70
     1
  9
$DIMTZIN
 70
     0
  9
$DIMALTZ
 70
     0
  9
$DIMALTTZ
 70
     0
  9
$DIMUPT
 70
     0
  9
$DIMDEC
 70
     4
  9
$DIMTDEC
 70
     4
  9
$DIMALTU
 70
     2
  9
$DIMALTTD
 70
     2
  9
$DIMTXSTY
  7
STANDARD
  9
$DIMAUNIT
 70
     0
  9
$DIMADEC
 70
     0
  9
$DIMALTRND
 40
0.0
  9
$DIMAZIN
 70
     0
  9
$DIMDSEP
 70
    46
  9
$DIMATFIT
 70
     3
  9
$DIMFRAC
 70
     0
  9
$DIMLDRBLK
  1

  9
$DIMLUNIT
 70
     2
  9
$DIMLWD
 70
    -2
  9
$DIMLWE
 70
    -2
  9
$DIMTMOVE
 70
     0
  9
$LUNITS
 70
     2
  9
$LUPREC
 70
     4
  9
$SKETCHINC
 40
0.1
  9
$FILLETRAD
 40
0.0
  9
$AUNITS
 70
     0
  9
$AUPREC
 70
     0
  9
$MENU
  1
.
  9
$ELEVATION
 40
0.0
  9
$PELEVATION
 40
0.0
  9
$THICKNESS
 40
0.0
  9
$LIMCHECK
 70
     0
  9
$CHAMFERA
 40
0.0
  9
$CHAMFERB
 40
0.0
  9
$CHAMFERC
 40
0.0
  9
$CHAMFERD
 40
0.0
  9
$SKPOLY
 70
     0
  9
$TDCREATE
 40
2444972.375000000
  9
$TDUCREATE
 40
2444972.000000000
  9
$TDUPDATE
 40
2455216.799795231
  9
$TDUUPDATE
 40
2455216.424795231
  9
$TDINDWG
 40
0.0013229745
  9
$TDUSRTIMER
 40
0.0013229745
  9
$USRTIMER
 70
     1
  9
$ANGBASE
 50
0.0
  9
$ANGDIR
 70
     0
  9
$PDMODE
 70
     0
  9
$PDSIZE
 40
0.0
  9
$PLINEWID
 40
0.0
  9
$SPLFRAME
 70
     0
  9
$SPLINETYPE
 70
     6
  9
$SPLINESEGS
 70
     8
  9
$HANDSEED
  5
14D
  9
$SURFTAB1
 70
     6
  9
$SURFTAB2
 70
     6
  9
$SURFTYPE
 70
     6
  9
$SURFU
 70
     6
  9
$SURFV
 70
     6
  9
$UCSBASE
  2

  9
$UCSNAME
  2

  9
$UCSORG
 10
0.0
 20
0.0
 30
0.0
  9
$UCSXDIR
 10
1.0
 20
0.0
 30
0.0
  9
$UCSYDIR
 10
0.0
 20
1.0
 30
0.0
  9
$UCSORTHOREF
  2

  9
$UCSORTHOVIEW
 70
     0
  9
$UCSORGTOP
 10
0.0
 20
0.0
 30
0.0
  9
$UCSORGBOTTOM
 10
0.0
 20
0.0
 30
0.0
  9
$UCSORGLEFT
 10
0.0
 20
0.0
 30
0.0
  9
$UCSORGRIGHT
 10
0.0
 20
0.0
 30
0.0
  9
$UCSORGFRONT
 10
0.0
 20
0.0
 30
0.0
  9
$UCSORGBACK
 10
0.0
 20
0.0
 30
0.0
  9
$PUCSBASE
  2

  9
$PUCSNAME
  2

  9
$PUCSORG
 10
0.0
 20
0.0
 30
0.0
  9
$PUCSXDIR
 10
1.0
 20
0.0
 30
0.0
  9
$PUCSYDIR
 10
0.0
 20
1.0
 30
0.0
  9
$PUCSORTHOREF
  2

  9
$PUCSORTHOVIEW
 70
     0
  9
$PUCSORGTOP
 10
0.0
 20
0.0
 30
0.0
  9
$PUCSORGBOTTOM
 10
0.0
 20
0.0
 30
0.0
  9
$PUCSORGLEFT
 10
0.0
 20
0.0
 30
0.0
  9
$PUCSORGRIGHT
 10
0.0
 20
0.0
 30
0.0
  9
$PUCSORGFRONT
 10
0.0
 20
0.0
 30
0.0
  9
$PUCSORGBACK
 10
0.0
 20
0.0
 30
0.0
  9
$USERI1
 70
     0
  9
$USERI2
 70
     0
  9
$USERI3
 70
     0
  9
$USERI4
 70
     0
  9
$USERI5
 70
     0
  9
$USERR1
 40
0.0
  9
$USERR2
 40
0.0
  9
$USERR3
 40
0.0
  9
$USERR4
 40
0.0
  9
$USERR5
 40
0.0
  9
$WORLDVIEW
 70
     1
  9
$SHADEDGE
 70
     3
  9
$SHADEDIF
 70
    70
  9
$TILEMODE
 70
     1
  9
$MAXACTVP
 70
    48
  9
$PINSBASE
 10
0.0
 20
0.0
 30
0.0
  9
$PLIMCHECK
 70
     0
  9
$PEXTMIN
 10
1.000000000000000E+20
 20
1.000000000000000E+20
 30
1.000000000000000E+20
  9
$PEXTMAX
 10
-1.000000000000000E+20
 20
-1.000000000000000E+20
 30
-1.000000000000000E+20
  9
$PLIMMIN
 10
0.0
 20
0.0
  9
$PLIMMAX
 10
12.0
 20
9.0
  9
$UNITMODE
 70
     0
  9
$VISRETAIN
 70
     1
  9
$PLINEGEN
 70
     0
  9
$PSLTSCALE
 70
     1
  9
$TREEDEPTH
 70
  3020
  9
$CMLSTYLE
  2
STANDARD
  9
$CMLJUST
 70
     0
  9
$CMLSCALE
 40
1.0
  9
$PROXYGRAPHICS
 70
     1
  9
$MEASUREMENT
 70
     0
  9
$CELWEIGHT
370
    -1
  9
$ENDCAPS
280
     0
  9
$JOINSTYLE
280
     0
  9
$LWDISPLAY
290
     0
  9
$INSUNITS
 70
     0
  9
$HYPERLINKBASE
  1

  9
$STYLESHEET
  1

  9
$XEDIT
290
     1
  9
$CEPSNTYPE
380
     0
  9
$PSTYLEMODE
290
     1
  9
$FINGERPRINTGUID
  2
{EB52BB2E-FBF6-4578-86E4-037D641266B9}
  9
$VERSIONGUID
  2
{EA62A416-2923-41FA-8791-A174DAD76B1F}
  9
$EXTNAMES
290
     1
  9
$PSVPSCALE
 40
0.0
  9
$OLESTARTUP
290
     0
  0
ENDSEC
  0
SECTION
  2
CLASSES
  0
CLASS
  1
ACDBDICTIONARYWDFLT
  2
AcDbDictionaryWithDefault
  3
AutoCAD 2000
 90
        0
280
     0
281
     0
  0
CLASS
  1
ACDBPLACEHOLDER
  2
AcDbPlaceHolder
  3
AutoCAD 2000
 90
        0
280
     0
281
     0
  0
CLASS
  1
LAYOUT
  2
AcDbLayout
  3
AutoCAD 2000
 90
        0
280
     0
281
     0
  0
ENDSEC
  0
SECTION
  2
TABLES
  0
TABLE
  2
VPORT
  5
8
330
0
100
AcDbSymbolTable
 70
     2
  0
VPORT
  5
14C
330
8
100
AcDbSymbolTableRecord
100
AcDbViewportTableRecord
  2
*Active
 70
     0
 10
0.0
 20
0.0
 11
1.0
 21
1.0
 12
138.8712795848292
 22
127.4299999999999
 13
0.0
 23
0.0
 14
1.0
 24
1.0
 15
0.0
 25
0.0
 16
0.0
 26
0.0
 36
1.0
 17
0.0
 27
0.0
 37
0.0
 40
299.4592397057876
 41
1.912109375
 42
50.0
 43
0.0
 44
0.0
 50
0.0
 51
0.0
 71
     0
 72
   100
 73
     1
 74
     1
 75
     0
 76
     0
 77
     0
 78
     0
281
     0
 65
     1
110
0.0
120
0.0
130
0.0
111
1.0
121
0.0
131
0.0
112
0.0
122
1.0
132
0.0
 79
     0
146
0.0
  0
ENDTAB
  0
TABLE
  2
LTYPE
  5
5
330
0
100
AcDbSymbolTable
 70
     2
  0
LTYPE
  5
12
330
5
100
AcDbSymbolTableRecord
100
AcDbLinetypeTableRecord
  2
BYBLOCK
 70
     0
  3

 72
    65
 73
     0
 40
0.0
  0
LTYPE
  5
13
330
5
100
AcDbSymbolTableRecord
100
AcDbLinetypeTableRecord
  2
BYLAYER
 70
     0
  3

 72
    65
 73
     0
 40
0.0
  0
LTYPE
  5
14
330
5
100
AcDbSymbolTableRecord
100
AcDbLinetypeTableRecord
  2
CONTINUOUS
 70
     0
  3
Solid line
 72
    65
 73
     0
 40
0.0
  0
LTYPE
  5
1F
330
5
100
AcDbSymbolTableRecord
100
AcDbLinetypeTableRecord
  2
AIGENLINE001
 70
     0
  3
generate AI->DXF Converter
 72
    65
 73
     4
 40
5.856144999999999
 49
3.5278
 74
     0
 49
-0.776115
 74
     0
 49
0.776115
 74
     0
 49
-0.776115
 74
     0
  0
ENDTAB
  0
TABLE
  2
LAYER
  5
2
330
0
100
AcDbSymbolTable
 70
     2
  0
LAYER
  5
E
330
2
100
AcDbSymbolTableRecord
100
AcDbLayerTableRecord
  2
0
 70
     0
 62
     7
  6
CONTINUOUS
370
    -3
390
144
  0
LAYER
  5
20
330
2
100
AcDbSymbolTableRecord
100
AcDbLayerTableRecord
  2
_________2
 70
     0
 62
     7
  6
CONTINUOUS
370
    -3
390
144
  0
ENDTAB
  0
TABLE
  2
STYLE
  5
3
330
0
100
AcDbSymbolTable
 70
     1
  0
STYLE
  5
F
330
3
100
AcDbSymbolTableRecord
100
AcDbTextStyleTableRecord
  2
STANDARD
 70
     0
 40
0.0
 41
0.0
 50
0.0
 71
     0
 42
0.0
  3
TXT
  4
BIGFONT
  0
ENDTAB
  0
TABLE
  2
VIEW
  5
6
330
0
100
AcDbSymbolTable
 70
     0
  0
ENDTAB
  0
TABLE
  2
UCS
  5
7
330
0
100
AcDbSymbolTable
 70
     0
  0
ENDTAB
  0
TABLE
  2
APPID
  5
9
330
0
100
AcDbSymbolTable
 70
     1
  0
APPID
  5
10
330
9
100
AcDbSymbolTableRecord
100
AcDbRegAppTableRecord
  2
ACAD
 70
     0
  0
ENDTAB
  0
TABLE
  2
DIMSTYLE
  5
A
330
0
100
AcDbSymbolTable
 70
     1
100
AcDbDimStyleTable
 71
     0
  0
DIMSTYLE
105
140
330
A
100
AcDbSymbolTableRecord
100
AcDbDimStyleTableRecord
  2
STANDARD
 70
     0
340
F
  0
ENDTAB
  0
TABLE
  2
BLOCK_RECORD
  5
1
330
0
100
AcDbSymbolTable
 70
     0
  0
BLOCK_RECORD
  5
18
330
1
100
AcDbSymbolTableRecord
100
AcDbBlockTableRecord
  2
*MODEL_SPACE
340
147
  0
BLOCK_RECORD
  5
15
330
1
100
AcDbSymbolTableRecord
100
AcDbBlockTableRecord
  2
*PAPER_SPACE
340
148
  0
ENDTAB
  0
ENDSEC
  0
SECTION
  2
BLOCKS
  0
BLOCK
  5
19
330
18
100
AcDbEntity
  8
0
100
AcDbBlockBegin
  2
*MODEL_SPACE
 70
     0
 10
0.0
 20
0.0
 30
0.0
  3
*MODEL_SPACE
  1

  0
ENDBLK
  5
1A
330
18
100
AcDbEntity
  8
0
100
AcDbBlockEnd
  0
BLOCK
  5
16
330
15
100
AcDbEntity
 67
     1
  8
0
100
AcDbBlockBegin
  2
*PAPER_SPACE
 70
     0
 10
0.0
 20
0.0
 30
0.0
  3
*PAPER_SPACE
  1

  0
ENDBLK
  5
17
330
15
100
AcDbEntity
 67
     1
  8
0
100
AcDbBlockEnd
  0
ENDSEC
  0
SECTION
  2
ENTITIES
  0
TEXT
  5
22
330
18
100
AcDbEntity
  8
0
100
AcDbText
 10
86.89742499999999
 20
112.2239999999999
 30
0.0
 40
3.09234
  1
35
 41
0.5
 72
     1
 11
88.1859
 21
112.2239999999999
 31
0.0
100
AcDbText
  0
TEXT
  5
23
330
18
100
AcDbEntity
  8
0
100
AcDbText
 10
31.11909999999999
 20
79.5715
 30
0.0
 40
3.09234
  1
2-%%c5
 41
0.5
100
AcDbText
  0
TEXT
  5
24
330
18
100
AcDbEntity
  8
0
100
AcDbText
 10
63.099925
 20
112.2239999999999
 30
0.0
 40
3.09234
  1
62
 41
0.5
 72
     1
 11
64.3884
 21
112.2239999999999
 31
0.0
100
AcDbText
  0
TEXT
  5
25
330
18
100
AcDbEntity
  8
0
100
AcDbText
 10
38.127625
 20
112.2239999999999
 30
0.0
 40
3.09234
  1
35
 41
0.5
 72
     1
 11
39.4161
 21
112.2239999999999
 31
0.0
100
AcDbText
  0
TEXT
  5
26
330
18
100
AcDbEntity
  8
0
100
AcDbText
 10
176.689
 20
93.24522499999998
 30
0.0
 40
3.09234
  1
28
 50
90.0
 41
0.5
 72
     1
 11
176.689
 21
94.53369999999999
 31
0.0
100
AcDbText
  0
TEXT
  5
27
330
18
100
AcDbEntity
  8
0
100
AcDbText
 10
143.619
 20
103.82944
 30
0.0
 40
3.09234
  1
15
 50
90.0
 41
0.5
 72
     2
 11
143.619
 21
105.891
 31
0.0
100
AcDbText
  0
TEXT
  5
28
330
18
100
AcDbEntity
  8
0
100
AcDbText
 10
105.718
 20
171.17083
 30
0.0
 40
3.09234
  1
100
 50
90.0
 41
0.5
 72
     1
 11
105.718
 21
172.717
 31
0.0
100
AcDbText
  0
TEXT
  5
29
330
18
100
AcDbEntity
  8
0
100
AcDbText
 10
106.3366129999999
 20
218.639
 30
0.0
 40
3.09234
  1
（%%c6×30 樹脂プラグ付）
 41
0.5
 72
     2
 11
128.6529999999999
 21
218.639
 31
0.0
100
AcDbText
  0
TEXT
  5
2A
330
18
100
AcDbEntity
  8
0
100
AcDbText
 10
99.93907499999998
 20
224.1029999999999
 30
0.0
 40
3.09234
  1
%%c3.8×40 十字穴付SUS丸木ねじ
 41
0.5
 72
     2
 11
129.5739999999999
 21
224.1029999999999
 31
0.0
100
AcDbText
  0
TEXT
  5
2B
330
18
100
AcDbEntity
  8
0
100
AcDbText
 10
61.313735
 20
216.645
 30
0.0
 40
3.09234
  1
132
 41
0.5
 72
     1
 11
63.1176
 21
216.645
 31
0.0
100
AcDbText
  0
LINE
  5
2C
330
18
100
AcDbEntity
  8
0
100
AcDbLine
 10
50.0374
 20
199.8409999999999
 30
0.0
 11
47.00289999999999
 21
198.0229999999999
 31
0.0
  0
LINE
  5
2D
330
18
100
AcDbEntity
  8
0
100
AcDbLine
 10
50.0374
 20
201.6109999999999
 30
0.0
 11
47.00289999999999
 21
199.792
 31
0.0
  0
LINE
  5
2E
330
18
100
AcDbEntity
  8
0
100
AcDbLine
 10
50.0374
 20
203.3799999999999
 30
0.0
 11
47.00289999999999
 21
201.5609999999999
 31
0.0
  0
LINE
  5
2F
330
18
100
AcDbEntity
  8
0
100
AcDbLine
 10
50.0374
 20
205.149
 30
0.0
 11
47.00289999999999
 21
203.33
 31
0.0
  0
LINE
  5
30
330
18
100
AcDbEntity
  8
0
100
AcDbLine
 10
50.0374
 20
206.919
 30
0.0
 11
47.00289999999999
 21
205.1
 31
0.0
  0
LINE
  5
31
330
18
100
AcDbEntity
  8
0
100
AcDbLine
 10
50.0374
 20
208.6879999999999
 30
0.0
 11
47.00289999999999
 21
206.869
 31
0.0
  0
LINE
  5
32
330
18
100
AcDbEntity
  8
0
100
AcDbLine
 10
50.0374
 20
210.4569999999999
 30
0.0
 11
47.00289999999999
 21
208.639
 31
0.0
  0
LINE
  5
33
330
18
100
AcDbEntity
  8
0
100
AcDbLine
 10
50.0374
 20
212.2259999999999
 30
0.0
 11
47.00289999999999
 21
210.4079999999999
 31
0.0
  0
LINE
  5
34
330
18
100
AcDbEntity
  8
0
100
AcDbLine
 10
47.6909
 20
198.099
 30
0.0
 11
47.6909
 21
210.534
 31
0.0
  0
LINE
  5
35
330
18
100
AcDbEntity
  8
0
100
AcDbLine
 10
47.6909
 20
210.534
 30
0.0
 11
48.4707
 21
213.099
 31
0.0
  0
LINE
  5
36
330
18
100
AcDbEntity
  8
0
100
AcDbLine
 10
49.2443
 20
198.099
 30
0.0
 11
49.2443
 21
210.5509999999999
 31
0.0
  0
LINE
  5
37
330
18
100
AcDbEntity
  8
0
100
AcDbLine
 10
49.2443
 20
210.5509999999999
 30
0.0
 11
48.4707
 21
213.099
 31
0.0
  0
LINE
  5
38
330
18
100
AcDbEntity
  8
0
  6
AIGENLINE001
100
AcDbLine
 10
48.46759999999999
 20
195.152
 30
0.0
 11
48.46759999999999
 21
214.305
 31
0.0
  0
LINE
  5
39
330
18
100
AcDbEntity
  8
0
100
AcDbLine
 10
81.0378
 20
199.8409999999999
 30
0.0
 11
78.00329999999999
 21
198.0229999999999
 31
0.0
  0
LINE
  5
3A
330
18
100
AcDbEntity
  8
0
100
AcDbLine
 10
81.0378
 20
201.6109999999999
 30
0.0
 11
78.00329999999999
 21
199.792
 31
0.0
  0
LINE
  5
3B
330
18
100
AcDbEntity
  8
0
100
AcDbLine
 10
81.0378
 20
203.3799999999999
 30
0.0
 11
78.00329999999999
 21
201.5609999999999
 31
0.0
  0
LINE
  5
3C
330
18
100
AcDbEntity
  8
0
100
AcDbLine
 10
81.0378
 20
205.149
 30
0.0
 11
78.00329999999999
 21
203.33
 31
0.0
  0
LINE
  5
3D
330
18
100
AcDbEntity
  8
0
100
AcDbLine
 10
81.0378
 20
206.919
 30
0.0
 11
78.00329999999999
 21
205.1
 31
0.0
  0
LINE
  5
3E
330
18
100
AcDbEntity
  8
0
100
AcDbLine
 10
81.0378
 20
208.6879999999999
 30
0.0
 11
78.00329999999999
 21
206.869
 31
0.0
  0
LINE
  5
3F
330
18
100
AcDbEntity
  8
0
100
AcDbLine
 10
81.0378
 20
210.4569999999999
 30
0.0
 11
78.00329999999999
 21
208.639
 31
0.0
  0
LINE
  5
40
330
18
100
AcDbEntity
  8
0
100
AcDbLine
 10
81.0378
 20
212.2259999999999
 30
0.0
 11
78.00329999999999
 21
210.4079999999999
 31
0.0
  0
LINE
  5
41
330
18
100
AcDbEntity
  8
0
100
AcDbLine
 10
78.6913
 20
198.099
 30
0.0
 11
78.6913
 21
210.534
 31
0.0
  0
LINE
  5
42
330
18
100
AcDbEntity
  8
0
100
AcDbLine
 10
78.6913
 20
210.534
 30
0.0
 11
79.47110000000001
 21
213.099
 31
0.0
  0
LINE
  5
43
330
18
100
AcDbEntity
  8
0
100
AcDbLine
 10
80.24469999999999
 20
198.099
 30
0.0
 11
80.24469999999999
 21
210.5509999999999
 31
0.0
  0
LINE
  5
44
330
18
100
AcDbEntity
  8
0
100
AcDbLine
 10
80.24469999999999
 20
210.5509999999999
 30
0.0
 11
79.47110000000001
 21
213.099
 31
0.0
  0
LINE
  5
45
330
18
100
AcDbEntity
  8
0
  6
AIGENLINE001
100
AcDbLine
 10
79.468
 20
195.152
 30
0.0
 11
79.468
 21
214.305
 31
0.0
  0
LINE
  5
46
330
18
100
AcDbEntity
  8
0
100
AcDbLine
 10
156.811
 20
92.61369999999999
 30
0.0
 11
154.9929999999999
 21
95.6482
 31
0.0
  0
LINE
  5
47
330
18
100
AcDbEntity
  8
0
100
AcDbLine
 10
158.581
 20
92.61369999999999
 30
0.0
 11
156.7619999999999
 21
95.6482
 31
0.0
  0
LINE
  5
48
330
18
100
AcDbEntity
  8
0
100
AcDbLine
 10
160.3499999999999
 20
92.61369999999999
 30
0.0
 11
158.532
 21
95.6482
 31
0.0
  0
LINE
  5
49
330
18
100
AcDbEntity
  8
0
100
AcDbLine
 10
162.119
 20
92.61369999999999
 30
0.0
 11
160.301
 21
95.6482
 31
0.0
  0
LINE
  5
4A
330
18
100
AcDbEntity
  8
0
100
AcDbLine
 10
163.889
 20
92.61369999999999
 30
0.0
 11
162.07
 21
95.6482
 31
0.0
  0
LINE
  5
4B
330
18
100
AcDbEntity
  8
0
100
AcDbLine
 10
165.6579999999999
 20
92.61369999999999
 30
0.0
 11
163.839
 21
95.6482
 31
0.0
  0
LINE
  5
4C
330
18
100
AcDbEntity
  8
0
100
AcDbLine
 10
167.427
 20
92.61369999999999
 30
0.0
 11
165.609
 21
95.6482
 31
0.0
  0
LINE
  5
4D
330
18
100
AcDbEntity
  8
0
100
AcDbLine
 10
169.1959999999999
 20
92.61369999999999
 30
0.0
 11
167.3779999999999
 21
95.6482
 31
0.0
  0
LINE
  5
4E
330
18
100
AcDbEntity
  8
0
100
AcDbLine
 10
155.0689999999999
 20
94.96019999999999
 30
0.0
 11
167.504
 21
94.96019999999999
 31
0.0
  0
LINE
  5
4F
330
18
100
AcDbEntity
  8
0
100
AcDbLine
 10
167.504
 20
94.96019999999999
 30
0.0
 11
170.0699999999999
 21
94.1802
 31
0.0
  0
LINE
  5
50
330
18
100
AcDbEntity
  8
0
100
AcDbLine
 10
155.0689999999999
 20
93.4064
 30
0.0
 11
167.5209999999999
 21
93.4064
 31
0.0
  0
LINE
  5
51
330
18
100
AcDbEntity
  8
0
100
AcDbLine
 10
167.5209999999999
 20
93.4064
 30
0.0
 11
170.0699999999999
 21
94.1802
 31
0.0
  0
LINE
  5
52
330
18
100
AcDbEntity
  8
0
  6
AIGENLINE001
100
AcDbLine
 10
152.122
 20
94.1833
 30
0.0
 11
171.2749999999999
 21
94.1833
 31
0.0
  0
LINE
  5
53
330
18
100
AcDbEntity
  8
0
100
AcDbLine
 10
155.0689999999999
 20
87.68309999999999
 30
0.0
 11
152.0689999999999
 21
87.68309999999999
 31
0.0
  0
LINE
  5
54
330
18
100
AcDbEntity
  8
0
100
AcDbLine
 10
155.0689999999999
 20
91.6835
 30
0.0
 11
155.0689999999999
 21
87.68309999999999
 31
0.0
  0
LINE
  5
55
330
18
100
AcDbEntity
  8
0
100
AcDbLine
 10
144.3379999999999
 20
106.0179999999999
 30
0.0
 11
144.3379999999999
 21
101.6829999999999
 31
0.0
  0
LINE
  5
56
330
18
100
AcDbEntity
  8
0
100
AcDbLine
 10
144.3379999999999
 20
94.42719999999999
 30
0.0
 11
144.3379999999999
 21
101.6829999999999
 31
0.0
  0
LINE
  5
57
330
18
100
AcDbEntity
  8
0
100
AcDbLine
 10
144.3379999999999
 20
101.6829999999999
 30
0.0
 11
143.9149999999999
 21
99.28350000000001
 31
0.0
  0
LINE
  5
58
330
18
100
AcDbEntity
  8
0
100
AcDbLine
 10
143.9149999999999
 20
99.28350000000001
 30
0.0
 11
144.761
 21
99.28350000000001
 31
0.0
  0
LINE
  5
59
330
18
100
AcDbEntity
  8
0
100
AcDbLine
 10
144.761
 20
99.28350000000001
 30
0.0
 11
144.3379999999999
 21
101.6829999999999
 31
0.0
  0
LINE
  5
5A
330
18
100
AcDbEntity
  8
0
100
AcDbLine
 10
144.3379999999999
 20
94.1833
 30
0.0
 11
144.761
 21
96.58320000000001
 31
0.0
  0
LINE
  5
5B
330
18
100
AcDbEntity
  8
0
100
AcDbLine
 10
144.761
 20
96.58320000000001
 30
0.0
 11
143.9149999999999
 21
96.58320000000001
 31
0.0
  0
LINE
  5
5C
330
18
100
AcDbEntity
  8
0
100
AcDbLine
 10
143.9149999999999
 20
96.58320000000001
 30
0.0
 11
144.3379999999999
 21
94.1833
 31
0.0
  0
LINE
  5
5D
330
18
100
AcDbEntity
  8
0
100
AcDbLine
 10
143.852
 20
94.1833
 30
0.0
 11
150.9929999999999
 21
94.1833
 31
0.0
  0
LINE
  5
5E
330
18
100
AcDbEntity
  8
0
100
AcDbLine
 10
51.346
 20
98.8118
 30
0.0
 11
38.8949
 21
78.8084
 31
0.0
  0
LINE
  5
5F
330
18
100
AcDbEntity
  8
0
100
AcDbLine
 10
49.1162
 20
95.24919999999999
 30
0.0
 11
50.7483
 21
97.0589
 31
0.0
  0
LINE
  5
60
330
18
100
AcDbEntity
  8
0
100
AcDbLine
 10
50.7483
 20
97.0589
 30
0.0
 11
50.0309
 21
97.5082
 31
0.0
  0
LINE
  5
61
330
18
100
AcDbEntity
  8
0
100
AcDbLine
 10
50.0309
 20
97.5082
 30
0.0
 11
49.1162
 21
95.24919999999999
 31
0.0
  0
LINE
  5
62
330
18
100
AcDbEntity
  8
0
100
AcDbLine
 10
47.92229999999999
 20
93.3417
 30
0.0
 11
46.2903
 21
91.53159999999999
 31
0.0
  0
LINE
  5
63
330
18
100
AcDbEntity
  8
0
100
AcDbLine
 10
46.2903
 20
91.53159999999999
 30
0.0
 11
47.0078
 21
91.0827
 31
0.0
  0
LINE
  5
64
330
18
100
AcDbEntity
  8
0
100
AcDbLine
 10
47.0078
 20
91.0827
 30
0.0
 11
47.92229999999999
 21
93.3417
 31
0.0
  0
LINE
  5
65
330
18
100
AcDbEntity
  8
0
100
AcDbLine
 10
38.8949
 20
78.8084
 30
0.0
 11
30.9277
 21
78.8084
 31
0.0
  0
LINE
  5
66
330
18
100
AcDbEntity
  8
0
100
AcDbLine
 10
177.94
 20
87.68309999999999
 30
0.0
 11
156.017
 21
87.68309999999999
 31
0.0
  0
LINE
  5
67
330
18
100
AcDbEntity
  8
0
100
AcDbLine
 10
155.6179999999999
 20
101.6839999999999
 30
0.0
 11
177.94
 21
101.6839999999999
 31
0.0
  0
LINE
  5
68
330
18
100
AcDbEntity
  8
0
100
AcDbLine
 10
79.468
 20
112.3329999999999
 30
0.0
 11
79.468
 21
97.1103
 31
0.0
  0
LINE
  5
69
330
18
100
AcDbEntity
  8
0
100
AcDbLine
 10
48.46759999999999
 20
112.3329999999999
 30
0.0
 11
48.46759999999999
 21
97.1103
 31
0.0
  0
LINE
  5
6A
330
18
100
AcDbEntity
  8
0
100
AcDbLine
 10
30.9675
 20
102.232
 30
0.0
 11
30.9675
 21
112.3329999999999
 31
0.0
  0
LINE
  5
6B
330
18
100
AcDbEntity
  8
0
100
AcDbLine
 10
96.96799999999999
 20
102.232
 30
0.0
 11
96.96799999999999
 21
112.3329999999999
 31
0.0
  0
LINE
  5
6C
330
18
100
AcDbEntity
  8
0
100
AcDbLine
 10
48.2868
 20
111.6829999999999
 30
0.0
 11
31.0987
 21
111.6829999999999
 31
0.0
  0
LINE
  5
6D
330
18
100
AcDbEntity
  8
0
100
AcDbLine
 10
30.9675
 20
111.6829999999999
 30
0.0
 11
33.3675
 21
111.26
 31
0.0
  0
LINE
  5
6E
330
18
100
AcDbEntity
  8
0
100
AcDbLine
 10
33.3675
 20
111.26
 30
0.0
 11
33.3675
 21
112.107
 31
0.0
  0
LINE
  5
6F
330
18
100
AcDbEntity
  8
0
100
AcDbLine
 10
33.3675
 20
112.107
 30
0.0
 11
30.9675
 21
111.6829999999999
 31
0.0
  0
LINE
  5
70
330
18
100
AcDbEntity
  8
0
100
AcDbLine
 10
48.46759999999999
 20
111.6829999999999
 30
0.0
 11
46.0676
 21
112.107
 31
0.0
  0
LINE
  5
71
330
18
100
AcDbEntity
  8
0
100
AcDbLine
 10
46.0676
 20
112.107
 30
0.0
 11
46.0676
 21
111.26
 31
0.0
  0
LINE
  5
72
330
18
100
AcDbEntity
  8
0
100
AcDbLine
 10
46.0676
 20
111.26
 30
0.0
 11
48.46759999999999
 21
111.6829999999999
 31
0.0
  0
LINE
  5
73
330
18
100
AcDbEntity
  8
0
100
AcDbLine
 10
96.83810000000001
 20
111.6829999999999
 30
0.0
 11
79.59929999999999
 21
111.6829999999999
 31
0.0
  0
LINE
  5
74
330
18
100
AcDbEntity
  8
0
100
AcDbLine
 10
79.46819999999999
 20
111.6829999999999
 30
0.0
 11
81.8682
 21
111.26
 31
0.0
  0
LINE
  5
75
330
18
100
AcDbEntity
  8
0
100
AcDbLine
 10
81.8682
 20
111.26
 30
0.0
 11
81.8682
 21
112.107
 31
0.0
  0
LINE
  5
76
330
18
100
AcDbEntity
  8
0
100
AcDbLine
 10
81.8682
 20
112.107
 30
0.0
 11
79.46819999999999
 21
111.6829999999999
 31
0.0
  0
LINE
  5
77
330
18
100
AcDbEntity
  8
0
100
AcDbLine
 10
96.96799999999999
 20
111.6829999999999
 30
0.0
 11
94.56799999999999
 21
112.107
 31
0.0
  0
LINE
  5
78
330
18
100
AcDbEntity
  8
0
100
AcDbLine
 10
94.56799999999999
 20
112.107
 30
0.0
 11
94.56799999999999
 21
111.26
 31
0.0
  0
LINE
  5
79
330
18
100
AcDbEntity
  8
0
100
AcDbLine
 10
94.56799999999999
 20
111.26
 30
0.0
 11
96.96799999999999
 21
111.6829999999999
 31
0.0
  0
LINE
  5
7A
330
18
100
AcDbEntity
  8
0
100
AcDbLine
 10
79.0668
 20
111.6829999999999
 30
0.0
 11
48.5989
 21
111.6829999999999
 31
0.0
  0
LINE
  5
7B
330
18
100
AcDbEntity
  8
0
100
AcDbLine
 10
48.46759999999999
 20
111.6829999999999
 30
0.0
 11
50.8677
 21
111.26
 31
0.0
  0
LINE
  5
7C
330
18
100
AcDbEntity
  8
0
100
AcDbLine
 10
50.8677
 20
111.26
 30
0.0
 11
50.8677
 21
112.107
 31
0.0
  0
LINE
  5
7D
330
18
100
AcDbEntity
  8
0
100
AcDbLine
 10
50.8677
 20
112.107
 30
0.0
 11
48.46759999999999
 21
111.6829999999999
 31
0.0
  0
LINE
  5
7E
330
18
100
AcDbEntity
  8
0
100
AcDbLine
 10
79.46819999999999
 20
111.6829999999999
 30
0.0
 11
77.0681
 21
112.107
 31
0.0
  0
LINE
  5
7F
330
18
100
AcDbEntity
  8
0
100
AcDbLine
 10
77.0681
 20
112.107
 30
0.0
 11
77.0681
 21
111.26
 31
0.0
  0
LINE
  5
80
330
18
100
AcDbEntity
  8
0
100
AcDbLine
 10
77.0681
 20
111.26
 30
0.0
 11
79.46819999999999
 21
111.6829999999999
 31
0.0
  0
LINE
  5
81
330
18
100
AcDbEntity
  8
0
  6
AIGENLINE001
100
AcDbLine
 10
81.39689999999999
 20
94.1833
 30
0.0
 11
77.5181
 21
94.1833
 31
0.0
  0
LINE
  5
82
330
18
100
AcDbEntity
  8
0
  6
AIGENLINE001
100
AcDbLine
 10
79.468
 20
92.04080000000001
 30
0.0
 11
79.468
 21
96.31100000000001
 31
0.0
  0
LINE
  5
83
330
18
100
AcDbEntity
  8
0
  6
AIGENLINE001
100
AcDbLine
 10
50.3964
 20
94.1833
 30
0.0
 11
46.51769999999999
 21
94.1833
 31
0.0
  0
LINE
  5
84
330
18
100
AcDbEntity
  8
0
  6
AIGENLINE001
100
AcDbLine
 10
48.46759999999999
 20
92.04080000000001
 30
0.0
 11
48.46759999999999
 21
96.31100000000001
 31
0.0
  0
LINE
  5
85
330
18
100
AcDbEntity
  8
0
100
AcDbLine
 10
177.2899999999999
 20
101.584
 30
0.0
 11
177.2899999999999
 21
87.8274
 31
0.0
  0
LINE
  5
86
330
18
100
AcDbEntity
  8
0
100
AcDbLine
 10
177.2899999999999
 20
87.68309999999999
 30
0.0
 11
177.714
 21
90.08329999999999
 31
0.0
  0
LINE
  5
87
330
18
100
AcDbEntity
  8
0
100
AcDbLine
 10
177.714
 20
90.08329999999999
 30
0.0
 11
176.867
 21
90.08329999999999
 31
0.0
  0
LINE
  5
88
330
18
100
AcDbEntity
  8
0
100
AcDbLine
 10
176.867
 20
90.08329999999999
 30
0.0
 11
177.2899999999999
 21
87.68309999999999
 31
0.0
  0
LINE
  5
89
330
18
100
AcDbEntity
  8
0
100
AcDbLine
 10
177.2899999999999
 20
101.6839999999999
 30
0.0
 11
176.867
 21
99.28350000000001
 31
0.0
  0
LINE
  5
8A
330
18
100
AcDbEntity
  8
0
100
AcDbLine
 10
176.867
 20
99.28350000000001
 30
0.0
 11
177.714
 21
99.28350000000001
 31
0.0
  0
LINE
  5
8B
330
18
100
AcDbEntity
  8
0
100
AcDbLine
 10
177.714
 20
99.28350000000001
 30
0.0
 11
177.2899999999999
 21
101.6839999999999
 31
0.0
  0
LINE
  5
8C
330
18
100
AcDbEntity
  8
0
100
AcDbLine
 10
107.6179999999999
 20
148.099
 30
0.0
 11
93.80920000000001
 21
148.099
 31
0.0
  0
LINE
  5
8D
330
18
100
AcDbEntity
  8
0
100
AcDbLine
 10
95.44249999999999
 20
223.0929999999999
 30
0.0
 11
129.725
 21
223.0929999999999
 31
0.0
  0
LINE
  5
8E
330
18
100
AcDbEntity
  8
0
100
AcDbLine
 10
96.05920000000001
 20
198.099
 30
0.0
 11
107.6179999999999
 21
198.099
 31
0.0
  0
LINE
  5
8F
330
18
100
AcDbEntity
  8
0
100
AcDbLine
 10
95.44249999999999
 20
223.0929999999999
 30
0.0
 11
81.0378
 21
208.6879999999999
 31
0.0
  0
LINE
  5
90
330
18
100
AcDbEntity
  8
0
100
AcDbLine
 10
81.0378
 20
208.6879999999999
 30
0.0
 11
83.0342
 21
210.085
 31
0.0
  0
LINE
  5
91
330
18
100
AcDbEntity
  8
0
100
AcDbLine
 10
83.0342
 20
210.085
 30
0.0
 11
82.43579999999999
 21
210.684
 31
0.0
  0
LINE
  5
92
330
18
100
AcDbEntity
  8
0
100
AcDbLine
 10
82.43579999999999
 20
210.684
 30
0.0
 11
81.0378
 21
208.6879999999999
 31
0.0
  0
LINE
  5
93
330
18
100
AcDbEntity
  8
0
100
AcDbLine
 10
106.9679999999999
 20
148.3439999999999
 30
0.0
 11
106.9679999999999
 21
197.8809999999999
 31
0.0
  0
LINE
  5
94
330
18
100
AcDbEntity
  8
0
100
AcDbLine
 10
106.9679999999999
 20
198.099
 30
0.0
 11
106.545
 21
195.699
 31
0.0
  0
LINE
  5
95
330
18
100
AcDbEntity
  8
0
100
AcDbLine
 10
106.545
 20
195.699
 30
0.0
 11
107.391
 21
195.699
 31
0.0
  0
LINE
  5
96
330
18
100
AcDbEntity
  8
0
100
AcDbLine
 10
107.391
 20
195.699
 30
0.0
 11
106.9679999999999
 21
198.099
 31
0.0
  0
LINE
  5
97
330
18
100
AcDbEntity
  8
0
100
AcDbLine
 10
106.9679999999999
 20
148.099
 30
0.0
 11
107.391
 21
150.499
 31
0.0
  0
LINE
  5
98
330
18
100
AcDbEntity
  8
0
100
AcDbLine
 10
107.391
 20
150.499
 30
0.0
 11
106.545
 21
150.499
 31
0.0
  0
LINE
  5
99
330
18
100
AcDbEntity
  8
0
100
AcDbLine
 10
106.545
 20
150.499
 30
0.0
 11
106.9679999999999
 21
148.099
 31
0.0
  0
LINE
  5
9A
330
18
100
AcDbEntity
  8
0
100
AcDbLine
 10
96.9683
 20
216.0369999999999
 30
0.0
 11
31.2345
 21
216.0369999999999
 31
0.0
  0
LINE
  5
9B
330
18
100
AcDbEntity
  8
0
100
AcDbLine
 10
30.9673
 20
216.0369999999999
 30
0.0
 11
33.36719999999999
 21
215.614
 31
0.0
  0
LINE
  5
9C
330
18
100
AcDbEntity
  8
0
100
AcDbLine
 10
33.36719999999999
 20
215.614
 30
0.0
 11
33.36719999999999
 21
216.46
 31
0.0
  0
LINE
  5
9D
330
18
100
AcDbEntity
  8
0
100
AcDbLine
 10
33.36719999999999
 20
216.46
 30
0.0
 11
30.9673
 21
216.0369999999999
 31
0.0
  0
LINE
  5
9E
330
18
100
AcDbEntity
  8
0
100
AcDbLine
 10
96.9683
 20
216.0369999999999
 30
0.0
 11
94.5683
 21
216.46
 31
0.0
  0
LINE
  5
9F
330
18
100
AcDbEntity
  8
0
100
AcDbLine
 10
94.5683
 20
216.46
 30
0.0
 11
94.5683
 21
215.614
 31
0.0
  0
LINE
  5
A0
330
18
100
AcDbEntity
  8
0
100
AcDbLine
 10
94.5683
 20
215.614
 30
0.0
 11
96.9683
 21
216.0369999999999
 31
0.0
  0
LINE
  5
A1
330
18
100
AcDbEntity
  8
0
100
AcDbLine
 10
96.96799999999999
 20
196.736
 30
0.0
 11
96.96799999999999
 21
216.687
 31
0.0
  0
LINE
  5
A2
330
18
100
AcDbEntity
  8
0
100
AcDbLine
 10
30.9675
 20
196.736
 30
0.0
 11
30.9675
 21
216.687
 31
0.0
  0
LINE
  5
A3
330
18
100
AcDbEntity
  8
0
100
AcDbLine
 10
155.0689999999999
 20
91.6835
 30
0.0
 11
155.0689999999999
 21
96.68309999999999
 31
0.0
  0
LINE
  5
A4
330
18
100
AcDbEntity
  8
0
100
AcDbLine
 10
155.0689999999999
 20
91.6835
 30
0.0
 11
154.569
 21
91.6835
 31
0.0
  0
LINE
  5
A5
330
18
100
AcDbEntity
  8
0
100
AcDbLine
 10
107.8189999999999
 20
96.68309999999999
 30
0.0
 11
107.8189999999999
 21
90.45189999999999
 31
0.0
  0
ARC
  5
A6
330
18
100
AcDbEntity
  8
0
100
AcDbCircle
 10
108.3574809999999
 20
90.47179699999999
 30
0.0
 40
0.539114
100
AcDbArc
 50
182.115321
 51
267.8466509999999
  0
LINE
  5
A7
330
18
100
AcDbEntity
  8
0
100
AcDbLine
 10
105.569
 20
96.68309999999999
 30
0.0
 11
105.569
 21
90.18320000000001
 31
0.0
  0
ARC
  5
A8
330
18
100
AcDbEntity
  8
0
100
AcDbCircle
 10
108.16466
 20
90.278989
 30
0.0
 40
2.597698999999999
100
AcDbArc
 50
182.113713
 51
267.886317
  0
LINE
  5
A9
330
18
100
AcDbEntity
  8
0
100
AcDbLine
 10
152.3189999999999
 20
96.68309999999999
 30
0.0
 11
152.3189999999999
 21
90.45189999999999
 31
0.0
  0
LINE
  5
AA
330
18
100
AcDbEntity
  8
0
100
AcDbLine
 10
108.337
 20
89.93309999999999
 30
0.0
 11
151.8
 21
89.93309999999999
 31
0.0
  0
ARC
  5
AB
330
18
100
AcDbEntity
  8
0
100
AcDbCircle
 10
151.781023
 20
90.470997
 30
0.0
 40
0.5382850000000001
100
AcDbArc
 50
272.071414
 51
357.9666529999999
  0
LINE
  5
AC
330
18
100
AcDbEntity
  8
0
100
AcDbLine
 10
154.569
 20
96.68309999999999
 30
0.0
 11
154.569
 21
90.18320000000001
 31
0.0
  0
LINE
  5
AD
330
18
100
AcDbEntity
  8
0
100
AcDbLine
 10
108.069
 20
87.68309999999999
 30
0.0
 11
152.0689999999999
 21
87.68309999999999
 31
0.0
  0
ARC
  5
AE
330
18
100
AcDbEntity
  8
0
100
AcDbCircle
 10
151.9730539999999
 20
90.27898
 30
0.0
 40
2.597688999999999
100
AcDbArc
 50
272.1135069999999
 51
357.886503
  0
LINE
  5
AF
330
18
100
AcDbEntity
  8
0
100
AcDbLine
 10
155.0689999999999
 20
100.9329999999999
 30
0.0
 11
155.0689999999999
 21
96.68309999999999
 31
0.0
  0
LINE
  5
B0
330
18
100
AcDbEntity
  8
0
100
AcDbLine
 10
154.3189999999999
 20
101.6839999999999
 30
0.0
 11
105.8179999999999
 21
101.6839999999999
 31
0.0
  0
ARC
  5
B1
330
18
100
AcDbEntity
  8
0
100
AcDbCircle
 10
154.2898899999999
 20
100.904353
 30
0.0
 40
0.7795100000000001
100
AcDbArc
 50
2.129833
 51
87.87015699999999
  0
LINE
  5
B2
330
18
100
AcDbEntity
  8
0
100
AcDbLine
 10
105.069
 20
96.68309999999999
 30
0.0
 11
105.069
 21
100.9339999999999
 31
0.0
  0
ARC
  5
B3
330
18
100
AcDbEntity
  8
0
100
AcDbCircle
 10
105.8474879999999
 20
100.9050369999999
 30
0.0
 40
0.779172
100
AcDbArc
 50
92.132144
 51
177.8941509999999
  0
LINE
  5
B4
330
18
100
AcDbEntity
  8
0
100
AcDbLine
 10
155.0689999999999
 20
96.68309999999999
 30
0.0
 11
105.068
 21
96.68309999999999
 31
0.0
  0
ARC
  5
B5
330
18
100
AcDbEntity
  8
0
100
AcDbCircle
 10
48.467546
 20
94.183391
 30
0.0
 40
1.250146999999999
100
AcDbArc
 50
359.9960629999999
 51
89.996033
  0
ARC
  5
B6
330
18
100
AcDbEntity
  8
0
100
AcDbCircle
 10
48.467719
 20
94.183391
 30
0.0
 40
1.250146999999999
100
AcDbArc
 50
90.00394699999999
 51
180.003957
  0
ARC
  5
B7
330
18
100
AcDbEntity
  8
0
100
AcDbCircle
 10
48.515368
 20
94.23121899999999
 30
0.0
 40
1.298680999999999
100
AcDbArc
 50
182.1144089999999
 51
267.8935169999999
  0
ARC
  5
B8
330
18
100
AcDbEntity
  8
0
100
AcDbCircle
 10
48.419352
 20
94.231764
 30
0.0
 40
1.299244999999999
100
AcDbArc
 50
272.129622
 51
357.8624919999999
  0
ARC
  5
B9
330
18
100
AcDbEntity
  8
0
100
AcDbCircle
 10
79.467917
 20
94.183391
 30
0.0
 40
1.250146999999999
100
AcDbArc
 50
359.9960629999999
 51
89.996033
  0
ARC
  5
BA
330
18
100
AcDbEntity
  8
0
100
AcDbCircle
 10
79.46809
 20
94.183391
 30
0.0
 40
1.250146999999999
100
AcDbArc
 50
90.00394699999999
 51
180.003957
  0
ARC
  5
BB
330
18
100
AcDbEntity
  8
0
100
AcDbCircle
 10
79.51573899999999
 20
94.23121899999999
 30
0.0
 40
1.298680999999999
100
AcDbArc
 50
182.1144089999999
 51
267.8935169999999
  0
ARC
  5
BC
330
18
100
AcDbEntity
  8
0
100
AcDbCircle
 10
79.419723
 20
94.231764
 30
0.0
 40
1.299244999999999
100
AcDbArc
 50
272.129622
 51
357.8624919999999
  0
LINE
  5
BD
330
18
100
AcDbEntity
  8
0
100
AcDbLine
 10
51.2177
 20
91.6835
 30
0.0
 11
45.7174
 21
91.6835
 31
0.0
  0
LINE
  5
BE
330
18
100
AcDbEntity
  8
0
100
AcDbLine
 10
82.21810000000001
 20
91.6835
 30
0.0
 11
76.7178
 21
91.6835
 31
0.0
  0
ARC
  5
BF
330
18
100
AcDbEntity
  8
0
100
AcDbCircle
 10
91.09294799999998
 20
88.808319
 30
0.0
 40
1.125261
100
AcDbArc
 50
179.9868139999999
 51
269.986864
  0
ARC
  5
C0
330
18
100
AcDbEntity
  8
0
100
AcDbCircle
 10
91.09243199999999
 20
88.808319
 30
0.0
 40
1.125261999999999
100
AcDbArc
 50
270.013176
 51
0.013146
  0
LINE
  5
C1
330
18
100
AcDbEntity
  8
0
100
AcDbLine
 10
89.96799999999998
 20
96.68309999999999
 30
0.0
 11
89.96799999999998
 21
88.80819999999999
 31
0.0
  0
LINE
  5
C2
330
18
100
AcDbEntity
  8
0
100
AcDbLine
 10
92.21799999999999
 20
96.68309999999999
 30
0.0
 11
92.21799999999999
 21
88.8086
 31
0.0
  0
ARC
  5
C3
330
18
100
AcDbEntity
  8
0
100
AcDbCircle
 10
83.386145
 20
88.85163100000001
 30
0.0
 40
1.169386
100
AcDbArc
 50
182.109979
 51
267.863738
  0
ARC
  5
C4
330
18
100
AcDbEntity
  8
0
100
AcDbCircle
 10
83.34229599999998
 20
88.808319
 30
0.0
 40
1.125261999999999
100
AcDbArc
 50
270.013176
 51
0.013146
  0
LINE
  5
C5
330
18
100
AcDbEntity
  8
0
100
AcDbLine
 10
82.2179
 20
96.68309999999999
 30
0.0
 11
82.2179
 21
88.80819999999999
 31
0.0
  0
LINE
  5
C6
330
18
100
AcDbEntity
  8
0
100
AcDbLine
 10
84.4679
 20
96.68309999999999
 30
0.0
 11
84.4679
 21
88.8086
 31
0.0
  0
ARC
  5
C7
330
18
100
AcDbEntity
  8
0
100
AcDbCircle
 10
75.592849
 20
88.808319
 30
0.0
 40
1.125261
100
AcDbArc
 50
179.9868139999999
 51
269.986864
  0
ARC
  5
C8
330
18
100
AcDbEntity
  8
0
100
AcDbCircle
 10
75.592332
 20
88.808319
 30
0.0
 40
1.125261999999999
100
AcDbArc
 50
270.013176
 51
0.013146
  0
LINE
  5
C9
330
18
100
AcDbEntity
  8
0
100
AcDbLine
 10
74.4678
 20
96.68309999999999
 30
0.0
 11
74.4678
 21
88.80819999999999
 31
0.0
  0
LINE
  5
CA
330
18
100
AcDbEntity
  8
0
100
AcDbLine
 10
76.7178
 20
96.68309999999999
 30
0.0
 11
76.7178
 21
88.8086
 31
0.0
  0
ARC
  5
CB
330
18
100
AcDbEntity
  8
0
100
AcDbCircle
 10
67.88604499999999
 20
88.85163100000001
 30
0.0
 40
1.169386
100
AcDbArc
 50
182.109979
 51
267.863738
  0
ARC
  5
CC
330
18
100
AcDbEntity
  8
0
100
AcDbCircle
 10
67.842196
 20
88.808319
 30
0.0
 40
1.125261999999999
100
AcDbArc
 50
270.013176
 51
0.013146
  0
LINE
  5
CD
330
18
100
AcDbEntity
  8
0
100
AcDbLine
 10
66.7178
 20
96.68309999999999
 30
0.0
 11
66.7178
 21
88.80819999999999
 31
0.0
  0
LINE
  5
CE
330
18
100
AcDbEntity
  8
0
100
AcDbLine
 10
68.96779999999999
 20
96.68309999999999
 30
0.0
 11
68.96779999999999
 21
88.8086
 31
0.0
  0
ARC
  5
CF
330
18
100
AcDbEntity
  8
0
100
AcDbCircle
 10
60.09275
 20
88.808319
 30
0.0
 40
1.125261
100
AcDbArc
 50
179.9868139999999
 51
269.986864
  0
ARC
  5
D0
330
18
100
AcDbEntity
  8
0
100
AcDbCircle
 10
60.09223299999999
 20
88.808319
 30
0.0
 40
1.125261999999999
100
AcDbArc
 50
270.013176
 51
0.013146
  0
LINE
  5
D1
330
18
100
AcDbEntity
  8
0
100
AcDbLine
 10
58.9677
 20
96.68309999999999
 30
0.0
 11
58.9677
 21
88.80819999999999
 31
0.0
  0
LINE
  5
D2
330
18
100
AcDbEntity
  8
0
100
AcDbLine
 10
61.2178
 20
96.68309999999999
 30
0.0
 11
61.2178
 21
88.8086
 31
0.0
  0
ARC
  5
D3
330
18
100
AcDbEntity
  8
0
100
AcDbCircle
 10
52.385946
 20
88.85163100000001
 30
0.0
 40
1.169386
100
AcDbArc
 50
182.109979
 51
267.863738
  0
ARC
  5
D4
330
18
100
AcDbEntity
  8
0
100
AcDbCircle
 10
52.342097
 20
88.808319
 30
0.0
 40
1.125261999999999
100
AcDbArc
 50
270.013176
 51
0.013146
  0
LINE
  5
D5
330
18
100
AcDbEntity
  8
0
100
AcDbLine
 10
51.2177
 20
96.68309999999999
 30
0.0
 11
51.2177
 21
88.80819999999999
 31
0.0
  0
LINE
  5
D6
330
18
100
AcDbEntity
  8
0
100
AcDbLine
 10
53.4677
 20
96.68309999999999
 30
0.0
 11
53.4677
 21
88.8086
 31
0.0
  0
ARC
  5
D7
330
18
100
AcDbEntity
  8
0
100
AcDbCircle
 10
44.59265
 20
88.808319
 30
0.0
 40
1.125261
100
AcDbArc
 50
179.9868139999999
 51
269.986864
  0
ARC
  5
D8
330
18
100
AcDbEntity
  8
0
100
AcDbCircle
 10
44.592134
 20
88.808319
 30
0.0
 40
1.125261999999999
100
AcDbArc
 50
270.013176
 51
0.013146
  0
LINE
  5
D9
330
18
100
AcDbEntity
  8
0
100
AcDbLine
 10
43.46759999999999
 20
96.68309999999999
 30
0.0
 11
43.46759999999999
 21
88.80819999999999
 31
0.0
  0
LINE
  5
DA
330
18
100
AcDbEntity
  8
0
100
AcDbLine
 10
45.71769999999999
 20
96.68309999999999
 30
0.0
 11
45.71769999999999
 21
88.8086
 31
0.0
  0
ARC
  5
DB
330
18
100
AcDbEntity
  8
0
100
AcDbCircle
 10
36.842514
 20
88.808319
 30
0.0
 40
1.125261
100
AcDbArc
 50
179.9868139999999
 51
269.986864
  0
ARC
  5
DC
330
18
100
AcDbEntity
  8
0
100
AcDbCircle
 10
36.841998
 20
88.808319
 30
0.0
 40
1.125261999999999
100
AcDbArc
 50
270.013176
 51
0.013146
  0
LINE
  5
DD
330
18
100
AcDbEntity
  8
0
100
AcDbLine
 10
35.71759999999999
 20
96.68309999999999
 30
0.0
 11
35.71759999999999
 21
88.80819999999999
 31
0.0
  0
LINE
  5
DE
330
18
100
AcDbEntity
  8
0
100
AcDbLine
 10
37.96759999999999
 20
96.68309999999999
 30
0.0
 11
37.96759999999999
 21
88.8086
 31
0.0
  0
LINE
  5
DF
330
18
100
AcDbEntity
  8
0
100
AcDbLine
 10
96.96799999999999
 20
100.9339999999999
 30
0.0
 11
96.96799999999999
 21
96.68309999999999
 31
0.0
  0
LINE
  5
E0
330
18
100
AcDbEntity
  8
0
100
AcDbLine
 10
96.218
 20
101.6839999999999
 30
0.0
 11
31.7175
 21
101.6839999999999
 31
0.0
  0
ARC
  5
E1
330
18
100
AcDbEntity
  8
0
100
AcDbCircle
 10
96.189011
 20
100.904688
 30
0.0
 40
0.779521
100
AcDbArc
 50
2.130561999999999
 51
87.869428
  0
LINE
  5
E2
330
18
100
AcDbEntity
  8
0
100
AcDbLine
 10
30.9675
 20
96.68309999999999
 30
0.0
 11
30.9675
 21
100.9339999999999
 31
0.0
  0
ARC
  5
E3
330
18
100
AcDbEntity
  8
0
100
AcDbCircle
 10
31.746452
 20
100.904688
 30
0.0
 40
0.779521
100
AcDbArc
 50
92.13055200000001
 51
177.8694189999999
  0
LINE
  5
E4
330
18
100
AcDbEntity
  8
0
100
AcDbLine
 10
96.96799999999999
 20
96.68309999999999
 30
0.0
 11
30.9673
 21
96.68309999999999
 31
0.0
  0
LINE
  5
E5
330
18
100
AcDbEntity
  8
0
100
AcDbLine
 10
35.71759999999999
 20
195.3479999999999
 30
0.0
 11
35.71759999999999
 21
151.4929999999999
 31
0.0
  0
LINE
  5
E6
330
18
100
AcDbEntity
  8
0
100
AcDbLine
 10
92.21799999999999
 20
151.4929999999999
 30
0.0
 11
92.21799999999999
 21
195.349
 31
0.0
  0
LINE
  5
E7
330
18
100
AcDbEntity
  8
0
100
AcDbLine
 10
89.96799999999998
 20
150.8489999999999
 30
0.0
 11
89.96799999999998
 21
195.349
 31
0.0
  0
LINE
  5
E8
330
18
100
AcDbEntity
  8
0
100
AcDbLine
 10
37.96759999999999
 20
195.349
 30
0.0
 11
37.96759999999999
 21
150.8489999999999
 31
0.0
  0
LINE
  5
E9
330
18
100
AcDbEntity
  8
0
100
AcDbLine
 10
45.71769999999999
 20
195.349
 30
0.0
 11
45.71769999999999
 21
150.8489999999999
 31
0.0
  0
LINE
  5
EA
330
18
100
AcDbEntity
  8
0
100
AcDbLine
 10
43.46759999999999
 20
195.349
 30
0.0
 11
43.46759999999999
 21
150.8489999999999
 31
0.0
  0
LINE
  5
EB
330
18
100
AcDbEntity
  8
0
100
AcDbLine
 10
53.4677
 20
195.349
 30
0.0
 11
53.4677
 21
150.8489999999999
 31
0.0
  0
LINE
  5
EC
330
18
100
AcDbEntity
  8
0
100
AcDbLine
 10
51.2177
 20
195.349
 30
0.0
 11
51.2177
 21
150.8489999999999
 31
0.0
  0
LINE
  5
ED
330
18
100
AcDbEntity
  8
0
100
AcDbLine
 10
61.2178
 20
195.349
 30
0.0
 11
61.2178
 21
150.8489999999999
 31
0.0
  0
LINE
  5
EE
330
18
100
AcDbEntity
  8
0
100
AcDbLine
 10
58.9677
 20
195.349
 30
0.0
 11
58.9677
 21
150.8489999999999
 31
0.0
  0
LINE
  5
EF
330
18
100
AcDbEntity
  8
0
100
AcDbLine
 10
68.96779999999999
 20
195.349
 30
0.0
 11
68.96779999999999
 21
150.8489999999999
 31
0.0
  0
LINE
  5
F0
330
18
100
AcDbEntity
  8
0
100
AcDbLine
 10
66.7178
 20
195.349
 30
0.0
 11
66.7178
 21
150.8489999999999
 31
0.0
  0
LINE
  5
F1
330
18
100
AcDbEntity
  8
0
100
AcDbLine
 10
76.7178
 20
195.349
 30
0.0
 11
76.7178
 21
150.8489999999999
 31
0.0
  0
LINE
  5
F2
330
18
100
AcDbEntity
  8
0
100
AcDbLine
 10
74.4678
 20
195.349
 30
0.0
 11
74.4678
 21
150.8489999999999
 31
0.0
  0
LINE
  5
F3
330
18
100
AcDbEntity
  8
0
100
AcDbLine
 10
84.4679
 20
195.349
 30
0.0
 11
84.4679
 21
150.8489999999999
 31
0.0
  0
LINE
  5
F4
330
18
100
AcDbEntity
  8
0
100
AcDbLine
 10
82.2179
 20
195.349
 30
0.0
 11
82.2179
 21
150.8489999999999
 31
0.0
  0
LINE
  5
F5
330
18
100
AcDbEntity
  8
0
100
AcDbLine
 10
94.21789999999999
 20
155.0979999999999
 30
0.0
 11
94.21789999999999
 21
193.349
 31
0.0
  0
LINE
  5
F6
330
18
100
AcDbEntity
  8
0
100
AcDbLine
 10
92.21799999999999
 20
195.349
 30
0.0
 11
35.71759999999999
 21
195.349
 31
0.0
  0
ARC
  5
F7
330
18
100
AcDbEntity
  8
0
100
AcDbCircle
 10
92.218037
 20
193.3489379999999
 30
0.0
 40
1.999891
100
AcDbArc
 50
0.00001
 51
89.99998000000001
  0
LINE
  5
F8
330
18
100
AcDbEntity
  8
0
100
AcDbLine
 10
33.7175
 20
193.349
 30
0.0
 11
33.7175
 21
155.0979999999999
 31
0.0
  0
ARC
  5
F9
330
18
100
AcDbEntity
  8
0
100
AcDbCircle
 10
35.717512
 20
193.348852
 30
0.0
 40
1.999977
100
AcDbArc
 50
89.997533
 51
179.9975029999999
  0
LINE
  5
FA
330
18
100
AcDbEntity
  8
0
100
AcDbLine
 10
37.96759999999999
 20
150.8489999999999
 30
0.0
 11
89.96799999999998
 21
150.8489999999999
 31
0.0
  0
ARC
  5
FB
330
18
100
AcDbEntity
  8
0
100
AcDbCircle
 10
89.96803100000001
 20
155.0984909999999
 30
0.0
 40
4.249896999999999
100
AcDbArc
 50
270.00002
 51
359.9999899999999
  0
ARC
  5
FC
330
18
100
AcDbEntity
  8
0
100
AcDbCircle
 10
37.967517
 20
155.098576
 30
0.0
 40
4.249982
100
AcDbArc
 50
180.0011709999999
 51
270.001181
  0
LINE
  5
FD
330
18
100
AcDbEntity
  8
0
100
AcDbLine
 10
96.96799999999999
 20
155.0979999999999
 30
0.0
 11
96.96799999999999
 21
193.349
 31
0.0
  0
LINE
  5
FE
330
18
100
AcDbEntity
  8
0
100
AcDbLine
 10
92.21799999999999
 20
198.099
 30
0.0
 11
35.71759999999999
 21
198.099
 31
0.0
  0
ARC
  5
FF
330
18
100
AcDbEntity
  8
0
100
AcDbCircle
 10
92.21812299999999
 20
193.348851
 30
0.0
 40
4.749869999999999
100
AcDbArc
 50
0.001049
 51
90.001019
  0
LINE
  5
100
330
18
100
AcDbEntity
  8
0
100
AcDbLine
 10
30.9675
 20
193.349
 30
0.0
 11
30.9675
 21
155.0979999999999
 31
0.0
  0
ARC
  5
101
330
18
100
AcDbEntity
  8
0
100
AcDbCircle
 10
35.717426
 20
193.348765
 30
0.0
 40
4.749956
100
AcDbArc
 50
89.99792199999999
 51
179.9978919999999
  0
ARC
  5
102
330
18
100
AcDbEntity
  8
0
100
AcDbCircle
 10
89.96802999999999
 20
155.0984909999999
 30
0.0
 40
6.999963
100
AcDbArc
 50
270.00002
 51
359.9999899999999
  0
ARC
  5
103
330
18
100
AcDbEntity
  8
0
100
AcDbCircle
 10
37.96751599999999
 20
155.098575
 30
0.0
 40
7.000046
100
AcDbArc
 50
180.0007149999999
 51
270.000725
  0
LINE
  5
104
330
18
100
AcDbEntity
  8
0
100
AcDbLine
 10
37.96759999999999
 20
148.099
 30
0.0
 11
89.96799999999998
 21
148.099
 31
0.0
  0
LINE
  5
105
330
18
100
AcDbEntity
  8
_________2
100
AcDbLine
 10
205.301
 20
127.411
 30
0.0
 11
183.55
 21
127.411
 31
0.0
  0
LINE
  5
106
330
18
100
AcDbEntity
  8
_________2
100
AcDbLine
 10
100.2999999999999
 20
-4.09108
 30
0.0
 11
100.2999999999999
 21
-21.07099999999999
 31
0.0
  0
LINE
  5
107
330
18
100
AcDbEntity
  8
_________2
100
AcDbLine
 10
100.2999999999999
 20
275.9309999999999
 30
0.0
 11
100.2999999999999
 21
258.911
 31
0.0
  0
LINE
  5
108
330
18
100
AcDbEntity
  8
_________2
100
AcDbLine
 10
17.04939999999999
 20
127.411
 30
0.0
 11
-4.700689999999999
 21
127.411
 31
0.0
  0
LINE
  5
109
330
18
100
AcDbEntity
  8
_________2
100
AcDbLine
 10
76.7408
 20
29.8047
 30
0.0
 11
74.55459999999999
 21
29.8047
 31
0.0
  0
LINE
  5
10A
330
18
100
AcDbEntity
  8
_________2
100
AcDbLine
 10
77.2335
 20
29.8047
 30
0.0
 11
76.9813
 21
29.8047
 31
0.0
  0
LINE
  5
10B
330
18
100
AcDbEntity
  8
_________2
100
AcDbLine
 10
77.7262
 20
29.8047
 30
0.0
 11
80.6511
 21
29.8047
 31
0.0
  0
LINE
  5
10C
330
18
100
AcDbEntity
  8
_________2
100
AcDbLine
 10
77.2335
 20
29.8047
 30
0.0
 11
77.48529999999999
 21
29.8047
 31
0.0
  0
LINE
  5
10D
330
18
100
AcDbEntity
  8
_________2
100
AcDbLine
 10
70.837
 20
29.8047
 30
0.0
 11
68.6503
 21
29.8047
 31
0.0
  0
LINE
  5
10E
330
18
100
AcDbEntity
  8
_________2
100
AcDbLine
 10
71.3293
 20
29.8047
 30
0.0
 11
71.07739999999999
 21
29.8047
 31
0.0
  0
LINE
  5
10F
330
18
100
AcDbEntity
  8
_________2
100
AcDbLine
 10
71.3293
 20
30.2974
 30
0.0
 11
71.3293
 21
32.4844
 31
0.0
  0
LINE
  5
110
330
18
100
AcDbEntity
  8
_________2
100
AcDbLine
 10
71.3293
 20
29.8047
 30
0.0
 11
71.3293
 21
30.0573
 31
0.0
  0
LINE
  5
111
330
18
100
AcDbEntity
  8
_________2
100
AcDbLine
 10
71.8219
 20
29.8047
 30
0.0
 11
74.0089
 21
29.8047
 31
0.0
  0
LINE
  5
112
330
18
100
AcDbEntity
  8
_________2
100
AcDbLine
 10
71.3293
 20
29.8047
 30
0.0
 11
71.5814
 21
29.8047
 31
0.0
  0
LINE
  5
113
330
18
100
AcDbEntity
  8
_________2
100
AcDbLine
 10
71.3293
 20
29.3128
 30
0.0
 11
71.3293
 21
27.1262
 31
0.0
  0
LINE
  5
114
330
18
100
AcDbEntity
  8
_________2
100
AcDbLine
 10
71.3293
 20
29.8047
 30
0.0
 11
71.3293
 21
29.5532
 31
0.0
  0
LINE
  5
115
330
18
100
AcDbEntity
  8
_________2
100
AcDbLine
 10
75.0403
 20
28.5852
 30
0.0
 11
80.21829999999999
 21
27.7204
 31
0.0
  0
LINE
  5
116
330
18
100
AcDbEntity
  8
_________2
100
AcDbLine
 10
75.0403
 20
31.0247
 30
0.0
 11
80.21829999999999
 21
31.8901
 31
0.0
  0
LINE
  5
117
330
18
100
AcDbEntity
  8
_________2
100
AcDbLine
 10
80.21829999999999
 20
27.7204
 30
0.0
 11
80.21829999999999
 21
31.8901
 31
0.0
  0
LINE
  5
118
330
18
100
AcDbEntity
  8
_________2
100
AcDbLine
 10
75.0403
 20
28.5852
 30
0.0
 11
75.0403
 21
31.0247
 31
0.0
  0
ARC
  5
119
330
18
100
AcDbEntity
  8
_________2
100
AcDbCircle
 10
71.28234
 20
29.757825
 30
0.0
 40
1.267702
100
AcDbArc
 50
2.121002999999999
 51
87.87898699999999
  0
ARC
  5
11A
330
18
100
AcDbEntity
  8
_________2
100
AcDbCircle
 10
71.37581299999999
 20
29.758546
 30
0.0
 40
1.266968
100
AcDbArc
 50
92.10578299999999
 51
177.91037
  0
ARC
  5
11B
330
18
100
AcDbEntity
  8
_________2
100
AcDbCircle
 10
71.376186
 20
29.851671
 30
0.0
 40
1.267368
100
AcDbArc
 50
182.122036
 51
267.877993
  0
ARC
  5
11C
330
18
100
AcDbEntity
  8
_________2
100
AcDbCircle
 10
71.28236
 20
29.85199899999999
 30
0.0
 40
1.267695999999999
100
AcDbArc
 50
272.120153
 51
357.863674
  0
ARC
  5
11D
330
18
100
AcDbEntity
  8
_________2
100
AcDbCircle
 10
71.24889
 20
29.72473199999999
 30
0.0
 40
2.166831
100
AcDbArc
 50
2.116143999999999
 51
87.874379
  0
ARC
  5
11E
330
18
100
AcDbEntity
  8
_________2
100
AcDbCircle
 10
71.40891899999999
 20
29.725798
 30
0.0
 40
2.165739999999999
100
AcDbArc
 50
92.10793000000002
 51
177.910975
  0
ARC
  5
11F
330
18
100
AcDbEntity
  8
_________2
100
AcDbCircle
 10
71.408934
 20
29.884776
 30
0.0
 40
2.165795
100
AcDbArc
 50
182.117766
 51
267.891734
  0
ARC
  5
120
330
18
100
AcDbEntity
  8
_________2
100
AcDbCircle
 10
71.24928699999999
 20
29.88542999999999
 30
0.0
 40
2.166459
100
AcDbArc
 50
272.115468
 51
357.865604
  0
TEXT
  5
121
330
18
100
AcDbEntity
  8
_________2
100
AcDbText
 10
104.604
 20
1.67949
 30
0.0
 40
3.09234
  1
図番
 41
0.5
100
AcDbText
  0
LINE
  5
122
330
18
100
AcDbEntity
  8
_________2
100
AcDbLine
 10
103.55
 20
5.908719999999999
 30
0.0
 11
183.551
 21
5.908719999999999
 31
0.0
  0
TEXT
  5
123
330
18
100
AcDbEntity
  8
_________2
100
AcDbText
 10
104.604
 20
11.67929999999999
 30
0.0
 40
3.09234
  1
品番
 41
0.5
100
AcDbText
  0
TEXT
  5
124
330
18
100
AcDbEntity
  8
_________2
100
AcDbText
 10
104.604
 20
31.8184
 30
0.0
 40
3.09234
  1
名称
 41
0.5
100
AcDbText
  0
TEXT
  5
125
330
18
100
AcDbEntity
  8
_________2
100
AcDbText
 10
91.84495833333334
 20
26.8223
 30
0.0
 40
3.65458
  1
mm
 41
0.5
 72
     1
 11
93.36769999999999
 21
26.8223
 31
0.0
100
AcDbText
  0
TEXT
  5
126
330
18
100
AcDbEntity
  8
_________2
100
AcDbText
 10
85.64299999999999
 20
31.8184
 30
0.0
 40
3.09234
  1
単位
 41
0.5
100
AcDbText
  0
TEXT
  5
127
330
18
100
AcDbEntity
  8
_________2
100
AcDbText
 10
85.64299999999999
 20
19.41079999999999
 30
0.0
 40
3.09234
  1
尺度
 41
0.5
100
AcDbText
  0
TEXT
  5
128
330
18
100
AcDbEntity
  8
_________2
100
AcDbText
 10
90.54855866666668
 20
13.21819999999999
 30
0.0
 40
3.65458
  1
1 ： 2
 41
0.5
 72
     1
 11
93.9595
 21
13.21819999999999
 31
0.0
100
AcDbText
  0
TEXT
  5
129
330
18
100
AcDbEntity
  8
_________2
100
AcDbText
 10
130.758975
 20
9.1082
 30
0.0
 40
3.9357
  1
KC24901R-010000
 41
0.5
 72
     1
 11
143.55
 21
9.1082
 31
0.0
100
AcDbText
  0
TEXT
  5
12A
330
18
100
AcDbEntity
  8
_________2
100
AcDbText
 10
130.758975
 20
-0.8926299999999999
 30
0.0
 40
3.9357
  1
KC24901R-010000
 41
0.5
 72
     1
 11
143.55
 21
-0.8926299999999999
 31
0.0
100
AcDbText
  0
TEXT
  5
12B
330
18
100
AcDbEntity
  8
_________2
100
AcDbText
 10
109.179
 20
24.2261
 30
0.0
 40
3.9357
  1
プチバスケット
 41
0.5
100
AcDbText
  0
TEXT
  5
12C
330
18
100
AcDbEntity
  8
_________2
100
AcDbText
 10
39.36419066666666
 20
13.6034
 30
0.0
 40
3.65458
  1
高橋
 41
0.5
 72
     1
 11
41.3133
 21
13.6034
 31
0.0
100
AcDbText
  0
TEXT
  5
12D
330
18
100
AcDbEntity
  8
_________2
100
AcDbText
 10
20.78989066666666
 20
13.6034
 30
0.0
 40
3.65458
  1
石原
 41
0.5
 72
     1
 11
22.739
 21
13.6034
 31
0.0
100
AcDbText
  0
TEXT
  5
12E
330
18
100
AcDbEntity
  8
_________2
100
AcDbText
 10
67.7853
 20
13.21819999999999
 30
0.0
 40
3.65458
  1
09.02.20
 41
0.5
100
AcDbText
  0
TEXT
  5
12F
330
18
100
AcDbEntity
  8
_________2
100
AcDbText
 10
66.5929
 20
19.41079999999999
 30
0.0
 40
3.09234
  1
日付
 41
0.5
100
AcDbText
  0
TEXT
  5
130
330
18
100
AcDbEntity
  8
_________2
100
AcDbText
 10
29.63919999999999
 20
19.41079999999999
 30
0.0
 40
3.09234
  1
検図
 41
0.5
100
AcDbText
  0
TEXT
  5
131
330
18
100
AcDbEntity
  8
_________2
100
AcDbText
 10
18.0209
 20
5.21143
 30
0.0
 40
3.09234
  1
備考
 41
0.5
100
AcDbText
  0
TEXT
  5
132
330
18
100
AcDbEntity
  8
_________2
100
AcDbText
 10
18.0209
 20
19.41079999999999
 30
0.0
 40
3.09234
  1
製図
 41
0.5
100
AcDbText
  0
TEXT
  5
133
330
18
100
AcDbEntity
  8
_________2
100
AcDbText
 10
23.863231
 20
27.9368
 30
0.0
 40
4.497939999999999
  1
セラトレーディング株式会社
 41
0.5
 72
     1
 11
41.1803
 21
27.9368
 31
0.0
100
AcDbText
  0
LINE
  5
134
330
18
100
AcDbEntity
  8
_________2
100
AcDbLine
 10
183.551
 20
-4.09108
 30
0.0
 11
17.04939999999999
 21
-4.09108
 31
0.0
  0
LINE
  5
135
330
18
100
AcDbEntity
  8
_________2
100
AcDbLine
 10
17.04939999999999
 20
-4.09108
 30
0.0
 11
17.04939999999999
 21
258.911
 31
0.0
  0
LINE
  5
136
330
18
100
AcDbEntity
  8
_________2
100
AcDbLine
 10
17.04939999999999
 20
258.911
 30
0.0
 11
183.551
 21
258.911
 31
0.0
  0
LINE
  5
137
330
18
100
AcDbEntity
  8
_________2
100
AcDbLine
 10
183.551
 20
258.911
 30
0.0
 11
183.551
 21
-4.09108
 31
0.0
  0
LINE
  5
138
330
18
100
AcDbEntity
  8
_________2
100
AcDbLine
 10
65.54940000000001
 20
9.409299999999999
 30
0.0
 11
65.54940000000001
 21
35.9091
 31
0.0
  0
LINE
  5
139
330
18
100
AcDbEntity
  8
_________2
100
AcDbLine
 10
84.54959999999999
 20
9.409299999999999
 30
0.0
 11
84.54959999999999
 21
35.9091
 31
0.0
  0
LINE
  5
13A
330
18
100
AcDbEntity
  8
_________2
100
AcDbLine
 10
103.55
 20
-4.09108
 30
0.0
 11
103.55
 21
35.9091
 31
0.0
  0
LINE
  5
13B
330
18
100
AcDbEntity
  8
_________2
100
AcDbLine
 10
28.54919999999999
 20
9.409299999999999
 30
0.0
 11
28.54919999999999
 21
23.4092
 31
0.0
  0
LINE
  5
13C
330
18
100
AcDbEntity
  8
_________2
100
AcDbLine
 10
17.04939999999999
 20
9.409299999999999
 30
0.0
 11
103.55
 21
9.409299999999999
 31
0.0
  0
LINE
  5
13D
330
18
100
AcDbEntity
  8
_________2
100
AcDbLine
 10
17.04939999999999
 20
23.4092
 30
0.0
 11
103.55
 21
23.4092
 31
0.0
  0
LINE
  5
13E
330
18
100
AcDbEntity
  8
_________2
100
AcDbLine
 10
103.55
 20
15.9085
 30
0.0
 11
183.551
 21
15.9085
 31
0.0
  0
LINE
  5
13F
330
18
100
AcDbEntity
  8
_________2
100
AcDbLine
 10
17.04939999999999
 20
35.9091
 30
0.0
 11
183.551
 21
35.9091
 31
0.0
  0
ENDSEC
  0
SECTION
  2
OBJECTS
  0
DICTIONARY
  5
C
330
0
100
AcDbDictionary
281
     1
  3
ACAD_GROUP
350
D
  3
ACAD_MLINESTYLE
350
1B
  3
ACAD_PLOTSTYLENAME
350
143
  3
ACAD_LAYOUT
350
145
  3
ACAD_PLOTSETTINGS
350
146
  0
DICTIONARY
  5
D
102
{ACAD_REACTORS
330
C
102
}
330
C
100
AcDbDictionary
281
     1
  0
DICTIONARY
  5
1B
102
{ACAD_REACTORS
330
C
102
}
330
C
100
AcDbDictionary
281
     1
  3
STANDARD
350
1C
  0
ACDBDICTIONARYWDFLT
  5
143
102
{ACAD_REACTORS
330
C
102
}
330
C
100
AcDbDictionary
281
     1
  3
Normal
350
144
100
AcDbDictionaryWithDefault
340
144
  0
DICTIONARY
  5
145
102
{ACAD_REACTORS
330
C
102
}
330
C
100
AcDbDictionary
281
     1
  3
Model
350
147
  3
ﾚｲｱｳﾄ1
350
148
  0
DICTIONARY
  5
146
102
{ACAD_REACTORS
330
C
102
}
330
C
100
AcDbDictionary
281
     1
  0
MLINESTYLE
  5
1C
102
{ACAD_REACTORS
330
1B
102
}
330
1B
100
AcDbMlineStyle
  2
STANDARD
 70
     0
  3

 62
   256
 51
90.0
 52
90.0
 71
     2
 49
0.5
 62
   256
  6
BYLAYER
 49
-0.5
 62
   256
  6
BYLAYER
  0
ACDBPLACEHOLDER
  5
144
102
{ACAD_REACTORS
330
143
102
}
330
143
  0
LAYOUT
  5
147
102
{ACAD_REACTORS
330
145
102
}
330
145
100
AcDbPlotSettings
  1

  2
Canon LASER SHOT LBP-880
  4

  6

 40
0.0
 41
0.0
 42
0.0
 43
0.0
 44
0.0
 45
0.0
 46
0.0
 47
0.0
 48
0.0
 49
0.0
140
0.0
141
0.0
142
1.0
143
1.0
 70
  1712
 72
     0
 73
     0
 74
     0
  7

 75
     0
147
1.0
148
0.0
149
0.0
100
AcDbLayout
  1
Model
 70
     1
 71
     0
 10
0.0
 20
0.0
 11
12.0
 21
9.0
 12
0.0
 22
0.0
 32
0.0
 14
0.0
 24
0.0
 34
0.0
 15
0.0
 25
0.0
 35
0.0
146
0.0
 13
0.0
 23
0.0
 33
0.0
 16
1.0
 26
0.0
 36
0.0
 17
0.0
 27
1.0
 37
0.0
 76
     0
330
18
  0
LAYOUT
  5
148
102
{ACAD_REACTORS
330
145
102
}
330
145
100
AcDbPlotSettings
  1

  2
Canon LASER SHOT LBP-880
  4

  6

 40
0.0
 41
0.0
 42
0.0
 43
0.0
 44
0.0
 45
0.0
 46
0.0
 47
0.0
 48
0.0
 49
0.0
140
0.0
141
0.0
142
1.0
143
1.0
 70
   688
 72
     0
 73
     0
 74
     5
  7

 75
    16
147
1.0
148
0.0
149
0.0
100
AcDbLayout
  1
ﾚｲｱｳﾄ1
 70
     1
 71
     1
 10
0.0
 20
0.0
 11
12.0
 21
9.0
 12
0.0
 22
0.0
 32
0.0
 14
1.000000000000000E+20
 24
1.000000000000000E+20
 34
1.000000000000000E+20
 15
-1.000000000000000E+20
 25
-1.000000000000000E+20
 35
-1.000000000000000E+20
146
0.0
 13
0.0
 23
0.0
 33
0.0
 16
1.0
 26
0.0
 36
0.0
 17
0.0
 27
1.0
 37
0.0
 76
     0
330
15
  0
ENDSEC
  0
EOF
