  0
SECTION
  2
HEADER
  9
$ACADVER
  1
AC1009
  9
$INSBASE
 10
0.0
 20
0.0
 30
0.0
  9
$EXTMIN
 10
0.238488
 20
0.4482100000000001
 30
0.0
  9
$EXTMAX
 10
210.24000000000001
 20
297.44999999999987
 30
0.0
  9
$LIMMIN
 10
0.0
 20
0.0
  9
$LIMMAX
 10
12.0
 20
9.0
  9
$ORTHOMODE
 70
     0
  9
$REGENMODE
 70
     1
  9
$FILLMODE
 70
     1
  9
$QTEXTMODE
 70
     0
  9
$MIRRTEXT
 70
     1
  9
$DRAGMODE
 70
     2
  9
$LTSCALE
 40
1.0
  9
$OSMODE
 70
    37
  9
$ATTMODE
 70
     1
  9
$TEXTSIZE
 40
0.0
  9
$TRACEWID
 40
0.05
  9
$TEXTSTYLE
  7
STANDARD
  9
$CLAYER
  8
0
  9
$CELTYPE
  6
CONTINUOUS
  9
$CECOLOR
 62
   256
  9
$DIMSCALE
 40
1.0
  9
$DIMASZ
 40
0.18
  9
$DIMEXO
 40
0.0625
  9
$DIMDLI
 40
0.38
  9
$DIMRND
 40
0.0
  9
$DIMDLE
 40
0.0
  9
$DIMEXE
 40
0.18
  9
$DIMTP
 40
0.0
  9
$DIMTM
 40
0.0
  9
$DIMTXT
 40
0.18
  9
$DIMCEN
 40
0.09
  9
$DIMTSZ
 40
0.0
  9
$DIMTOL
 70
     0
  9
$DIMLIM
 70
     0
  9
$DIMTIH
 70
     1
  9
$DIMTOH
 70
     1
  9
$DIMSE1
 70
     0
  9
$DIMSE2
 70
     0
  9
$DIMTAD
 70
     0
  9
$DIMZIN
 70
     0
  9
$DIMBLK
  1

  9
$DIMASO
 70
     1
  9
$DIMSHO
 70
     1
  9
$DIMPOST
  1

  9
$DIMAPOST
  1

  9
$DIMALT
 70
     0
  9
$DIMALTD
 70
     2
  9
$DIMALTF
 40
25.399999999999999
  9
$DIMLFAC
 40
1.0
  9
$DIMTOFL
 70
     0
  9
$DIMTVP
 40
0.0
  9
$DIMTIX
 70
     0
  9
$DIMSOXD
 70
     0
  9
$DIMSAH
 70
     0
  9
$DIMBLK1
  1

  9
$DIMBLK2
  1

  9
$DIMSTYLE
  2
STANDARD
  9
$DIMCLRD
 70
     0
  9
$DIMCLRE
 70
     0
  9
$DIMCLRT
 70
     0
  9
$DIMTFAC
 40
1.0
  9
$DIMGAP
 40
0.09
  9
$LUNITS
 70
     2
  9
$LUPREC
 70
     4
  9
$SKETCHINC
 40
0.1
  9
$FILLETRAD
 40
0.0
  9
$AUNITS
 70
     0
  9
$AUPREC
 70
     0
  9
$MENU
  1
.
  9
$ELEVATION
 40
0.0
  9
$PELEVATION
 40
0.0
  9
$THICKNESS
 40
0.0
  9
$LIMCHECK
 70
     0
  9
$BLIPMODE
 70
     0
  9
$CHAMFERA
 40
0.0
  9
$CHAMFERB
 40
0.0
  9
$SKPOLY
 70
     0
  9
$TDCREATE
 40
2444972.375
  9
$TDUPDATE
 40
2454258.2874654508
  9
$TDINDWG
 40
0.0000133102
  9
$TDUSRTIMER
 40
0.0000133102
  9
$USRTIMER
 70
     1
  9
$ANGBASE
 50
0.0
  9
$ANGDIR
 70
     0
  9
$PDMODE
 70
     0
  9
$PDSIZE
 40
0.0
  9
$PLINEWID
 40
0.0
  9
$COORDS
 70
     1
  9
$SPLFRAME
 70
     0
  9
$SPLINETYPE
 70
     6
  9
$SPLINESEGS
 70
     8
  9
$ATTDIA
 70
     0
  9
$ATTREQ
 70
     1
  9
$HANDLING
 70
     1
  9
$HANDSEED
  5
184
  9
$SURFTAB1
 70
     6
  9
$SURFTAB2
 70
     6
  9
$SURFTYPE
 70
     6
  9
$SURFU
 70
     6
  9
$SURFV
 70
     6
  9
$UCSNAME
  2

  9
$UCSORG
 10
0.0
 20
0.0
 30
0.0
  9
$UCSXDIR
 10
1.0
 20
0.0
 30
0.0
  9
$UCSYDIR
 10
0.0
 20
1.0
 30
0.0
  9
$PUCSNAME
  2

  9
$PUCSORG
 10
0.0
 20
0.0
 30
0.0
  9
$PUCSXDIR
 10
1.0
 20
0.0
 30
0.0
  9
$PUCSYDIR
 10
0.0
 20
1.0
 30
0.0
  9
$USERI1
 70
     0
  9
$USERI2
 70
     0
  9
$USERI3
 70
     0
  9
$USERI4
 70
     0
  9
$USERI5
 70
     0
  9
$USERR1
 40
0.0
  9
$USERR2
 40
0.0
  9
$USERR3
 40
0.0
  9
$USERR4
 40
0.0
  9
$USERR5
 40
0.0
  9
$WORLDVIEW
 70
     1
  9
$SHADEDGE
 70
     3
  9
$SHADEDIF
 70
    70
  9
$TILEMODE
 70
     1
  9
$MAXACTVP
 70
    48
  9
$PLIMCHECK
 70
     0
  9
$PEXTMIN
 10
1.0000000000000000E+020
 20
1.0000000000000000E+020
 30
1.0000000000000000E+020
  9
$PEXTMAX
 10
-1.0000000000000000E+020
 20
-1.0000000000000000E+020
 30
-1.0000000000000000E+020
  9
$PLIMMIN
 10
0.0
 20
0.0
  9
$PLIMMAX
 10
12.0
 20
9.0
  9
$UNITMODE
 70
     0
  9
$VISRETAIN
 70
     1
  9
$PLINEGEN
 70
     0
  9
$PSLTSCALE
 70
     1
  0
ENDSEC
  0
SECTION
  2
TABLES
  0
TABLE
  2
VPORT
 70
     2
  0
VPORT
  2
*ACTIVE
 70
     0
 10
0.0
 20
0.0
 11
1.0
 21
1.0
 12
150.53472407559931
 22
148.72499999999991
 13
0.0
 23
0.0
 14
1.0
 24
1.0
 15
0.0
 25
0.0
 16
0.0
 26
0.0
 36
1.0
 17
0.0
 27
0.0
 37
0.0
 40
300.41461794019921
 41
2.1842105263157889
 42
50.0
 43
0.0
 44
0.0
 50
0.0
 51
0.0
 71
     0
 72
   100
 73
     1
 74
     1
 75
     0
 76
     0
 77
     0
 78
     0
  0
ENDTAB
  0
TABLE
  2
LTYPE
 70
     2
  0
LTYPE
  2
CONTINUOUS
 70
     0
  3
Solid line
 72
    65
 73
     0
 40
0.0
  0
LTYPE
  2
AIGENLINE001
 70
     0
  3
generate AI->DXF Converter
 72
    65
 73
     4
 40
5.8561449999999988
 49
3.5278
 49
-0.776115
 49
0.776115
 49
-0.776115
  0
ENDTAB
  0
TABLE
  2
LAYER
 70
     2
  0
LAYER
  2
0
 70
     0
 62
     7
  6
CONTINUOUS
  0
LAYER
  2
_________2
 70
     0
 62
     7
  6
CONTINUOUS
  0
ENDTAB
  0
TABLE
  2
STYLE
 70
     1
  0
STYLE
  2
STANDARD
 70
     0
 40
0.0
 41
0.0
 50
0.0
 71
     0
 42
0.0
  3
TXT
  4
EXTFONT.SHX
  0
ENDTAB
  0
TABLE
  2
VIEW
 70
     0
  0
ENDTAB
  0
TABLE
  2
UCS
 70
     0
  0
ENDTAB
  0
TABLE
  2
APPID
 70
     1
  0
APPID
  2
ACAD
 70
     0
  0
ENDTAB
  0
TABLE
  2
DIMSTYLE
 70
     1
  0
DIMSTYLE
  2
STANDARD
 70
     0
  3

  4

  5

  6

  7

 40
1.0
 41
0.18
 42
0.0625
 43
0.38
 44
0.18
 45
0.0
 46
0.0
 47
0.0
 48
0.0
140
0.18
141
0.09
142
0.0
143
25.399999999999999
144
1.0
145
0.0
146
1.0
147
0.09
 71
     0
 72
     0
 73
     1
 74
     1
 75
     0
 76
     0
 77
     0
 78
     0
170
     0
171
     2
172
     0
173
     0
174
     0
175
     0
176
     0
177
     0
178
     0
  0
ENDTAB
  0
ENDSEC
  0
SECTION
  2
BLOCKS
  0
BLOCK
  8
0
  2
$MODEL_SPACE
 70
     0
 10
0.0
 20
0.0
 30
0.0
  3
$MODEL_SPACE
  1

  0
ENDBLK
  5
1A
  8
0
  0
BLOCK
 67
     1
  8
0
  2
$PAPER_SPACE
 70
     0
 10
0.0
 20
0.0
 30
0.0
  3
$PAPER_SPACE
  1

  0
ENDBLK
  5
17
 67
     1
  8
0
  0
ENDSEC
  0
SECTION
  2
ENTITIES
  0
TEXT
  5
22
  8
0
 62
     7
 10
47.425800000000002
 20
105.05200000000001
 30
0.0
 40
3.0923400000000001
  1
2-%%c5
 41
0.5
  0
TEXT
  5
23
  8
0
 62
     7
 10
91.629644999999996
 20
128.55099999999999
 30
0.0
 40
3.0923400000000001
  1
68.5
 41
0.5
 72
     1
 11
93.948899999999995
 21
128.55099999999999
 31
0.0
  0
TEXT
  5
24
  8
0
 62
     7
 10
70.787324999999996
 20
128.55099999999999
 30
0.0
 40
3.0923400000000001
  1
63
 41
0.5
 72
     1
 11
72.075800000000001
 21
128.55099999999999
 31
0.0
  0
TEXT
  5
25
  8
0
 62
     7
 10
47.487645000000001
 20
128.55099999999999
 30
0.0
 40
3.0923400000000001
  1
68.5
 41
0.5
 72
     1
 11
49.806899999999999
 21
128.55099999999999
 31
0.0
  0
TEXT
  5
26
  8
0
 62
     7
 10
114.995
 20
115.32452499999989
 30
0.0
 40
3.0923400000000001
  1
28
 50
90.0
 41
0.5
 72
     1
 11
114.995
 21
116.613
 31
0.0
  0
TEXT
  5
27
  8
0
 62
     7
 10
153.9789999999999
 20
124.42944
 30
0.0
 40
3.0923400000000001
  1
15
 50
90.0
 41
0.5
 72
     2
 11
153.9789999999999
 21
126.4909999999999
 31
0.0
  0
TEXT
  5
28
  8
0
 62
     7
 10
115.03
 20
189.84383
 30
0.0
 40
3.0923400000000001
  1
100
 50
90.0
 41
0.5
 72
     1
 11
115.03
 21
191.3899999999999
 31
0.0
  0
TEXT
  5
29
  8
0
 62
     7
 10
112.2773929999999
 20
223.57299999999989
 30
0.0
 40
3.0923400000000001
  1
（%%c6×30樹脂プラグ付）
 41
0.5
 72
     2
 11
133.5629999999999
 21
223.57299999999989
 31
0.0
  0
TEXT
  5
2A
  8
0
 62
     7
 10
103.92807499999989
 20
228.91900000000001
 30
0.0
 40
3.0923400000000001
  1
%%c3.8×40 十字穴付SUS丸木ねじ
 41
0.5
 72
     2
 11
133.5629999999999
 21
228.91900000000001
 31
0.0
  0
TEXT
  5
2B
  8
0
 62
     7
 10
70.565134999999998
 20
163.6329999999999
 30
0.0
 40
3.0923400000000001
  1
200
 41
0.5
 72
     1
 11
72.369
 21
163.6329999999999
 31
0.0
  0
ARC
  5
2C
  8
0
 62
     7
 10
161.43204099999991
 20
114.205219
 30
0.0
 40
0.5977920000000001
 50
271.23382199999998
 51
344.41169799999989
  0
ARC
  5
2D
  8
0
 62
     7
 10
161.710229
 20
113.93436799999991
 30
0.0
 40
1.8272740000000001
 50
271.29508499999997
 51
344.35222599999997
  0
LINE
  5
2E
  8
0
 62
     7
 10
165.37
 20
115.9489999999999
 30
0.0
 11
164.8179999999999
 21
116.8989999999999
 31
0.0
  0
LINE
  5
2F
  8
0
 62
     7
 10
166.108
 20
115.9489999999999
 30
0.0
 11
165.5559999999999
 21
116.8989999999999
 31
0.0
  0
LINE
  5
30
  8
0
 62
     7
 10
166.84599999999989
 20
115.9489999999999
 30
0.0
 11
166.29400000000001
 21
116.8989999999999
 31
0.0
  0
LINE
  5
31
  8
0
 62
     7
 10
167.58399999999989
 20
115.9489999999999
 30
0.0
 11
167.03200000000001
 21
116.8989999999999
 31
0.0
  0
LINE
  5
32
  8
0
 62
     7
 10
168.322
 20
115.9489999999999
 30
0.0
 11
167.77000000000001
 21
116.8989999999999
 31
0.0
  0
LINE
  5
33
  8
0
 62
     7
 10
169.06
 20
115.9489999999999
 30
0.0
 11
168.5079999999999
 21
116.8989999999999
 31
0.0
  0
LINE
  5
34
  8
0
 62
     7
 10
169.798
 20
115.9489999999999
 30
0.0
 11
169.2459999999999
 21
116.8989999999999
 31
0.0
  0
LINE
  5
35
  8
0
 62
     7
 10
170.53599999999989
 20
115.9489999999999
 30
0.0
 11
169.98400000000001
 21
116.8989999999999
 31
0.0
  0
LINE
  5
36
  8
0
 62
     7
 10
171.274
 20
115.9489999999999
 30
0.0
 11
170.72200000000001
 21
116.8989999999999
 31
0.0
  0
LINE
  5
37
  8
0
 62
     7
 10
172.012
 20
115.9489999999999
 30
0.0
 11
171.46000000000001
 21
116.8989999999999
 31
0.0
  0
LINE
  5
38
  8
0
 62
     7
 10
172.75
 20
115.9489999999999
 30
0.0
 11
172.19799999999989
 21
116.8989999999999
 31
0.0
  0
LINE
  5
39
  8
0
 62
     7
 10
173.48799999999989
 20
115.9489999999999
 30
0.0
 11
172.93599999999989
 21
116.8989999999999
 31
0.0
  0
LINE
  5
3A
  8
0
 62
     7
 10
174.22599999999991
 20
115.9489999999999
 30
0.0
 11
173.67400000000001
 21
116.8989999999999
 31
0.0
  0
LINE
  5
3B
  8
0
 62
     7
 10
174.96299999999991
 20
115.9489999999999
 30
0.0
 11
174.41200000000001
 21
116.8989999999999
 31
0.0
  0
LINE
  5
3C
  8
0
 62
     7
 10
163.79699999999991
 20
117.4409999999999
 30
0.0
 11
164.06
 21
117.4409999999999
 31
0.0
  0
LINE
  5
3D
  8
0
 62
     7
 10
163.6329999999999
 20
115.441
 30
0.0
 11
164.06
 21
115.441
 31
0.0
  0
LINE
  5
3E
  8
0
 62
     7
 10
164.06
 20
116.684
 30
0.0
 11
175.113
 21
116.684
 31
0.0
  0
LINE
  5
3F
  8
0
 62
     7
 10
175.113
 20
116.684
 30
0.0
 11
176.21899999999999
 21
116.44
 31
0.0
  0
LINE
  5
40
  8
0
 62
     7
 10
164.06
 20
116.19799999999999
 30
0.0
 11
175.13
 21
116.19799999999999
 31
0.0
  0
LINE
  5
41
  8
0
 62
     7
 10
175.13
 20
116.19799999999999
 30
0.0
 11
176.21899999999999
 21
116.44
 31
0.0
  0
LINE
  5
42
  8
0
  6
AIGENLINE001
 62
     7
 10
161.45400000000001
 20
116.4409999999999
 30
0.0
 11
177.42500000000001
 21
116.4409999999999
 31
0.0
  0
LINE
  5
43
  8
0
 62
     7
 10
62.276000000000003
 20
209.24199999999999
 30
0.0
 11
61.326000000000001
 21
208.68999999999991
 31
0.0
  0
LINE
  5
44
  8
0
 62
     7
 10
62.276000000000003
 20
209.97999999999999
 30
0.0
 11
61.326000000000001
 21
209.42799999999991
 31
0.0
  0
LINE
  5
45
  8
0
 62
     7
 10
62.276000000000003
 20
210.71799999999999
 30
0.0
 11
61.326000000000001
 21
210.16599999999991
 31
0.0
  0
LINE
  5
46
  8
0
 62
     7
 10
62.276000000000003
 20
211.4559999999999
 30
0.0
 11
61.326000000000001
 21
210.904
 31
0.0
  0
LINE
  5
47
  8
0
 62
     7
 10
62.276000000000003
 20
212.19399999999999
 30
0.0
 11
61.326000000000001
 21
211.642
 31
0.0
  0
LINE
  5
48
  8
0
 62
     7
 10
62.276000000000003
 20
212.93199999999999
 30
0.0
 11
61.326000000000001
 21
212.38
 31
0.0
  0
LINE
  5
49
  8
0
 62
     7
 10
62.276000000000003
 20
213.6699999999999
 30
0.0
 11
61.326000000000001
 21
213.11799999999999
 31
0.0
  0
LINE
  5
4A
  8
0
 62
     7
 10
62.276000000000003
 20
214.4079999999999
 30
0.0
 11
61.326000000000001
 21
213.85599999999999
 31
0.0
  0
LINE
  5
4B
  8
0
 62
     7
 10
62.276000000000003
 20
215.1459999999999
 30
0.0
 11
61.326000000000001
 21
214.59399999999999
 31
0.0
  0
LINE
  5
4C
  8
0
 62
     7
 10
62.276000000000003
 20
215.88300000000001
 30
0.0
 11
61.326000000000001
 21
215.33199999999991
 31
0.0
  0
LINE
  5
4D
  8
0
 62
     7
 10
62.276000000000003
 20
216.6209999999999
 30
0.0
 11
61.326000000000001
 21
216.06899999999999
 31
0.0
  0
LINE
  5
4E
  8
0
 62
     7
 10
62.276000000000003
 20
217.35900000000001
 30
0.0
 11
61.326000000000001
 21
216.80699999999999
 31
0.0
  0
LINE
  5
4F
  8
0
 62
     7
 10
62.276000000000003
 20
218.09700000000001
 30
0.0
 11
61.326000000000001
 21
217.54499999999999
 31
0.0
  0
LINE
  5
50
  8
0
 62
     7
 10
62.276000000000003
 20
218.83500000000001
 30
0.0
 11
61.326000000000001
 21
218.28299999999999
 31
0.0
  0
LINE
  5
51
  8
0
 62
     7
 10
61.5413
 20
208.42400000000001
 30
0.0
 11
61.5413
 21
218.98500000000001
 31
0.0
  0
LINE
  5
52
  8
0
 62
     7
 10
61.5413
 20
218.98500000000001
 30
0.0
 11
61.785600000000002
 21
220.09
 31
0.0
  0
LINE
  5
53
  8
0
 62
     7
 10
62.027799999999999
 20
208.42400000000001
 30
0.0
 11
62.027799999999999
 21
219.00200000000001
 31
0.0
  0
LINE
  5
54
  8
0
 62
     7
 10
62.027799999999999
 20
219.00200000000001
 30
0.0
 11
61.785600000000002
 21
220.09
 31
0.0
  0
LINE
  5
55
  8
0
  6
AIGENLINE001
 62
     7
 10
61.784599999999998
 20
207.28599999999989
 30
0.0
 11
61.784599999999998
 21
221.29599999999991
 31
0.0
  0
LINE
  5
56
  8
0
 62
     7
 10
83.276099999999985
 20
209.24199999999999
 30
0.0
 11
82.326099999999997
 21
208.68999999999991
 31
0.0
  0
LINE
  5
57
  8
0
 62
     7
 10
83.276099999999985
 20
209.97999999999999
 30
0.0
 11
82.326099999999997
 21
209.42799999999991
 31
0.0
  0
LINE
  5
58
  8
0
 62
     7
 10
83.276099999999985
 20
210.71799999999999
 30
0.0
 11
82.326099999999997
 21
210.16599999999991
 31
0.0
  0
LINE
  5
59
  8
0
 62
     7
 10
83.276099999999985
 20
211.4559999999999
 30
0.0
 11
82.326099999999997
 21
210.904
 31
0.0
  0
LINE
  5
5A
  8
0
 62
     7
 10
83.276099999999985
 20
212.19399999999999
 30
0.0
 11
82.326099999999997
 21
211.642
 31
0.0
  0
LINE
  5
5B
  8
0
 62
     7
 10
83.276099999999985
 20
212.93199999999999
 30
0.0
 11
82.326099999999997
 21
212.38
 31
0.0
  0
LINE
  5
5C
  8
0
 62
     7
 10
83.276099999999985
 20
213.6699999999999
 30
0.0
 11
82.326099999999997
 21
213.11799999999999
 31
0.0
  0
LINE
  5
5D
  8
0
 62
     7
 10
83.276099999999985
 20
214.4079999999999
 30
0.0
 11
82.326099999999997
 21
213.85599999999999
 31
0.0
  0
LINE
  5
5E
  8
0
 62
     7
 10
83.276099999999985
 20
215.1459999999999
 30
0.0
 11
82.326099999999997
 21
214.59399999999999
 31
0.0
  0
LINE
  5
5F
  8
0
 62
     7
 10
83.276099999999985
 20
215.88300000000001
 30
0.0
 11
82.326099999999997
 21
215.33199999999991
 31
0.0
  0
LINE
  5
60
  8
0
 62
     7
 10
83.276099999999985
 20
216.6209999999999
 30
0.0
 11
82.326099999999997
 21
216.06899999999999
 31
0.0
  0
LINE
  5
61
  8
0
 62
     7
 10
83.276099999999985
 20
217.35900000000001
 30
0.0
 11
82.326099999999997
 21
216.80699999999999
 31
0.0
  0
LINE
  5
62
  8
0
 62
     7
 10
83.276099999999985
 20
218.09700000000001
 30
0.0
 11
82.326099999999997
 21
217.54499999999999
 31
0.0
  0
LINE
  5
63
  8
0
 62
     7
 10
83.276099999999985
 20
218.83500000000001
 30
0.0
 11
82.326099999999997
 21
218.28299999999999
 31
0.0
  0
LINE
  5
64
  8
0
 62
     7
 10
82.541399999999996
 20
208.42400000000001
 30
0.0
 11
82.541399999999996
 21
218.98500000000001
 31
0.0
  0
LINE
  5
65
  8
0
 62
     7
 10
82.541399999999996
 20
218.98500000000001
 30
0.0
 11
82.785700000000006
 21
220.09
 31
0.0
  0
LINE
  5
66
  8
0
 62
     7
 10
83.027799999999999
 20
208.42400000000001
 30
0.0
 11
83.027799999999999
 21
219.00200000000001
 31
0.0
  0
LINE
  5
67
  8
0
 62
     7
 10
83.027799999999999
 20
219.00200000000001
 30
0.0
 11
82.785700000000006
 21
220.09
 31
0.0
  0
LINE
  5
68
  8
0
  6
AIGENLINE001
 62
     7
 10
82.784599999999998
 20
207.28599999999989
 30
0.0
 11
82.784599999999998
 21
221.29599999999991
 31
0.0
  0
LINE
  5
69
  8
0
 62
     7
 10
90.133700000000005
 20
227.63800000000001
 30
0.0
 11
83.276099999999985
 21
216.6209999999999
 31
0.0
  0
LINE
  5
6A
  8
0
 62
     7
 10
83.276099999999985
 20
216.6209999999999
 30
0.0
 11
84.907999999999987
 21
218.4309999999999
 31
0.0
  0
LINE
  5
6B
  8
0
 62
     7
 10
84.907999999999987
 20
218.4309999999999
 30
0.0
 11
84.190700000000007
 21
218.88
 31
0.0
  0
LINE
  5
6C
  8
0
 62
     7
 10
84.190700000000007
 20
218.88
 30
0.0
 11
83.276099999999985
 21
216.6209999999999
 31
0.0
  0
LINE
  5
6D
  8
0
 62
     7
 10
64.742199999999997
 20
121.2199999999999
 30
0.0
 11
54.203200000000002
 21
104.289
 31
0.0
  0
LINE
  5
6E
  8
0
 62
     7
 10
62.211799999999997
 20
117.154
 30
0.0
 11
63.843699999999998
 21
118.964
 31
0.0
  0
LINE
  5
6F
  8
0
 62
     7
 10
63.843699999999998
 20
118.964
 30
0.0
 11
63.126399999999997
 21
119.4129999999999
 31
0.0
  0
LINE
  5
70
  8
0
 62
     7
 10
63.126399999999997
 20
119.4129999999999
 30
0.0
 11
62.211799999999997
 21
117.154
 31
0.0
  0
LINE
  5
71
  8
0
 62
     7
 10
61.318399999999997
 20
115.7499999999999
 30
0.0
 11
59.686500000000002
 21
113.9399999999999
 31
0.0
  0
LINE
  5
72
  8
0
 62
     7
 10
59.686500000000002
 20
113.9399999999999
 30
0.0
 11
60.4041
 21
113.491
 31
0.0
  0
LINE
  5
73
  8
0
 62
     7
 10
60.4041
 20
113.491
 30
0.0
 11
61.318399999999997
 21
115.7499999999999
 31
0.0
  0
LINE
  5
74
  8
0
 62
     7
 10
54.203200000000002
 20
104.289
 30
0.0
 11
47.227699999999992
 21
104.289
 31
0.0
  0
LINE
  5
75
  8
0
 62
     7
 10
154.48400000000001
 20
121.4409999999999
 30
0.0
 11
154.23699999999999
 21
120.0409999999999
 31
0.0
  0
LINE
  5
76
  8
0
 62
     7
 10
154.23699999999999
 20
120.0409999999999
 30
0.0
 11
154.73099999999991
 21
120.0409999999999
 31
0.0
  0
LINE
  5
77
  8
0
 62
     7
 10
154.73099999999991
 20
120.0409999999999
 30
0.0
 11
154.48400000000001
 21
121.4409999999999
 31
0.0
  0
LINE
  5
78
  8
0
 62
     7
 10
154.48400000000001
 20
116.4409999999999
 30
0.0
 11
154.73099999999991
 21
117.84099999999999
 31
0.0
  0
LINE
  5
79
  8
0
 62
     7
 10
154.73099999999991
 20
117.84099999999999
 30
0.0
 11
154.23699999999999
 21
117.84099999999999
 31
0.0
  0
LINE
  5
7A
  8
0
 62
     7
 10
154.23699999999999
 20
117.84099999999999
 30
0.0
 11
154.48400000000001
 21
116.4409999999999
 31
0.0
  0
LINE
  5
7B
  8
0
 62
     7
 10
154.48400000000001
 20
126.37899999999991
 30
0.0
 11
154.48400000000001
 21
121.4409999999999
 31
0.0
  0
LINE
  5
7C
  8
0
 62
     7
 10
154.48400000000001
 20
116.4409999999999
 30
0.0
 11
154.48400000000001
 21
121.4409999999999
 31
0.0
  0
LINE
  5
7D
  8
0
 62
     7
 10
154.0989999999999
 20
116.4409999999999
 30
0.0
 11
160.71899999999991
 21
116.4409999999999
 31
0.0
  0
LINE
  5
7E
  8
0
 62
     7
 10
38.950699999999998
 20
128.108
 30
0.0
 11
40.350799999999992
 21
127.861
 31
0.0
  0
LINE
  5
7F
  8
0
 62
     7
 10
40.350799999999992
 20
127.861
 30
0.0
 11
40.350799999999992
 21
128.3539999999999
 31
0.0
  0
LINE
  5
80
  8
0
 62
     7
 10
40.350799999999992
 20
128.3539999999999
 30
0.0
 11
38.950699999999998
 21
128.108
 31
0.0
  0
LINE
  5
81
  8
0
 62
     7
 10
61.784599999999998
 20
128.108
 30
0.0
 11
60.384500000000003
 21
128.3539999999999
 31
0.0
  0
LINE
  5
82
  8
0
 62
     7
 10
60.384500000000003
 20
128.3539999999999
 30
0.0
 11
60.384500000000003
 21
127.861
 31
0.0
  0
LINE
  5
83
  8
0
 62
     7
 10
60.384500000000003
 20
127.861
 30
0.0
 11
61.784599999999998
 21
128.108
 31
0.0
  0
LINE
  5
84
  8
0
 62
     7
 10
82.784599999999998
 20
128.108
 30
0.0
 11
84.184700000000007
 21
127.861
 31
0.0
  0
LINE
  5
85
  8
0
 62
     7
 10
84.184700000000007
 20
127.861
 30
0.0
 11
84.184700000000007
 21
128.3539999999999
 31
0.0
  0
LINE
  5
86
  8
0
 62
     7
 10
84.184700000000007
 20
128.3539999999999
 30
0.0
 11
82.784599999999998
 21
128.108
 31
0.0
  0
LINE
  5
87
  8
0
 62
     7
 10
105.6179999999999
 20
128.108
 30
0.0
 11
104.2179999999999
 21
128.3539999999999
 31
0.0
  0
LINE
  5
88
  8
0
 62
     7
 10
104.2179999999999
 20
128.3539999999999
 30
0.0
 11
104.2179999999999
 21
127.861
 31
0.0
  0
LINE
  5
89
  8
0
 62
     7
 10
104.2179999999999
 20
127.861
 30
0.0
 11
105.6179999999999
 21
128.108
 31
0.0
  0
LINE
  5
8A
  8
0
 62
     7
 10
61.784599999999998
 20
128.108
 30
0.0
 11
63.184699999999999
 21
127.861
 31
0.0
  0
LINE
  5
8B
  8
0
 62
     7
 10
63.184699999999999
 20
127.861
 30
0.0
 11
63.184699999999999
 21
128.3539999999999
 31
0.0
  0
LINE
  5
8C
  8
0
 62
     7
 10
63.184699999999999
 20
128.3539999999999
 30
0.0
 11
61.784599999999998
 21
128.108
 31
0.0
  0
LINE
  5
8D
  8
0
 62
     7
 10
82.784599999999998
 20
128.108
 30
0.0
 11
81.384500000000003
 21
128.3539999999999
 31
0.0
  0
LINE
  5
8E
  8
0
 62
     7
 10
81.384500000000003
 20
128.3539999999999
 30
0.0
 11
81.384500000000003
 21
127.861
 31
0.0
  0
LINE
  5
8F
  8
0
 62
     7
 10
81.384500000000003
 20
127.861
 30
0.0
 11
82.784599999999998
 21
128.108
 31
0.0
  0
LINE
  5
90
  8
0
 62
     7
 10
115.535
 20
112.1079999999999
 30
0.0
 11
115.782
 21
113.508
 31
0.0
  0
LINE
  5
91
  8
0
 62
     7
 10
115.782
 20
113.508
 30
0.0
 11
115.2879999999999
 21
113.508
 31
0.0
  0
LINE
  5
92
  8
0
 62
     7
 10
115.2879999999999
 20
113.508
 30
0.0
 11
115.535
 21
112.1079999999999
 31
0.0
  0
LINE
  5
93
  8
0
 62
     7
 10
115.535
 20
121.4409999999999
 30
0.0
 11
115.2879999999999
 21
120.0409999999999
 31
0.0
  0
LINE
  5
94
  8
0
 62
     7
 10
115.2879999999999
 20
120.0409999999999
 30
0.0
 11
115.782
 21
120.0409999999999
 31
0.0
  0
LINE
  5
95
  8
0
 62
     7
 10
115.782
 20
120.0409999999999
 30
0.0
 11
115.535
 21
121.4409999999999
 31
0.0
  0
LINE
  5
96
  8
0
 62
     7
 10
115.9679999999999
 20
112.1079999999999
 30
0.0
 11
103.163
 21
112.1079999999999
 31
0.0
  0
LINE
  5
97
  8
0
 62
     7
 10
106.5949999999999
 20
121.4409999999999
 30
0.0
 11
115.9679999999999
 21
121.4409999999999
 31
0.0
  0
LINE
  5
98
  8
0
 62
     7
 10
115.535
 20
121.4409999999999
 30
0.0
 11
115.535
 21
112.1079999999999
 31
0.0
  0
LINE
  5
99
  8
0
 62
     7
 10
115.535
 20
208.42400000000001
 30
0.0
 11
115.2879999999999
 21
207.024
 31
0.0
  0
LINE
  5
9A
  8
0
 62
     7
 10
115.2879999999999
 20
207.024
 30
0.0
 11
115.78100000000001
 21
207.024
 31
0.0
  0
LINE
  5
9B
  8
0
 62
     7
 10
115.78100000000001
 20
207.024
 30
0.0
 11
115.535
 21
208.42400000000001
 31
0.0
  0
LINE
  5
9C
  8
0
 62
     7
 10
115.535
 20
175.09
 30
0.0
 11
115.78100000000001
 21
176.49000000000001
 31
0.0
  0
LINE
  5
9D
  8
0
 62
     7
 10
115.78100000000001
 20
176.49000000000001
 30
0.0
 11
115.2879999999999
 21
176.49000000000001
 31
0.0
  0
LINE
  5
9E
  8
0
 62
     7
 10
115.2879999999999
 20
176.49000000000001
 30
0.0
 11
115.535
 21
175.09
 31
0.0
  0
LINE
  5
9F
  8
0
 62
     7
 10
38.950699999999998
 20
163.25200000000001
 30
0.0
 11
40.350799999999992
 21
163.00499999999991
 31
0.0
  0
LINE
  5
A0
  8
0
 62
     7
 10
40.350799999999992
 20
163.00499999999991
 30
0.0
 11
40.350799999999992
 21
163.49899999999991
 31
0.0
  0
LINE
  5
A1
  8
0
 62
     7
 10
40.350799999999992
 20
163.49899999999991
 30
0.0
 11
38.950699999999998
 21
163.25200000000001
 31
0.0
  0
LINE
  5
A2
  8
0
 62
     7
 10
105.6179999999999
 20
163.25200000000001
 30
0.0
 11
104.2179999999999
 21
163.49899999999991
 31
0.0
  0
LINE
  5
A3
  8
0
 62
     7
 10
104.2179999999999
 20
163.49899999999991
 30
0.0
 11
104.2179999999999
 21
163.00499999999991
 31
0.0
  0
LINE
  5
A4
  8
0
 62
     7
 10
104.2179999999999
 20
163.00499999999991
 30
0.0
 11
105.6179999999999
 21
163.25200000000001
 31
0.0
  0
ARC
  5
A5
  8
0
 62
     7
 10
96.311901000000006
 20
112.88722199999989
 30
0.0
 40
0.7795100000000002
 50
182.12985299999991
 51
267.87017700000001
  0
ARC
  5
A6
  8
0
 62
     7
 10
96.253951000000001
 20
112.887232
 30
0.0
 40
0.779521
 50
272.13057199999997
 51
357.86943799999989
  0
LINE
  5
A7
  8
0
 62
     7
 10
95.532899999999998
 20
118.1079999999999
 30
0.0
 11
95.532899999999998
 21
112.8579999999999
 31
0.0
  0
LINE
  5
A8
  8
0
 62
     7
 10
97.032899999999998
 20
118.1079999999999
 30
0.0
 11
97.032899999999998
 21
112.8579999999999
 31
0.0
  0
ARC
  5
A9
  8
0
 62
     7
 10
90.978122999999997
 20
112.886657
 30
0.0
 40
0.7791040000000001
 50
182.10211200000001
 51
267.89791700000001
  0
ARC
  5
AA
  8
0
 62
     7
 10
90.920575999999997
 20
112.887049
 30
0.0
 40
0.7795100000000002
 50
272.12984299999999
 51
357.87016699999998
  0
LINE
  5
AB
  8
0
 62
     7
 10
90.199899999999985
 20
118.1079999999999
 30
0.0
 11
90.199899999999985
 21
112.8579999999999
 31
0.0
  0
LINE
  5
AC
  8
0
 62
     7
 10
91.6999
 20
118.1079999999999
 30
0.0
 11
91.6999
 21
112.8579999999999
 31
0.0
  0
ARC
  5
AD
  8
0
 62
     7
 10
85.645092000000005
 20
112.886495
 30
0.0
 40
0.7791140000000001
 50
182.10281000000001
 51
267.89722
  0
ARC
  5
AE
  8
0
 62
     7
 10
85.587524000000016
 20
112.886887
 30
0.0
 40
0.779521
 50
272.13057199999997
 51
357.86943799999989
  0
LINE
  5
AF
  8
0
 62
     7
 10
84.866500000000002
 20
118.1079999999999
 30
0.0
 11
84.866500000000002
 21
112.8579999999999
 31
0.0
  0
LINE
  5
B0
  8
0
 62
     7
 10
86.366500000000016
 20
118.1079999999999
 30
0.0
 11
86.366500000000016
 21
112.8579999999999
 31
0.0
  0
ARC
  5
B1
  8
0
 62
     7
 10
74.978654000000006
 20
112.88648499999999
 30
0.0
 40
0.7791040000000001
 50
182.10211200000001
 51
267.89791700000001
  0
ARC
  5
B2
  8
0
 62
     7
 10
74.921095999999991
 20
112.886887
 30
0.0
 40
0.779521
 50
272.13057199999997
 51
357.86943799999989
  0
LINE
  5
B3
  8
0
 62
     7
 10
74.200100000000006
 20
118.1079999999999
 30
0.0
 11
74.200100000000006
 21
112.8579999999999
 31
0.0
  0
LINE
  5
B4
  8
0
 62
     7
 10
75.700100000000006
 20
118.1079999999999
 30
0.0
 11
75.700100000000006
 21
112.8579999999999
 31
0.0
  0
ARC
  5
B5
  8
0
 62
     7
 10
69.645268000000002
 20
112.88648499999999
 30
0.0
 40
0.7791040000000001
 50
182.10211200000001
 51
267.89791700000001
  0
ARC
  5
B6
  8
0
 62
     7
 10
69.587721000000002
 20
112.8868769999999
 30
0.0
 40
0.7795100000000002
 50
272.12984299999999
 51
357.87016699999998
  0
LINE
  5
B7
  8
0
 62
     7
 10
68.867000000000004
 20
118.1079999999999
 30
0.0
 11
68.867000000000004
 21
112.8579999999999
 31
0.0
  0
LINE
  5
B8
  8
0
 62
     7
 10
70.367000000000004
 20
118.1079999999999
 30
0.0
 11
70.367000000000004
 21
112.8579999999999
 31
0.0
  0
ARC
  5
B9
  8
0
 62
     7
 10
53.645808999999993
 20
112.8861499999999
 30
0.0
 40
0.7791140000000001
 50
182.10281000000001
 51
267.89722
  0
ARC
  5
BA
  8
0
 62
     7
 10
53.588240999999996
 20
112.8865429999999
 30
0.0
 40
0.779521
 50
272.13057199999997
 51
357.86943799999989
  0
LINE
  5
BB
  8
0
 62
     7
 10
52.86719999999999
 20
118.1079999999999
 30
0.0
 11
52.86719999999999
 21
112.8579999999999
 31
0.0
  0
LINE
  5
BC
  8
0
 62
     7
 10
54.367199999999997
 20
118.1079999999999
 30
0.0
 11
54.367199999999997
 21
112.8579999999999
 31
0.0
  0
ARC
  5
BD
  8
0
 62
     7
 10
48.312422999999988
 20
112.8861499999999
 30
0.0
 40
0.7791140000000001
 50
182.10281000000001
 51
267.89722
  0
ARC
  5
BE
  8
0
 62
     7
 10
48.254854999999999
 20
112.8865429999999
 30
0.0
 40
0.779521
 50
272.13057199999997
 51
357.86943799999989
  0
LINE
  5
BF
  8
0
 62
     7
 10
47.534199999999998
 20
118.1079999999999
 30
0.0
 11
47.534199999999998
 21
112.8579999999999
 31
0.0
  0
LINE
  5
C0
  8
0
 62
     7
 10
49.034199999999998
 20
118.1079999999999
 30
0.0
 11
49.034199999999998
 21
112.8579999999999
 31
0.0
  0
ARC
  5
C1
  8
0
 62
     7
 10
101.64702
 20
112.8865429999999
 30
0.0
 40
0.779521
 50
182.13058100000001
 51
267.86944799999992
  0
ARC
  5
C2
  8
0
 62
     7
 10
101.58906
 20
112.8865429999999
 30
0.0
 40
0.779521
 50
272.13057199999997
 51
357.86943799999989
  0
LINE
  5
C3
  8
0
 62
     7
 10
100.86799999999999
 20
118.1079999999999
 30
0.0
 11
100.86799999999999
 21
112.8579999999999
 31
0.0
  0
LINE
  5
C4
  8
0
 62
     7
 10
102.3679999999999
 20
118.1079999999999
 30
0.0
 11
102.3679999999999
 21
112.8579999999999
 31
0.0
  0
ARC
  5
C5
  8
0
 62
     7
 10
42.979762999999998
 20
112.886533
 30
0.0
 40
0.7795100000000002
 50
182.12985299999991
 51
267.87017700000001
  0
ARC
  5
C6
  8
0
 62
     7
 10
42.921818999999999
 20
112.8865379999999
 30
0.0
 40
0.779516
 50
272.13020699999993
 51
357.86980299999988
  0
LINE
  5
C7
  8
0
 62
     7
 10
42.200800000000001
 20
118.1079999999999
 30
0.0
 11
42.200800000000001
 21
112.8579999999999
 31
0.0
  0
LINE
  5
C8
  8
0
 62
     7
 10
43.700800000000001
 20
118.1079999999999
 30
0.0
 11
43.700800000000001
 21
112.8579999999999
 31
0.0
  0
LINE
  5
C9
  8
0
 62
     7
 10
97.034700000000015
 20
206.59
 30
0.0
 11
97.034700000000015
 21
176.923
 31
0.0
  0
LINE
  5
CA
  8
0
 62
     7
 10
95.534700000000001
 20
206.59
 30
0.0
 11
95.534700000000001
 21
176.923
 31
0.0
  0
LINE
  5
CB
  8
0
 62
     7
 10
91.701300000000003
 20
206.59
 30
0.0
 11
91.701300000000003
 21
176.923
 31
0.0
  0
LINE
  5
CC
  8
0
 62
     7
 10
90.201299999999989
 20
206.59
 30
0.0
 11
90.201299999999989
 21
176.923
 31
0.0
  0
LINE
  5
CD
  8
0
 62
     7
 10
86.367900000000006
 20
206.59
 30
0.0
 11
86.367900000000006
 21
176.923
 31
0.0
  0
LINE
  5
CE
  8
0
 62
     7
 10
84.867900000000006
 20
206.59
 30
0.0
 11
84.867900000000006
 21
176.923
 31
0.0
  0
LINE
  5
CF
  8
0
 62
     7
 10
81.034499999999994
 20
206.59
 30
0.0
 11
81.034499999999994
 21
176.923
 31
0.0
  0
LINE
  5
D0
  8
0
 62
     7
 10
79.534499999999994
 20
206.59
 30
0.0
 11
79.534499999999994
 21
176.923
 31
0.0
  0
LINE
  5
D1
  8
0
 62
     7
 10
75.701099999999997
 20
206.59
 30
0.0
 11
75.701099999999997
 21
176.923
 31
0.0
  0
LINE
  5
D2
  8
0
 62
     7
 10
74.201099999999997
 20
206.59
 30
0.0
 11
74.201099999999997
 21
176.923
 31
0.0
  0
LINE
  5
D3
  8
0
 62
     7
 10
70.367699999999999
 20
206.59
 30
0.0
 11
70.367699999999999
 21
176.923
 31
0.0
  0
LINE
  5
D4
  8
0
 62
     7
 10
68.867699999999999
 20
206.59
 30
0.0
 11
68.867699999999999
 21
176.923
 31
0.0
  0
LINE
  5
D5
  8
0
 62
     7
 10
65.034300000000002
 20
206.59
 30
0.0
 11
65.034300000000002
 21
176.923
 31
0.0
  0
LINE
  5
D6
  8
0
 62
     7
 10
63.534300000000002
 20
206.59
 30
0.0
 11
63.534300000000002
 21
176.923
 31
0.0
  0
LINE
  5
D7
  8
0
 62
     7
 10
59.701000000000001
 20
206.59
 30
0.0
 11
59.701000000000001
 21
176.923
 31
0.0
  0
LINE
  5
D8
  8
0
 62
     7
 10
58.200899999999997
 20
206.59
 30
0.0
 11
58.200899999999997
 21
176.923
 31
0.0
  0
LINE
  5
D9
  8
0
 62
     7
 10
54.367600000000003
 20
206.59
 30
0.0
 11
54.367600000000003
 21
176.923
 31
0.0
  0
LINE
  5
DA
  8
0
 62
     7
 10
52.86760000000001
 20
206.59
 30
0.0
 11
52.86760000000001
 21
176.923
 31
0.0
  0
LINE
  5
DB
  8
0
 62
     7
 10
102.3679999999999
 20
206.59
 30
0.0
 11
102.3679999999999
 21
177.303
 31
0.0
  0
LINE
  5
DC
  8
0
 62
     7
 10
100.86799999999999
 20
206.59
 30
0.0
 11
100.86799999999999
 21
176.923
 31
0.0
  0
LINE
  5
DD
  8
0
 62
     7
 10
43.700800000000001
 20
206.59
 30
0.0
 11
43.700800000000001
 21
176.923
 31
0.0
  0
LINE
  5
DE
  8
0
 62
     7
 10
42.200800000000001
 20
206.59
 30
0.0
 11
42.200800000000001
 21
177.303
 31
0.0
  0
LINE
  5
DF
  8
0
 62
     7
 10
49.034199999999998
 20
206.59
 30
0.0
 11
49.034199999999998
 21
176.923
 31
0.0
  0
LINE
  5
E0
  8
0
 62
     7
 10
47.534199999999998
 20
206.59
 30
0.0
 11
47.534199999999998
 21
176.923
 31
0.0
  0
LINE
  5
E1
  8
0
 62
     7
 10
82.784599999999998
 20
128.54099999999991
 30
0.0
 11
82.784599999999998
 21
118.75700000000001
 31
0.0
  0
LINE
  5
E2
  8
0
 62
     7
 10
61.784599999999998
 20
128.54099999999991
 30
0.0
 11
61.784599999999998
 21
118.75700000000001
 31
0.0
  0
LINE
  5
E3
  8
0
 62
     7
 10
38.950699999999998
 20
121.83799999999999
 30
0.0
 11
38.950699999999998
 21
128.54099999999991
 31
0.0
  0
LINE
  5
E4
  8
0
 62
     7
 10
105.6179999999999
 20
121.83799999999999
 30
0.0
 11
105.6179999999999
 21
128.54099999999991
 31
0.0
  0
LINE
  5
E5
  8
0
 62
     7
 10
61.784599999999998
 20
128.108
 30
0.0
 11
38.950699999999998
 21
128.108
 31
0.0
  0
LINE
  5
E6
  8
0
 62
     7
 10
105.6179999999999
 20
128.108
 30
0.0
 11
82.784599999999998
 21
128.108
 31
0.0
  0
LINE
  5
E7
  8
0
 62
     7
 10
82.784599999999998
 20
128.108
 30
0.0
 11
61.784599999999998
 21
128.108
 31
0.0
  0
LINE
  5
E8
  8
0
  6
AIGENLINE001
 62
     7
 10
84.070700000000002
 20
116.4409999999999
 30
0.0
 11
81.484399999999994
 21
116.4409999999999
 31
0.0
  0
LINE
  5
E9
  8
0
  6
AIGENLINE001
 62
     7
 10
82.784599999999998
 20
115.012
 30
0.0
 11
82.784599999999998
 21
117.85899999999999
 31
0.0
  0
LINE
  5
EA
  8
0
  6
AIGENLINE001
 62
     7
 10
63.07030000000001
 20
116.4409999999999
 30
0.0
 11
60.484400000000001
 21
116.4409999999999
 31
0.0
  0
LINE
  5
EB
  8
0
  6
AIGENLINE001
 62
     7
 10
61.784599999999998
 20
115.012
 30
0.0
 11
61.784599999999998
 21
117.85899999999999
 31
0.0
  0
LINE
  5
EC
  8
0
 62
     7
 10
115.9679999999999
 20
175.09
 30
0.0
 11
102.592
 21
175.09
 31
0.0
  0
LINE
  5
ED
  8
0
 62
     7
 10
104.092
 20
208.42400000000001
 30
0.0
 11
115.9679999999999
 21
208.42400000000001
 31
0.0
  0
LINE
  5
EE
  8
0
 62
     7
 10
115.535
 20
175.09
 30
0.0
 11
115.535
 21
208.42400000000001
 31
0.0
  0
LINE
  5
EF
  8
0
 62
     7
 10
133.322
 20
227.63800000000001
 30
0.0
 11
90.133700000000005
 21
227.63800000000001
 31
0.0
  0
LINE
  5
F0
  8
0
 62
     7
 10
105.6179999999999
 20
163.25200000000001
 30
0.0
 11
38.950699999999998
 21
163.25200000000001
 31
0.0
  0
LINE
  5
F1
  8
0
 62
     7
 10
105.6179999999999
 20
162.39500000000001
 30
0.0
 11
105.6179999999999
 21
176.0329999999999
 31
0.0
  0
LINE
  5
F2
  8
0
 62
     7
 10
38.950699999999998
 20
162.39500000000001
 30
0.0
 11
38.950699999999998
 21
176.0329999999999
 31
0.0
  0
LINE
  5
F3
  8
0
 62
     7
 10
164.06
 20
115.441
 30
0.0
 11
164.06
 21
117.4409999999999
 31
0.0
  0
LINE
  5
F4
  8
0
 62
     7
 10
164.55199999999999
 20
112.1079999999999
 30
0.0
 11
164.55199999999999
 21
116.19799999999999
 31
0.0
  0
LINE
  5
F5
  8
0
 62
     7
 10
164.55199999999999
 20
116.684
 30
0.0
 11
164.55199999999999
 21
118.1079999999999
 31
0.0
  0
LINE
  5
F6
  8
0
 62
     7
 10
164.55199999999999
 20
112.1079999999999
 30
0.0
 11
161.83000000000001
 21
112.1079999999999
 31
0.0
  0
LINE
  5
F7
  8
0
 62
     7
 10
133.05199999999999
 20
118.1079999999999
 30
0.0
 11
133.05199999999999
 21
113.9529999999999
 31
0.0
  0
ARC
  5
F8
  8
0
 62
     7
 10
133.39717999999999
 20
113.95311
 30
0.0
 40
0.345545
 50
179.99996999999991
 51
270.00002000000001
  0
LINE
  5
F9
  8
0
 62
     7
 10
131.55199999999999
 20
118.1079999999999
 30
0.0
 11
131.55199999999999
 21
113.7739999999999
 31
0.0
  0
ARC
  5
FA
  8
0
 62
     7
 10
133.218378
 20
113.774308
 30
0.0
 40
1.666747
 50
179.99996999999991
 51
270.00002000000001
  0
LINE
  5
FB
  8
0
 62
     7
 10
162.352
 20
118.1079999999999
 30
0.0
 11
162.0079999999999
 21
114.0449999999999
 31
0.0
  0
LINE
  5
FC
  8
0
 62
     7
 10
133.39699999999999
 20
113.6079999999999
 30
0.0
 11
161.44499999999991
 21
113.6079999999999
 31
0.0
  0
LINE
  5
FD
  8
0
 62
     7
 10
163.85199999999989
 20
118.1079999999999
 30
0.0
 11
163.47
 21
113.44199999999999
 31
0.0
  0
LINE
  5
FE
  8
0
 62
     7
 10
133.2179999999999
 20
112.1079999999999
 30
0.0
 11
161.83000000000001
 21
112.1079999999999
 31
0.0
  0
LINE
  5
FF
  8
0
 62
     7
 10
164.55199999999999
 20
120.941
 30
0.0
 11
164.55199999999999
 21
118.1079999999999
 31
0.0
  0
LINE
  5
100
  8
0
 62
     7
 10
164.05199999999999
 20
121.4409999999999
 30
0.0
 11
131.71799999999999
 21
121.4409999999999
 31
0.0
  0
ARC
  5
101
  8
0
 62
     7
 10
164.03297499999999
 20
120.9218179999999
 30
0.0
 40
0.5194380000000001
 50
2.0988699999999998
 51
87.881380000000007
  0
LINE
  5
102
  8
0
 62
     7
 10
131.2179999999999
 20
118.1079999999999
 30
0.0
 11
131.2179999999999
 21
120.941
 31
0.0
  0
ARC
  5
103
  8
0
 62
     7
 10
131.73740699999999
 20
120.92162999999999
 30
0.0
 40
0.5196190000000001
 50
92.099067000000005
 51
177.88117
  0
LINE
  5
104
  8
0
 62
     7
 10
164.55199999999999
 20
118.1079999999999
 30
0.0
 11
131.2179999999999
 21
118.1079999999999
 31
0.0
  0
ARC
  5
105
  8
0
 62
     7
 10
61.752499999999998
 20
116.40876899999989
 30
0.0
 40
0.866028
 50
2.1216020000000002
 51
87.878388000000015
  0
ARC
  5
106
  8
0
 62
     7
 10
61.784560999999997
 20
116.44082899999999
 30
0.0
 40
0.8333739999999998
 50
90.0
 51
179.99996999999991
  0
ARC
  5
107
  8
0
 62
     7
 10
61.784560999999997
 20
116.44082899999999
 30
0.0
 40
0.8333739999999998
 50
179.99996999999991
 51
270.00002000000001
  0
ARC
  5
108
  8
0
 62
     7
 10
61.752881999999993
 20
116.47250799999991
 30
0.0
 40
0.865633
 50
272.09728200000001
 51
357.90272799999991
  0
ARC
  5
109
  8
0
 62
     7
 10
82.784616999999983
 20
116.44082899999999
 30
0.0
 40
0.8333739999999998
 50
0.00001
 51
89.999980000000008
  0
ARC
  5
10A
  8
0
 62
     7
 10
82.784617999999995
 20
116.44082899999999
 30
0.0
 40
0.8333739999999998
 50
90.0
 51
179.99996999999991
  0
ARC
  5
10B
  8
0
 62
     7
 10
82.784616999999983
 20
116.44082899999999
 30
0.0
 40
0.8333739999999998
 50
179.99996999999991
 51
270.00002000000001
  0
ARC
  5
10C
  8
0
 62
     7
 10
82.784616999999983
 20
116.44083000000001
 30
0.0
 40
0.8333739999999998
 50
270.00002000000001
 51
359.99998999999991
  0
LINE
  5
10D
  8
0
 62
     7
 10
63.617699999999992
 20
114.7739999999999
 30
0.0
 11
59.701000000000001
 21
114.7739999999999
 31
0.0
  0
LINE
  5
10E
  8
0
 62
     7
 10
84.867900000000006
 20
114.7739999999999
 30
0.0
 11
81.034499999999994
 21
114.7739999999999
 31
0.0
  0
ARC
  5
10F
  8
0
 62
     7
 10
85.646460000000005
 20
112.8863129999999
 30
0.0
 40
0.7791040000000001
 50
182.10211200000001
 51
267.89791700000001
  0
ARC
  5
110
  8
0
 62
     7
 10
85.588902000000004
 20
112.886715
 30
0.0
 40
0.779521
 50
272.13057199999997
 51
357.86943799999989
  0
LINE
  5
111
  8
0
 62
     7
 10
84.867900000000006
 20
118.1079999999999
 30
0.0
 11
84.867900000000006
 21
112.8579999999999
 31
0.0
  0
LINE
  5
112
  8
0
 62
     7
 10
86.367900000000006
 20
118.1079999999999
 30
0.0
 11
86.367900000000006
 21
112.8579999999999
 31
0.0
  0
ARC
  5
113
  8
0
 62
     7
 10
80.312899000000002
 20
112.88597300000001
 30
0.0
 40
0.77893
 50
182.10291799999999
 51
267.91027300000002
  0
ARC
  5
114
  8
0
 62
     7
 10
80.255527999999984
 20
112.8865369999999
 30
0.0
 40
0.779515
 50
272.12969299999997
 51
357.85715599999997
  0
LINE
  5
115
  8
0
 62
     7
 10
79.534499999999994
 20
118.1079999999999
 30
0.0
 11
79.534499999999994
 21
112.857
 31
0.0
  0
LINE
  5
116
  8
0
 62
     7
 10
81.034499999999994
 20
118.1079999999999
 30
0.0
 11
81.034499999999994
 21
112.857
 31
0.0
  0
ARC
  5
117
  8
0
 62
     7
 10
64.312916000000001
 20
112.88614099999999
 30
0.0
 40
0.7791040000000001
 50
182.10211200000001
 51
267.89791700000001
  0
ARC
  5
118
  8
0
 62
     7
 10
64.255358000000001
 20
112.8865429999999
 30
0.0
 40
0.779521
 50
272.13057199999997
 51
357.86943799999989
  0
LINE
  5
119
  8
0
 62
     7
 10
63.534300000000002
 20
118.1079999999999
 30
0.0
 11
63.534300000000002
 21
112.8579999999999
 31
0.0
  0
LINE
  5
11A
  8
0
 62
     7
 10
65.034300000000002
 20
118.1079999999999
 30
0.0
 11
65.034300000000002
 21
112.8579999999999
 31
0.0
  0
ARC
  5
11B
  8
0
 62
     7
 10
58.979530000000011
 20
112.88614099999999
 30
0.0
 40
0.7791040000000001
 50
182.10211200000001
 51
267.89791700000001
  0
ARC
  5
11C
  8
0
 62
     7
 10
58.921971999999997
 20
112.8865429999999
 30
0.0
 40
0.779521
 50
272.13057199999997
 51
357.86943799999989
  0
LINE
  5
11D
  8
0
 62
     7
 10
58.200899999999997
 20
118.1079999999999
 30
0.0
 11
58.200899999999997
 21
112.8579999999999
 31
0.0
  0
LINE
  5
11E
  8
0
 62
     7
 10
59.701000000000001
 20
118.1079999999999
 30
0.0
 11
59.701000000000001
 21
112.8579999999999
 31
0.0
  0
LINE
  5
11F
  8
0
 62
     7
 10
105.6179999999999
 20
120.941
 30
0.0
 11
105.6179999999999
 21
118.1079999999999
 31
0.0
  0
LINE
  5
120
  8
0
 62
     7
 10
105.11799999999999
 20
121.4409999999999
 30
0.0
 11
39.450899999999997
 21
121.4409999999999
 31
0.0
  0
ARC
  5
121
  8
0
 62
     7
 10
105.09907699999999
 20
120.9218179999999
 30
0.0
 40
0.5194380000000001
 50
2.0988699999999998
 51
87.881380000000007
  0
LINE
  5
122
  8
0
 62
     7
 10
38.950699999999998
 20
118.1079999999999
 30
0.0
 11
38.950699999999998
 21
120.941
 31
0.0
  0
ARC
  5
123
  8
0
 62
     7
 10
39.469926000000001
 20
120.92163499999999
 30
0.0
 40
0.5196130000000001
 50
92.098533999999987
 51
177.88170299999999
  0
LINE
  5
124
  8
0
 62
     7
 10
105.6179999999999
 20
118.1079999999999
 30
0.0
 11
38.950699999999998
 21
118.1079999999999
 31
0.0
  0
LINE
  5
125
  8
0
 62
     7
 10
103.7849999999999
 20
179.75700000000001
 30
0.0
 11
103.7849999999999
 21
205.25700000000001
 31
0.0
  0
LINE
  5
126
  8
0
 62
     7
 10
102.45099999999999
 20
206.59
 30
0.0
 11
42.117400000000004
 21
206.59
 31
0.0
  0
ARC
  5
127
  8
0
 62
     7
 10
102.45158599999991
 20
205.25681399999991
 30
0.0
 40
1.3334330000000001
 50
0.007412
 51
90.007382000000007
  0
LINE
  5
128
  8
0
 62
     7
 10
40.784199999999998
 20
205.25700000000001
 30
0.0
 11
40.784199999999998
 21
179.75700000000001
 31
0.0
  0
ARC
  5
129
  8
0
 62
     7
 10
42.117420000000003
 20
205.25698600000001
 30
0.0
 40
1.333261
 50
90.0
 51
179.99996999999991
  0
LINE
  5
12A
  8
0
 62
     7
 10
43.617400000000004
 20
176.923
 30
0.0
 11
100.95099999999999
 21
176.923
 31
0.0
  0
ARC
  5
12B
  8
0
 62
     7
 10
100.951582
 20
179.756745
 30
0.0
 40
2.8334369999999991
 50
269.99653699999999
 51
359.99650700000001
  0
ARC
  5
12C
  8
0
 62
     7
 10
43.617422999999988
 20
179.75657200000001
 30
0.0
 40
2.8332639999999989
 50
179.99996999999991
 51
270.00002000000001
  0
LINE
  5
12D
  8
0
 62
     7
 10
105.6179999999999
 20
179.75700000000001
 30
0.0
 11
105.6179999999999
 21
205.25700000000001
 31
0.0
  0
LINE
  5
12E
  8
0
 62
     7
 10
102.45099999999999
 20
208.42400000000001
 30
0.0
 11
42.117400000000004
 21
208.42400000000001
 31
0.0
  0
ARC
  5
12F
  8
0
 62
     7
 10
102.451413
 20
205.25698499999999
 30
0.0
 40
3.1667519999999998
 50
0.00001
 51
89.999980000000008
  0
LINE
  5
130
  8
0
 62
     7
 10
38.950699999999998
 20
205.25700000000001
 30
0.0
 11
38.950699999999998
 21
179.75700000000001
 31
0.0
  0
ARC
  5
131
  8
0
 62
     7
 10
42.117420000000003
 20
205.25698499999999
 30
0.0
 40
3.1667519999999998
 50
90.0
 51
179.99996999999991
  0
ARC
  5
132
  8
0
 62
     7
 10
100.9514089999999
 20
179.756573
 30
0.0
 40
4.6667569999999987
 50
270.00002000000001
 51
359.99998999999991
  0
ARC
  5
133
  8
0
 62
     7
 10
43.617422999999988
 20
179.75657200000001
 30
0.0
 40
4.6667550000000002
 50
179.99996999999991
 51
270.00002000000001
  0
LINE
  5
134
  8
0
 62
     7
 10
43.617400000000004
 20
175.09
 30
0.0
 11
100.95099999999999
 21
175.09
 31
0.0
  0
LINE
  5
135
  8
_________2
 62
     7
 10
210.24000000000001
 20
148.93100000000001
 30
0.0
 11
188.489
 21
148.93100000000001
 31
0.0
  0
LINE
  5
136
  8
_________2
 62
     7
 10
105.2389999999999
 20
17.428499999999989
 30
0.0
 11
105.2389999999999
 21
0.4482100000000001
 31
0.0
  0
LINE
  5
137
  8
_________2
 62
     7
 10
105.2389999999999
 20
297.44999999999987
 30
0.0
 11
105.2389999999999
 21
280.42999999999989
 31
0.0
  0
LINE
  5
138
  8
_________2
 62
     7
 10
21.988499999999991
 20
148.93100000000001
 30
0.0
 11
0.238488
 21
148.93100000000001
 31
0.0
  0
LINE
  5
139
  8
_________2
 62
     7
 10
81.679900000000004
 20
51.324300000000001
 30
0.0
 11
79.493700000000004
 21
51.324300000000001
 31
0.0
  0
LINE
  5
13A
  8
_________2
 62
     7
 10
82.172600000000017
 20
51.324300000000001
 30
0.0
 11
81.920400000000001
 21
51.324300000000001
 31
0.0
  0
LINE
  5
13B
  8
_________2
 62
     7
 10
82.665199999999984
 20
51.324300000000001
 30
0.0
 11
85.590100000000007
 21
51.324300000000001
 31
0.0
  0
LINE
  5
13C
  8
_________2
 62
     7
 10
82.172600000000017
 20
51.324300000000001
 30
0.0
 11
82.424400000000006
 21
51.324300000000001
 31
0.0
  0
LINE
  5
13D
  8
_________2
 62
     7
 10
75.77600000000001
 20
51.324300000000001
 30
0.0
 11
73.589399999999998
 21
51.324300000000001
 31
0.0
  0
LINE
  5
13E
  8
_________2
 62
     7
 10
76.2684
 20
51.324300000000001
 30
0.0
 11
76.016499999999994
 21
51.324300000000001
 31
0.0
  0
LINE
  5
13F
  8
_________2
 62
     7
 10
76.2684
 20
51.817
 30
0.0
 11
76.2684
 21
54.003900000000002
 31
0.0
  0
LINE
  5
140
  8
_________2
 62
     7
 10
76.2684
 20
51.324300000000001
 30
0.0
 11
76.2684
 21
51.576500000000003
 31
0.0
  0
LINE
  5
141
  8
_________2
 62
     7
 10
76.76100000000001
 20
51.324300000000001
 30
0.0
 11
78.947999999999993
 21
51.324300000000001
 31
0.0
  0
LINE
  5
142
  8
_________2
 62
     7
 10
76.2684
 20
51.324300000000001
 30
0.0
 11
76.520499999999998
 21
51.324300000000001
 31
0.0
  0
LINE
  5
143
  8
_________2
 62
     7
 10
76.2684
 20
50.832399999999993
 30
0.0
 11
76.2684
 21
48.645400000000002
 31
0.0
  0
LINE
  5
144
  8
_________2
 62
     7
 10
76.2684
 20
51.324300000000001
 30
0.0
 11
76.2684
 21
51.072800000000001
 31
0.0
  0
LINE
  5
145
  8
_________2
 62
     7
 10
79.979399999999984
 20
50.104799999999997
 30
0.0
 11
85.157399999999996
 21
49.240000000000002
 31
0.0
  0
LINE
  5
146
  8
_________2
 62
     7
 10
79.979399999999984
 20
52.543900000000001
 30
0.0
 11
85.157399999999996
 21
53.409300000000002
 31
0.0
  0
LINE
  5
147
  8
_________2
 62
     7
 10
85.157399999999996
 20
49.240000000000002
 30
0.0
 11
85.157399999999996
 21
53.409300000000002
 31
0.0
  0
LINE
  5
148
  8
_________2
 62
     7
 10
79.979399999999984
 20
50.104799999999997
 30
0.0
 11
79.979399999999984
 21
52.543900000000001
 31
0.0
  0
ARC
  5
149
  8
_________2
 62
     7
 10
76.221776000000006
 20
51.277391999999999
 30
0.0
 40
1.2673589999999999
 50
2.122214
 51
87.893958999999995
  0
ARC
  5
14A
  8
_________2
 62
     7
 10
76.315273000000005
 20
51.277400999999998
 30
0.0
 40
1.267363
 50
92.121785999999986
 51
177.878185
  0
ARC
  5
14B
  8
_________2
 62
     7
 10
76.315273000000005
 20
51.371245999999992
 30
0.0
 40
1.267363
 50
182.12181499999991
 51
267.87821400000001
  0
ARC
  5
14C
  8
_________2
 62
     7
 10
76.221451999999999
 20
51.371580000000002
 30
0.0
 40
1.267695999999999
 50
272.12015300000002
 51
357.863674
  0
ARC
  5
14D
  8
_________2
 62
     7
 10
76.268349999999984
 20
51.324323
 30
0.0
 40
2.0849849999999992
 50
0.00001
 51
89.999980000000008
  0
ARC
  5
14E
  8
_________2
 62
     7
 10
76.268523000000002
 20
51.324494999999992
 30
0.0
 40
2.084813
 50
90.004733999999999
 51
180.00474399999999
  0
ARC
  5
14F
  8
_________2
 62
     7
 10
76.348021000000003
 20
51.404352000000003
 30
0.0
 40
2.1657899999999999
 50
182.117637
 51
267.891862
  0
ARC
  5
150
  8
_________2
 62
     7
 10
76.188378999999983
 20
51.405009999999997
 30
0.0
 40
2.1664590000000001
 50
272.11546800000002
 51
357.86560400000002
  0
TEXT
  5
151
  8
_________2
 62
     7
 10
109.5439999999999
 20
23.199100000000001
 30
0.0
 40
3.0923400000000001
  1
図番
 41
0.5
  0
LINE
  5
152
  8
_________2
 62
     7
 10
108.4889999999999
 20
27.4283
 30
0.0
 11
188.49000000000001
 21
27.4283
 31
0.0
  0
TEXT
  5
153
  8
_________2
 62
     7
 10
109.5439999999999
 20
33.198900000000002
 30
0.0
 40
3.0923400000000001
  1
品番
 41
0.5
  0
TEXT
  5
154
  8
_________2
 62
     7
 10
109.5439999999999
 20
53.337699999999998
 30
0.0
 40
3.0923400000000001
  1
名称
 41
0.5
  0
TEXT
  5
155
  8
_________2
 62
     7
 10
96.784058333333334
 20
48.341500000000011
 30
0.0
 40
3.6545800000000002
  1
mm
 41
0.5
 72
     1
 11
98.306799999999996
 21
48.341500000000011
 31
0.0
  0
TEXT
  5
156
  8
_________2
 62
     7
 10
90.582099999999997
 20
53.337699999999998
 30
0.0
 40
3.0923400000000001
  1
単位
 41
0.5
  0
TEXT
  5
157
  8
_________2
 62
     7
 10
90.582099999999997
 20
40.930399999999999
 30
0.0
 40
3.0923400000000001
  1
尺度
 41
0.5
  0
TEXT
  5
158
  8
_________2
 62
     7
 10
95.487658666666675
 20
34.73749999999999
 30
0.0
 40
3.6545800000000002
  1
1 ： 3
 41
0.5
 72
     1
 11
98.898600000000002
 21
34.73749999999999
 31
0.0
  0
TEXT
  5
159
  8
_________2
 62
     7
 10
135.37
 20
30.627400000000002
 30
0.0
 40
3.9357000000000002
  1
KC24902R-010000
 41
0.5
 72
     1
 11
148.489
 21
30.627400000000002
 31
0.0
  0
TEXT
  5
15A
  8
_________2
 62
     7
 10
135.37
 20
20.626999999999988
 30
0.0
 40
3.9357000000000002
  1
KC24902R-010000
 41
0.5
 72
     1
 11
148.489
 21
20.626999999999988
 31
0.0
  0
TEXT
  5
15B
  8
_________2
 62
     7
 10
114.117
 20
45.7453
 30
0.0
 40
3.9357000000000002
  1
ラージバスケット
 41
0.5
  0
TEXT
  5
15C
  8
_________2
 62
     7
 10
44.303290666666669
 20
35.122599999999991
 30
0.0
 40
3.6545800000000002
  1
高橋
 41
0.5
 72
     1
 11
46.252400000000002
 21
35.122599999999991
 31
0.0
  0
TEXT
  5
15D
  8
_________2
 62
     7
 10
25.728990666666661
 20
35.122599999999991
 30
0.0
 40
3.6545800000000002
  1
石原
 41
0.5
 72
     1
 11
27.678100000000001
 21
35.122599999999991
 31
0.0
  0
TEXT
  5
15E
  8
_________2
 62
     7
 10
72.724400000000003
 20
34.73749999999999
 30
0.0
 40
3.6545800000000002
  1
07.05.31
 41
0.5
  0
TEXT
  5
15F
  8
_________2
 62
     7
 10
71.531999999999996
 20
40.930399999999999
 30
0.0
 40
3.0923400000000001
  1
日付
 41
0.5
  0
TEXT
  5
160
  8
_________2
 62
     7
 10
34.578299999999992
 20
40.930399999999999
 30
0.0
 40
3.0923400000000001
  1
検図
 41
0.5
  0
TEXT
  5
161
  8
_________2
 62
     7
 10
22.960100000000001
 20
26.730999999999991
 30
0.0
 40
3.0923400000000001
  1
備考
 41
0.5
  0
TEXT
  5
162
  8
_________2
 62
     7
 10
22.960100000000001
 20
40.930399999999999
 30
0.0
 40
3.0923400000000001
  1
製図
 41
0.5
  0
TEXT
  5
163
  8
_________2
 62
     7
 10
28.727365333333339
 20
49.456400000000002
 30
0.0
 40
4.4979399999999989
  1
セラトレーディング株式会社
 41
0.5
 72
     1
 11
46.119399999999992
 21
49.456400000000002
 31
0.0
  0
LINE
  5
164
  8
_________2
 62
     7
 10
188.49000000000001
 20
17.428499999999989
 30
0.0
 11
21.988499999999991
 21
17.428499999999989
 31
0.0
  0
LINE
  5
165
  8
_________2
 62
     7
 10
21.988499999999991
 20
17.428499999999989
 30
0.0
 11
21.988499999999991
 21
280.42999999999989
 31
0.0
  0
LINE
  5
166
  8
_________2
 62
     7
 10
21.988499999999991
 20
280.42999999999989
 30
0.0
 11
188.49000000000001
 21
280.42999999999989
 31
0.0
  0
LINE
  5
167
  8
_________2
 62
     7
 10
188.49000000000001
 20
280.42999999999989
 30
0.0
 11
188.49000000000001
 21
17.428499999999989
 31
0.0
  0
LINE
  5
168
  8
_________2
 62
     7
 10
70.488500000000002
 20
30.9285
 30
0.0
 11
70.488500000000002
 21
57.428400000000011
 31
0.0
  0
LINE
  5
169
  8
_________2
 62
     7
 10
89.488600000000005
 20
30.9285
 30
0.0
 11
89.488600000000005
 21
57.428400000000011
 31
0.0
  0
LINE
  5
16A
  8
_________2
 62
     7
 10
108.4889999999999
 20
17.428499999999989
 30
0.0
 11
108.4889999999999
 21
57.428400000000011
 31
0.0
  0
LINE
  5
16B
  8
_________2
 62
     7
 10
33.488300000000002
 20
30.9285
 30
0.0
 11
33.488300000000002
 21
44.928800000000003
 31
0.0
  0
LINE
  5
16C
  8
_________2
 62
     7
 10
21.988499999999991
 20
30.9285
 30
0.0
 11
108.4889999999999
 21
30.9285
 31
0.0
  0
LINE
  5
16D
  8
_________2
 62
     7
 10
21.988499999999991
 20
44.928800000000003
 30
0.0
 11
108.4889999999999
 21
44.928800000000003
 31
0.0
  0
LINE
  5
16E
  8
_________2
 62
     7
 10
108.4889999999999
 20
37.428100000000001
 30
0.0
 11
188.49000000000001
 21
37.428100000000001
 31
0.0
  0
LINE
  5
16F
  8
_________2
 62
     7
 10
21.988499999999991
 20
57.428400000000011
 30
0.0
 11
188.49000000000001
 21
57.428400000000011
 31
0.0
  0
ENDSEC
  0
EOF
