  0
SECTION
  2
HEADER
  9
$ACADVER
  1
AC1009
  9
$INSBASE
 10
0.0
 20
0.0
 30
0.0
  9
$EXTMIN
 10
-4.70052
 20
-21.070900000000002
 30
0.0
  9
$EXTMAX
 10
205.30099999999999
 20
275.93099999999993
 30
0.0
  9
$LIMMIN
 10
0.0
 20
0.0
  9
$LIMMAX
 10
12.0
 20
9.0
  9
$ORTHOMODE
 70
     0
  9
$REGENMODE
 70
     1
  9
$FILLMODE
 70
     1
  9
$QTEXTMODE
 70
     0
  9
$MIRRTEXT
 70
     1
  9
$DRAGMODE
 70
     2
  9
$LTSCALE
 40
1.0
  9
$OSMODE
 70
    37
  9
$ATTMODE
 70
     1
  9
$TEXTSIZE
 40
0.0
  9
$TRACEWID
 40
0.05
  9
$TEXTSTYLE
  7
STANDARD
  9
$CLAYER
  8
0
  9
$CELTYPE
  6
CONTINUOUS
  9
$CECOLOR
 62
   256
  9
$DIMSCALE
 40
1.0
  9
$DIMASZ
 40
0.18
  9
$DIMEXO
 40
0.0625
  9
$DIMDLI
 40
0.38
  9
$DIMRND
 40
0.0
  9
$DIMDLE
 40
0.0
  9
$DIMEXE
 40
0.18
  9
$DIMTP
 40
0.0
  9
$DIMTM
 40
0.0
  9
$DIMTXT
 40
0.18
  9
$DIMCEN
 40
0.09
  9
$DIMTSZ
 40
0.0
  9
$DIMTOL
 70
     0
  9
$DIMLIM
 70
     0
  9
$DIMTIH
 70
     1
  9
$DIMTOH
 70
     1
  9
$DIMSE1
 70
     0
  9
$DIMSE2
 70
     0
  9
$DIMTAD
 70
     0
  9
$DIMZIN
 70
     0
  9
$DIMBLK
  1

  9
$DIMASO
 70
     1
  9
$DIMSHO
 70
     1
  9
$DIMPOST
  1

  9
$DIMAPOST
  1

  9
$DIMALT
 70
     0
  9
$DIMALTD
 70
     2
  9
$DIMALTF
 40
25.399999999999999
  9
$DIMLFAC
 40
1.0
  9
$DIMTOFL
 70
     0
  9
$DIMTVP
 40
0.0
  9
$DIMTIX
 70
     0
  9
$DIMSOXD
 70
     0
  9
$DIMSAH
 70
     0
  9
$DIMBLK1
  1

  9
$DIMBLK2
  1

  9
$DIMSTYLE
  2
STANDARD
  9
$DIMCLRD
 70
     0
  9
$DIMCLRE
 70
     0
  9
$DIMCLRT
 70
     0
  9
$DIMTFAC
 40
1.0
  9
$DIMGAP
 40
0.09
  9
$LUNITS
 70
     2
  9
$LUPREC
 70
     4
  9
$SKETCHINC
 40
0.1
  9
$FILLETRAD
 40
0.0
  9
$AUNITS
 70
     0
  9
$AUPREC
 70
     0
  9
$MENU
  1
.
  9
$ELEVATION
 40
0.0
  9
$PELEVATION
 40
0.0
  9
$THICKNESS
 40
0.0
  9
$LIMCHECK
 70
     0
  9
$BLIPMODE
 70
     0
  9
$CHAMFERA
 40
0.0
  9
$CHAMFERB
 40
0.0
  9
$SKPOLY
 70
     0
  9
$TDCREATE
 40
2444972.375
  9
$TDUPDATE
 40
2453719.2587619331
  9
$TDINDWG
 40
0.0001054398
  9
$TDUSRTIMER
 40
0.0001054398
  9
$USRTIMER
 70
     1
  9
$ANGBASE
 50
0.0
  9
$ANGDIR
 70
     0
  9
$PDMODE
 70
     0
  9
$PDSIZE
 40
0.0
  9
$PLINEWID
 40
0.0
  9
$COORDS
 70
     1
  9
$SPLFRAME
 70
     0
  9
$SPLINETYPE
 70
     6
  9
$SPLINESEGS
 70
     8
  9
$ATTDIA
 70
     0
  9
$ATTREQ
 70
     1
  9
$HANDLING
 70
     1
  9
$HANDSEED
  5
1BF
  9
$SURFTAB1
 70
     6
  9
$SURFTAB2
 70
     6
  9
$SURFTYPE
 70
     6
  9
$SURFU
 70
     6
  9
$SURFV
 70
     6
  9
$UCSNAME
  2

  9
$UCSORG
 10
0.0
 20
0.0
 30
0.0
  9
$UCSXDIR
 10
1.0
 20
0.0
 30
0.0
  9
$UCSYDIR
 10
0.0
 20
1.0
 30
0.0
  9
$PUCSNAME
  2

  9
$PUCSORG
 10
0.0
 20
0.0
 30
0.0
  9
$PUCSXDIR
 10
1.0
 20
0.0
 30
0.0
  9
$PUCSYDIR
 10
0.0
 20
1.0
 30
0.0
  9
$USERI1
 70
     0
  9
$USERI2
 70
     0
  9
$USERI3
 70
     0
  9
$USERI4
 70
     0
  9
$USERI5
 70
     0
  9
$USERR1
 40
0.0
  9
$USERR2
 40
0.0
  9
$USERR3
 40
0.0
  9
$USERR4
 40
0.0
  9
$USERR5
 40
0.0
  9
$WORLDVIEW
 70
     1
  9
$SHADEDGE
 70
     3
  9
$SHADEDIF
 70
    70
  9
$TILEMODE
 70
     1
  9
$MAXACTVP
 70
    48
  9
$PLIMCHECK
 70
     0
  9
$PEXTMIN
 10
1.0000000000000000E+020
 20
1.0000000000000000E+020
 30
1.0000000000000000E+020
  9
$PEXTMAX
 10
-1.0000000000000000E+020
 20
-1.0000000000000000E+020
 30
-1.0000000000000000E+020
  9
$PLIMMIN
 10
0.0
 20
0.0
  9
$PLIMMAX
 10
12.0
 20
9.0
  9
$UNITMODE
 70
     0
  9
$VISRETAIN
 70
     1
  9
$PLINEGEN
 70
     0
  9
$PSLTSCALE
 70
     1
  0
ENDSEC
  0
SECTION
  2
TABLES
  0
TABLE
  2
VPORT
 70
     2
  0
VPORT
  2
*ACTIVE
 70
     0
 10
0.0
 20
0.0
 11
1.0
 21
1.0
 12
200.17533677571029
 22
127.43004999999989
 13
0.0
 23
0.0
 14
1.0
 24
1.0
 15
0.0
 25
0.0
 16
0.0
 26
0.0
 36
1.0
 17
0.0
 27
0.0
 37
0.0
 40
299.1857374999999
 41
2.1842105263157889
 42
50.0
 43
0.0
 44
0.0
 50
0.0
 51
0.0
 71
     0
 72
   100
 73
     1
 74
     1
 75
     0
 76
     0
 77
     0
 78
     0
  0
ENDTAB
  0
TABLE
  2
LTYPE
 70
     2
  0
LTYPE
  2
CONTINUOUS
 70
     0
  3
Solid line
 72
    65
 73
     0
 40
0.0
  0
LTYPE
  2
AIGENLINE001
 70
     0
  3
generate AI->DXF Converter
 72
    65
 73
     4
 40
5.8561449999999988
 49
3.5278
 49
-0.776115
 49
0.776115
 49
-0.776115
  0
ENDTAB
  0
TABLE
  2
LAYER
 70
     2
  0
LAYER
  2
0
 70
     0
 62
     7
  6
CONTINUOUS
  0
LAYER
  2
_________2
 70
     0
 62
     7
  6
CONTINUOUS
  0
ENDTAB
  0
TABLE
  2
STYLE
 70
     1
  0
STYLE
  2
STANDARD
 70
     0
 40
0.0
 41
0.0
 50
0.0
 71
     0
 42
0.0
  3
TXT
  4
EXTFONT.SHX
  0
ENDTAB
  0
TABLE
  2
VIEW
 70
     0
  0
ENDTAB
  0
TABLE
  2
UCS
 70
     0
  0
ENDTAB
  0
TABLE
  2
APPID
 70
     1
  0
APPID
  2
ACAD
 70
     0
  0
ENDTAB
  0
TABLE
  2
DIMSTYLE
 70
     1
  0
DIMSTYLE
  2
STANDARD
 70
     0
  3

  4

  5

  6

  7

 40
1.0
 41
0.18
 42
0.0625
 43
0.38
 44
0.18
 45
0.0
 46
0.0
 47
0.0
 48
0.0
140
0.18
141
0.09
142
0.0
143
25.399999999999999
144
1.0
145
0.0
146
1.0
147
0.09
 71
     0
 72
     0
 73
     1
 74
     1
 75
     0
 76
     0
 77
     0
 78
     0
170
     0
171
     2
172
     0
173
     0
174
     0
175
     0
176
     0
177
     0
178
     0
  0
ENDTAB
  0
ENDSEC
  0
SECTION
  2
BLOCKS
  0
BLOCK
  8
0
  2
$MODEL_SPACE
 70
     0
 10
0.0
 20
0.0
 30
0.0
  3
$MODEL_SPACE
  1

  0
ENDBLK
  5
1A
  8
0
  0
BLOCK
 67
     1
  8
0
  2
$PAPER_SPACE
 70
     0
 10
0.0
 20
0.0
 30
0.0
  3
$PAPER_SPACE
  1

  0
ENDBLK
  5
17
 67
     1
  8
0
  0
ENDSEC
  0
SECTION
  2
ENTITIES
  0
TEXT
  5
22
  8
0
 62
     7
 10
64.982187500000009
 20
108.01600000000001
 30
0.0
 40
3.0923400000000001
  1
240
 41
0.5
 72
     1
 11
66.914900000000003
 21
108.01600000000001
 31
0.0
  0
TEXT
  5
23
  8
0
 62
     7
 10
74.984224999999995
 20
79.218199999999996
 30
0.0
 40
3.0923400000000001
  1
%%c5
 41
0.5
 72
     1
 11
76.2727
 21
79.218199999999996
 31
0.0
  0
TEXT
  5
24
  8
0
 62
     7
 10
177.857
 20
90.838572499999984
 30
0.0
 40
3.0923400000000001
  1
50
 50
90.0
 41
0.5
 72
     1
 11
177.857
 21
91.998199999999997
 31
0.0
  0
TEXT
  5
25
  8
0
 62
     7
 10
157.90535499999999
 20
77.334800000000001
 30
0.0
 40
3.0923400000000001
  1
3-%%c5
 41
0.5
 72
     1
 11
160.74000000000001
 21
77.334800000000001
 31
0.0
  0
TEXT
  5
26
  8
0
 62
     7
 10
127.40899999999991
 20
102.84022
 30
0.0
 40
3.0923400000000001
  1
15
 50
90.0
 41
0.5
 72
     1
 11
127.40899999999991
 21
103.871
 31
0.0
  0
TEXT
  5
27
  8
0
 62
     7
 10
173.7579999999999
 20
102.68306750000001
 30
0.0
 40
3.0923400000000001
  1
10
 50
90.0
 41
0.5
 72
     1
 11
173.7579999999999
 21
103.58499999999989
 31
0.0
  0
TEXT
  5
28
  8
0
 62
     7
 10
92.913030481629775
 20
192.70438679653611
 30
0.0
 40
3.0923400000000001
  1
114
 50
2.06128
 41
0.5
 72
     1
 11
94.458200000000005
 21
192.75999999999991
 31
0.0
  0
TEXT
  5
29
  8
0
 62
     7
 10
114.27
 20
167.3659825
 30
0.0
 40
3.0923400000000001
  1
170
 50
90.0
 41
0.5
 72
     1
 11
114.27
 21
169.04099999999991
 31
0.0
  0
TEXT
  5
2A
  8
0
 62
     7
 10
47.132410590110673
 20
202.51991059011061
 30
0.0
 40
3.0923400000000001
  1
62
 50
45.0
 41
0.5
 72
     1
 11
48.043500000000002
 21
203.43100000000001
 31
0.0
  0
TEXT
  5
2B
  8
0
 62
     7
 10
36.125692708132789
 20
200.1246927081327
 30
0.0
 40
3.0923400000000001
  1
117
 50
45.0
 41
0.5
 72
     1
 11
37.219000000000001
 21
201.2179999999999
 31
0.0
  0
LINE
  5
2C
  8
0
 62
     7
 10
39.934800000000003
 20
173.6759999999999
 30
0.0
 11
39.3613
 21
171.38900000000001
 31
0.0
  0
LINE
  5
2D
  8
0
 62
     7
 10
39.100499999999997
 20
174.51099999999991
 30
0.0
 11
38.52729999999999
 21
172.2229999999999
 31
0.0
  0
LINE
  5
2E
  8
0
 62
     7
 10
38.266599999999997
 20
175.34499999999991
 30
0.0
 11
37.693199999999997
 21
173.05699999999999
 31
0.0
  0
LINE
  5
2F
  8
0
 62
     7
 10
37.432400000000001
 20
176.17899999999989
 30
0.0
 11
36.85929999999999
 21
173.89099999999991
 31
0.0
  0
LINE
  5
30
  8
0
 62
     7
 10
36.598300000000002
 20
177.01299999999989
 30
0.0
 11
36.025100000000002
 21
174.72499999999999
 31
0.0
  0
LINE
  5
31
  8
0
 62
     7
 10
35.764299999999999
 20
177.84700000000001
 30
0.0
 11
35.191000000000003
 21
175.559
 31
0.0
  0
LINE
  5
32
  8
0
 62
     7
 10
34.930599999999991
 20
178.6809999999999
 30
0.0
 11
34.356900000000003
 21
176.393
 31
0.0
  0
LINE
  5
33
  8
0
 62
     7
 10
34.096499999999999
 20
179.5149999999999
 30
0.0
 11
33.522899999999993
 21
177.22699999999989
 31
0.0
  0
LINE
  5
34
  8
0
 62
     7
 10
39.649900000000002
 20
171.749
 30
0.0
 11
33.78779999999999
 21
177.6109999999999
 31
0.0
  0
LINE
  5
35
  8
0
 62
     7
 10
33.78779999999999
 20
177.6109999999999
 30
0.0
 11
32.946199999999997
 21
179.1879999999999
 31
0.0
  0
LINE
  5
36
  8
0
 62
     7
 10
40.382100000000001
 20
172.48099999999991
 30
0.0
 11
34.512
 21
178.35099999999991
 31
0.0
  0
LINE
  5
37
  8
0
 62
     7
 10
34.512
 20
178.35099999999991
 30
0.0
 11
32.946199999999997
 21
179.1879999999999
 31
0.0
  0
LINE
  5
38
  8
0
  6
AIGENLINE001
 62
     7
 10
41.405299999999997
 20
170.72599999999991
 30
0.0
 11
32.37619999999999
 21
179.755
 31
0.0
  0
LINE
  5
39
  8
0
 62
     7
 10
52.9208
 20
186.61799999999991
 30
0.0
 11
52.3474
 21
184.33000000000001
 31
0.0
  0
LINE
  5
3A
  8
0
 62
     7
 10
52.086599999999997
 20
187.452
 30
0.0
 11
51.513300000000001
 21
185.16499999999999
 31
0.0
  0
LINE
  5
3B
  8
0
 62
     7
 10
51.252699999999997
 20
188.28599999999989
 30
0.0
 11
50.679200000000002
 21
185.999
 31
0.0
  0
LINE
  5
3C
  8
0
 62
     7
 10
50.418399999999998
 20
189.11999999999989
 30
0.0
 11
49.845300000000002
 21
186.83199999999991
 31
0.0
  0
LINE
  5
3D
  8
0
 62
     7
 10
49.584400000000002
 20
189.95400000000001
 30
0.0
 11
49.011099999999999
 21
187.667
 31
0.0
  0
LINE
  5
3E
  8
0
 62
     7
 10
48.750300000000003
 20
190.78899999999999
 30
0.0
 11
48.177
 21
188.50099999999989
 31
0.0
  0
LINE
  5
3F
  8
0
 62
     7
 10
47.916600000000003
 20
191.62200000000001
 30
0.0
 11
47.343000000000004
 21
189.33500000000001
 31
0.0
  0
LINE
  5
40
  8
0
 62
     7
 10
47.082500000000003
 20
192.4559999999999
 30
0.0
 11
46.50889999999999
 21
190.16900000000001
 31
0.0
  0
LINE
  5
41
  8
0
 62
     7
 10
52.635899999999999
 20
184.68999999999991
 30
0.0
 11
46.773800000000001
 21
190.55299999999991
 31
0.0
  0
LINE
  5
42
  8
0
 62
     7
 10
46.773800000000001
 20
190.55299999999991
 30
0.0
 11
45.932200000000002
 21
192.12899999999999
 31
0.0
  0
LINE
  5
43
  8
0
 62
     7
 10
53.368099999999991
 20
185.423
 30
0.0
 11
47.497999999999998
 21
191.29300000000001
 31
0.0
  0
LINE
  5
44
  8
0
 62
     7
 10
47.497999999999998
 20
191.29300000000001
 30
0.0
 11
45.932200000000002
 21
192.12899999999999
 31
0.0
  0
LINE
  5
45
  8
0
  6
AIGENLINE001
 62
     7
 10
54.391300000000001
 20
183.66699999999989
 30
0.0
 11
45.362200000000001
 21
192.696
 31
0.0
  0
LINE
  5
46
  8
0
 62
     7
 10
96.105900000000005
 20
172.904
 30
0.0
 11
93.818299999999994
 21
173.477
 31
0.0
  0
LINE
  5
47
  8
0
 62
     7
 10
96.939899999999994
 20
173.73799999999989
 30
0.0
 11
94.652399999999986
 21
174.31099999999989
 31
0.0
  0
LINE
  5
48
  8
0
 62
     7
 10
97.774000000000001
 20
174.572
 30
0.0
 11
95.486400000000003
 21
175.14500000000001
 31
0.0
  0
LINE
  5
49
  8
0
 62
     7
 10
98.60799999999999
 20
175.40599999999989
 30
0.0
 11
96.320300000000003
 21
175.97900000000001
 31
0.0
  0
LINE
  5
4A
  8
0
 62
     7
 10
99.442300000000003
 20
176.24000000000001
 30
0.0
 11
97.154399999999995
 21
176.81299999999999
 31
0.0
  0
LINE
  5
4B
  8
0
 62
     7
 10
100.2769999999999
 20
177.07400000000001
 30
0.0
 11
97.988600000000005
 21
177.64699999999999
 31
0.0
  0
LINE
  5
4C
  8
0
 62
     7
 10
101.11
 20
177.9079999999999
 30
0.0
 11
98.822500000000005
 21
178.48099999999999
 31
0.0
  0
LINE
  5
4D
  8
0
 62
     7
 10
101.944
 20
178.74199999999999
 30
0.0
 11
99.656700000000015
 21
179.31499999999991
 31
0.0
  0
LINE
  5
4E
  8
0
 62
     7
 10
94.178299999999993
 20
173.1879999999999
 30
0.0
 11
100.04000000000001
 21
179.05000000000001
 31
0.0
  0
LINE
  5
4F
  8
0
 62
     7
 10
100.04000000000001
 20
179.05000000000001
 30
0.0
 11
101.617
 21
179.892
 31
0.0
  0
LINE
  5
50
  8
0
 62
     7
 10
94.910600000000002
 20
172.4559999999999
 30
0.0
 11
100.78100000000001
 21
178.32599999999999
 31
0.0
  0
LINE
  5
51
  8
0
 62
     7
 10
100.78100000000001
 20
178.32599999999999
 30
0.0
 11
101.617
 21
179.892
 31
0.0
  0
LINE
  5
52
  8
0
  6
AIGENLINE001
 62
     7
 10
93.155100000000004
 20
171.43299999999991
 30
0.0
 11
102.184
 21
180.46199999999999
 31
0.0
  0
LINE
  5
53
  8
0
 62
     7
 10
127.997
 20
106.411
 30
0.0
 11
127.997
 21
100.77
 31
0.0
  0
LINE
  5
54
  8
0
  6
AIGENLINE001
 62
     7
 10
145.46899999999999
 20
97.191199999999995
 30
0.0
 11
145.46899999999999
 21
94.346900000000005
 31
0.0
  0
LINE
  5
55
  8
0
 62
     7
 10
165.70500000000001
 20
76.513099999999994
 30
0.0
 11
154.239
 21
76.513099999999994
 31
0.0
  0
LINE
  5
56
  8
0
 62
     7
 10
146.47
 20
94.042699999999996
 30
0.0
 11
154.239
 21
76.513099999999994
 31
0.0
  0
LINE
  5
57
  8
0
 62
     7
 10
145.96000000000001
 20
95.194599999999994
 30
0.0
 11
146.30099999999999
 21
93.814700000000002
 31
0.0
  0
LINE
  5
58
  8
0
 62
     7
 10
146.30099999999999
 20
93.814700000000002
 30
0.0
 11
146.7529999999999
 21
94.014700000000005
 31
0.0
  0
LINE
  5
59
  8
0
 62
     7
 10
146.7529999999999
 20
94.014700000000005
 30
0.0
 11
145.96000000000001
 21
95.194599999999994
 31
0.0
  0
LINE
  5
5A
  8
0
 62
     7
 10
127.997
 20
97.030199999999994
 30
0.0
 11
127.997
 21
99.510099999999994
 31
0.0
  0
LINE
  5
5B
  8
0
 62
     7
 10
127.997
 20
100.77
 30
0.0
 11
127.75
 21
99.3703
 31
0.0
  0
LINE
  5
5C
  8
0
 62
     7
 10
127.75
 20
99.3703
 30
0.0
 11
128.24299999999991
 21
99.3703
 31
0.0
  0
LINE
  5
5D
  8
0
 62
     7
 10
128.24299999999991
 20
99.3703
 30
0.0
 11
127.997
 21
100.77
 31
0.0
  0
LINE
  5
5E
  8
0
 62
     7
 10
127.997
 20
95.770099999999985
 30
0.0
 11
128.24299999999991
 21
97.170199999999994
 31
0.0
  0
LINE
  5
5F
  8
0
 62
     7
 10
128.24299999999991
 20
97.170199999999994
 30
0.0
 11
127.75
 21
97.170199999999994
 31
0.0
  0
LINE
  5
60
  8
0
 62
     7
 10
127.75
 20
97.170199999999994
 30
0.0
 11
127.997
 21
95.770099999999985
 31
0.0
  0
LINE
  5
61
  8
0
 62
     7
 10
127.997
 20
95.770099999999985
 30
0.0
 11
127.997
 21
100.77
 31
0.0
  0
LINE
  5
62
  8
0
 62
     7
 10
127.496
 20
95.770099999999985
 30
0.0
 11
142.82499999999999
 21
95.770099999999985
 31
0.0
  0
LINE
  5
63
  8
0
  6
AIGENLINE001
 62
     7
 10
147.583
 20
95.770099999999985
 30
0.0
 11
143.3249999999999
 21
95.770099999999985
 31
0.0
  0
LINE
  5
64
  8
0
 62
     7
 10
142.447
 20
94.103399999999993
 30
0.0
 11
142.447
 21
86.103300000000004
 31
0.0
  0
LINE
  5
65
  8
0
 62
     7
 10
161.71700000000001
 20
85.603200000000001
 30
0.0
 11
164.94699999999989
 21
85.603200000000001
 31
0.0
  0
LINE
  5
66
  8
0
 62
     7
 10
155.3829999999999
 20
85.603200000000001
 30
0.0
 11
158.27999999999989
 21
85.603200000000001
 31
0.0
  0
LINE
  5
67
  8
0
 62
     7
 10
149.05000000000001
 20
85.603200000000001
 30
0.0
 11
151.947
 21
85.603200000000001
 31
0.0
  0
LINE
  5
68
  8
0
 62
     7
 10
142.3829999999999
 20
85.603200000000001
 30
0.0
 11
145.61399999999989
 21
85.603200000000001
 31
0.0
  0
LINE
  5
69
  8
0
 62
     7
 10
138.94699999999989
 20
85.603200000000001
 30
0.0
 11
135.05000000000001
 21
85.603200000000001
 31
0.0
  0
LINE
  5
6A
  8
0
 62
     7
 10
178.8479999999999
 20
84.103399999999993
 30
0.0
 11
168.19900000000001
 21
84.103399999999993
 31
0.0
  0
LINE
  5
6B
  8
0
 62
     7
 10
165.77999999999989
 20
97.436899999999994
 30
0.0
 11
165.77999999999989
 21
86.436599999999999
 31
0.0
  0
ARC
  5
6C
  8
0
 62
     7
 10
164.914986
 20
86.468675000000005
 30
0.0
 40
0.866028
 50
272.12161200000003
 51
357.878398
  0
LINE
  5
6D
  8
0
 62
     7
 10
168.447
 20
97.436899999999994
 30
0.0
 11
168.447
 21
86.103300000000004
 31
0.0
  0
ARC
  5
6E
  8
0
 62
     7
 10
166.4470509999999
 20
86.103298999999993
 30
0.0
 40
2.000062999999999
 50
270.00002000000001
 51
359.99998999999991
  0
LINE
  5
6F
  8
0
 62
     7
 10
159.114
 20
97.436899999999994
 30
0.0
 11
159.114
 21
86.436599999999999
 31
0.0
  0
ARC
  5
70
  8
0
 62
     7
 10
158.2483299999999
 20
86.468684999999994
 30
0.0
 40
0.8660389999999999
 50
272.12225899999987
 51
357.87774999999999
  0
LINE
  5
71
  8
0
 62
     7
 10
161.78
 20
97.436899999999994
 30
0.0
 11
161.78
 21
86.103300000000004
 31
0.0
  0
ARC
  5
72
  8
0
 62
     7
 10
159.78040399999989
 20
86.103298999999993
 30
0.0
 40
2.000062999999999
 50
270.00002000000001
 51
359.99998999999991
  0
LINE
  5
73
  8
0
 62
     7
 10
152.78
 20
97.436899999999994
 30
0.0
 11
152.78
 21
86.436599999999999
 31
0.0
  0
ARC
  5
74
  8
0
 62
     7
 10
151.91483600000001
 20
86.468675000000005
 30
0.0
 40
0.866028
 50
272.12161200000003
 51
357.878398
  0
LINE
  5
75
  8
0
 62
     7
 10
155.447
 20
97.436899999999994
 30
0.0
 11
155.447
 21
86.103300000000004
 31
0.0
  0
ARC
  5
76
  8
0
 62
     7
 10
153.44698700000001
 20
86.103212999999997
 30
0.0
 40
1.9999769999999999
 50
270.00248699999997
 51
0.002457
  0
LINE
  5
77
  8
0
 62
     7
 10
146.447
 20
94.1036
 30
0.0
 11
146.447
 21
86.436599999999999
 31
0.0
  0
ARC
  5
78
  8
0
 62
     7
 10
145.613652
 20
86.436700000000002
 30
0.0
 40
0.8332879999999999
 50
269.99409800000001
 51
359.99406800000003
  0
LINE
  5
79
  8
0
 62
     7
 10
149.113
 20
97.436899999999994
 30
0.0
 11
149.113
 21
86.103300000000004
 31
0.0
  0
ARC
  5
7A
  8
0
 62
     7
 10
147.113483
 20
86.103212999999997
 30
0.0
 40
1.9999769999999999
 50
270.00248699999997
 51
0.002457
  0
LINE
  5
7B
  8
0
 62
     7
 10
142.82499999999999
 20
94.103399999999993
 30
0.0
 11
142.82499999999999
 21
97.436899999999994
 31
0.0
  0
LINE
  5
7C
  8
0
 62
     7
 10
135.114
 20
97.436899999999994
 30
0.0
 11
135.114
 21
86.103300000000004
 31
0.0
  0
LINE
  5
7D
  8
0
 62
     7
 10
142.15899999999991
 20
94.103399999999993
 30
0.0
 11
142.15899999999991
 21
97.436899999999994
 31
0.0
  0
LINE
  5
7E
  8
0
 62
     7
 10
142.15899999999991
 20
94.103399999999993
 30
0.0
 11
148.114
 21
94.103399999999993
 31
0.0
  0
LINE
  5
7F
  8
0
 62
     7
 10
148.114
 20
97.436899999999994
 30
0.0
 11
148.114
 21
94.103399999999993
 31
0.0
  0
LINE
  5
80
  8
0
 62
     7
 10
139.77999999999989
 20
97.436899999999994
 30
0.0
 11
139.77999999999989
 21
86.436599999999999
 31
0.0
  0
ARC
  5
81
  8
0
 62
     7
 10
138.91468599999999
 20
86.468675000000005
 30
0.0
 40
0.866028
 50
272.12161200000003
 51
357.878398
  0
ARC
  5
82
  8
0
 62
     7
 10
140.44675100000001
 20
86.103298999999993
 30
0.0
 40
2.000062999999999
 50
270.00002000000001
 51
359.99998999999991
  0
LINE
  5
83
  8
0
 62
     7
 10
91.800700000000006
 20
97.436899999999994
 30
0.0
 11
91.800700000000006
 21
94.103399999999993
 31
0.0
  0
ARC
  5
84
  8
0
 62
     7
 10
93.472933999999995
 20
95.998245999999995
 30
0.0
 40
0.6052810000000001
 50
90.539225999999985
 51
144.20143899999991
  0
ARC
  5
85
  8
0
 62
     7
 10
93.708510000000004
 20
95.788469000000006
 30
0.0
 40
0.919627
 50
142.18562999999989
 51
181.1429399999999
  0
ARC
  5
86
  8
0
 62
     7
 10
93.761482999999998
 20
95.773149000000004
 30
0.0
 40
0.9724219999999998
 50
180.178158
 51
220.627285
  0
ARC
  5
87
  8
0
 62
     7
 10
93.489754000000005
 20
95.572096000000002
 30
0.0
 40
0.6357430000000001
 50
222.82155599999999
 51
267.970304
  0
ARC
  5
88
  8
0
 62
     7
 10
93.451118000000008
 20
95.572457999999997
 30
0.0
 40
0.6359100000000001
 50
271.45248900000001
 51
332.57467100000002
  0
ARC
  5
89
  8
0
 62
     7
 10
93.192993000000001
 20
95.759756999999979
 30
0.0
 40
0.952472
 50
329.72467899999992
 51
0.6237470000000001
  0
ARC
  5
8A
  8
0
 62
     7
 10
93.172756000000007
 20
95.767103000000006
 30
0.0
 40
0.972657
 50
0.178048
 51
40.615316
  0
ARC
  5
8B
  8
0
 62
     7
 10
93.444801999999996
 20
95.968159999999997
 30
0.0
 40
0.635736
 50
42.821599999999997
 51
87.977585999999988
  0
LINE
  5
8C
  8
0
 62
     7
 10
95.134200000000007
 20
94.103399999999993
 30
0.0
 11
90.800700000000006
 21
94.103399999999993
 31
0.0
  0
LINE
  5
8D
  8
0
 62
     7
 10
56.13369999999999
 20
97.436899999999994
 30
0.0
 11
56.13369999999999
 21
94.103399999999993
 31
0.0
  0
ARC
  5
8E
  8
0
 62
     7
 10
54.472833999999992
 20
95.998234999999994
 30
0.0
 40
0.6052920000000001
 50
90.539742000000004
 51
144.2009229999999
  0
ARC
  5
8F
  8
0
 62
     7
 10
54.708404000000002
 20
95.788469000000006
 30
0.0
 40
0.919627
 50
142.18562999999989
 51
181.1429399999999
  0
ARC
  5
90
  8
0
 62
     7
 10
54.761394000000003
 20
95.773149000000004
 30
0.0
 40
0.9724389999999999
 50
180.1781499999999
 51
220.62643299999999
  0
ARC
  5
91
  8
0
 62
     7
 10
54.489666
 20
95.572147999999999
 30
0.0
 40
0.6357960000000001
 50
222.82355200000001
 51
267.96883500000001
  0
ARC
  5
92
  8
0
 62
     7
 10
54.450963000000002
 20
95.572449000000006
 30
0.0
 40
0.635903
 50
271.45698399999992
 51
332.57523200000003
  0
ARC
  5
93
  8
0
 62
     7
 10
54.192929999999997
 20
95.759835999999979
 30
0.0
 40
0.952429
 50
329.71765299999993
 51
0.619023
  0
ARC
  5
94
  8
0
 62
     7
 10
54.172868000000008
 20
95.767101999999994
 30
0.0
 40
0.9724389999999999
 50
0.178149
 51
40.626394000000012
  0
ARC
  5
95
  8
0
 62
     7
 10
54.444596999999987
 20
95.968102999999985
 30
0.0
 40
0.6357960000000001
 50
42.823532
 51
87.968815000000006
  0
LINE
  5
96
  8
0
 62
     7
 10
52.800199999999997
 20
94.103399999999993
 30
0.0
 11
57.133699999999997
 21
94.103399999999993
 31
0.0
  0
LINE
  5
97
  8
0
 62
     7
 10
43.466900000000003
 20
97.436899999999994
 30
0.0
 11
43.466900000000003
 21
94.103399999999993
 31
0.0
  0
ARC
  5
98
  8
0
 62
     7
 10
102.4676059999999
 20
85.103353999999996
 30
0.0
 40
1.000116999999999
 50
179.99996999999991
 51
270.00002000000001
  0
ARC
  5
99
  8
0
 62
     7
 10
102.46751999999989
 20
85.103267999999986
 30
0.0
 40
1.000032
 50
270.004954
 51
0.004925
  0
LINE
  5
9A
  8
0
 62
     7
 10
101.467
 20
97.436899999999994
 30
0.0
 11
101.467
 21
85.103399999999993
 31
0.0
  0
LINE
  5
9B
  8
0
 62
     7
 10
103.4679999999999
 20
97.436899999999994
 30
0.0
 11
103.4679999999999
 21
85.103399999999993
 31
0.0
  0
ARC
  5
9C
  8
0
 62
     7
 10
96.134187999999995
 20
85.103267000000002
 30
0.0
 40
1.000030999999999
 50
179.995036
 51
269.99508500000002
  0
ARC
  5
9D
  8
0
 62
     7
 10
96.134101999999999
 20
85.103353999999996
 30
0.0
 40
1.0001180000000001
 50
270.00002000000001
 51
359.99998999999991
  0
LINE
  5
9E
  8
0
 62
     7
 10
95.134200000000007
 20
97.436899999999994
 30
0.0
 11
95.134200000000007
 21
85.103399999999993
 31
0.0
  0
LINE
  5
9F
  8
0
 62
     7
 10
97.134200000000007
 20
97.436899999999994
 30
0.0
 11
97.134200000000007
 21
85.103399999999993
 31
0.0
  0
ARC
  5
A0
  8
0
 62
     7
 10
89.800770999999997
 20
85.103353999999996
 30
0.0
 40
1.000116999999999
 50
179.99996999999991
 51
270.00002000000001
  0
ARC
  5
A1
  8
0
 62
     7
 10
89.800684999999987
 20
85.103267999999986
 30
0.0
 40
1.000032
 50
270.004954
 51
0.004925
  0
LINE
  5
A2
  8
0
 62
     7
 10
88.800700000000006
 20
97.436899999999994
 30
0.0
 11
88.800700000000006
 21
85.103399999999993
 31
0.0
  0
LINE
  5
A3
  8
0
 62
     7
 10
90.800700000000006
 20
97.436899999999994
 30
0.0
 11
90.800700000000006
 21
85.103399999999993
 31
0.0
  0
ARC
  5
A4
  8
0
 62
     7
 10
83.467354
 20
85.103267000000002
 30
0.0
 40
1.000030999999999
 50
179.995036
 51
269.99508500000002
  0
ARC
  5
A5
  8
0
 62
     7
 10
83.467267000000007
 20
85.103353999999996
 30
0.0
 40
1.0001180000000001
 50
270.00002000000001
 51
359.99998999999991
  0
LINE
  5
A6
  8
0
 62
     7
 10
82.467299999999994
 20
97.436899999999994
 30
0.0
 11
82.467299999999994
 21
85.103399999999993
 31
0.0
  0
LINE
  5
A7
  8
0
 62
     7
 10
84.467399999999998
 20
97.436899999999994
 30
0.0
 11
84.467399999999998
 21
85.103399999999993
 31
0.0
  0
ARC
  5
A8
  8
0
 62
     7
 10
77.134022000000002
 20
85.103267000000002
 30
0.0
 40
1.000030999999999
 50
179.995036
 51
269.99508500000002
  0
ARC
  5
A9
  8
0
 62
     7
 10
77.133849999999995
 20
85.103267999999986
 30
0.0
 40
1.000032
 50
270.004954
 51
0.004925
  0
LINE
  5
AA
  8
0
 62
     7
 10
76.134
 20
97.436899999999994
 30
0.0
 11
76.134
 21
85.103399999999993
 31
0.0
  0
LINE
  5
AB
  8
0
 62
     7
 10
78.133899999999997
 20
97.436899999999994
 30
0.0
 11
78.133899999999997
 21
85.103399999999993
 31
0.0
  0
LINE
  5
AC
  8
0
 62
     7
 10
69.8005
 20
97.436899999999994
 30
0.0
 11
69.8005
 21
85.103399999999993
 31
0.0
  0
LINE
  5
AD
  8
0
 62
     7
 10
71.800600000000003
 20
97.436899999999994
 30
0.0
 11
71.800600000000003
 21
85.103399999999993
 31
0.0
  0
ARC
  5
AE
  8
0
 62
     7
 10
64.467186999999996
 20
85.103267000000002
 30
0.0
 40
1.000030999999999
 50
179.995036
 51
269.99508500000002
  0
ARC
  5
AF
  8
0
 62
     7
 10
64.467015000000004
 20
85.103267999999986
 30
0.0
 40
1.000032
 50
270.004954
 51
0.004925
  0
LINE
  5
B0
  8
0
 62
     7
 10
63.467199999999998
 20
97.436899999999994
 30
0.0
 11
63.467199999999998
 21
85.103399999999993
 31
0.0
  0
LINE
  5
B1
  8
0
 62
     7
 10
65.466999999999999
 20
97.436899999999994
 30
0.0
 11
65.466999999999999
 21
85.103399999999993
 31
0.0
  0
ARC
  5
B2
  8
0
 62
     7
 10
58.133683999999988
 20
85.103267000000002
 30
0.0
 40
1.000030999999999
 50
179.995036
 51
269.99508500000002
  0
ARC
  5
B3
  8
0
 62
     7
 10
58.133597999999999
 20
85.103353999999996
 30
0.0
 40
1.0001180000000001
 50
270.00002000000001
 51
359.99998999999991
  0
LINE
  5
B4
  8
0
 62
     7
 10
57.133699999999997
 20
97.436899999999994
 30
0.0
 11
57.133699999999997
 21
85.103399999999993
 31
0.0
  0
LINE
  5
B5
  8
0
 62
     7
 10
59.133699999999997
 20
97.436899999999994
 30
0.0
 11
59.133699999999997
 21
85.103399999999993
 31
0.0
  0
ARC
  5
B6
  8
0
 62
     7
 10
51.800351999999997
 20
85.103267000000002
 30
0.0
 40
1.000030999999999
 50
179.995036
 51
269.99508500000002
  0
ARC
  5
B7
  8
0
 62
     7
 10
51.800179999999997
 20
85.103267999999986
 30
0.0
 40
1.000032
 50
270.004954
 51
0.004925
  0
LINE
  5
B8
  8
0
 62
     7
 10
50.8003
 20
97.436899999999994
 30
0.0
 11
50.8003
 21
85.103399999999993
 31
0.0
  0
LINE
  5
B9
  8
0
 62
     7
 10
52.800199999999997
 20
97.436899999999994
 30
0.0
 11
52.800199999999997
 21
85.103399999999993
 31
0.0
  0
ARC
  5
BA
  8
0
 62
     7
 10
45.466934999999992
 20
85.103353999999996
 30
0.0
 40
1.000116999999999
 50
179.99996999999991
 51
270.00002000000001
  0
ARC
  5
BB
  8
0
 62
     7
 10
45.466848999999989
 20
85.103267999999986
 30
0.0
 40
1.000032
 50
270.004954
 51
0.004925
  0
LINE
  5
BC
  8
0
 62
     7
 10
44.466799999999992
 20
97.436899999999994
 30
0.0
 11
44.466799999999992
 21
85.103399999999993
 31
0.0
  0
LINE
  5
BD
  8
0
 62
     7
 10
46.466900000000003
 20
97.436899999999994
 30
0.0
 11
46.466900000000003
 21
85.103399999999993
 31
0.0
  0
ARC
  5
BE
  8
0
 62
     7
 10
39.133516999999991
 20
85.103267000000002
 30
0.0
 40
1.000030999999999
 50
179.995036
 51
269.99508500000002
  0
ARC
  5
BF
  8
0
 62
     7
 10
39.133344999999991
 20
85.103267999999986
 30
0.0
 40
1.000032
 50
270.004954
 51
0.004925
  0
LINE
  5
C0
  8
0
 62
     7
 10
38.133499999999991
 20
97.436899999999994
 30
0.0
 11
38.133499999999991
 21
85.103399999999993
 31
0.0
  0
LINE
  5
C1
  8
0
 62
     7
 10
40.133400000000002
 20
97.436899999999994
 30
0.0
 11
40.133400000000002
 21
85.103399999999993
 31
0.0
  0
LINE
  5
C2
  8
0
 62
     7
 10
174.23400000000001
 20
97.436899999999994
 30
0.0
 11
174.48099999999999
 21
98.837000000000003
 31
0.0
  0
LINE
  5
C3
  8
0
 62
     7
 10
174.48099999999999
 20
98.837000000000003
 30
0.0
 11
173.98699999999991
 21
98.837000000000003
 31
0.0
  0
LINE
  5
C4
  8
0
 62
     7
 10
173.98699999999991
 20
98.837000000000003
 30
0.0
 11
174.23400000000001
 21
97.436899999999994
 31
0.0
  0
LINE
  5
C5
  8
0
 62
     7
 10
174.23400000000001
 20
106.1039999999999
 30
0.0
 11
174.23400000000001
 21
100.437
 31
0.0
  0
LINE
  5
C6
  8
0
 62
     7
 10
174.23400000000001
 20
100.437
 30
0.0
 11
174.23400000000001
 21
97.436899999999994
 31
0.0
  0
LINE
  5
C7
  8
0
 62
     7
 10
174.23400000000001
 20
100.77
 30
0.0
 11
173.98699999999991
 21
99.3703
 31
0.0
  0
LINE
  5
C8
  8
0
 62
     7
 10
173.98699999999991
 20
99.3703
 30
0.0
 11
174.48099999999999
 21
99.3703
 31
0.0
  0
LINE
  5
C9
  8
0
 62
     7
 10
174.48099999999999
 20
99.3703
 30
0.0
 11
174.23400000000001
 21
100.77
 31
0.0
  0
LINE
  5
CA
  8
0
 62
     7
 10
170.08799999999991
 20
97.436899999999994
 30
0.0
 11
174.66699999999989
 21
97.436899999999994
 31
0.0
  0
LINE
  5
CB
  8
0
 62
     7
 10
169.78099999999989
 20
100.77
 30
0.0
 11
178.8479999999999
 21
100.77
 31
0.0
  0
LINE
  5
CC
  8
0
 62
     7
 10
178.41499999999991
 20
100.77
 30
0.0
 11
178.41499999999991
 21
84.103200000000001
 31
0.0
  0
LINE
  5
CD
  8
0
 62
     7
 10
178.41499999999991
 20
84.103200000000001
 30
0.0
 11
178.66099999999989
 21
85.503299999999996
 31
0.0
  0
LINE
  5
CE
  8
0
 62
     7
 10
178.66099999999989
 20
85.503299999999996
 30
0.0
 11
178.16800000000001
 21
85.503299999999996
 31
0.0
  0
LINE
  5
CF
  8
0
 62
     7
 10
178.16800000000001
 20
85.503299999999996
 30
0.0
 11
178.41499999999991
 21
84.103200000000001
 31
0.0
  0
LINE
  5
D0
  8
0
 62
     7
 10
178.41499999999991
 20
100.77
 30
0.0
 11
178.16800000000001
 21
99.370400000000004
 31
0.0
  0
LINE
  5
D1
  8
0
 62
     7
 10
178.16800000000001
 20
99.370400000000004
 30
0.0
 11
178.66099999999989
 21
99.370400000000004
 31
0.0
  0
LINE
  5
D2
  8
0
 62
     7
 10
178.66099999999989
 20
99.370400000000004
 30
0.0
 11
178.41499999999991
 21
100.77
 31
0.0
  0
LINE
  5
D3
  8
0
 62
     7
 10
72.219300000000004
 20
78.436499999999995
 30
0.0
 11
79.553600000000003
 21
78.436499999999995
 31
0.0
  0
LINE
  5
D4
  8
0
 62
     7
 10
71.800600000000003
 20
78.436499999999995
 30
0.0
 11
73.200500000000005
 21
78.189700000000002
 31
0.0
  0
LINE
  5
D5
  8
0
 62
     7
 10
73.200500000000005
 20
78.189700000000002
 30
0.0
 11
73.200500000000005
 21
78.683400000000006
 31
0.0
  0
LINE
  5
D6
  8
0
 62
     7
 10
73.200500000000005
 20
78.683400000000006
 30
0.0
 11
71.800600000000003
 21
78.436499999999995
 31
0.0
  0
LINE
  5
D7
  8
0
 62
     7
 10
69.5852
 20
78.436499999999995
 30
0.0
 11
66.5852
 21
78.436499999999995
 31
0.0
  0
LINE
  5
D8
  8
0
 62
     7
 10
69.8005
 20
78.436499999999995
 30
0.0
 11
68.400599999999997
 21
78.683400000000006
 31
0.0
  0
LINE
  5
D9
  8
0
 62
     7
 10
68.400599999999997
 20
78.683400000000006
 30
0.0
 11
68.400599999999997
 21
78.189700000000002
 31
0.0
  0
LINE
  5
DA
  8
0
 62
     7
 10
68.400599999999997
 20
78.189700000000002
 30
0.0
 11
69.8005
 21
78.436499999999995
 31
0.0
  0
LINE
  5
DB
  8
0
 62
     7
 10
69.8005
 20
78.436499999999995
 30
0.0
 11
71.800600000000003
 21
78.436499999999995
 31
0.0
  0
LINE
  5
DC
  8
0
 62
     7
 10
69.8005
 20
83.936099999999996
 30
0.0
 11
69.8005
 21
78.003299999999996
 31
0.0
  0
LINE
  5
DD
  8
0
 62
     7
 10
71.800600000000003
 20
83.936099999999996
 30
0.0
 11
71.800600000000003
 21
78.003299999999996
 31
0.0
  0
LINE
  5
DE
  8
0
 62
     7
 10
27.633299999999991
 20
101.2699999999999
 30
0.0
 11
27.633299999999991
 21
107.86999999999991
 31
0.0
  0
LINE
  5
DF
  8
0
 62
     7
 10
107.634
 20
101.2699999999999
 30
0.0
 11
107.634
 21
107.86999999999991
 31
0.0
  0
LINE
  5
E0
  8
0
 62
     7
 10
107.634
 20
107.437
 30
0.0
 11
27.735299999999999
 21
107.437
 31
0.0
  0
LINE
  5
E1
  8
0
 62
     7
 10
27.633099999999999
 20
107.437
 30
0.0
 11
29.033000000000001
 21
107.19
 31
0.0
  0
LINE
  5
E2
  8
0
 62
     7
 10
29.033000000000001
 20
107.19
 30
0.0
 11
29.033000000000001
 21
107.684
 31
0.0
  0
LINE
  5
E3
  8
0
 62
     7
 10
29.033000000000001
 20
107.684
 30
0.0
 11
27.633099999999999
 21
107.437
 31
0.0
  0
LINE
  5
E4
  8
0
 62
     7
 10
107.634
 20
107.437
 30
0.0
 11
106.23399999999999
 21
107.684
 31
0.0
  0
LINE
  5
E5
  8
0
 62
     7
 10
106.23399999999999
 20
107.684
 30
0.0
 11
106.23399999999999
 21
107.19
 31
0.0
  0
LINE
  5
E6
  8
0
 62
     7
 10
106.23399999999999
 20
107.19
 30
0.0
 11
107.634
 21
107.437
 31
0.0
  0
LINE
  5
E7
  8
0
 62
     7
 10
115.1129999999999
 20
84.103200000000001
 30
0.0
 11
166.447
 21
84.103200000000001
 31
0.0
  0
LINE
  5
E8
  8
0
 62
     7
 10
169.28
 20
97.436899999999994
 30
0.0
 11
169.28
 21
100.2699999999999
 31
0.0
  0
LINE
  5
E9
  8
0
 62
     7
 10
132.447
 20
97.436899999999994
 30
0.0
 11
132.447
 21
86.436599999999999
 31
0.0
  0
LINE
  5
EA
  8
0
 62
     7
 10
115.447
 20
85.603200000000001
 30
0.0
 11
131.613
 21
85.603200000000001
 31
0.0
  0
ARC
  5
EB
  8
0
 62
     7
 10
131.58123699999999
 20
86.468675000000005
 30
0.0
 40
0.866028
 50
272.12161200000003
 51
357.878398
  0
LINE
  5
EC
  8
0
 62
     7
 10
114.613
 20
97.436899999999994
 30
0.0
 11
114.613
 21
86.436599999999999
 31
0.0
  0
ARC
  5
ED
  8
0
 62
     7
 10
115.478247
 20
86.468293000000003
 30
0.0
 40
0.8656319999999999
 50
182.097274
 51
267.9027549999999
  0
ARC
  5
EE
  8
0
 62
     7
 10
133.1133879999999
 20
86.103385000000003
 30
0.0
 40
2.0001489999999991
 50
269.99755299999993
 51
359.997523
  0
LINE
  5
EF
  8
0
 62
     7
 10
113.1129999999999
 20
97.436899999999994
 30
0.0
 11
113.1129999999999
 21
86.103300000000004
 31
0.0
  0
ARC
  5
F0
  8
0
 62
     7
 10
115.1132529999999
 20
86.103298999999993
 30
0.0
 40
2.0000619999999989
 50
179.99996999999991
 51
270.00002000000001
  0
ARC
  5
F1
  8
0
 62
     7
 10
145.47508400000001
 20
95.998245999999995
 30
0.0
 40
0.6052810000000001
 50
90.539225999999985
 51
144.20143899999991
  0
ARC
  5
F2
  8
0
 62
     7
 10
145.71065999999999
 20
95.788469000000006
 30
0.0
 40
0.919627
 50
142.18562999999989
 51
181.1429399999999
  0
ARC
  5
F3
  8
0
 62
     7
 10
145.76363299999991
 20
95.773149000000004
 30
0.0
 40
0.9724219999999998
 50
180.178158
 51
220.627285
  0
ARC
  5
F4
  8
0
 62
     7
 10
145.49190400000001
 20
95.572096000000002
 30
0.0
 40
0.6357430000000001
 50
222.82155599999999
 51
267.970304
  0
ARC
  5
F5
  8
0
 62
     7
 10
145.45326900000001
 20
95.572457999999997
 30
0.0
 40
0.6359100000000001
 50
271.45248900000001
 51
332.57467100000002
  0
ARC
  5
F6
  8
0
 62
     7
 10
145.195143
 20
95.759756999999979
 30
0.0
 40
0.952472
 50
329.72467899999992
 51
0.6237470000000001
  0
ARC
  5
F7
  8
0
 62
     7
 10
145.17490599999999
 20
95.767103000000006
 30
0.0
 40
0.972657
 50
0.178048
 51
40.615316
  0
ARC
  5
F8
  8
0
 62
     7
 10
145.44695200000001
 20
95.968159999999997
 30
0.0
 40
0.635736
 50
42.821599999999997
 51
87.977585999999988
  0
LINE
  5
F9
  8
0
 62
     7
 10
113.1129999999999
 20
100.77
 30
0.0
 11
168.78
 21
100.77
 31
0.0
  0
ARC
  5
FA
  8
0
 62
     7
 10
168.780429
 20
100.2701379999999
 30
0.0
 40
0.5000590000000001
 50
0.00001
 51
89.999980000000008
  0
LINE
  5
FB
  8
0
 62
     7
 10
112.613
 20
97.436899999999994
 30
0.0
 11
112.613
 21
100.2699999999999
 31
0.0
  0
ARC
  5
FC
  8
0
 62
     7
 10
113.1131909999999
 20
100.2701379999999
 30
0.0
 40
0.5000590000000001
 50
90.0
 51
179.99996999999991
  0
LINE
  5
FD
  8
0
 62
     7
 10
112.613
 20
97.436899999999994
 30
0.0
 11
169.28
 21
97.436899999999994
 31
0.0
  0
ARC
  5
FE
  8
0
 62
     7
 10
41.805998999999993
 20
95.998234999999994
 30
0.0
 40
0.6052920000000001
 50
90.539742000000004
 51
144.2009229999999
  0
ARC
  5
FF
  8
0
 62
     7
 10
42.041690000000003
 20
95.788429000000008
 30
0.0
 40
0.919746
 50
142.188267
 51
181.14030399999999
  0
ARC
  5
100
  8
0
 62
     7
 10
42.095840000000003
 20
95.773631999999978
 30
0.0
 40
0.973721
 50
180.2063169999999
 51
220.5991259999999
  0
ARC
  5
101
  8
0
 62
     7
 10
41.822812999999996
 20
95.572096000000002
 30
0.0
 40
0.6357430000000001
 50
222.82155599999999
 51
267.970304
  0
ARC
  5
102
  8
0
 62
     7
 10
41.784128000000003
 20
95.572449000000006
 30
0.0
 40
0.635903
 50
271.45698399999992
 51
332.57523200000003
  0
ARC
  5
103
  8
0
 62
     7
 10
41.526272999999989
 20
95.759788999999998
 30
0.0
 40
0.952252
 50
329.71470599999992
 51
0.621969
  0
ARC
  5
104
  8
0
 62
     7
 10
41.506033000000002
 20
95.767101999999994
 30
0.0
 40
0.9724389999999999
 50
0.178149
 51
40.626394000000012
  0
ARC
  5
105
  8
0
 62
     7
 10
41.777762000000003
 20
95.968102999999985
 30
0.0
 40
0.6357960000000001
 50
42.823532
 51
87.968815000000006
  0
LINE
  5
106
  8
0
 62
     7
 10
40.133400000000002
 20
94.103399999999993
 30
0.0
 11
44.466799999999992
 21
94.103399999999993
 31
0.0
  0
ARC
  5
107
  8
0
 62
     7
 10
70.800518999999994
 20
85.103267000000002
 30
0.0
 40
1.000030999999999
 50
179.995036
 51
269.99508500000002
  0
ARC
  5
108
  8
0
 62
     7
 10
70.800432000000001
 20
85.103353999999996
 30
0.0
 40
1.0001180000000001
 50
270.00002000000001
 51
359.99998999999991
  0
ARC
  5
109
  8
0
 62
     7
 10
32.8001
 20
85.103353999999996
 30
0.0
 40
1.000116999999999
 50
179.99996999999991
 51
270.00002000000001
  0
ARC
  5
10A
  8
0
 62
     7
 10
32.800013999999997
 20
85.103267999999986
 30
0.0
 40
1.000032
 50
270.004954
 51
0.004925
  0
LINE
  5
10B
  8
0
 62
     7
 10
31.800000000000001
 20
97.436899999999994
 30
0.0
 11
31.800000000000001
 21
85.103399999999993
 31
0.0
  0
LINE
  5
10C
  8
0
 62
     7
 10
33.79999999999999
 20
97.436899999999994
 30
0.0
 11
33.79999999999999
 21
85.103399999999993
 31
0.0
  0
LINE
  5
10D
  8
0
 62
     7
 10
107.634
 20
97.436899999999994
 30
0.0
 11
107.634
 21
100.2699999999999
 31
0.0
  0
LINE
  5
10E
  8
0
 62
     7
 10
28.133299999999998
 20
100.77
 30
0.0
 11
107.1339999999999
 21
100.77
 31
0.0
  0
ARC
  5
10F
  8
0
 62
     7
 10
107.115154
 20
100.251102
 30
0.0
 40
0.519444
 50
2.10019
 51
87.899800999999997
  0
LINE
  5
110
  8
0
 62
     7
 10
27.633299999999991
 20
97.436899999999994
 30
0.0
 11
27.633299999999991
 21
100.2699999999999
 31
0.0
  0
ARC
  5
111
  8
0
 62
     7
 10
28.133344000000001
 20
100.2701379999999
 30
0.0
 40
0.5000590000000001
 50
90.0
 51
179.99996999999991
  0
LINE
  5
112
  8
0
 62
     7
 10
27.633099999999999
 20
97.436899999999994
 30
0.0
 11
107.634
 21
97.436899999999994
 31
0.0
  0
LINE
  5
113
  8
0
 62
     7
 10
95.300700000000006
 20
142.77600000000001
 30
0.0
 11
95.300700000000006
 21
169.15700000000001
 31
0.0
  0
LINE
  5
114
  8
0
 62
     7
 10
96.967500000000015
 20
142.77600000000001
 30
0.0
 11
96.967500000000015
 21
167.49000000000001
 31
0.0
  0
LINE
  5
115
  8
0
 62
     7
 10
88.967399999999984
 20
142.77600000000001
 30
0.0
 11
88.967399999999984
 21
175.49000000000001
 31
0.0
  0
LINE
  5
116
  8
0
 62
     7
 10
90.633999999999986
 20
142.77600000000001
 30
0.0
 11
90.633999999999986
 21
173.82400000000001
 31
0.0
  0
LINE
  5
117
  8
0
 62
     7
 10
82.633899999999997
 20
142.77600000000001
 30
0.0
 11
82.633899999999997
 21
181.82400000000001
 31
0.0
  0
LINE
  5
118
  8
0
 62
     7
 10
84.300600000000003
 20
142.77600000000001
 30
0.0
 11
84.300600000000003
 21
180.15700000000001
 31
0.0
  0
LINE
  5
119
  8
0
 62
     7
 10
76.300600000000003
 20
142.77600000000001
 30
0.0
 11
76.300600000000003
 21
188.15700000000001
 31
0.0
  0
LINE
  5
11A
  8
0
 62
     7
 10
77.967299999999994
 20
142.77600000000001
 30
0.0
 11
77.967299999999994
 21
186.4909999999999
 31
0.0
  0
LINE
  5
11B
  8
0
 62
     7
 10
69.967100000000002
 20
142.77600000000001
 30
0.0
 11
69.967100000000002
 21
194.49000000000001
 31
0.0
  0
LINE
  5
11C
  8
0
 62
     7
 10
71.633799999999994
 20
142.77600000000001
 30
0.0
 11
71.633799999999994
 21
192.82400000000001
 31
0.0
  0
LINE
  5
11D
  8
0
 62
     7
 10
63.63369999999999
 20
142.77600000000001
 30
0.0
 11
63.63369999999999
 21
192.82400000000001
 31
0.0
  0
LINE
  5
11E
  8
0
 62
     7
 10
65.3005
 20
142.77600000000001
 30
0.0
 11
65.3005
 21
194.49000000000001
 31
0.0
  0
LINE
  5
11F
  8
0
 62
     7
 10
57.300400000000003
 20
142.77600000000001
 30
0.0
 11
57.300400000000003
 21
186.49000000000001
 31
0.0
  0
LINE
  5
120
  8
0
 62
     7
 10
58.966999999999999
 20
142.77600000000001
 30
0.0
 11
58.966999999999999
 21
188.15700000000001
 31
0.0
  0
LINE
  5
121
  8
0
 62
     7
 10
50.966900000000003
 20
142.77600000000001
 30
0.0
 11
50.966900000000003
 21
180.15700000000001
 31
0.0
  0
LINE
  5
122
  8
0
 62
     7
 10
52.633600000000001
 20
142.77600000000001
 30
0.0
 11
52.633600000000001
 21
181.82299999999989
 31
0.0
  0
LINE
  5
123
  8
0
 62
     7
 10
44.633600000000001
 20
142.77600000000001
 30
0.0
 11
44.633600000000001
 21
173.82400000000001
 31
0.0
  0
LINE
  5
124
  8
0
 62
     7
 10
46.3001
 20
142.77600000000001
 30
0.0
 11
46.3001
 21
175.49000000000001
 31
0.0
  0
LINE
  5
125
  8
0
 62
     7
 10
38.3001
 20
142.77600000000001
 30
0.0
 11
38.3001
 21
167.49000000000001
 31
0.0
  0
LINE
  5
126
  8
0
 62
     7
 10
39.966799999999992
 20
142.77600000000001
 30
0.0
 11
39.966799999999992
 21
169.15700000000001
 31
0.0
  0
LINE
  5
127
  8
0
 62
     7
 10
103.3009999999999
 20
142.77600000000001
 30
0.0
 11
103.3009999999999
 21
161.15700000000001
 31
0.0
  0
LINE
  5
128
  8
0
 62
     7
 10
101.634
 20
142.77600000000001
 30
0.0
 11
101.634
 21
162.82299999999989
 31
0.0
  0
LINE
  5
129
  8
0
 62
     7
 10
31.966699999999999
 20
142.77600000000001
 30
0.0
 11
31.966699999999999
 21
161.15700000000001
 31
0.0
  0
LINE
  5
12A
  8
0
 62
     7
 10
33.633299999999991
 20
142.77600000000001
 30
0.0
 11
33.633299999999991
 21
162.82299999999989
 31
0.0
  0
LINE
  5
12B
  8
0
 62
     7
 10
102.506
 20
180.7829999999999
 30
0.0
 11
104.6189999999999
 21
182.89699999999999
 31
0.0
  0
LINE
  5
12C
  8
0
 62
     7
 10
105.634
 20
143.77600000000001
 30
0.0
 11
105.634
 21
157.995
 31
0.0
  0
LINE
  5
12D
  8
0
 62
     7
 10
69.990799999999993
 20
194.46700000000001
 30
0.0
 11
105.04899999999989
 21
159.40899999999999
 31
0.0
  0
ARC
  5
12E
  8
0
 62
     7
 10
103.609312
 20
157.98479499999999
 30
0.0
 40
2.024899
 50
0.287973
 51
44.703761
  0
LINE
  5
12F
  8
0
 62
     7
 10
65.276700000000005
 20
194.46700000000001
 30
0.0
 11
30.219000000000001
 21
159.40899999999999
 31
0.0
  0
LINE
  5
130
  8
0
 62
     7
 10
29.633299999999998
 20
143.77600000000001
 30
0.0
 11
29.633299999999998
 21
157.995
 31
0.0
  0
ARC
  5
131
  8
0
 62
     7
 10
31.657671999999991
 20
157.984848
 30
0.0
 40
2.0243489999999991
 50
135.282893
 51
179.7134189999999
  0
LINE
  5
132
  8
0
 62
     7
 10
107.634
 20
143.44200000000001
 30
0.0
 11
107.634
 21
158.39199999999991
 31
0.0
  0
LINE
  5
133
  8
0
 62
     7
 10
71.405100000000004
 20
195.88099999999989
 30
0.0
 11
106.654
 21
160.7529999999999
 31
0.0
  0
ARC
  5
134
  8
0
 62
     7
 10
104.262344
 20
158.37610599999999
 30
0.0
 40
3.3719419999999989
 50
0.270449
 51
44.824952000000003
  0
LINE
  5
135
  8
0
 62
     7
 10
63.862499999999997
 20
195.88099999999989
 30
0.0
 11
28.613600000000002
 21
160.7529999999999
 31
0.0
  0
LINE
  5
136
  8
0
 62
     7
 10
27.633299999999991
 20
143.44200000000001
 30
0.0
 11
27.633299999999991
 21
158.39199999999991
 31
0.0
  0
ARC
  5
137
  8
0
 62
     7
 10
31.007283000000001
 20
158.37506499999989
 30
0.0
 40
3.3740389999999989
 50
135.18961999999991
 51
179.7149389999999
  0
LINE
  5
138
  8
0
 62
     7
 10
77.341300000000004
 20
209.36000000000001
 30
0.0
 11
104.212
 21
182.489
 31
0.0
  0
LINE
  5
139
  8
0
 62
     7
 10
104.212
 20
182.489
 30
0.0
 11
103.3959999999999
 21
183.654
 31
0.0
  0
LINE
  5
13A
  8
0
 62
     7
 10
103.3959999999999
 20
183.654
 30
0.0
 11
103.047
 21
183.30500000000001
 31
0.0
  0
LINE
  5
13B
  8
0
 62
     7
 10
103.047
 20
183.30500000000001
 30
0.0
 11
104.212
 21
182.489
 31
0.0
  0
LINE
  5
13C
  8
0
 62
     7
 10
77.341300000000004
 20
209.36000000000001
 30
0.0
 11
78.156800000000004
 21
208.19499999999991
 31
0.0
  0
LINE
  5
13D
  8
0
 62
     7
 10
78.156800000000004
 20
208.19499999999991
 30
0.0
 11
78.506
 21
208.54400000000001
 31
0.0
  0
LINE
  5
13E
  8
0
 62
     7
 10
78.506
 20
208.54400000000001
 30
0.0
 11
77.341300000000004
 21
209.36000000000001
 31
0.0
  0
LINE
  5
13F
  8
0
 62
     7
 10
65.6357
 20
197.654
 30
0.0
 11
77.676199999999994
 21
209.69499999999999
 31
0.0
  0
LINE
  5
140
  8
0
 62
     7
 10
52.116
 20
215.1699999999999
 30
0.0
 11
24.538499999999999
 21
187.5929999999999
 31
0.0
  0
LINE
  5
141
  8
0
 62
     7
 10
24.538499999999999
 20
187.5929999999999
 30
0.0
 11
25.702999999999999
 21
188.4079999999999
 31
0.0
  0
LINE
  5
142
  8
0
 62
     7
 10
25.702999999999999
 20
188.4079999999999
 30
0.0
 11
25.353999999999999
 21
188.75700000000001
 31
0.0
  0
LINE
  5
143
  8
0
 62
     7
 10
25.353999999999999
 20
188.75700000000001
 30
0.0
 11
24.538499999999999
 21
187.5929999999999
 31
0.0
  0
LINE
  5
144
  8
0
 62
     7
 10
52.116
 20
215.1699999999999
 30
0.0
 11
50.9514
 21
214.3549999999999
 31
0.0
  0
LINE
  5
145
  8
0
 62
     7
 10
50.9514
 20
214.3549999999999
 30
0.0
 11
51.300600000000003
 21
214.00599999999989
 31
0.0
  0
LINE
  5
146
  8
0
 62
     7
 10
51.300600000000003
 20
214.00599999999989
 30
0.0
 11
52.116
 21
215.1699999999999
 31
0.0
  0
LINE
  5
147
  8
0
 62
     7
 10
56.453400000000002
 20
210.833
 30
0.0
 11
41.839700000000001
 21
196.21899999999999
 31
0.0
  0
LINE
  5
148
  8
0
 62
     7
 10
41.839700000000001
 20
196.21899999999999
 30
0.0
 11
43.00419999999999
 21
197.03399999999999
 31
0.0
  0
LINE
  5
149
  8
0
 62
     7
 10
43.00419999999999
 20
197.03399999999999
 30
0.0
 11
42.655000000000001
 21
197.3829999999999
 31
0.0
  0
LINE
  5
14A
  8
0
 62
     7
 10
42.655000000000001
 20
197.3829999999999
 30
0.0
 11
41.839700000000001
 21
196.21899999999999
 31
0.0
  0
LINE
  5
14B
  8
0
 62
     7
 10
56.453400000000002
 20
210.833
 30
0.0
 11
55.289000000000001
 21
210.01699999999991
 31
0.0
  0
LINE
  5
14C
  8
0
 62
     7
 10
55.289000000000001
 20
210.01699999999991
 30
0.0
 11
55.637999999999998
 21
209.66800000000001
 31
0.0
  0
LINE
  5
14D
  8
0
 62
     7
 10
55.637999999999998
 20
209.66800000000001
 30
0.0
 11
56.453400000000002
 21
210.833
 31
0.0
  0
LINE
  5
14E
  8
0
 62
     7
 10
24.105499999999999
 20
188.0259999999999
 30
0.0
 11
31.805299999999999
 21
180.32599999999991
 31
0.0
  0
LINE
  5
14F
  8
0
 62
     7
 10
69.143199999999993
 20
198.14299999999989
 30
0.0
 11
51.721699999999998
 21
215.56399999999999
 31
0.0
  0
LINE
  5
150
  8
0
 62
     7
 10
41.518999999999998
 20
196.53999999999991
 30
0.0
 11
44.945300000000003
 21
193.11299999999989
 31
0.0
  0
LINE
  5
151
  8
0
 62
     7
 10
69.180400000000006
 20
197.4429999999999
 30
0.0
 11
115.613
 21
197.4429999999999
 31
0.0
  0
LINE
  5
152
  8
0
 62
     7
 10
115.754
 20
140.77600000000001
 30
0.0
 11
107.2239999999999
 21
140.77600000000001
 31
0.0
  0
LINE
  5
153
  8
0
 62
     7
 10
115.1459999999999
 20
140.77600000000001
 30
0.0
 11
115.1459999999999
 21
197.4429999999999
 31
0.0
  0
LINE
  5
154
  8
0
 62
     7
 10
115.1459999999999
 20
197.4429999999999
 30
0.0
 11
114.8989999999999
 21
196.04300000000001
 31
0.0
  0
LINE
  5
155
  8
0
 62
     7
 10
114.8989999999999
 20
196.04300000000001
 30
0.0
 11
115.3929999999999
 21
196.04300000000001
 31
0.0
  0
LINE
  5
156
  8
0
 62
     7
 10
115.3929999999999
 20
196.04300000000001
 30
0.0
 11
115.1459999999999
 21
197.4429999999999
 31
0.0
  0
LINE
  5
157
  8
0
 62
     7
 10
115.1459999999999
 20
140.77600000000001
 30
0.0
 11
115.3929999999999
 21
142.17599999999999
 31
0.0
  0
LINE
  5
158
  8
0
 62
     7
 10
115.3929999999999
 20
142.17599999999999
 30
0.0
 11
114.8989999999999
 21
142.17599999999999
 31
0.0
  0
LINE
  5
159
  8
0
 62
     7
 10
114.8989999999999
 20
142.17599999999999
 30
0.0
 11
115.1459999999999
 21
140.77600000000001
 31
0.0
  0
LINE
  5
15A
  8
0
 62
     7
 10
30.633299999999998
 20
142.77600000000001
 30
0.0
 11
104.634
 21
142.77600000000001
 31
0.0
  0
ARC
  5
15B
  8
0
 62
     7
 10
104.634154
 20
143.77585400000001
 30
0.0
 40
1.000032
 50
270.004954
 51
0.004925
  0
ARC
  5
15C
  8
0
 62
     7
 10
30.633379999999988
 20
143.77585400000001
 30
0.0
 40
1.000030999999999
 50
179.995036
 51
269.99508500000002
  0
LINE
  5
15D
  8
0
 62
     7
 10
30.300000000000001
 20
140.77600000000001
 30
0.0
 11
104.9679999999999
 21
140.77600000000001
 31
0.0
  0
ARC
  5
15E
  8
0
 62
     7
 10
104.967555
 20
143.442453
 30
0.0
 40
2.6666929999999991
 50
270.00002000000001
 51
359.99998999999991
  0
ARC
  5
15F
  8
0
 62
     7
 10
30.299977999999999
 20
143.442452
 30
0.0
 40
2.6666929999999991
 50
179.99996999999991
 51
270.00002000000001
  0
ARC
  5
160
  8
0
 62
     7
 10
67.618433999999993
 20
192.07269099999991
 30
0.0
 40
3.3703970000000001
 50
45.259865000000012
 51
89.737861999999993
  0
ARC
  5
161
  8
0
 62
     7
 10
67.651259999999994
 20
192.067475
 30
0.0
 40
3.375623
 50
90.295443000000006
 51
134.70382900000001
  0
ARC
  5
162
  8
0
 62
     7
 10
67.633767000000006
 20
192.10981399999989
 30
0.0
 40
5.3334019999999986
 50
45.000005000000009
 51
134.99997500000001
  0
LINE
  5
163
  8
0
 62
     7
 10
79.553600000000003
 20
78.436499999999995
 30
0.0
 11
66.5852
 21
78.436499999999995
 31
0.0
  0
LINE
  5
164
  8
0
 62
     7
 10
145.96000000000001
 20
95.194599999999994
 30
0.0
 11
154.239
 21
76.513099999999994
 31
0.0
  0
LINE
  5
165
  8
0
 62
     7
 10
78.232200000000006
 20
208.46899999999999
 30
0.0
 11
103.3209999999999
 21
183.38
 31
0.0
  0
LINE
  5
166
  8
0
 62
     7
 10
51.224899999999991
 20
214.279
 30
0.0
 11
25.429400000000001
 21
188.48400000000001
 31
0.0
  0
LINE
  5
167
  8
0
 62
     7
 10
55.5625
 20
209.94200000000001
 30
0.0
 11
42.730699999999992
 21
197.11000000000001
 31
0.0
  0
LINE
  5
168
  8
0
 62
     7
 10
115.1459999999999
 20
142.036
 30
0.0
 11
115.1459999999999
 21
196.18299999999991
 31
0.0
  0
LINE
  5
169
  8
_________2
 62
     7
 10
205.30099999999999
 20
127.41200000000001
 30
0.0
 11
183.55099999999999
 21
127.41200000000001
 31
0.0
  0
LINE
  5
16A
  8
_________2
 62
     7
 10
100.2999999999999
 20
-4.0909000000000004
 30
0.0
 11
100.2999999999999
 21
-21.070900000000002
 31
0.0
  0
LINE
  5
16B
  8
_________2
 62
     7
 10
100.2999999999999
 20
275.93099999999993
 30
0.0
 11
100.2999999999999
 21
258.911
 31
0.0
  0
LINE
  5
16C
  8
_________2
 62
     7
 10
17.049600000000002
 20
127.41200000000001
 30
0.0
 11
-4.70052
 21
127.41200000000001
 31
0.0
  0
TEXT
  5
16D
  8
_________2
 62
     7
 10
67.785600000000002
 20
14.077999999999991
 30
0.0
 40
3.6545800000000002
  1
02.01.25
 41
0.5
  0
LINE
  5
16E
  8
_________2
 62
     7
 10
76.741200000000006
 20
28.740500000000001
 30
0.0
 11
74.554699999999997
 21
28.740500000000001
 31
0.0
  0
LINE
  5
16F
  8
_________2
 62
     7
 10
77.233800000000002
 20
28.740500000000001
 30
0.0
 11
76.981700000000004
 21
28.740500000000001
 31
0.0
  0
LINE
  5
170
  8
_________2
 62
     7
 10
77.726299999999995
 20
28.740500000000001
 30
0.0
 11
80.651399999999995
 21
28.740500000000001
 31
0.0
  0
LINE
  5
171
  8
_________2
 62
     7
 10
77.233800000000002
 20
28.740500000000001
 30
0.0
 11
77.485699999999994
 21
28.740500000000001
 31
0.0
  0
LINE
  5
172
  8
_________2
 62
     7
 10
70.837299999999999
 20
28.740500000000001
 30
0.0
 11
68.650499999999994
 21
28.740500000000001
 31
0.0
  0
LINE
  5
173
  8
_________2
 62
     7
 10
71.329800000000006
 20
28.740500000000001
 30
0.0
 11
71.077799999999996
 21
28.740500000000001
 31
0.0
  0
LINE
  5
174
  8
_________2
 62
     7
 10
71.329800000000006
 20
29.233000000000001
 30
0.0
 11
71.329800000000006
 21
31.419599999999999
 31
0.0
  0
LINE
  5
175
  8
_________2
 62
     7
 10
71.329800000000006
 20
28.740500000000001
 30
0.0
 11
71.329800000000006
 21
28.992699999999989
 31
0.0
  0
LINE
  5
176
  8
_________2
 62
     7
 10
71.822400000000002
 20
28.740500000000001
 30
0.0
 11
74.009
 21
28.740500000000001
 31
0.0
  0
LINE
  5
177
  8
_________2
 62
     7
 10
71.329800000000006
 20
28.740500000000001
 30
0.0
 11
71.581999999999994
 21
28.740500000000001
 31
0.0
  0
LINE
  5
178
  8
_________2
 62
     7
 10
71.329800000000006
 20
28.248100000000001
 30
0.0
 11
71.329800000000006
 21
26.061499999999992
 31
0.0
  0
LINE
  5
179
  8
_________2
 62
     7
 10
71.329800000000006
 20
28.740500000000001
 30
0.0
 11
71.329800000000006
 21
28.488700000000001
 31
0.0
  0
LINE
  5
17A
  8
_________2
 62
     7
 10
75.040899999999993
 20
27.521000000000001
 30
0.0
 11
80.218500000000006
 21
26.6557
 31
0.0
  0
LINE
  5
17B
  8
_________2
 62
     7
 10
75.040899999999993
 20
29.960100000000001
 30
0.0
 11
80.218500000000006
 21
30.825399999999991
 31
0.0
  0
LINE
  5
17C
  8
_________2
 62
     7
 10
80.218500000000006
 20
26.6557
 30
0.0
 11
80.218500000000006
 21
30.825399999999991
 31
0.0
  0
LINE
  5
17D
  8
_________2
 62
     7
 10
75.040899999999993
 20
27.521000000000001
 30
0.0
 11
75.040899999999993
 21
29.960100000000001
 31
0.0
  0
ARC
  5
17E
  8
_________2
 62
     7
 10
71.329860999999994
 20
28.740459999999992
 30
0.0
 40
1.219657999999999
 50
0.004056
 51
90.004025999999996
  0
ARC
  5
17F
  8
_________2
 62
     7
 10
71.329689000000002
 20
28.740459999999992
 30
0.0
 40
1.219657999999999
 50
89.995953999999998
 51
179.99592399999989
  0
ARC
  5
180
  8
_________2
 62
     7
 10
71.329689000000002
 20
28.740632000000002
 30
0.0
 40
1.2196569999999991
 50
180.00405599999999
 51
270.00406600000002
  0
ARC
  5
181
  8
_________2
 62
     7
 10
71.329860999999994
 20
28.740632999999999
 30
0.0
 40
1.219657999999999
 50
269.99597399999999
 51
359.99594400000001
  0
ARC
  5
182
  8
_________2
 62
     7
 10
71.329688000000004
 20
28.740632000000002
 30
0.0
 40
2.0847269999999991
 50
359.9976430000001
 51
89.997613000000015
  0
ARC
  5
183
  8
_________2
 62
     7
 10
71.329774999999984
 20
28.740545999999998
 30
0.0
 40
2.084813
 50
90.0
 51
179.99996999999991
  0
ARC
  5
184
  8
_________2
 62
     7
 10
71.329774999999984
 20
28.740545999999998
 30
0.0
 40
2.084811999999999
 50
179.99996999999991
 51
270.00002000000001
  0
ARC
  5
185
  8
_________2
 62
     7
 10
71.329688000000004
 20
28.740461
 30
0.0
 40
2.0847269999999991
 50
270.00238699999989
 51
0.002357
  0
TEXT
  5
186
  8
_________2
 62
     7
 10
32.7119
 20
18.486999999999998
 30
0.0
 40
2.5300899999999991
  1
福田
 41
0.5
  0
TEXT
  5
187
  8
_________2
 62
     7
 10
22.456299999999992
 20
18.486999999999998
 30
0.0
 40
2.5300899999999991
  1
石原
 41
0.5
  0
TEXT
  5
188
  8
_________2
 62
     7
 10
104.605
 20
11.6669
 30
0.0
 40
2.248969999999999
  1
図番
 41
0.5
  0
TEXT
  5
189
  8
_________2
 62
     7
 10
104.605
 20
30.805199999999989
 30
0.0
 40
2.248969999999999
  1
名称
 41
0.5
  0
TEXT
  5
18A
  8
_________2
 62
     7
 10
90.890100000000004
 20
25.319700000000001
 30
0.0
 40
3.3734599999999988
  1
m m
 41
0.5
  0
TEXT
  5
18B
  8
_________2
 62
     7
 10
85.643199999999993
 20
30.805199999999989
 30
0.0
 40
2.248969999999999
  1
単位
 41
0.5
  0
TEXT
  5
18C
  8
_________2
 62
     7
 10
85.643199999999993
 20
20.398199999999999
 30
0.0
 40
2.248969999999999
  1
尺度
 41
0.5
  0
TEXT
  5
18D
  8
_________2
 62
     7
 10
89.587699999999984
 20
14.077999999999991
 30
0.0
 40
3.6545800000000002
  1
1 ： 3
 41
0.5
  0
TEXT
  5
18E
  8
_________2
 62
     7
 10
131.41492500000001
 20
1.64625
 30
0.0
 40
3.9357000000000002
  1
KC24904-010000
 41
0.5
 72
     1
 11
143.55000000000001
 21
1.64625
 31
0.0
  0
TEXT
  5
18F
  8
_________2
 62
     7
 10
109.179
 20
24.226099999999999
 30
0.0
 40
3.9357000000000002
  1
コーナーバスケット（大）
 41
0.5
  0
TEXT
  5
190
  8
_________2
 62
     7
 10
66.593100000000007
 20
20.398199999999999
 30
0.0
 40
2.248969999999999
  1
日付
 41
0.5
  0
TEXT
  5
191
  8
_________2
 62
     7
 10
29.639399999999998
 20
20.398199999999999
 30
0.0
 40
2.248969999999999
  1
検図
 41
0.5
  0
TEXT
  5
192
  8
_________2
 62
     7
 10
18.021399999999989
 20
6.1988000000000003
 30
0.0
 40
2.248969999999999
  1
備考
 41
0.5
  0
TEXT
  5
193
  8
_________2
 62
     7
 10
18.021399999999989
 20
20.398199999999999
 30
0.0
 40
2.248969999999999
  1
製図
 41
0.5
  0
TEXT
  5
194
  8
_________2
 62
     7
 10
23.788665333333341
 20
26.7179
 30
0.0
 40
4.4979399999999989
  1
セラトレーディング株式会社
 41
0.5
 72
     1
 11
41.180700000000002
 21
26.7179
 31
0.0
  0
LINE
  5
195
  8
_________2
 62
     7
 10
183.55099999999999
 20
-4.0909000000000004
 30
0.0
 11
17.049600000000002
 21
-4.0909000000000004
 31
0.0
  0
LINE
  5
196
  8
_________2
 62
     7
 10
17.049600000000002
 20
-4.0909000000000004
 30
0.0
 11
17.049600000000002
 21
258.911
 31
0.0
  0
LINE
  5
197
  8
_________2
 62
     7
 10
17.049600000000002
 20
258.911
 30
0.0
 11
183.55099999999999
 21
258.911
 31
0.0
  0
LINE
  5
198
  8
_________2
 62
     7
 10
183.55099999999999
 20
258.911
 30
0.0
 11
183.55099999999999
 21
-4.0909000000000004
 31
0.0
  0
LINE
  5
199
  8
_________2
 62
     7
 10
65.549700000000001
 20
9.4091300000000011
 30
0.0
 11
65.549700000000001
 21
33.909300000000002
 31
0.0
  0
LINE
  5
19A
  8
_________2
 62
     7
 10
84.549899999999994
 20
9.4091300000000011
 30
0.0
 11
84.549899999999994
 21
33.909300000000002
 31
0.0
  0
LINE
  5
19B
  8
_________2
 62
     7
 10
103.55
 20
-4.0909000000000004
 30
0.0
 11
103.55
 21
33.909300000000002
 31
0.0
  0
LINE
  5
19C
  8
_________2
 62
     7
 10
28.549700000000001
 20
9.4091300000000011
 30
0.0
 11
28.549700000000001
 21
23.409199999999998
 31
0.0
  0
LINE
  5
19D
  8
_________2
 62
     7
 10
17.049600000000002
 20
9.4091300000000011
 30
0.0
 11
103.55
 21
9.4091300000000011
 31
0.0
  0
LINE
  5
19E
  8
_________2
 62
     7
 10
17.049600000000002
 20
23.409199999999998
 30
0.0
 11
103.55
 21
23.409199999999998
 31
0.0
  0
LINE
  5
19F
  8
_________2
 62
     7
 10
103.55
 20
14.9091
 30
0.0
 11
183.55099999999999
 21
14.9091
 31
0.0
  0
LINE
  5
1A0
  8
_________2
 62
     7
 10
17.049600000000002
 20
33.909300000000002
 30
0.0
 11
183.55099999999999
 21
33.909300000000002
 31
0.0
  0
ENDSEC
  0
EOF
