  0
SECTION
  2
HEADER
  9
$ACADVER
  1
AC1015
  9
$ACADMAINTVER
 70
     6
  9
$DWGCODEPAGE
  3
ANSI_932
  9
$INSBASE
 10
0.0
 20
0.0
 30
0.0
  9
$EXTMIN
 10
-4.70052
 20
-21.0714
 30
0.0
  9
$EXTMAX
 10
205.301
 20
275.9309999999999
 30
0.0
  9
$LIMMIN
 10
0.0
 20
0.0
  9
$LIMMAX
 10
12.0
 20
9.0
  9
$ORTHOMODE
 70
     0
  9
$REGENMODE
 70
     1
  9
$FILLMODE
 70
     1
  9
$QTEXTMODE
 70
     0
  9
$MIRRTEXT
 70
     1
  9
$LTSCALE
 40
1.0
  9
$ATTMODE
 70
     1
  9
$TEXTSIZE
 40
0.0
  9
$TRACEWID
 40
0.05
  9
$TEXTSTYLE
  7
STANDARD
  9
$CLAYER
  8
0
  9
$CELTYPE
  6
CONTINUOUS
  9
$CECOLOR
 62
   256
  9
$CELTSCALE
 40
1.0
  9
$DISPSILH
 70
     0
  9
$DIMSCALE
 40
1.0
  9
$DIMASZ
 40
0.18
  9
$DIMEXO
 40
0.0625
  9
$DIMDLI
 40
0.38
  9
$DIMRND
 40
0.0
  9
$DIMDLE
 40
0.0
  9
$DIMEXE
 40
0.18
  9
$DIMTP
 40
0.0
  9
$DIMTM
 40
0.0
  9
$DIMTXT
 40
0.18
  9
$DIMCEN
 40
0.09
  9
$DIMTSZ
 40
0.0
  9
$DIMTOL
 70
     0
  9
$DIMLIM
 70
     0
  9
$DIMTIH
 70
     1
  9
$DIMTOH
 70
     1
  9
$DIMSE1
 70
     0
  9
$DIMSE2
 70
     0
  9
$DIMTAD
 70
     0
  9
$DIMZIN
 70
     0
  9
$DIMBLK
  1

  9
$DIMASO
 70
     1
  9
$DIMSHO
 70
     1
  9
$DIMPOST
  1

  9
$DIMAPOST
  1

  9
$DIMALT
 70
     0
  9
$DIMALTD
 70
     2
  9
$DIMALTF
 40
25.4
  9
$DIMLFAC
 40
1.0
  9
$DIMTOFL
 70
     0
  9
$DIMTVP
 40
0.0
  9
$DIMTIX
 70
     0
  9
$DIMSOXD
 70
     0
  9
$DIMSAH
 70
     0
  9
$DIMBLK1
  1

  9
$DIMBLK2
  1

  9
$DIMSTYLE
  2
STANDARD
  9
$DIMCLRD
 70
     0
  9
$DIMCLRE
 70
     0
  9
$DIMCLRT
 70
     0
  9
$DIMTFAC
 40
1.0
  9
$DIMGAP
 40
0.09
  9
$DIMJUST
 70
     0
  9
$DIMSD1
 70
     0
  9
$DIMSD2
 70
     0
  9
$DIMTOLJ
 70
     1
  9
$DIMTZIN
 70
     0
  9
$DIMALTZ
 70
     0
  9
$DIMALTTZ
 70
     0
  9
$DIMUPT
 70
     0
  9
$DIMDEC
 70
     4
  9
$DIMTDEC
 70
     4
  9
$DIMALTU
 70
     2
  9
$DIMALTTD
 70
     2
  9
$DIMTXSTY
  7
STANDARD
  9
$DIMAUNIT
 70
     0
  9
$DIMADEC
 70
     0
  9
$DIMALTRND
 40
0.0
  9
$DIMAZIN
 70
     0
  9
$DIMDSEP
 70
    46
  9
$DIMATFIT
 70
     3
  9
$DIMFRAC
 70
     0
  9
$DIMLDRBLK
  1

  9
$DIMLUNIT
 70
     2
  9
$DIMLWD
 70
    -2
  9
$DIMLWE
 70
    -2
  9
$DIMTMOVE
 70
     0
  9
$LUNITS
 70
     2
  9
$LUPREC
 70
     4
  9
$SKETCHINC
 40
0.1
  9
$FILLETRAD
 40
0.0
  9
$AUNITS
 70
     0
  9
$AUPREC
 70
     0
  9
$MENU
  1
.
  9
$ELEVATION
 40
0.0
  9
$PELEVATION
 40
0.0
  9
$THICKNESS
 40
0.0
  9
$LIMCHECK
 70
     0
  9
$CHAMFERA
 40
0.0
  9
$CHAMFERB
 40
0.0
  9
$CHAMFERC
 40
0.0
  9
$CHAMFERD
 40
0.0
  9
$SKPOLY
 70
     0
  9
$TDCREATE
 40
2444972.375000000
  9
$TDUCREATE
 40
2444972.000000000
  9
$TDUPDATE
 40
2454847.591488819
  9
$TDUUPDATE
 40
2454847.216488819
  9
$TDINDWG
 40
0.0038215278
  9
$TDUSRTIMER
 40
0.0038215278
  9
$USRTIMER
 70
     1
  9
$ANGBASE
 50
0.0
  9
$ANGDIR
 70
     0
  9
$PDMODE
 70
     0
  9
$PDSIZE
 40
0.0
  9
$PLINEWID
 40
0.0
  9
$SPLFRAME
 70
     0
  9
$SPLINETYPE
 70
     6
  9
$SPLINESEGS
 70
     8
  9
$HANDSEED
  5
180
  9
$SURFTAB1
 70
     6
  9
$SURFTAB2
 70
     6
  9
$SURFTYPE
 70
     6
  9
$SURFU
 70
     6
  9
$SURFV
 70
     6
  9
$UCSBASE
  2

  9
$UCSNAME
  2

  9
$UCSORG
 10
0.0
 20
0.0
 30
0.0
  9
$UCSXDIR
 10
1.0
 20
0.0
 30
0.0
  9
$UCSYDIR
 10
0.0
 20
1.0
 30
0.0
  9
$UCSORTHOREF
  2

  9
$UCSORTHOVIEW
 70
     0
  9
$UCSORGTOP
 10
0.0
 20
0.0
 30
0.0
  9
$UCSORGBOTTOM
 10
0.0
 20
0.0
 30
0.0
  9
$UCSORGLEFT
 10
0.0
 20
0.0
 30
0.0
  9
$UCSORGRIGHT
 10
0.0
 20
0.0
 30
0.0
  9
$UCSORGFRONT
 10
0.0
 20
0.0
 30
0.0
  9
$UCSORGBACK
 10
0.0
 20
0.0
 30
0.0
  9
$PUCSBASE
  2

  9
$PUCSNAME
  2

  9
$PUCSORG
 10
0.0
 20
0.0
 30
0.0
  9
$PUCSXDIR
 10
1.0
 20
0.0
 30
0.0
  9
$PUCSYDIR
 10
0.0
 20
1.0
 30
0.0
  9
$PUCSORTHOREF
  2

  9
$PUCSORTHOVIEW
 70
     0
  9
$PUCSORGTOP
 10
0.0
 20
0.0
 30
0.0
  9
$PUCSORGBOTTOM
 10
0.0
 20
0.0
 30
0.0
  9
$PUCSORGLEFT
 10
0.0
 20
0.0
 30
0.0
  9
$PUCSORGRIGHT
 10
0.0
 20
0.0
 30
0.0
  9
$PUCSORGFRONT
 10
0.0
 20
0.0
 30
0.0
  9
$PUCSORGBACK
 10
0.0
 20
0.0
 30
0.0
  9
$USERI1
 70
     0
  9
$USERI2
 70
     0
  9
$USERI3
 70
     0
  9
$USERI4
 70
     0
  9
$USERI5
 70
     0
  9
$USERR1
 40
0.0
  9
$USERR2
 40
0.0
  9
$USERR3
 40
0.0
  9
$USERR4
 40
0.0
  9
$USERR5
 40
0.0
  9
$WORLDVIEW
 70
     1
  9
$SHADEDGE
 70
     3
  9
$SHADEDIF
 70
    70
  9
$TILEMODE
 70
     1
  9
$MAXACTVP
 70
    48
  9
$PINSBASE
 10
0.0
 20
0.0
 30
0.0
  9
$PLIMCHECK
 70
     0
  9
$PEXTMIN
 10
1.000000000000000E+20
 20
1.000000000000000E+20
 30
1.000000000000000E+20
  9
$PEXTMAX
 10
-1.000000000000000E+20
 20
-1.000000000000000E+20
 30
-1.000000000000000E+20
  9
$PLIMMIN
 10
0.0
 20
0.0
  9
$PLIMMAX
 10
12.0
 20
9.0
  9
$UNITMODE
 70
     0
  9
$VISRETAIN
 70
     1
  9
$PLINEGEN
 70
     0
  9
$PSLTSCALE
 70
     1
  9
$TREEDEPTH
 70
  3020
  9
$CMLSTYLE
  2
STANDARD
  9
$CMLJUST
 70
     0
  9
$CMLSCALE
 40
1.0
  9
$PROXYGRAPHICS
 70
     1
  9
$MEASUREMENT
 70
     0
  9
$CELWEIGHT
370
    -1
  9
$ENDCAPS
280
     0
  9
$JOINSTYLE
280
     0
  9
$LWDISPLAY
290
     0
  9
$INSUNITS
 70
     0
  9
$HYPERLINKBASE
  1

  9
$STYLESHEET
  1

  9
$XEDIT
290
     1
  9
$CEPSNTYPE
380
     0
  9
$PSTYLEMODE
290
     1
  9
$FINGERPRINTGUID
  2
{EFC9C45F-CD88-4F66-848E-180F88D3A7A9}
  9
$VERSIONGUID
  2
{284A0BE5-1907-4CB9-ABA7-DA6388E7299C}
  9
$EXTNAMES
290
     1
  9
$PSVPSCALE
 40
0.0
  9
$OLESTARTUP
290
     0
  0
ENDSEC
  0
SECTION
  2
CLASSES
  0
CLASS
  1
ACDBDICTIONARYWDFLT
  2
AcDbDictionaryWithDefault
  3
AutoCAD 2000
 90
        0
280
     0
281
     0
  0
CLASS
  1
ACDBPLACEHOLDER
  2
AcDbPlaceHolder
  3
AutoCAD 2000
 90
        0
280
     0
281
     0
  0
CLASS
  1
LAYOUT
  2
AcDbLayout
  3
AutoCAD 2000
 90
        0
280
     0
281
     0
  0
ENDSEC
  0
SECTION
  2
TABLES
  0
TABLE
  2
VPORT
  5
8
330
0
100
AcDbSymbolTable
 70
     2
  0
VPORT
  5
17F
330
8
100
AcDbSymbolTableRecord
100
AcDbViewportTableRecord
  2
*Active
 70
     0
 10
0.0
 20
0.0
 11
1.0
 21
1.0
 12
139.9937160133633
 22
127.4297999999999
 13
0.0
 23
0.0
 14
1.0
 24
1.0
 15
0.0
 25
0.0
 16
0.0
 26
0.0
 36
1.0
 17
0.0
 27
0.0
 37
0.0
 40
299.6370857544643
 41
1.919607843137255
 42
50.0
 43
0.0
 44
0.0
 50
0.0
 51
0.0
 71
     0
 72
   100
 73
     1
 74
     1
 75
     0
 76
     0
 77
     0
 78
     0
281
     0
 65
     1
110
0.0
120
0.0
130
0.0
111
1.0
121
0.0
131
0.0
112
0.0
122
1.0
132
0.0
 79
     0
146
0.0
  0
ENDTAB
  0
TABLE
  2
LTYPE
  5
5
330
0
100
AcDbSymbolTable
 70
     3
  0
LTYPE
  5
12
330
5
100
AcDbSymbolTableRecord
100
AcDbLinetypeTableRecord
  2
BYBLOCK
 70
     0
  3

 72
    65
 73
     0
 40
0.0
  0
LTYPE
  5
13
330
5
100
AcDbSymbolTableRecord
100
AcDbLinetypeTableRecord
  2
BYLAYER
 70
     0
  3

 72
    65
 73
     0
 40
0.0
  0
LTYPE
  5
14
330
5
100
AcDbSymbolTableRecord
100
AcDbLinetypeTableRecord
  2
CONTINUOUS
 70
     0
  3
Solid line
 72
    65
 73
     0
 40
0.0
  0
LTYPE
  5
1F
330
5
100
AcDbSymbolTableRecord
100
AcDbLinetypeTableRecord
  2
AIGENLINE001
 70
     0
  3
generate AI->DXF Converter
 72
    65
 73
     4
 40
5.856144999999999
 49
3.5278
 74
     0
 49
-0.776115
 74
     0
 49
0.776115
 74
     0
 49
-0.776115
 74
     0
  0
LTYPE
  5
20
330
5
100
AcDbSymbolTableRecord
100
AcDbLinetypeTableRecord
  2
AIGENLINE002
 70
     0
  3
generate AI->DXF Converter
 72
    65
 73
     2
 40
1.552229999999999
 49
0.776115
 74
     0
 49
-0.776115
 74
     0
  0
ENDTAB
  0
TABLE
  2
LAYER
  5
2
330
0
100
AcDbSymbolTable
 70
     2
  0
LAYER
  5
E
330
2
100
AcDbSymbolTableRecord
100
AcDbLayerTableRecord
  2
0
 70
     0
 62
     7
  6
CONTINUOUS
370
    -3
390
171
  0
LAYER
  5
21
330
2
100
AcDbSymbolTableRecord
100
AcDbLayerTableRecord
  2
_________2
 70
     0
 62
     7
  6
CONTINUOUS
370
    -3
390
171
  0
ENDTAB
  0
TABLE
  2
STYLE
  5
3
330
0
100
AcDbSymbolTable
 70
     1
  0
STYLE
  5
F
330
3
100
AcDbSymbolTableRecord
100
AcDbTextStyleTableRecord
  2
STANDARD
 70
     0
 40
0.0
 41
0.0
 50
0.0
 71
     0
 42
0.0
  3
TXT
  4
BIGFONT
  0
ENDTAB
  0
TABLE
  2
VIEW
  5
6
330
0
100
AcDbSymbolTable
 70
     0
  0
ENDTAB
  0
TABLE
  2
UCS
  5
7
330
0
100
AcDbSymbolTable
 70
     0
  0
ENDTAB
  0
TABLE
  2
APPID
  5
9
330
0
100
AcDbSymbolTable
 70
     1
  0
APPID
  5
10
330
9
100
AcDbSymbolTableRecord
100
AcDbRegAppTableRecord
  2
ACAD
 70
     0
  0
ENDTAB
  0
TABLE
  2
DIMSTYLE
  5
A
330
0
100
AcDbSymbolTable
 70
     1
100
AcDbDimStyleTable
 71
     0
  0
DIMSTYLE
105
16D
330
A
100
AcDbSymbolTableRecord
100
AcDbDimStyleTableRecord
  2
STANDARD
 70
     0
340
F
  0
ENDTAB
  0
TABLE
  2
BLOCK_RECORD
  5
1
330
0
100
AcDbSymbolTable
 70
     0
  0
BLOCK_RECORD
  5
18
330
1
100
AcDbSymbolTableRecord
100
AcDbBlockTableRecord
  2
*MODEL_SPACE
340
174
  0
BLOCK_RECORD
  5
15
330
1
100
AcDbSymbolTableRecord
100
AcDbBlockTableRecord
  2
*PAPER_SPACE
340
175
  0
ENDTAB
  0
ENDSEC
  0
SECTION
  2
BLOCKS
  0
BLOCK
  5
19
330
18
100
AcDbEntity
  8
0
100
AcDbBlockBegin
  2
*MODEL_SPACE
 70
     0
 10
0.0
 20
0.0
 30
0.0
  3
*MODEL_SPACE
  1

  0
ENDBLK
  5
1A
330
18
100
AcDbEntity
  8
0
100
AcDbBlockEnd
  0
BLOCK
  5
16
330
15
100
AcDbEntity
 67
     1
  8
0
100
AcDbBlockBegin
  2
*PAPER_SPACE
 70
     0
 10
0.0
 20
0.0
 30
0.0
  3
*PAPER_SPACE
  1

  0
ENDBLK
  5
17
330
15
100
AcDbEntity
 67
     1
  8
0
100
AcDbBlockEnd
  0
ENDSEC
  0
SECTION
  2
ENTITIES
  0
TEXT
  5
23
330
18
100
AcDbEntity
  8
0
100
AcDbText
 10
29.0031
 20
99.72637250000001
 30
0.0
 40
3.09234
  1
20
 50
90.0
 41
0.5
 72
     1
 11
29.0031
 21
100.886
 31
0.0
100
AcDbText
  0
TEXT
  5
24
330
18
100
AcDbEntity
  8
0
100
AcDbText
 10
112.7929999999999
 20
90.84597249999999
 30
0.0
 40
3.09234
  1
70
 50
90.0
 41
0.5
 72
     1
 11
112.7929999999999
 21
92.00560000000001
 31
0.0
100
AcDbText
  0
TEXT
  5
25
330
18
100
AcDbEntity
  8
0
100
AcDbText
 10
112.7929999999999
 20
175.62883
 30
0.0
 40
3.09234
  1
114
 50
90.0
 41
0.5
 72
     1
 11
112.7929999999999
 21
177.175
 31
0.0
100
AcDbText
  0
TEXT
  5
26
330
18
100
AcDbEntity
  8
0
100
AcDbText
 10
68.42213499999999
 20
149.1009999999999
 30
0.0
 40
3.09234
  1
200
 41
0.5
 72
     1
 11
70.226
 21
149.1009999999999
 31
0.0
100
AcDbText
  0
TEXT
  5
27
330
18
100
AcDbEntity
  8
0
100
AcDbText
 10
95.661315
 20
210.434
 30
0.0
 40
3.09234
  1
（%%c6×30樹脂プラグ付）
 41
0.5
 72
     2
 11
117.05
 21
210.434
 31
0.0
100
AcDbText
  0
TEXT
  5
28
330
18
100
AcDbEntity
  8
0
100
AcDbText
 10
94.57899599999999
 20
215.9609999999999
 30
0.0
 40
3.09234
  1
%%c3.8×38 SUS皿木ねじ
 41
0.5
 72
     2
 11
117.05
 21
215.9609999999999
 31
0.0
100
AcDbText
  0
TEXT
  5
29
330
18
100
AcDbEntity
  8
0
100
AcDbText
 10
91.18675000000001
 20
109.275
 30
0.0
 40
3.09234
  1
%%c5
 41
0.5
 72
     2
 11
93.76369999999999
 21
109.275
 31
0.0
100
AcDbText
  0
TEXT
  5
2A
330
18
100
AcDbEntity
  8
0
100
AcDbText
 10
69.0663725
 20
111.9399999999999
 30
0.0
 40
3.09234
  1
40
 41
0.5
 72
     1
 11
70.226
 21
111.9399999999999
 31
0.0
100
AcDbText
  0
LINE
  5
2B
330
18
100
AcDbEntity
  8
0
100
AcDbLine
 10
160.274
 20
80.76080000000001
 30
0.0
 11
130.741
 21
80.76080000000001
 31
0.0
  0
LINE
  5
2C
330
18
100
AcDbEntity
  8
0
100
AcDbLine
 10
156.811
 20
81.36709999999998
 30
0.0
 11
158.5749999999999
 21
100.761
 31
0.0
  0
ARC
  5
2D
330
18
100
AcDbEntity
  8
0
100
AcDbCircle
 10
156.1251139999999
 20
81.451942
 30
0.0
 40
0.6915100000000001
100
AcDbArc
 50
271.828985
 51
352.9546259999999
  0
LINE
  5
2E
330
18
100
AcDbEntity
  8
0
100
AcDbLine
 10
151.4779999999999
 20
81.36709999999998
 30
0.0
 11
153.241
 21
100.761
 31
0.0
  0
ARC
  5
2F
330
18
100
AcDbEntity
  8
0
100
AcDbCircle
 10
150.7920249999999
 20
81.45199299999999
 30
0.0
 40
0.6915630000000001
100
AcDbArc
 50
271.8327089999999
 51
352.9509019999999
  0
LINE
  5
30
330
18
100
AcDbEntity
  8
0
100
AcDbLine
 10
146.4979999999999
 20
81.3795
 30
0.0
 11
147.9079999999999
 21
100.761
 31
0.0
  0
ARC
  5
31
330
18
100
AcDbEntity
  8
0
100
AcDbCircle
 10
145.810448
 20
81.451854
 30
0.0
 40
0.691445
100
AcDbArc
 50
271.8850049999999
 51
353.995668
  0
LINE
  5
32
330
18
100
AcDbEntity
  8
0
100
AcDbLine
 10
141.518
 20
81.3912
 30
0.0
 11
142.5739999999999
 21
100.761
 31
0.0
  0
ARC
  5
33
330
18
100
AcDbEntity
  8
0
100
AcDbCircle
 10
140.8288719999999
 20
81.45203199999999
 30
0.0
 40
0.691643
100
AcDbArc
 50
271.936314
 51
354.9575089999999
  0
LINE
  5
34
330
18
100
AcDbEntity
  8
0
100
AcDbLine
 10
136.537
 20
81.40359999999999
 30
0.0
 11
137.241
 21
100.761
 31
0.0
  0
ARC
  5
35
330
18
100
AcDbEntity
  8
0
100
AcDbCircle
 10
135.847271
 20
81.45165199999999
 30
0.0
 40
0.691286
100
AcDbArc
 50
271.991274
 51
356.017614
  0
LINE
  5
36
330
18
100
AcDbEntity
  8
0
100
AcDbLine
 10
128.908
 20
92.428
 30
0.0
 11
126.4079999999999
 21
92.428
 31
0.0
  0
LINE
  5
37
330
18
100
AcDbEntity
  8
0
100
AcDbLine
 10
128.908
 20
92.428
 30
0.0
 11
128.241
 21
100.761
 31
0.0
  0
ARC
  5
38
330
18
100
AcDbEntity
  8
0
100
AcDbCircle
 10
126.4392659999999
 20
91.56330200000001
 30
0.0
 40
0.8652969999999999
100
AcDbArc
 50
92.100281
 51
177.947061
  0
ARC
  5
39
330
18
100
AcDbEntity
  8
0
100
AcDbCircle
 10
126.439217
 20
91.625963
 30
0.0
 40
0.8652719999999998
100
AcDbArc
 50
182.097141
 51
267.902889
  0
LINE
  5
3A
330
18
100
AcDbEntity
  8
0
100
AcDbLine
 10
130.241
 20
90.7613
 30
0.0
 11
126.4079999999999
 21
90.7613
 31
0.0
  0
ARC
  5
3B
330
18
100
AcDbEntity
  8
0
100
AcDbCircle
 10
130.7728879999999
 20
81.56243600000001
 30
0.0
 40
0.8656889999999998
100
AcDbArc
 50
92.12275400000001
 51
177.877216
  0
ARC
  5
3C
330
18
100
AcDbEntity
  8
0
100
AcDbCircle
 10
130.773178
 20
81.626142
 30
0.0
 40
0.8659629999999999
100
AcDbArc
 50
182.09393
 51
267.8587279999999
  0
LINE
  5
3D
330
18
100
AcDbEntity
  8
0
100
AcDbLine
 10
130.741
 20
82.42749999999999
 30
0.0
 11
134.575
 21
82.42749999999999
 31
0.0
  0
LINE
  5
3E
330
18
100
AcDbEntity
  8
0
100
AcDbLine
 10
136.575
 20
82.42749999999999
 30
0.0
 11
139.5739999999999
 21
82.42749999999999
 31
0.0
  0
LINE
  5
3F
330
18
100
AcDbEntity
  8
0
100
AcDbLine
 10
141.5739999999999
 20
82.42749999999999
 30
0.0
 11
144.5739999999999
 21
82.42749999999999
 31
0.0
  0
LINE
  5
40
330
18
100
AcDbEntity
  8
0
100
AcDbLine
 10
146.5749999999999
 20
82.42749999999999
 30
0.0
 11
149.5749999999999
 21
82.42749999999999
 31
0.0
  0
LINE
  5
41
330
18
100
AcDbEntity
  8
0
100
AcDbLine
 10
151.5739999999999
 20
82.42749999999999
 30
0.0
 11
154.5739999999999
 21
82.42749999999999
 31
0.0
  0
LINE
  5
42
330
18
100
AcDbEntity
  8
0
100
AcDbLine
 10
156.9079999999999
 20
82.42749999999999
 30
0.0
 11
157.241
 21
82.42749999999999
 31
0.0
  0
LINE
  5
43
330
18
100
AcDbEntity
  8
0
100
AcDbLine
 10
157.241
 20
82.42749999999999
 30
0.0
 11
159.9079999999999
 21
100.761
 31
0.0
  0
LINE
  5
44
330
18
100
AcDbEntity
  8
0
100
AcDbLine
 10
154.5739999999999
 20
82.42749999999999
 30
0.0
 11
155.5749999999999
 21
100.761
 31
0.0
  0
LINE
  5
45
330
18
100
AcDbEntity
  8
0
100
AcDbLine
 10
149.5749999999999
 20
82.42749999999999
 30
0.0
 11
150.241
 21
100.761
 31
0.0
  0
LINE
  5
46
330
18
100
AcDbEntity
  8
0
100
AcDbLine
 10
144.5739999999999
 20
82.42749999999999
 30
0.0
 11
144.9079999999999
 21
100.761
 31
0.0
  0
LINE
  5
47
330
18
100
AcDbEntity
  8
0
100
AcDbLine
 10
139.5739999999999
 20
82.42749999999999
 30
0.0
 11
139.5739999999999
 21
100.761
 31
0.0
  0
LINE
  5
48
330
18
100
AcDbEntity
  8
0
100
AcDbLine
 10
134.575
 20
82.42749999999999
 30
0.0
 11
134.241
 21
100.761
 31
0.0
  0
LINE
  5
49
330
18
100
AcDbEntity
  8
0
100
AcDbLine
 10
130.241
 20
90.7613
 30
0.0
 11
130.241
 21
100.761
 31
0.0
  0
LINE
  5
4A
330
18
100
AcDbEntity
  8
0
100
AcDbLine
 10
161.907
 20
100.761
 30
0.0
 11
160.9389999999999
 21
81.39470000000001
 31
0.0
  0
ARC
  5
4B
330
18
100
AcDbEntity
  8
0
100
AcDbCircle
 10
160.250348
 20
81.451802
 30
0.0
 40
0.6914150000000001
100
AcDbArc
 50
271.9392809999999
 51
355.204131
  0
LINE
  5
4C
330
18
100
AcDbEntity
  8
0
100
AcDbLine
 10
162.241
 20
94.7611
 30
0.0
 11
161.608
 21
94.7611
 31
0.0
  0
LINE
  5
4D
330
18
100
AcDbEntity
  8
0
100
AcDbLine
 10
162.241
 20
103.761
 30
0.0
 11
162.241
 21
94.7611
 31
0.0
  0
LINE
  5
4E
330
18
100
AcDbEntity
  8
0
100
AcDbLine
 10
161.907
 20
104.095
 30
0.0
 11
124.575
 21
104.095
 31
0.0
  0
ARC
  5
4F
330
18
100
AcDbEntity
  8
0
100
AcDbCircle
 10
161.894787
 20
103.7484419999999
 30
0.0
 40
0.346351
100
AcDbArc
 50
2.090276999999999
 51
87.909713
  0
LINE
  5
50
330
18
100
AcDbEntity
  8
0
100
AcDbLine
 10
162.241
 20
100.761
 30
0.0
 11
124.575
 21
100.761
 31
0.0
  0
LINE
  5
51
330
18
100
AcDbEntity
  8
0
100
AcDbLine
 10
124.241
 20
103.761
 30
0.0
 11
124.241
 21
101.095
 31
0.0
  0
ARC
  5
52
330
18
100
AcDbEntity
  8
0
100
AcDbCircle
 10
124.5873229999999
 20
101.107126
 30
0.0
 40
0.346287
100
AcDbArc
 50
182.0805399999999
 51
267.919489
  0
ARC
  5
53
330
18
100
AcDbEntity
  8
0
100
AcDbCircle
 10
124.5873229999999
 20
103.7485039999999
 30
0.0
 40
0.346287
100
AcDbArc
 50
92.080511
 51
177.91946
  0
LINE
  5
54
330
18
100
AcDbEntity
  8
0
100
AcDbLine
 10
101.4599999999999
 20
148.6029999999999
 30
0.0
 11
103.672
 21
148.0109999999999
 31
0.0
  0
LINE
  5
55
330
18
100
AcDbEntity
  8
0
100
AcDbLine
 10
103.672
 20
148.0109999999999
 30
0.0
 11
101.4599999999999
 21
147.418
 31
0.0
  0
LINE
  5
56
330
18
100
AcDbEntity
  8
0
100
AcDbLine
 10
101.4599999999999
 20
147.418
 30
0.0
 11
101.4599999999999
 21
148.6029999999999
 31
0.0
  0
LINE
  5
57
330
18
100
AcDbEntity
  8
0
100
AcDbLine
 10
39.2158
 20
147.4329999999999
 30
0.0
 11
37.004
 21
148.025
 31
0.0
  0
LINE
  5
58
330
18
100
AcDbEntity
  8
0
100
AcDbLine
 10
37.004
 20
148.025
 30
0.0
 11
39.2158
 21
148.618
 31
0.0
  0
LINE
  5
59
330
18
100
AcDbEntity
  8
0
100
AcDbLine
 10
39.2158
 20
148.618
 30
0.0
 11
39.2158
 21
147.4329999999999
 31
0.0
  0
LINE
  5
5A
330
18
100
AcDbEntity
  8
0
100
AcDbLine
 10
103.671
 20
148.025
 30
0.0
 11
37.0043
 21
148.025
 31
0.0
  0
LINE
  5
5B
330
18
100
AcDbEntity
  8
0
100
AcDbLine
 10
37.0043
 20
163.0729999999999
 30
0.0
 11
37.0043
 21
147.3249999999999
 31
0.0
  0
LINE
  5
5C
330
18
100
AcDbEntity
  8
0
100
AcDbLine
 10
103.671
 20
163.0729999999999
 30
0.0
 11
103.671
 21
147.3249999999999
 31
0.0
  0
LINE
  5
5D
330
18
100
AcDbEntity
  8
0
100
AcDbLine
 10
93.8808
 20
108.247
 30
0.0
 11
87.824
 21
108.247
 31
0.0
  0
LINE
  5
5E
330
18
100
AcDbEntity
  8
0
100
AcDbLine
 10
78.7385
 20
99.99970000000001
 30
0.0
 11
77.5937
 21
98.01670000000001
 31
0.0
  0
LINE
  5
5F
330
18
100
AcDbEntity
  8
0
100
AcDbLine
 10
77.5937
 20
98.01670000000001
 30
0.0
 11
79.5767
 21
99.1618
 31
0.0
  0
LINE
  5
60
330
18
100
AcDbEntity
  8
0
100
AcDbLine
 10
79.5767
 20
99.1618
 30
0.0
 11
78.7385
 21
99.99970000000001
 31
0.0
  0
LINE
  5
61
330
18
100
AcDbEntity
  8
0
100
AcDbLine
 10
75.2703
 20
94.8554
 30
0.0
 11
76.4151
 21
96.83849999999999
 31
0.0
  0
LINE
  5
62
330
18
100
AcDbEntity
  8
0
100
AcDbLine
 10
76.4151
 20
96.83849999999999
 30
0.0
 11
74.4321
 21
95.69329999999999
 31
0.0
  0
LINE
  5
63
330
18
100
AcDbEntity
  8
0
100
AcDbLine
 10
74.4321
 20
95.69329999999999
 30
0.0
 11
75.2703
 21
94.8554
 31
0.0
  0
LINE
  5
64
330
18
100
AcDbEntity
  8
0
100
AcDbLine
 10
73.9935
 20
94.4165
 30
0.0
 11
87.824
 21
108.247
 31
0.0
  0
LINE
  5
65
330
18
100
AcDbEntity
  8
0
100
AcDbLine
 10
102.1079999999999
 20
80.76080000000001
 30
0.0
 11
114.4179999999999
 21
80.76080000000001
 31
0.0
  0
LINE
  5
66
330
18
100
AcDbEntity
  8
0
100
AcDbLine
 10
113.1399999999999
 20
82.9725
 30
0.0
 11
113.732
 21
80.76080000000001
 31
0.0
  0
LINE
  5
67
330
18
100
AcDbEntity
  8
0
100
AcDbLine
 10
113.732
 20
80.76080000000001
 30
0.0
 11
114.325
 21
82.9725
 31
0.0
  0
LINE
  5
68
330
18
100
AcDbEntity
  8
0
100
AcDbLine
 10
114.325
 20
82.9725
 30
0.0
 11
113.1399999999999
 21
82.9725
 31
0.0
  0
LINE
  5
69
330
18
100
AcDbEntity
  8
0
100
AcDbLine
 10
114.31
 20
101.8829999999999
 30
0.0
 11
113.7179999999999
 21
104.095
 31
0.0
  0
LINE
  5
6A
330
18
100
AcDbEntity
  8
0
100
AcDbLine
 10
113.7179999999999
 20
104.095
 30
0.0
 11
113.125
 21
101.8829999999999
 31
0.0
  0
LINE
  5
6B
330
18
100
AcDbEntity
  8
0
100
AcDbLine
 10
113.125
 20
101.8829999999999
 30
0.0
 11
114.31
 21
101.8829999999999
 31
0.0
  0
LINE
  5
6C
330
18
100
AcDbEntity
  8
0
100
AcDbLine
 10
113.7179999999999
 20
80.7615
 30
0.0
 11
113.7179999999999
 21
104.095
 31
0.0
  0
LINE
  5
6D
330
18
100
AcDbEntity
  8
0
100
AcDbLine
 10
104.3879999999999
 20
104.095
 30
0.0
 11
114.4179999999999
 21
104.095
 31
0.0
  0
LINE
  5
6E
330
18
100
AcDbEntity
  8
0
100
AcDbLine
 10
91.9157
 20
92.428
 30
0.0
 11
93.671
 21
100.761
 31
0.0
  0
LINE
  5
6F
330
18
100
AcDbEntity
  8
0
100
AcDbLine
 10
89.81010000000001
 20
82.42749999999999
 30
0.0
 11
91.56499999999999
 21
90.7613
 31
0.0
  0
LINE
  5
70
330
18
100
AcDbEntity
  8
0
100
AcDbLine
 10
97.6711
 20
100.761
 30
0.0
 11
96.5732
 21
91.3504
 31
0.0
  0
ARC
  5
71
330
18
100
AcDbEntity
  8
0
100
AcDbCircle
 10
95.889886
 20
91.45171600000001
 30
0.0
 40
0.6907700000000001
100
AcDbArc
 50
271.754191
 51
351.5646869999999
  0
LINE
  5
72
330
18
100
AcDbEntity
  8
0
100
AcDbLine
 10
95.3381
 20
100.761
 30
0.0
 11
94.3656
 21
92.428
 31
0.0
  0
LINE
  5
73
330
18
100
AcDbEntity
  8
0
100
AcDbLine
 10
97.4768
 20
82.42749999999999
 30
0.0
 11
99.00440000000001
 21
100.761
 31
0.0
  0
LINE
  5
74
330
18
100
AcDbEntity
  8
0
100
AcDbLine
 10
99.47639999999999
 20
82.42749999999999
 30
0.0
 11
101.0039999999999
 21
100.761
 31
0.0
  0
LINE
  5
75
330
18
100
AcDbEntity
  8
0
100
AcDbLine
 10
101.722
 20
81.37260000000001
 30
0.0
 11
103.3379999999999
 21
100.761
 31
0.0
  0
ARC
  5
76
330
18
100
AcDbEntity
  8
0
100
AcDbCircle
 10
101.035409
 20
81.451522
 30
0.0
 40
0.6910980000000001
100
AcDbArc
 50
271.847674
 51
353.388174
  0
LINE
  5
77
330
18
100
AcDbEntity
  8
0
100
AcDbLine
 10
48.75939999999999
 20
92.428
 30
0.0
 11
47.0045
 21
100.761
 31
0.0
  0
LINE
  5
78
330
18
100
AcDbEntity
  8
0
100
AcDbLine
 10
50.8654
 20
82.42749999999999
 30
0.0
 11
49.1101
 21
90.7613
 31
0.0
  0
LINE
  5
79
330
18
100
AcDbEntity
  8
0
100
AcDbLine
 10
95.911
 20
90.7613
 30
0.0
 11
44.76449999999999
 21
90.7613
 31
0.0
  0
LINE
  5
7A
330
18
100
AcDbEntity
  8
0
100
AcDbLine
 10
43.00399999999999
 20
100.761
 30
0.0
 11
44.1023
 21
91.3504
 31
0.0
  0
ARC
  5
7B
330
18
100
AcDbEntity
  8
0
100
AcDbCircle
 10
44.784658
 20
91.450633
 30
0.0
 40
0.6896580000000001
100
AcDbArc
 50
188.3580829999999
 51
268.323079
  0
LINE
  5
7C
330
18
100
AcDbEntity
  8
0
100
AcDbLine
 10
94.3656
 20
92.42729999999999
 30
0.0
 11
46.31
 21
92.42729999999999
 31
0.0
  0
LINE
  5
7D
330
18
100
AcDbEntity
  8
0
100
AcDbLine
 10
45.3374
 20
100.761
 30
0.0
 11
46.31
 21
92.428
 31
0.0
  0
LINE
  5
7E
330
18
100
AcDbEntity
  8
0
100
AcDbLine
 10
99.47639999999999
 20
82.42749999999999
 30
0.0
 11
41.1988
 21
82.42749999999999
 31
0.0
  0
LINE
  5
7F
330
18
100
AcDbEntity
  8
0
100
AcDbLine
 10
43.19899999999999
 20
82.42749999999999
 30
0.0
 11
41.6708
 21
100.761
 31
0.0
  0
LINE
  5
80
330
18
100
AcDbEntity
  8
0
100
AcDbLine
 10
41.1988
 20
82.42749999999999
 30
0.0
 11
39.67119999999999
 21
100.761
 31
0.0
  0
LINE
  5
81
330
18
100
AcDbEntity
  8
0
100
AcDbLine
 10
101.058
 20
80.76080000000001
 30
0.0
 11
39.6178
 21
80.76080000000001
 31
0.0
  0
LINE
  5
82
330
18
100
AcDbEntity
  8
0
100
AcDbLine
 10
38.95329999999999
 20
81.37260000000001
 30
0.0
 11
37.3375
 21
100.761
 31
0.0
  0
ARC
  5
83
330
18
100
AcDbEntity
  8
0
100
AcDbCircle
 10
39.640008
 20
81.451811
 30
0.0
 40
0.6913840000000001
100
AcDbArc
 50
186.633243
 51
268.1605559999999
  0
LINE
  5
84
330
18
100
AcDbEntity
  8
0
100
AcDbLine
 10
29.57499999999999
 20
99.63930000000001
 30
0.0
 11
30.1675
 21
97.4276
 31
0.0
  0
LINE
  5
85
330
18
100
AcDbEntity
  8
0
100
AcDbLine
 10
30.1675
 20
97.4276
 30
0.0
 11
30.7601
 21
99.63930000000001
 31
0.0
  0
LINE
  5
86
330
18
100
AcDbEntity
  8
0
100
AcDbLine
 10
30.7601
 20
99.63930000000001
 30
0.0
 11
29.57499999999999
 21
99.63930000000001
 31
0.0
  0
LINE
  5
87
330
18
100
AcDbEntity
  8
0
100
AcDbLine
 10
30.74559999999999
 20
101.8829999999999
 30
0.0
 11
30.153
 21
104.095
 31
0.0
  0
LINE
  5
88
330
18
100
AcDbEntity
  8
0
100
AcDbLine
 10
30.153
 20
104.095
 30
0.0
 11
29.5605
 21
101.8829999999999
 31
0.0
  0
LINE
  5
89
330
18
100
AcDbEntity
  8
0
100
AcDbLine
 10
29.5605
 20
101.8829999999999
 30
0.0
 11
30.74559999999999
 21
101.8829999999999
 31
0.0
  0
LINE
  5
8A
330
18
100
AcDbEntity
  8
0
100
AcDbLine
 10
30.153
 20
97.4276
 30
0.0
 11
30.153
 21
104.095
 31
0.0
  0
LINE
  5
8B
330
18
100
AcDbEntity
  8
0
100
AcDbLine
 10
35.93739999999999
 20
104.095
 30
0.0
 11
29.453
 21
104.095
 31
0.0
  0
LINE
  5
8C
330
18
100
AcDbEntity
  8
0
100
AcDbLine
 10
61.24349999999999
 20
97.4276
 30
0.0
 11
29.453
 21
97.4276
 31
0.0
  0
LINE
  5
8D
330
18
100
AcDbEntity
  8
0
100
AcDbLine
 10
65.8827
 20
111.482
 30
0.0
 11
63.67090000000001
 21
110.8899999999999
 31
0.0
  0
LINE
  5
8E
330
18
100
AcDbEntity
  8
0
100
AcDbLine
 10
63.67090000000001
 20
110.8899999999999
 30
0.0
 11
65.8827
 21
110.297
 31
0.0
  0
LINE
  5
8F
330
18
100
AcDbEntity
  8
0
100
AcDbLine
 10
65.8827
 20
110.297
 30
0.0
 11
65.8827
 21
111.482
 31
0.0
  0
LINE
  5
90
330
18
100
AcDbEntity
  8
0
100
AcDbLine
 10
74.7932
 20
110.312
 30
0.0
 11
77.00490000000001
 21
110.904
 31
0.0
  0
LINE
  5
91
330
18
100
AcDbEntity
  8
0
100
AcDbLine
 10
77.00490000000001
 20
110.904
 30
0.0
 11
74.7932
 21
111.497
 31
0.0
  0
LINE
  5
92
330
18
100
AcDbEntity
  8
0
100
AcDbLine
 10
74.7932
 20
111.497
 30
0.0
 11
74.7932
 21
110.312
 31
0.0
  0
LINE
  5
93
330
18
100
AcDbEntity
  8
0
100
AcDbLine
 10
63.6713
 20
110.8899999999999
 30
0.0
 11
77.00459999999999
 21
110.8899999999999
 31
0.0
  0
LINE
  5
94
330
18
100
AcDbEntity
  8
0
100
AcDbLine
 10
77.00459999999999
 20
99.78270000000001
 30
0.0
 11
77.00459999999999
 21
111.59
 31
0.0
  0
LINE
  5
95
330
18
100
AcDbEntity
  8
0
  6
AIGENLINE001
100
AcDbLine
 10
75.27719999999999
 20
97.4276
 30
0.0
 11
78.6682
 21
97.4276
 31
0.0
  0
LINE
  5
96
330
18
100
AcDbEntity
  8
0
  6
AIGENLINE001
100
AcDbLine
 10
77.00459999999999
 20
99.0826
 30
0.0
 11
77.00459999999999
 21
95.8966
 31
0.0
  0
ARC
  5
97
330
18
100
AcDbEntity
  8
0
  6
AIGENLINE002
100
AcDbCircle
 10
76.971829
 20
97.39554400000001
 30
0.0
 40
0.8663649999999998
100
AcDbArc
 50
2.118573
 51
87.834046
  0
ARC
  5
98
330
18
100
AcDbEntity
  8
0
  6
AIGENLINE002
100
AcDbCircle
 10
77.036261
 20
97.39588300000001
 30
0.0
 40
0.8659870000000001
100
AcDbArc
 50
92.09706700000001
 51
177.902903
  0
ARC
  5
99
330
18
100
AcDbEntity
  8
0
  6
AIGENLINE002
100
AcDbCircle
 10
77.035961
 20
97.459676
 30
0.0
 40
0.865703
100
AcDbArc
 50
182.125302
 51
267.922099
  0
ARC
  5
9A
330
18
100
AcDbEntity
  8
0
  6
AIGENLINE002
100
AcDbCircle
 10
76.972913
 20
97.45923000000001
 30
0.0
 40
0.865267
100
AcDbArc
 50
272.096837
 51
357.903173
  0
LINE
  5
9B
330
18
100
AcDbEntity
  8
0
100
AcDbLine
 10
63.6713
 20
99.78270000000001
 30
0.0
 11
63.6713
 21
111.59
 31
0.0
  0
LINE
  5
9C
330
18
100
AcDbEntity
  8
0
  6
AIGENLINE001
100
AcDbLine
 10
61.9436
 20
97.4276
 30
0.0
 11
65.33459999999999
 21
97.4276
 31
0.0
  0
LINE
  5
9D
330
18
100
AcDbEntity
  8
0
  6
AIGENLINE001
100
AcDbLine
 10
63.6713
 20
99.0826
 30
0.0
 11
63.6713
 21
95.8966
 31
0.0
  0
LINE
  5
9E
330
18
100
AcDbEntity
  8
0
100
AcDbLine
 10
86.67089999999999
 20
94.7611
 30
0.0
 11
54.0046
 21
94.7611
 31
0.0
  0
LINE
  5
9F
330
18
100
AcDbEntity
  8
0
100
AcDbLine
 10
86.67089999999999
 20
94.7611
 30
0.0
 11
86.67089999999999
 21
100.761
 31
0.0
  0
LINE
  5
A0
330
18
100
AcDbEntity
  8
0
100
AcDbLine
 10
54.0043
 20
94.7611
 30
0.0
 11
54.0043
 21
100.761
 31
0.0
  0
LINE
  5
A1
330
18
100
AcDbEntity
  8
0
100
AcDbLine
 10
54.0046
 20
100.761
 30
0.0
 11
37.3375
 21
100.761
 31
0.0
  0
LINE
  5
A2
330
18
100
AcDbEntity
  8
0
100
AcDbLine
 10
103.3379999999999
 20
100.761
 30
0.0
 11
86.67089999999999
 21
100.761
 31
0.0
  0
LINE
  5
A3
330
18
100
AcDbEntity
  8
0
100
AcDbLine
 10
103.671
 20
103.761
 30
0.0
 11
103.671
 21
101.095
 31
0.0
  0
ARC
  5
A4
330
18
100
AcDbEntity
  8
0
100
AcDbCircle
 10
103.325232
 20
101.106993
 30
0.0
 40
0.346149
100
AcDbArc
 50
272.059255
 51
357.9407549999999
  0
LINE
  5
A5
330
18
100
AcDbEntity
  8
0
100
AcDbLine
 10
103.3379999999999
 20
104.095
 30
0.0
 11
37.3375
 21
104.095
 31
0.0
  0
ARC
  5
A6
330
18
100
AcDbEntity
  8
0
100
AcDbCircle
 10
103.325038
 20
103.7484419999999
 30
0.0
 40
0.346351
100
AcDbArc
 50
2.090276999999999
 51
87.909713
  0
LINE
  5
A7
330
18
100
AcDbEntity
  8
0
100
AcDbLine
 10
37.0043
 20
103.761
 30
0.0
 11
37.0043
 21
101.095
 31
0.0
  0
ARC
  5
A8
330
18
100
AcDbEntity
  8
0
100
AcDbCircle
 10
37.35049699999999
 20
101.107202
 30
0.0
 40
0.346379
100
AcDbArc
 50
182.0925019999999
 51
267.848308
  0
ARC
  5
A9
330
18
100
AcDbEntity
  8
0
100
AcDbCircle
 10
37.350127
 20
103.7487969999999
 30
0.0
 40
0.345996
100
AcDbArc
 50
92.09286
 51
177.9663299999999
  0
LINE
  5
AA
330
18
100
AcDbEntity
  8
0
100
AcDbLine
 10
113.1399999999999
 20
160.6119999999999
 30
0.0
 11
113.732
 21
158.4
 31
0.0
  0
LINE
  5
AB
330
18
100
AcDbEntity
  8
0
100
AcDbLine
 10
113.732
 20
158.4
 30
0.0
 11
114.325
 21
160.6119999999999
 31
0.0
  0
LINE
  5
AC
330
18
100
AcDbEntity
  8
0
100
AcDbLine
 10
114.325
 20
160.6119999999999
 30
0.0
 11
113.1399999999999
 21
160.6119999999999
 31
0.0
  0
LINE
  5
AD
330
18
100
AcDbEntity
  8
0
100
AcDbLine
 10
114.31
 20
194.189
 30
0.0
 11
113.7179999999999
 21
196.4009999999999
 31
0.0
  0
LINE
  5
AE
330
18
100
AcDbEntity
  8
0
100
AcDbLine
 10
113.7179999999999
 20
196.4009999999999
 30
0.0
 11
113.125
 21
194.189
 31
0.0
  0
LINE
  5
AF
330
18
100
AcDbEntity
  8
0
100
AcDbLine
 10
113.125
 20
194.189
 30
0.0
 11
114.31
 21
194.189
 31
0.0
  0
LINE
  5
B0
330
18
100
AcDbEntity
  8
0
100
AcDbLine
 10
113.7179999999999
 20
158.401
 30
0.0
 11
113.7179999999999
 21
196.4
 31
0.0
  0
LINE
  5
B1
330
18
100
AcDbEntity
  8
0
100
AcDbLine
 10
114.4179999999999
 20
158.401
 30
0.0
 11
84.44119999999999
 21
158.401
 31
0.0
  0
LINE
  5
B2
330
18
100
AcDbEntity
  8
0
100
AcDbLine
 10
114.4179999999999
 20
196.4
 30
0.0
 11
102.8469999999999
 21
196.4
 31
0.0
  0
LINE
  5
B3
330
18
100
AcDbEntity
  8
0
100
AcDbLine
 10
41.00859999999999
 20
175.98
 30
0.0
 11
41.00859999999999
 21
174.219
 31
0.0
  0
LINE
  5
B4
330
18
100
AcDbEntity
  8
0
100
AcDbLine
 10
41.00859999999999
 20
180.934
 30
0.0
 11
41.00859999999999
 21
179.159
 31
0.0
  0
LINE
  5
B5
330
18
100
AcDbEntity
  8
0
100
AcDbLine
 10
41.00859999999999
 20
169.3079999999999
 30
0.0
 11
41.00859999999999
 21
171.058
 31
0.0
  0
LINE
  5
B6
330
18
100
AcDbEntity
  8
0
100
AcDbLine
 10
39.33769999999999
 20
168.4
 30
0.0
 11
41.00589999999999
 21
169.3079999999999
 31
0.0
  0
LINE
  5
B7
330
18
100
AcDbEntity
  8
0
100
AcDbLine
 10
39.33769999999999
 20
171.4
 30
0.0
 11
41.00859999999999
 21
171.058
 31
0.0
  0
LINE
  5
B8
330
18
100
AcDbEntity
  8
0
100
AcDbLine
 10
39.33769999999999
 20
173.734
 30
0.0
 11
41.00719999999999
 21
174.2199999999999
 31
0.0
  0
LINE
  5
B9
330
18
100
AcDbEntity
  8
0
100
AcDbLine
 10
39.33769999999999
 20
176.734
 30
0.0
 11
41.0038
 21
175.9819999999999
 31
0.0
  0
LINE
  5
BA
330
18
100
AcDbEntity
  8
0
100
AcDbLine
 10
39.33769999999999
 20
179.067
 30
0.0
 11
41.0052
 21
179.1609999999999
 31
0.0
  0
LINE
  5
BB
330
18
100
AcDbEntity
  8
0
100
AcDbLine
 10
39.33769999999999
 20
182.0669999999999
 30
0.0
 11
41.0052
 21
180.934
 31
0.0
  0
LINE
  5
BC
330
18
100
AcDbEntity
  8
0
100
AcDbLine
 10
39.33769999999999
 20
184.4
 30
0.0
 11
41.0031
 21
184.1369999999999
 31
0.0
  0
LINE
  5
BD
330
18
100
AcDbEntity
  8
0
100
AcDbLine
 10
39.33769999999999
 20
187.4
 30
0.0
 11
41.0024
 21
185.9239999999999
 31
0.0
  0
ARC
  5
BE
330
18
100
AcDbEntity
  8
0
100
AcDbCircle
 10
70.33761199999999
 20
261.063439
 30
0.0
 40
80.66297400000001
100
AcDbArc
 50
248.672824
 51
269.999988
  0
ARC
  5
BF
330
18
100
AcDbEntity
  8
0
100
AcDbCircle
 10
70.33725600000001
 20
261.063533
 30
0.0
 40
82.329816
100
AcDbArc
 50
249.1265819999999
 51
270.0002359999999
  0
ARC
  5
C0
330
18
100
AcDbEntity
  8
0
100
AcDbCircle
 10
70.337239
 20
261.0631979999999
 30
0.0
 40
85.32948799999999
100
AcDbArc
 50
249.8934709999999
 51
270.000239
  0
ARC
  5
C1
330
18
100
AcDbEntity
  8
0
100
AcDbCircle
 10
70.33837099999999
 20
261.0682979999999
 30
0.0
 40
87.001337
100
AcDbArc
 50
250.29715
 51
269.9994899999999
  0
ARC
  5
C2
330
18
100
AcDbEntity
  8
0
100
AcDbCircle
 10
70.338778
 20
261.0743549999999
 30
0.0
 40
90.00740099999999
100
AcDbArc
 50
250.978374
 51
269.999248
  0
ARC
  5
C3
330
18
100
AcDbEntity
  8
0
100
AcDbCircle
 10
70.339041
 20
261.070093
 30
0.0
 40
91.669888
100
AcDbArc
 50
251.337408
 51
269.9990969999999
  0
ARC
  5
C4
330
18
100
AcDbEntity
  8
0
100
AcDbCircle
 10
70.337179
 20
261.0587409999999
 30
0.0
 40
94.65854399999999
100
AcDbArc
 50
251.952015
 51
270.0002539999999
  0
ARC
  5
C5
330
18
100
AcDbEntity
  8
0
100
AcDbCircle
 10
70.33713
 20
261.064445
 30
0.0
 40
96.33065100000001
100
AcDbArc
 50
252.2734499999999
 51
270.0002779999999
  0
LINE
  5
C6
330
18
100
AcDbEntity
  8
0
100
AcDbLine
 10
41.0045
 20
184.1369999999999
 30
0.0
 11
41.0045
 21
185.922
 31
0.0
  0
LINE
  5
C7
330
18
100
AcDbEntity
  8
0
100
AcDbLine
 10
39.33769999999999
 20
193.067
 30
0.0
 11
39.33769999999999
 21
166.372
 31
0.0
  0
ARC
  5
C8
330
18
100
AcDbEntity
  8
0
100
AcDbCircle
 10
40.366086
 20
166.3929809999999
 30
0.0
 40
1.028567
100
AcDbArc
 50
181.152542
 51
251.304896
  0
LINE
  5
C9
330
18
100
AcDbEntity
  8
0
100
AcDbLine
 10
37.0043
 20
193.067
 30
0.0
 11
37.0043
 21
166.372
 31
0.0
  0
ARC
  5
CA
330
18
100
AcDbEntity
  8
0
100
AcDbCircle
 10
40.33784899999999
 20
166.372148
 30
0.0
 40
3.333499999999999
100
AcDbArc
 50
179.9975029999999
 51
252.429344
  0
ARC
  5
CB
330
18
100
AcDbEntity
  8
0
100
AcDbCircle
 10
70.336962
 20
261.061029
 30
0.0
 40
100.3273599999999
100
AcDbArc
 50
252.420605
 51
270.0003629999999
  0
ARC
  5
CC
330
18
100
AcDbEntity
  8
0
100
AcDbCircle
 10
70.337162
 20
261.063398
 30
0.0
 40
102.6627629999999
100
AcDbArc
 50
252.420973
 51
270.000244
  0
LINE
  5
CD
330
18
100
AcDbEntity
  8
0
100
AcDbLine
 10
39.33769999999999
 20
189.7339999999999
 30
0.0
 11
41.0041
 21
189.1529999999999
 31
0.0
  0
LINE
  5
CE
330
18
100
AcDbEntity
  8
0
100
AcDbLine
 10
39.3374
 20
192.734
 30
0.0
 11
41.0045
 21
190.955
 31
0.0
  0
ARC
  5
CF
330
18
100
AcDbEntity
  8
0
100
AcDbCircle
 10
70.337025
 20
261.063418
 30
0.0
 40
77.66294499999999
100
AcDbArc
 50
247.8090429999999
 51
270.00042
  0
LINE
  5
D0
330
18
100
AcDbEntity
  8
0
100
AcDbLine
 10
41.0045
 20
190.955
 30
0.0
 11
41.0045
 21
189.1529999999999
 31
0.0
  0
ARC
  5
D1
330
18
100
AcDbEntity
  8
0
100
AcDbCircle
 10
70.336444
 20
261.063552
 30
0.0
 40
75.99633199999999
100
AcDbArc
 50
247.298285
 51
270.0008669999999
  0
LINE
  5
D2
330
18
100
AcDbEntity
  8
0
100
AcDbLine
 10
99.6666
 20
175.98
 30
0.0
 11
99.6666
 21
174.219
 31
0.0
  0
LINE
  5
D3
330
18
100
AcDbEntity
  8
0
100
AcDbLine
 10
99.6666
 20
180.9329999999999
 30
0.0
 11
99.6666
 21
179.159
 31
0.0
  0
LINE
  5
D4
330
18
100
AcDbEntity
  8
0
100
AcDbLine
 10
99.6666
 20
169.3079999999999
 30
0.0
 11
99.6666
 21
171.058
 31
0.0
  0
LINE
  5
D5
330
18
100
AcDbEntity
  8
0
100
AcDbLine
 10
101.3379999999999
 20
168.4
 30
0.0
 11
99.66970000000001
 21
169.3079999999999
 31
0.0
  0
LINE
  5
D6
330
18
100
AcDbEntity
  8
0
100
AcDbLine
 10
101.3379999999999
 20
171.4
 30
0.0
 11
99.6666
 21
171.058
 31
0.0
  0
LINE
  5
D7
330
18
100
AcDbEntity
  8
0
100
AcDbLine
 10
101.3379999999999
 20
173.734
 30
0.0
 11
99.66790000000001
 21
174.219
 31
0.0
  0
LINE
  5
D8
330
18
100
AcDbEntity
  8
0
100
AcDbLine
 10
101.3379999999999
 20
176.734
 30
0.0
 11
99.6714
 21
175.9819999999999
 31
0.0
  0
LINE
  5
D9
330
18
100
AcDbEntity
  8
0
100
AcDbLine
 10
101.3379999999999
 20
179.067
 30
0.0
 11
99.67030000000001
 21
179.1609999999999
 31
0.0
  0
LINE
  5
DA
330
18
100
AcDbEntity
  8
0
100
AcDbLine
 10
101.3379999999999
 20
182.0669999999999
 30
0.0
 11
99.67
 21
180.9329999999999
 31
0.0
  0
LINE
  5
DB
330
18
100
AcDbEntity
  8
0
100
AcDbLine
 10
101.3379999999999
 20
184.4
 30
0.0
 11
99.6724
 21
184.1369999999999
 31
0.0
  0
LINE
  5
DC
330
18
100
AcDbEntity
  8
0
100
AcDbLine
 10
101.3379999999999
 20
187.4
 30
0.0
 11
99.67310000000001
 21
185.9239999999999
 31
0.0
  0
ARC
  5
DD
330
18
100
AcDbEntity
  8
0
100
AcDbCircle
 10
70.336899
 20
261.070554
 30
0.0
 40
80.67008900000001
100
AcDbArc
 50
270.0004939999999
 51
291.326244
  0
ARC
  5
DE
330
18
100
AcDbEntity
  8
0
100
AcDbCircle
 10
70.337581
 20
261.067172
 30
0.0
 40
82.333455
100
AcDbArc
 50
270.00001
 51
290.872971
  0
ARC
  5
DF
330
18
100
AcDbEntity
  8
0
100
AcDbCircle
 10
70.338594
 20
261.0613559999999
 30
0.0
 40
85.32764699999999
100
AcDbArc
 50
269.99933
 51
290.106768
  0
ARC
  5
E0
330
18
100
AcDbEntity
  8
0
100
AcDbCircle
 10
70.337462
 20
261.066416
 30
0.0
 40
86.999454
100
AcDbArc
 50
270.000088
 51
289.7030849999999
  0
ARC
  5
E1
330
18
100
AcDbEntity
  8
0
100
AcDbCircle
 10
70.33688399999999
 20
261.071371
 30
0.0
 40
90.004418
100
AcDbArc
 50
270.000454
 51
289.021964
  0
ARC
  5
E2
330
18
100
AcDbEntity
  8
0
100
AcDbCircle
 10
70.33629300000001
 20
261.071142
 30
0.0
 40
91.67093599999999
100
AcDbArc
 50
270.0008149999999
 51
288.662504
  0
ARC
  5
E3
330
18
100
AcDbEntity
  8
0
100
AcDbCircle
 10
70.337655
 20
261.0629789999999
 30
0.0
 40
94.66278100000002
100
AcDbArc
 50
269.9999649999999
 51
288.0475969999999
  0
ARC
  5
E4
330
18
100
AcDbEntity
  8
0
100
AcDbCircle
 10
70.337704
 20
261.068763
 30
0.0
 40
96.33496800000001
100
AcDbArc
 50
269.999937
 51
287.7261689999999
  0
LINE
  5
E5
330
18
100
AcDbEntity
  8
0
100
AcDbLine
 10
99.67100000000002
 20
184.1369999999999
 30
0.0
 11
99.67100000000002
 21
185.922
 31
0.0
  0
LINE
  5
E6
330
18
100
AcDbEntity
  8
0
100
AcDbLine
 10
101.337
 20
193.067
 30
0.0
 11
101.337
 21
166.372
 31
0.0
  0
ARC
  5
E7
330
18
100
AcDbEntity
  8
0
100
AcDbCircle
 10
100.309727
 20
166.392504
 30
0.0
 40
1.027908
100
AcDbArc
 50
288.669322
 51
358.873279
  0
LINE
  5
E8
330
18
100
AcDbEntity
  8
0
100
AcDbLine
 10
103.671
 20
193.067
 30
0.0
 11
103.671
 21
166.372
 31
0.0
  0
ARC
  5
E9
330
18
100
AcDbEntity
  8
0
100
AcDbCircle
 10
100.3374839999999
 20
166.372384
 30
0.0
 40
3.333673999999999
100
AcDbArc
 50
287.5666519999999
 51
359.998414
  0
ARC
  5
EA
330
18
100
AcDbEntity
  8
0
100
AcDbCircle
 10
70.33837199999999
 20
261.062143
 30
0.0
 40
100.328474
100
AcDbArc
 50
269.9995579999999
 51
287.579316
  0
ARC
  5
EB
330
18
100
AcDbEntity
  8
0
100
AcDbCircle
 10
70.33784399999999
 20
261.068867
 30
0.0
 40
102.6682319999999
100
AcDbArc
 50
269.999863
 51
287.5785739999999
  0
LINE
  5
EC
330
18
100
AcDbEntity
  8
0
100
AcDbLine
 10
101.3379999999999
 20
189.7339999999999
 30
0.0
 11
99.6714
 21
189.1529999999999
 31
0.0
  0
LINE
  5
ED
330
18
100
AcDbEntity
  8
0
100
AcDbLine
 10
101.3379999999999
 20
192.734
 30
0.0
 11
99.67100000000002
 21
190.955
 31
0.0
  0
ARC
  5
EE
330
18
100
AcDbEntity
  8
0
100
AcDbCircle
 10
70.337813
 20
261.066829
 30
0.0
 40
77.66635500000001
100
AcDbArc
 50
269.999839
 51
292.1904839999999
  0
LINE
  5
EF
330
18
100
AcDbEntity
  8
0
100
AcDbLine
 10
99.67100000000002
 20
190.955
 30
0.0
 11
99.67100000000002
 21
189.1529999999999
 31
0.0
  0
ARC
  5
F0
330
18
100
AcDbEntity
  8
0
100
AcDbCircle
 10
70.33839499999999
 20
261.066881
 30
0.0
 40
75.999661
100
AcDbArc
 50
269.999397
 51
292.701231
  0
ARC
  5
F1
330
18
100
AcDbEntity
  8
0
100
AcDbCircle
 10
70.33726699999999
 20
261.065024
 30
0.0
 40
72.997967
100
AcDbArc
 50
246.607043
 51
270.0002569999999
  0
ARC
  5
F2
330
18
100
AcDbEntity
  8
0
100
AcDbCircle
 10
70.337249
 20
261.071473
 30
0.0
 40
73.004416
100
AcDbArc
 50
270.00027
 51
293.391929
  0
ARC
  5
F3
330
18
100
AcDbEntity
  8
0
100
AcDbCircle
 10
70.337217
 20
250.234064
 30
0.0
 40
60.833575
100
AcDbArc
 50
247.413924
 51
270.0003529999999
  0
ARC
  5
F4
330
18
100
AcDbEntity
  8
0
100
AcDbCircle
 10
70.33779599999999
 20
250.234814
 30
0.0
 40
60.834325
100
AcDbArc
 50
269.999808
 51
292.5859549999999
  0
LINE
  5
F5
330
18
100
AcDbEntity
  8
0
100
AcDbLine
 10
86.67089999999999
 20
193.4
 30
0.0
 11
86.67089999999999
 21
194.067
 31
0.0
  0
LINE
  5
F6
330
18
100
AcDbEntity
  8
0
100
AcDbLine
 10
54.0043
 20
193.4
 30
0.0
 11
54.0043
 21
194.067
 31
0.0
  0
LINE
  5
F7
330
18
100
AcDbEntity
  8
0
100
AcDbLine
 10
54.0043
 20
193.4
 30
0.0
 11
86.67089999999999
 21
193.4
 31
0.0
  0
ARC
  5
F8
330
18
100
AcDbEntity
  8
0
100
AcDbCircle
 10
40.37614699999999
 20
193.028659
 30
0.0
 40
1.039131999999999
100
AcDbArc
 50
92.13141
 51
177.8784309999999
  0
ARC
  5
F9
330
18
100
AcDbEntity
  8
0
100
AcDbCircle
 10
100.298858
 20
193.028502
 30
0.0
 40
1.039295
100
AcDbArc
 50
2.129884
 51
87.860235
  0
LINE
  5
FA
330
18
100
AcDbEntity
  8
0
100
AcDbLine
 10
86.67089999999999
 20
194.067
 30
0.0
 11
100.3379999999999
 21
194.067
 31
0.0
  0
LINE
  5
FB
330
18
100
AcDbEntity
  8
0
100
AcDbLine
 10
40.3375
 20
194.067
 30
0.0
 11
54.0043
 21
194.067
 31
0.0
  0
LINE
  5
FC
330
18
100
AcDbEntity
  8
0
100
AcDbLine
 10
40.3375
 20
196.4
 30
0.0
 11
100.3379999999999
 21
196.4
 31
0.0
  0
ARC
  5
FD
330
18
100
AcDbEntity
  8
0
100
AcDbCircle
 10
100.337748
 20
193.0670409999999
 30
0.0
 40
3.333409999999999
100
AcDbArc
 50
0.00149
 51
90.00146099999998
  0
ARC
  5
FE
330
18
100
AcDbEntity
  8
0
100
AcDbCircle
 10
40.33758699999999
 20
193.0672129999999
 30
0.0
 40
3.333237999999999
100
AcDbArc
 50
90.00148000000001
 51
180.0014899999999
  0
ARC
  5
FF
330
18
100
AcDbEntity
  8
0
  6
AIGENLINE002
100
AcDbCircle
 10
63.638536
 20
97.39554400000001
 30
0.0
 40
0.8663649999999998
100
AcDbArc
 50
2.118573
 51
87.834046
  0
ARC
  5
100
330
18
100
AcDbEntity
  8
0
  6
AIGENLINE002
100
AcDbCircle
 10
63.70296800000001
 20
97.39588300000001
 30
0.0
 40
0.8659870000000001
100
AcDbArc
 50
92.09706700000001
 51
177.902903
  0
ARC
  5
101
330
18
100
AcDbEntity
  8
0
  6
AIGENLINE002
100
AcDbCircle
 10
63.702668
 20
97.459676
 30
0.0
 40
0.865703
100
AcDbArc
 50
182.125302
 51
267.922099
  0
ARC
  5
102
330
18
100
AcDbEntity
  8
0
  6
AIGENLINE002
100
AcDbCircle
 10
63.639616
 20
97.45923499999999
 30
0.0
 40
0.865273
100
AcDbArc
 50
272.097148
 51
357.902862
  0
LINE
  5
103
330
18
100
AcDbEntity
  8
0
100
AcDbLine
 10
173.907
 20
97.4276
 30
0.0
 11
172.0169999999999
 21
96.76059999999999
 31
0.0
  0
LINE
  5
104
330
18
100
AcDbEntity
  8
0
100
AcDbLine
 10
173.907
 20
97.4276
 30
0.0
 11
172.0169999999999
 21
98.0945
 31
0.0
  0
LINE
  5
105
330
18
100
AcDbEntity
  8
0
100
AcDbLine
 10
162.241
 20
98.0945
 30
0.0
 11
172.0169999999999
 21
98.0945
 31
0.0
  0
LINE
  5
106
330
18
100
AcDbEntity
  8
0
100
AcDbLine
 10
162.241
 20
96.76059999999999
 30
0.0
 11
172.0169999999999
 21
96.76059999999999
 31
0.0
  0
LINE
  5
107
330
18
100
AcDbEntity
  8
0
100
AcDbLine
 10
171.84
 20
98.4267
 30
0.0
 11
172.476
 21
96.42850000000001
 31
0.0
  0
LINE
  5
108
330
18
100
AcDbEntity
  8
0
100
AcDbLine
 10
170.6949999999999
 20
98.4267
 30
0.0
 11
171.3309999999999
 21
96.42850000000001
 31
0.0
  0
LINE
  5
109
330
18
100
AcDbEntity
  8
0
100
AcDbLine
 10
169.5509999999999
 20
98.4267
 30
0.0
 11
170.187
 21
96.42850000000001
 31
0.0
  0
LINE
  5
10A
330
18
100
AcDbEntity
  8
0
100
AcDbLine
 10
168.4059999999999
 20
98.4267
 30
0.0
 11
169.042
 21
96.42850000000001
 31
0.0
  0
LINE
  5
10B
330
18
100
AcDbEntity
  8
0
100
AcDbLine
 10
167.262
 20
98.4267
 30
0.0
 11
167.8979999999999
 21
96.42850000000001
 31
0.0
  0
LINE
  5
10C
330
18
100
AcDbEntity
  8
0
100
AcDbLine
 10
166.117
 20
98.4267
 30
0.0
 11
166.753
 21
96.42850000000001
 31
0.0
  0
LINE
  5
10D
330
18
100
AcDbEntity
  8
0
100
AcDbLine
 10
164.974
 20
98.4267
 30
0.0
 11
165.609
 21
96.42850000000001
 31
0.0
  0
LINE
  5
10E
330
18
100
AcDbEntity
  8
0
100
AcDbLine
 10
163.829
 20
98.4267
 30
0.0
 11
164.465
 21
96.42850000000001
 31
0.0
  0
LINE
  5
10F
330
18
100
AcDbEntity
  8
0
100
AcDbLine
 10
162.685
 20
98.4267
 30
0.0
 11
163.321
 21
96.42850000000001
 31
0.0
  0
LINE
  5
110
330
18
100
AcDbEntity
  8
0
  6
AIGENLINE001
100
AcDbLine
 10
161.2939999999999
 20
97.4276
 30
0.0
 11
175.1459999999999
 21
97.4276
 31
0.0
  0
LINE
  5
111
330
18
100
AcDbEntity
  8
0
100
AcDbLine
 10
77.00459999999999
 20
208.067
 30
0.0
 11
77.6712
 21
206.176
 31
0.0
  0
LINE
  5
112
330
18
100
AcDbEntity
  8
0
100
AcDbLine
 10
77.00459999999999
 20
208.067
 30
0.0
 11
76.33790000000001
 21
206.176
 31
0.0
  0
LINE
  5
113
330
18
100
AcDbEntity
  8
0
100
AcDbLine
 10
76.33790000000001
 20
196.4
 30
0.0
 11
76.33790000000001
 21
206.176
 31
0.0
  0
LINE
  5
114
330
18
100
AcDbEntity
  8
0
100
AcDbLine
 10
77.6712
 20
196.4
 30
0.0
 11
77.6712
 21
206.176
 31
0.0
  0
LINE
  5
115
330
18
100
AcDbEntity
  8
0
100
AcDbLine
 10
76.0055
 20
205.999
 30
0.0
 11
78.0037
 21
206.6349999999999
 31
0.0
  0
LINE
  5
116
330
18
100
AcDbEntity
  8
0
100
AcDbLine
 10
76.0055
 20
204.855
 30
0.0
 11
78.0037
 21
205.491
 31
0.0
  0
LINE
  5
117
330
18
100
AcDbEntity
  8
0
100
AcDbLine
 10
76.0055
 20
203.71
 30
0.0
 11
78.0037
 21
204.3459999999999
 31
0.0
  0
LINE
  5
118
330
18
100
AcDbEntity
  8
0
100
AcDbLine
 10
76.0055
 20
202.5659999999999
 30
0.0
 11
78.0037
 21
203.202
 31
0.0
  0
LINE
  5
119
330
18
100
AcDbEntity
  8
0
100
AcDbLine
 10
76.0055
 20
201.4219999999999
 30
0.0
 11
78.0037
 21
202.057
 31
0.0
  0
LINE
  5
11A
330
18
100
AcDbEntity
  8
0
100
AcDbLine
 10
76.0055
 20
200.277
 30
0.0
 11
78.0037
 21
200.9129999999999
 31
0.0
  0
LINE
  5
11B
330
18
100
AcDbEntity
  8
0
100
AcDbLine
 10
76.0055
 20
199.1329999999999
 30
0.0
 11
78.0037
 21
199.769
 31
0.0
  0
LINE
  5
11C
330
18
100
AcDbEntity
  8
0
100
AcDbLine
 10
76.0055
 20
197.9879999999999
 30
0.0
 11
78.0037
 21
198.624
 31
0.0
  0
LINE
  5
11D
330
18
100
AcDbEntity
  8
0
100
AcDbLine
 10
76.0055
 20
196.844
 30
0.0
 11
78.0037
 21
197.4799999999999
 31
0.0
  0
LINE
  5
11E
330
18
100
AcDbEntity
  8
0
  6
AIGENLINE001
100
AcDbLine
 10
77.00459999999999
 20
195.453
 30
0.0
 11
77.00459999999999
 21
209.3059999999999
 31
0.0
  0
LINE
  5
11F
330
18
100
AcDbEntity
  8
0
100
AcDbLine
 10
63.6713
 20
208.067
 30
0.0
 11
64.33790000000001
 21
206.176
 31
0.0
  0
LINE
  5
120
330
18
100
AcDbEntity
  8
0
100
AcDbLine
 10
63.6713
 20
208.067
 30
0.0
 11
63.00460000000001
 21
206.176
 31
0.0
  0
LINE
  5
121
330
18
100
AcDbEntity
  8
0
100
AcDbLine
 10
63.00460000000001
 20
196.4
 30
0.0
 11
63.00460000000001
 21
206.176
 31
0.0
  0
LINE
  5
122
330
18
100
AcDbEntity
  8
0
100
AcDbLine
 10
64.33790000000001
 20
196.4
 30
0.0
 11
64.33790000000001
 21
206.176
 31
0.0
  0
LINE
  5
123
330
18
100
AcDbEntity
  8
0
100
AcDbLine
 10
62.6722
 20
205.999
 30
0.0
 11
64.6704
 21
206.6349999999999
 31
0.0
  0
LINE
  5
124
330
18
100
AcDbEntity
  8
0
100
AcDbLine
 10
62.6722
 20
204.855
 30
0.0
 11
64.6704
 21
205.491
 31
0.0
  0
LINE
  5
125
330
18
100
AcDbEntity
  8
0
100
AcDbLine
 10
62.6722
 20
203.71
 30
0.0
 11
64.6704
 21
204.3459999999999
 31
0.0
  0
LINE
  5
126
330
18
100
AcDbEntity
  8
0
100
AcDbLine
 10
62.6722
 20
202.5659999999999
 30
0.0
 11
64.6704
 21
203.202
 31
0.0
  0
LINE
  5
127
330
18
100
AcDbEntity
  8
0
100
AcDbLine
 10
62.6722
 20
201.4219999999999
 30
0.0
 11
64.6704
 21
202.057
 31
0.0
  0
LINE
  5
128
330
18
100
AcDbEntity
  8
0
100
AcDbLine
 10
62.6722
 20
200.277
 30
0.0
 11
64.6704
 21
200.9129999999999
 31
0.0
  0
LINE
  5
129
330
18
100
AcDbEntity
  8
0
100
AcDbLine
 10
62.6722
 20
199.1329999999999
 30
0.0
 11
64.6704
 21
199.769
 31
0.0
  0
LINE
  5
12A
330
18
100
AcDbEntity
  8
0
100
AcDbLine
 10
62.6722
 20
197.9879999999999
 30
0.0
 11
64.6704
 21
198.624
 31
0.0
  0
LINE
  5
12B
330
18
100
AcDbEntity
  8
0
100
AcDbLine
 10
62.6722
 20
196.844
 30
0.0
 11
64.6704
 21
197.4799999999999
 31
0.0
  0
LINE
  5
12C
330
18
100
AcDbEntity
  8
0
  6
AIGENLINE001
100
AcDbLine
 10
63.6713
 20
195.453
 30
0.0
 11
63.6713
 21
209.3059999999999
 31
0.0
  0
LINE
  5
12D
330
18
100
AcDbEntity
  8
0
100
AcDbLine
 10
78.5631
 20
209.0079999999999
 30
0.0
 11
77.3601
 21
207.059
 31
0.0
  0
LINE
  5
12E
330
18
100
AcDbEntity
  8
0
100
AcDbLine
 10
77.3601
 20
207.059
 30
0.0
 11
79.3758
 21
208.145
 31
0.0
  0
LINE
  5
12F
330
18
100
AcDbEntity
  8
0
100
AcDbLine
 10
79.3758
 20
208.145
 30
0.0
 11
78.5631
 21
209.0079999999999
 31
0.0
  0
LINE
  5
130
330
18
100
AcDbEntity
  8
0
100
AcDbLine
 10
77.35009999999999
 20
207.0699999999999
 30
0.0
 11
85.3738
 21
214.632
 31
0.0
  0
LINE
  5
131
330
18
100
AcDbEntity
  8
0
100
AcDbLine
 10
85.3738
 20
214.632
 30
0.0
 11
117.161
 21
214.632
 31
0.0
  0
LINE
  5
132
330
18
100
AcDbEntity
  8
_________2
100
AcDbLine
 10
205.301
 20
127.411
 30
0.0
 11
183.55
 21
127.411
 31
0.0
  0
LINE
  5
133
330
18
100
AcDbEntity
  8
_________2
100
AcDbLine
 10
100.2999999999999
 20
-4.09108
 30
0.0
 11
100.2999999999999
 21
-21.0714
 31
0.0
  0
LINE
  5
134
330
18
100
AcDbEntity
  8
_________2
100
AcDbLine
 10
100.2999999999999
 20
275.9309999999999
 30
0.0
 11
100.2999999999999
 21
258.911
 31
0.0
  0
LINE
  5
135
330
18
100
AcDbEntity
  8
_________2
100
AcDbLine
 10
17.0495
 20
127.411
 30
0.0
 11
-4.70052
 21
127.411
 31
0.0
  0
LINE
  5
136
330
18
100
AcDbEntity
  8
_________2
100
AcDbLine
 10
76.741
 20
29.8047
 30
0.0
 11
74.5547
 21
29.8047
 31
0.0
  0
LINE
  5
137
330
18
100
AcDbEntity
  8
_________2
100
AcDbLine
 10
77.2337
 20
29.8047
 30
0.0
 11
76.9815
 21
29.8047
 31
0.0
  0
LINE
  5
138
330
18
100
AcDbEntity
  8
_________2
100
AcDbLine
 10
77.72629999999999
 20
29.8047
 30
0.0
 11
80.6512
 21
29.8047
 31
0.0
  0
LINE
  5
139
330
18
100
AcDbEntity
  8
_________2
100
AcDbLine
 10
77.2337
 20
29.8047
 30
0.0
 11
77.4855
 21
29.8047
 31
0.0
  0
LINE
  5
13A
330
18
100
AcDbEntity
  8
_________2
100
AcDbLine
 10
70.8371
 20
29.8047
 30
0.0
 11
68.6505
 21
29.8047
 31
0.0
  0
LINE
  5
13B
330
18
100
AcDbEntity
  8
_________2
100
AcDbLine
 10
71.32940000000001
 20
29.8047
 30
0.0
 11
71.0776
 21
29.8047
 31
0.0
  0
LINE
  5
13C
330
18
100
AcDbEntity
  8
_________2
100
AcDbLine
 10
71.32940000000001
 20
30.2974
 30
0.0
 11
71.32940000000001
 21
32.4844
 31
0.0
  0
LINE
  5
13D
330
18
100
AcDbEntity
  8
_________2
100
AcDbLine
 10
71.32940000000001
 20
29.8047
 30
0.0
 11
71.32940000000001
 21
30.05689999999999
 31
0.0
  0
LINE
  5
13E
330
18
100
AcDbEntity
  8
_________2
100
AcDbLine
 10
71.82210000000001
 20
29.8047
 30
0.0
 11
74.009
 21
29.8047
 31
0.0
  0
LINE
  5
13F
330
18
100
AcDbEntity
  8
_________2
100
AcDbLine
 10
71.32940000000001
 20
29.8047
 30
0.0
 11
71.58159999999999
 21
29.8047
 31
0.0
  0
LINE
  5
140
330
18
100
AcDbEntity
  8
_________2
100
AcDbLine
 10
71.32940000000001
 20
29.3128
 30
0.0
 11
71.32940000000001
 21
27.1258
 31
0.0
  0
LINE
  5
141
330
18
100
AcDbEntity
  8
_________2
100
AcDbLine
 10
71.32940000000001
 20
29.8047
 30
0.0
 11
71.32940000000001
 21
29.5532
 31
0.0
  0
LINE
  5
142
330
18
100
AcDbEntity
  8
_________2
100
AcDbLine
 10
75.04049999999999
 20
28.5852
 30
0.0
 11
80.2185
 21
27.7204
 31
0.0
  0
LINE
  5
143
330
18
100
AcDbEntity
  8
_________2
100
AcDbLine
 10
75.04049999999999
 20
31.0243
 30
0.0
 11
80.2185
 21
31.8897
 31
0.0
  0
LINE
  5
144
330
18
100
AcDbEntity
  8
_________2
100
AcDbLine
 10
80.2185
 20
27.7204
 30
0.0
 11
80.2185
 21
31.8897
 31
0.0
  0
LINE
  5
145
330
18
100
AcDbEntity
  8
_________2
100
AcDbLine
 10
75.04049999999999
 20
28.5852
 30
0.0
 11
75.04049999999999
 21
31.0243
 31
0.0
  0
ARC
  5
146
330
18
100
AcDbEntity
  8
_________2
100
AcDbCircle
 10
71.28285600000001
 20
29.757811
 30
0.0
 40
1.267359
100
AcDbArc
 50
2.122214
 51
87.893959
  0
ARC
  5
147
330
18
100
AcDbEntity
  8
_________2
100
AcDbCircle
 10
71.37595999999999
 20
29.758213
 30
0.0
 40
1.266955999999999
100
AcDbArc
 50
92.104701
 51
177.8952689999999
  0
ARC
  5
148
330
18
100
AcDbEntity
  8
_________2
100
AcDbCircle
 10
71.37635799999999
 20
29.851671
 30
0.0
 40
1.267368
100
AcDbArc
 50
182.122036
 51
267.877993
  0
ARC
  5
149
330
18
100
AcDbEntity
  8
_________2
100
AcDbCircle
 10
71.28253199999999
 20
29.85199899999999
 30
0.0
 40
1.267695999999999
100
AcDbArc
 50
272.120153
 51
357.863674
  0
ARC
  5
14A
330
18
100
AcDbEntity
  8
_________2
100
AcDbCircle
 10
71.32943
 20
29.804743
 30
0.0
 40
2.084984999999999
100
AcDbArc
 50
0.00001
 51
89.99998000000001
  0
ARC
  5
14B
330
18
100
AcDbEntity
  8
_________2
100
AcDbCircle
 10
71.329603
 20
29.804915
 30
0.0
 40
2.084813
100
AcDbArc
 50
90.004734
 51
180.004744
  0
ARC
  5
14C
330
18
100
AcDbEntity
  8
_________2
100
AcDbCircle
 10
71.40910600000001
 20
29.884776
 30
0.0
 40
2.165795
100
AcDbArc
 50
182.117766
 51
267.891734
  0
ARC
  5
14D
330
18
100
AcDbEntity
  8
_________2
100
AcDbCircle
 10
71.249459
 20
29.88542999999999
 30
0.0
 40
2.166459
100
AcDbArc
 50
272.115468
 51
357.865604
  0
TEXT
  5
14E
330
18
100
AcDbEntity
  8
_________2
100
AcDbText
 10
104.605
 20
1.67949
 30
0.0
 40
3.09234
  1
図番
 41
0.5
100
AcDbText
  0
LINE
  5
14F
330
18
100
AcDbEntity
  8
_________2
100
AcDbLine
 10
103.55
 20
5.908719999999999
 30
0.0
 11
183.551
 21
5.908719999999999
 31
0.0
  0
TEXT
  5
150
330
18
100
AcDbEntity
  8
_________2
100
AcDbText
 10
104.605
 20
11.67929999999999
 30
0.0
 40
3.09234
  1
品番
 41
0.5
100
AcDbText
  0
TEXT
  5
151
330
18
100
AcDbEntity
  8
_________2
100
AcDbText
 10
104.605
 20
31.8181
 30
0.0
 40
3.09234
  1
名称
 41
0.5
100
AcDbText
  0
TEXT
  5
152
330
18
100
AcDbEntity
  8
_________2
100
AcDbText
 10
91.84505833333334
 20
26.82199999999999
 30
0.0
 40
3.65458
  1
mm
 41
0.5
 72
     1
 11
93.3678
 21
26.82199999999999
 31
0.0
100
AcDbText
  0
TEXT
  5
153
330
18
100
AcDbEntity
  8
_________2
100
AcDbText
 10
85.6432
 20
31.8181
 30
0.0
 40
3.09234
  1
単位
 41
0.5
100
AcDbText
  0
TEXT
  5
154
330
18
100
AcDbEntity
  8
_________2
100
AcDbText
 10
85.6432
 20
19.41079999999999
 30
0.0
 40
3.09234
  1
尺度
 41
0.5
100
AcDbText
  0
TEXT
  5
155
330
18
100
AcDbEntity
  8
_________2
100
AcDbText
 10
90.54875866666668
 20
13.2179
 30
0.0
 40
3.65458
  1
1 ： 3
 41
0.5
 72
     1
 11
93.9597
 21
13.2179
 31
0.0
100
AcDbText
  0
TEXT
  5
156
330
18
100
AcDbEntity
  8
_________2
100
AcDbText
 10
136.33455
 20
9.10786
 30
0.0
 40
3.9357
  1
KC249421
 41
0.5
 72
     1
 11
143.55
 21
9.10786
 31
0.0
100
AcDbText
  0
TEXT
  5
157
330
18
100
AcDbEntity
  8
_________2
100
AcDbText
 10
136.33455
 20
-0.8926299999999999
 30
0.0
 40
3.9357
  1
KC249421
 41
0.5
 72
     1
 11
143.55
 21
-0.8926299999999999
 31
0.0
100
AcDbText
  0
TEXT
  5
158
330
18
100
AcDbEntity
  8
_________2
100
AcDbText
 10
109.179
 20
24.2257
 30
0.0
 40
3.9357
  1
バスケット（深型）
 41
0.5
100
AcDbText
  0
TEXT
  5
159
330
18
100
AcDbEntity
  8
_________2
100
AcDbText
 10
39.36439066666666
 20
13.603
 30
0.0
 40
3.65458
  1
高橋
 41
0.5
 72
     1
 11
41.3135
 21
13.603
 31
0.0
100
AcDbText
  0
TEXT
  5
15A
330
18
100
AcDbEntity
  8
_________2
100
AcDbText
 10
20.79009066666666
 20
13.603
 30
0.0
 40
3.65458
  1
石原
 41
0.5
 72
     1
 11
22.73919999999999
 21
13.603
 31
0.0
100
AcDbText
  0
TEXT
  5
15B
330
18
100
AcDbEntity
  8
_________2
100
AcDbText
 10
67.78539999999999
 20
13.2179
 30
0.0
 40
3.65458
  1
09.01.08
 41
0.5
100
AcDbText
  0
TEXT
  5
15C
330
18
100
AcDbEntity
  8
_________2
100
AcDbText
 10
66.59310000000001
 20
19.41079999999999
 30
0.0
 40
3.09234
  1
日付
 41
0.5
100
AcDbText
  0
TEXT
  5
15D
330
18
100
AcDbEntity
  8
_________2
100
AcDbText
 10
29.6394
 20
19.41079999999999
 30
0.0
 40
3.09234
  1
検図
 41
0.5
100
AcDbText
  0
TEXT
  5
15E
330
18
100
AcDbEntity
  8
_________2
100
AcDbText
 10
18.0211
 20
5.21143
 30
0.0
 40
3.09234
  1
備考
 41
0.5
100
AcDbText
  0
TEXT
  5
15F
330
18
100
AcDbEntity
  8
_________2
100
AcDbText
 10
18.0211
 20
19.41079999999999
 30
0.0
 40
3.09234
  1
製図
 41
0.5
100
AcDbText
  0
TEXT
  5
160
330
18
100
AcDbEntity
  8
_________2
100
AcDbText
 10
23.863431
 20
27.9368
 30
0.0
 40
4.497939999999999
  1
セラトレーディング株式会社
 41
0.5
 72
     1
 11
41.1805
 21
27.9368
 31
0.0
100
AcDbText
  0
LINE
  5
161
330
18
100
AcDbEntity
  8
_________2
100
AcDbLine
 10
183.551
 20
-4.09108
 30
0.0
 11
17.0495
 21
-4.09108
 31
0.0
  0
LINE
  5
162
330
18
100
AcDbEntity
  8
_________2
100
AcDbLine
 10
17.0495
 20
-4.09108
 30
0.0
 11
17.0495
 21
258.911
 31
0.0
  0
LINE
  5
163
330
18
100
AcDbEntity
  8
_________2
100
AcDbLine
 10
17.0495
 20
258.911
 30
0.0
 11
183.551
 21
258.911
 31
0.0
  0
LINE
  5
164
330
18
100
AcDbEntity
  8
_________2
100
AcDbLine
 10
183.551
 20
258.911
 30
0.0
 11
183.551
 21
-4.09108
 31
0.0
  0
LINE
  5
165
330
18
100
AcDbEntity
  8
_________2
100
AcDbLine
 10
65.5496
 20
9.40896
 30
0.0
 11
65.5496
 21
35.9088
 31
0.0
  0
LINE
  5
166
330
18
100
AcDbEntity
  8
_________2
100
AcDbLine
 10
84.54970000000001
 20
9.40896
 30
0.0
 11
84.54970000000001
 21
35.9088
 31
0.0
  0
LINE
  5
167
330
18
100
AcDbEntity
  8
_________2
100
AcDbLine
 10
103.55
 20
-4.09108
 30
0.0
 11
103.55
 21
35.9088
 31
0.0
  0
LINE
  5
168
330
18
100
AcDbEntity
  8
_________2
100
AcDbLine
 10
28.54929999999999
 20
9.40896
 30
0.0
 11
28.54929999999999
 21
23.4092
 31
0.0
  0
LINE
  5
169
330
18
100
AcDbEntity
  8
_________2
100
AcDbLine
 10
17.0495
 20
9.40896
 30
0.0
 11
103.55
 21
9.40896
 31
0.0
  0
LINE
  5
16A
330
18
100
AcDbEntity
  8
_________2
100
AcDbLine
 10
17.0495
 20
23.4092
 30
0.0
 11
103.55
 21
23.4092
 31
0.0
  0
LINE
  5
16B
330
18
100
AcDbEntity
  8
_________2
100
AcDbLine
 10
103.55
 20
15.9085
 30
0.0
 11
183.551
 21
15.9085
 31
0.0
  0
LINE
  5
16C
330
18
100
AcDbEntity
  8
_________2
100
AcDbLine
 10
17.0495
 20
35.9088
 30
0.0
 11
183.551
 21
35.9088
 31
0.0
  0
ENDSEC
  0
SECTION
  2
OBJECTS
  0
DICTIONARY
  5
C
330
0
100
AcDbDictionary
281
     1
  3
ACAD_GROUP
350
D
  3
ACAD_LAYOUT
350
172
  3
ACAD_MLINESTYLE
350
1B
  3
ACAD_PLOTSETTINGS
350
173
  3
ACAD_PLOTSTYLENAME
350
170
  0
DICTIONARY
  5
D
102
{ACAD_REACTORS
330
C
102
}
330
C
100
AcDbDictionary
281
     1
  0
DICTIONARY
  5
172
102
{ACAD_REACTORS
330
C
102
}
330
C
100
AcDbDictionary
281
     1
  3
Model
350
174
  3
ﾚｲｱｳﾄ1
350
175
  0
DICTIONARY
  5
1B
102
{ACAD_REACTORS
330
C
102
}
330
C
100
AcDbDictionary
281
     1
  3
STANDARD
350
1C
  0
DICTIONARY
  5
173
102
{ACAD_REACTORS
330
C
102
}
330
C
100
AcDbDictionary
281
     1
  0
ACDBDICTIONARYWDFLT
  5
170
102
{ACAD_REACTORS
330
C
102
}
330
C
100
AcDbDictionary
281
     1
  3
Normal
350
171
100
AcDbDictionaryWithDefault
340
171
  0
LAYOUT
  5
174
102
{ACAD_REACTORS
330
172
102
}
330
172
100
AcDbPlotSettings
  1

  2
FX DocuPrint 180 XPL2
  4

  6

 40
0.0
 41
0.0
 42
0.0
 43
0.0
 44
0.0
 45
0.0
 46
0.0
 47
0.0
 48
0.0
 49
0.0
140
0.0
141
0.0
142
1.0
143
1.0
 70
  1712
 72
     0
 73
     0
 74
     0
  7

 75
     0
147
1.0
148
0.0
149
0.0
100
AcDbLayout
  1
Model
 70
     1
 71
     0
 10
0.0
 20
0.0
 11
12.0
 21
9.0
 12
0.0
 22
0.0
 32
0.0
 14
0.0
 24
0.0
 34
0.0
 15
0.0
 25
0.0
 35
0.0
146
0.0
 13
0.0
 23
0.0
 33
0.0
 16
1.0
 26
0.0
 36
0.0
 17
0.0
 27
1.0
 37
0.0
 76
     0
330
18
  0
LAYOUT
  5
175
102
{ACAD_REACTORS
330
172
102
}
330
172
100
AcDbPlotSettings
  1

  2
FX DocuPrint 180 XPL2
  4

  6

 40
0.0
 41
0.0
 42
0.0
 43
0.0
 44
0.0
 45
0.0
 46
0.0
 47
0.0
 48
0.0
 49
0.0
140
0.0
141
0.0
142
1.0
143
1.0
 70
   688
 72
     0
 73
     0
 74
     5
  7

 75
    16
147
1.0
148
0.0
149
0.0
100
AcDbLayout
  1
ﾚｲｱｳﾄ1
 70
     1
 71
     1
 10
0.0
 20
0.0
 11
12.0
 21
9.0
 12
0.0
 22
0.0
 32
0.0
 14
1.000000000000000E+20
 24
1.000000000000000E+20
 34
1.000000000000000E+20
 15
-1.000000000000000E+20
 25
-1.000000000000000E+20
 35
-1.000000000000000E+20
146
0.0
 13
0.0
 23
0.0
 33
0.0
 16
1.0
 26
0.0
 36
0.0
 17
0.0
 27
1.0
 37
0.0
 76
     0
330
15
  0
MLINESTYLE
  5
1C
102
{ACAD_REACTORS
330
1B
102
}
330
1B
100
AcDbMlineStyle
  2
STANDARD
 70
     0
  3

 62
   256
 51
90.0
 52
90.0
 71
     2
 49
0.5
 62
   256
  6
BYLAYER
 49
-0.5
 62
   256
  6
BYLAYER
  0
ACDBPLACEHOLDER
  5
171
102
{ACAD_REACTORS
330
170
102
}
330
170
  0
ENDSEC
  0
EOF
