  0
SECTION
  2
HEADER
  9
$ACADVER
  1
AC1009
  9
$INSBASE
 10
0.0
 20
0.0
 30
0.0
  9
$EXTMIN
 10
-4.70052
 20
-21.071400000000001
 30
0.0
  9
$EXTMAX
 10
205.30099999999999
 20
275.93000000000001
 30
0.0
  9
$LIMMIN
 10
0.0
 20
0.0
  9
$LIMMAX
 10
12.0
 20
9.0
  9
$ORTHOMODE
 70
     0
  9
$REGENMODE
 70
     1
  9
$FILLMODE
 70
     1
  9
$QTEXTMODE
 70
     0
  9
$MIRRTEXT
 70
     1
  9
$DRAGMODE
 70
     2
  9
$LTSCALE
 40
1.0
  9
$OSMODE
 70
    37
  9
$ATTMODE
 70
     1
  9
$TEXTSIZE
 40
0.0
  9
$TRACEWID
 40
0.05
  9
$TEXTSTYLE
  7
STANDARD
  9
$CLAYER
  8
0
  9
$CELTYPE
  6
CONTINUOUS
  9
$CECOLOR
 62
   256
  9
$DIMSCALE
 40
1.0
  9
$DIMASZ
 40
0.18
  9
$DIMEXO
 40
0.0625
  9
$DIMDLI
 40
0.38
  9
$DIMRND
 40
0.0
  9
$DIMDLE
 40
0.0
  9
$DIMEXE
 40
0.18
  9
$DIMTP
 40
0.0
  9
$DIMTM
 40
0.0
  9
$DIMTXT
 40
0.18
  9
$DIMCEN
 40
0.09
  9
$DIMTSZ
 40
0.0
  9
$DIMTOL
 70
     0
  9
$DIMLIM
 70
     0
  9
$DIMTIH
 70
     1
  9
$DIMTOH
 70
     1
  9
$DIMSE1
 70
     0
  9
$DIMSE2
 70
     0
  9
$DIMTAD
 70
     0
  9
$DIMZIN
 70
     0
  9
$DIMBLK
  1

  9
$DIMASO
 70
     1
  9
$DIMSHO
 70
     1
  9
$DIMPOST
  1

  9
$DIMAPOST
  1

  9
$DIMALT
 70
     0
  9
$DIMALTD
 70
     2
  9
$DIMALTF
 40
25.399999999999999
  9
$DIMLFAC
 40
1.0
  9
$DIMTOFL
 70
     0
  9
$DIMTVP
 40
0.0
  9
$DIMTIX
 70
     0
  9
$DIMSOXD
 70
     0
  9
$DIMSAH
 70
     0
  9
$DIMBLK1
  1

  9
$DIMBLK2
  1

  9
$DIMSTYLE
  2
STANDARD
  9
$DIMCLRD
 70
     0
  9
$DIMCLRE
 70
     0
  9
$DIMCLRT
 70
     0
  9
$DIMTFAC
 40
1.0
  9
$DIMGAP
 40
0.09
  9
$LUNITS
 70
     2
  9
$LUPREC
 70
     4
  9
$SKETCHINC
 40
0.1
  9
$FILLETRAD
 40
0.0
  9
$AUNITS
 70
     0
  9
$AUPREC
 70
     0
  9
$MENU
  1
.
  9
$ELEVATION
 40
0.0
  9
$PELEVATION
 40
0.0
  9
$THICKNESS
 40
0.0
  9
$LIMCHECK
 70
     0
  9
$BLIPMODE
 70
     0
  9
$CHAMFERA
 40
0.0
  9
$CHAMFERB
 40
0.0
  9
$SKPOLY
 70
     0
  9
$TDCREATE
 40
2444972.375
  9
$TDUPDATE
 40
2457933.2553862738
  9
$TDINDWG
 40
0.0000271296
  9
$TDUSRTIMER
 40
0.0000271296
  9
$USRTIMER
 70
     1
  9
$ANGBASE
 50
0.0
  9
$ANGDIR
 70
     0
  9
$PDMODE
 70
     0
  9
$PDSIZE
 40
0.0
  9
$PLINEWID
 40
0.0
  9
$COORDS
 70
     1
  9
$SPLFRAME
 70
     0
  9
$SPLINETYPE
 70
     6
  9
$SPLINESEGS
 70
     8
  9
$ATTDIA
 70
     1
  9
$ATTREQ
 70
     1
  9
$HANDLING
 70
     1
  9
$HANDSEED
  5
2EA
  9
$SURFTAB1
 70
     6
  9
$SURFTAB2
 70
     6
  9
$SURFTYPE
 70
     6
  9
$SURFU
 70
     6
  9
$SURFV
 70
     6
  9
$UCSNAME
  2

  9
$UCSORG
 10
0.0
 20
0.0
 30
0.0
  9
$UCSXDIR
 10
1.0
 20
0.0
 30
0.0
  9
$UCSYDIR
 10
0.0
 20
1.0
 30
0.0
  9
$PUCSNAME
  2

  9
$PUCSORG
 10
0.0
 20
0.0
 30
0.0
  9
$PUCSXDIR
 10
1.0
 20
0.0
 30
0.0
  9
$PUCSYDIR
 10
0.0
 20
1.0
 30
0.0
  9
$USERI1
 70
     0
  9
$USERI2
 70
     0
  9
$USERI3
 70
     0
  9
$USERI4
 70
     0
  9
$USERI5
 70
     0
  9
$USERR1
 40
0.0
  9
$USERR2
 40
0.0
  9
$USERR3
 40
0.0
  9
$USERR4
 40
0.0
  9
$USERR5
 40
0.0
  9
$WORLDVIEW
 70
     1
  9
$SHADEDGE
 70
     3
  9
$SHADEDIF
 70
    70
  9
$TILEMODE
 70
     1
  9
$MAXACTVP
 70
    48
  9
$PLIMCHECK
 70
     0
  9
$PEXTMIN
 10
1.0000000000000000E+020
 20
1.0000000000000000E+020
 30
1.0000000000000000E+020
  9
$PEXTMAX
 10
-1.0000000000000000E+020
 20
-1.0000000000000000E+020
 30
-1.0000000000000000E+020
  9
$PLIMMIN
 10
0.0
 20
0.0
  9
$PLIMMAX
 10
12.0
 20
9.0
  9
$UNITMODE
 70
     0
  9
$VISRETAIN
 70
     1
  9
$PLINEGEN
 70
     0
  9
$PSLTSCALE
 70
     1
  0
ENDSEC
  0
SECTION
  2
TABLES
  0
TABLE
  2
VPORT
 70
     1
  0
VPORT
  2
*ACTIVE
 70
     0
 10
0.0
 20
0.0
 11
1.0
 21
1.0
 12
165.72783662617491
 22
127.4293
 13
0.0
 23
0.0
 14
1.0
 24
1.0
 15
0.0
 25
0.0
 16
0.0
 26
0.0
 36
1.0
 17
0.0
 27
0.0
 37
0.0
 40
283.52786288599168
 41
2.1001926782273599
 42
50.0
 43
0.0
 44
0.0
 50
0.0
 51
0.0
 71
     0
 72
   100
 73
     1
 74
     1
 75
     0
 76
     0
 77
     0
 78
     0
  0
ENDTAB
  0
TABLE
  2
LTYPE
 70
     3
  0
LTYPE
  2
CONTINUOUS
 70
     0
  3
Solid line
 72
    65
 73
     0
 40
0.0
  0
LTYPE
  2
AIGENLINE001
 70
     0
  3
generate AI->DXF Converter
 72
    65
 73
     6
 40
7.4083750000000004
 49
3.5278
 49
-0.776115
 49
0.776115
 49
-0.776115
 49
0.776115
 49
-0.776115
  0
LTYPE
  2
AIGENLINE002
 70
     0
  3
generate AI->DXF Converter
 72
    65
 73
     4
 40
5.8561449999999988
 49
3.5278
 49
-0.776115
 49
0.776115
 49
-0.776115
  0
ENDTAB
  0
TABLE
  2
LAYER
 70
     4
  0
LAYER
  2
0
 70
     0
 62
     7
  6
CONTINUOUS
  0
LAYER
  2
____
 70
     0
 62
     7
  6
CONTINUOUS
  0
LAYER
  2
_________1
 70
     0
 62
     7
  6
CONTINUOUS
  0
LAYER
  2
_________2
 70
     0
 62
     7
  6
CONTINUOUS
  0
ENDTAB
  0
TABLE
  2
STYLE
 70
     1
  0
STYLE
  2
STANDARD
 70
     0
 40
0.0
 41
0.0
 50
0.0
 71
     0
 42
0.0
  3
TXT
  4
EXTFONT.SHX
  0
ENDTAB
  0
TABLE
  2
VIEW
 70
     0
  0
ENDTAB
  0
TABLE
  2
UCS
 70
     0
  0
ENDTAB
  0
TABLE
  2
APPID
 70
     3
  0
APPID
  2
ACAD
 70
     0
  0
APPID
  2
ACAD_NAV_VCDISPLAY
 70
     0
  0
APPID
  2
ACAD_MLEADERVER
 70
     0
  0
ENDTAB
  0
TABLE
  2
DIMSTYLE
 70
     1
  0
DIMSTYLE
  2
STANDARD
 70
     0
  3

  4

  5

  6

  7

 40
1.0
 41
0.18
 42
0.0625
 43
0.38
 44
0.18
 45
0.0
 46
0.0
 47
0.0
 48
0.0
140
0.18
141
0.09
142
0.0
143
25.399999999999999
144
1.0
145
0.0
146
1.0
147
0.09
 71
     0
 72
     0
 73
     1
 74
     1
 75
     0
 76
     0
 77
     0
 78
     0
170
     0
171
     2
172
     0
173
     0
174
     0
175
     0
176
     0
177
     0
178
     0
  0
ENDTAB
  0
ENDSEC
  0
SECTION
  2
BLOCKS
  0
BLOCK
  8
0
  2
$MODEL_SPACE
 70
     0
 10
0.0
 20
0.0
 30
0.0
  3
$MODEL_SPACE
  1

  0
ENDBLK
  5
1A
  8
0
  0
BLOCK
 67
     1
  8
0
  2
$PAPER_SPACE
 70
     0
 10
0.0
 20
0.0
 30
0.0
  3
$PAPER_SPACE
  1

  0
ENDBLK
  5
17
 67
     1
  8
0
  0
BLOCK
  8
_________1
  2
AIGNBL02020007
 70
     0
 10
0.0
 20
0.0
 30
0.0
  3
AIGNBL02020007
  1

  0
LINE
  5
27
  8
_________1
 62
     7
 10
169.392
 20
172.16499999999999
 30
0.0
 11
168.15100000000001
 21
174.08799999999999
 31
0.0
  0
LINE
  5
28
  8
_________1
 62
     7
 10
168.15100000000001
 20
174.08799999999999
 30
0.0
 11
168.26400000000001
 21
171.80199999999999
 31
0.0
  0
LINE
  5
29
  8
_________1
 62
     7
 10
168.26400000000001
 20
171.80199999999999
 30
0.0
 11
169.392
 21
172.16499999999999
 31
0.0
  0
LINE
  5
2A
  8
_________1
 62
     7
 10
177.37
 20
145.43000000000001
 30
0.0
 11
168.15100000000001
 21
174.08799999999999
 31
0.0
  0
ENDBLK
  5
2B
  8
_________1
  0
BLOCK
  8
_________1
  2
AIGNBL02010002
 70
     0
 10
0.0
 20
0.0
 30
0.0
  3
AIGNBL02010002
  1

  0
LINE
  5
2E
  8
_________1
 62
     7
 10
153.07599999999999
 20
213.452
 30
0.0
 11
154.892
 21
214.845
 31
0.0
  0
LINE
  5
2F
  8
_________1
 62
     7
 10
154.892
 20
214.845
 30
0.0
 11
152.62299999999999
 21
214.547
 31
0.0
  0
LINE
  5
30
  8
_________1
 62
     7
 10
152.62299999999999
 20
214.547
 30
0.0
 11
153.07599999999999
 21
213.452
 31
0.0
  0
LINE
  5
31
  8
_________1
 62
     7
 10
139.78100000000001
 20
208.59
 30
0.0
 11
154.892
 21
214.845
 31
0.0
  0
ENDBLK
  5
32
  8
_________1
  0
BLOCK
  8
_________1
  2
AIGNBL02010003
 70
     0
 10
0.0
 20
0.0
 30
0.0
  3
AIGNBL02010003
  1

  0
LINE
  5
35
  8
_________1
 62
     7
 10
147.804
 20
229.542
 30
0.0
 11
148.9489999999999
 21
231.523
 31
0.0
  0
LINE
  5
36
  8
_________1
 62
     7
 10
148.9489999999999
 20
231.523
 30
0.0
 11
146.96700000000001
 21
230.37899999999999
 31
0.0
  0
LINE
  5
37
  8
_________1
 62
     7
 10
146.96700000000001
 20
230.37899999999999
 30
0.0
 11
147.804
 21
229.542
 31
0.0
  0
LINE
  5
38
  8
_________1
 62
     7
 10
148.9489999999999
 20
231.523
 30
0.0
 11
135.51400000000001
 21
218.08799999999999
 31
0.0
  0
ENDBLK
  5
39
  8
_________1
  0
BLOCK
  8
_________1
  2
AIGNBL02010004
 70
     0
 10
0.0
 20
0.0
 30
0.0
  3
AIGNBL02010004
  1

  0
LINE
  5
3C
  8
_________1
 62
     7
 10
123.223
 20
168.63499999999999
 30
0.0
 11
122.078
 21
166.65299999999999
 31
0.0
  0
LINE
  5
3D
  8
_________1
 62
     7
 10
122.078
 20
166.65299999999999
 30
0.0
 11
124.06
 21
167.797
 31
0.0
  0
LINE
  5
3E
  8
_________1
 62
     7
 10
124.06
 20
167.797
 30
0.0
 11
123.223
 21
168.63499999999999
 31
0.0
  0
LINE
  5
3F
  8
_________1
 62
     7
 10
135.51400000000001
 20
180.08799999999999
 30
0.0
 11
122.078
 21
166.65299999999999
 31
0.0
  0
ENDBLK
  5
40
  8
_________1
  0
BLOCK
  8
_________1
  2
AIGNBL02010005
 70
     0
 10
0.0
 20
0.0
 30
0.0
  3
AIGNBL02010005
  1

  0
LINE
  5
43
  8
_________1
 62
     7
 10
113.724
 20
246.185
 30
0.0
 11
111.514
 21
245.59200000000001
 31
0.0
  0
LINE
  5
44
  8
_________1
 62
     7
 10
111.514
 20
245.59200000000001
 30
0.0
 11
113.724
 21
245.0
 31
0.0
  0
LINE
  5
45
  8
_________1
 62
     7
 10
113.724
 20
245.0
 30
0.0
 11
113.724
 21
246.185
 31
0.0
  0
LINE
  5
46
  8
_________1
 62
     7
 10
157.303
 20
245.01499999999999
 30
0.0
 11
159.51400000000001
 21
245.607
 31
0.0
  0
LINE
  5
47
  8
_________1
 62
     7
 10
159.51400000000001
 20
245.607
 30
0.0
 11
157.303
 21
246.19900000000001
 31
0.0
  0
LINE
  5
48
  8
_________1
 62
     7
 10
157.303
 20
246.19900000000001
 30
0.0
 11
157.303
 21
245.01499999999999
 31
0.0
  0
LINE
  5
49
  8
_________1
 62
     7
 10
111.514
 20
245.59999999999999
 30
0.0
 11
159.51400000000001
 21
245.59999999999999
 31
0.0
  0
ENDBLK
  5
4A
  8
_________1
  0
BLOCK
  8
_________1
  2
AIGNBL02010006
 70
     0
 10
0.0
 20
0.0
 30
0.0
  3
AIGNBL02010006
  1

  0
INSERT
  5
4D
  8
_________1
 62
     7
  2
AIGNBL02020007
 10
0.0
 20
0.0
 30
0.0
  0
LINE
  5
4E
  8
_________1
 62
     7
 10
153.303
 20
151.14099999999999
 30
0.0
 11
155.51400000000001
 21
151.733
 31
0.0
  0
LINE
  5
4F
  8
_________1
 62
     7
 10
155.51400000000001
 20
151.733
 30
0.0
 11
153.303
 21
152.32599999999999
 31
0.0
  0
LINE
  5
50
  8
_________1
 62
     7
 10
153.303
 20
152.32599999999999
 30
0.0
 11
153.303
 21
151.14099999999999
 31
0.0
  0
LINE
  5
51
  8
_________1
 62
     7
 10
117.724
 20
152.31100000000001
 30
0.0
 11
115.51300000000001
 21
151.71899999999999
 31
0.0
  0
LINE
  5
52
  8
_________1
 62
     7
 10
115.51300000000001
 20
151.71899999999999
 30
0.0
 11
117.724
 21
151.12700000000001
 31
0.0
  0
LINE
  5
53
  8
_________1
 62
     7
 10
117.724
 20
151.12700000000001
 30
0.0
 11
117.724
 21
152.31100000000001
 31
0.0
  0
LINE
  5
54
  8
_________1
 62
     7
 10
177.37
 20
145.43000000000001
 30
0.0
 11
146.99700000000001
 21
145.43000000000001
 31
0.0
  0
LINE
  5
55
  8
_________1
 62
     7
 10
83.399900000000002
 20
43.869100000000003
 30
0.0
 11
48.176299999999998
 21
43.869100000000003
 31
0.0
  0
LINE
  5
56
  8
_________1
 62
     7
 10
148.697
 20
138.20099999999999
 30
0.0
 11
122.944
 21
138.20099999999999
 31
0.0
  0
LINE
  5
57
  8
_________1
 62
     7
 10
155.51400000000001
 20
151.726
 30
0.0
 11
115.51300000000001
 21
151.726
 31
0.0
  0
ENDBLK
  5
58
  8
_________1
  0
BLOCK
  8
_________1
  2
AIGNBL02010008
 70
     0
 10
0.0
 20
0.0
 30
0.0
  3
AIGNBL02010008
  1

  0
LINE
  5
5B
  8
_________1
 62
     7
 10
96.436899999999994
 20
163.29900000000001
 30
0.0
 11
97.029100000000014
 21
161.08799999999999
 31
0.0
  0
LINE
  5
5C
  8
_________1
 62
     7
 10
97.029100000000014
 20
161.08799999999999
 30
0.0
 11
97.621499999999997
 21
163.29900000000001
 31
0.0
  0
LINE
  5
5D
  8
_________1
 62
     7
 10
97.621499999999997
 20
163.29900000000001
 30
0.0
 11
96.436899999999994
 21
163.29900000000001
 31
0.0
  0
LINE
  5
5E
  8
_________1
 62
     7
 10
97.606899999999996
 20
234.87799999999999
 30
0.0
 11
97.014700000000005
 21
237.08799999999999
 31
0.0
  0
LINE
  5
5F
  8
_________1
 62
     7
 10
97.014700000000005
 20
237.08799999999999
 30
0.0
 11
96.422300000000007
 21
234.87799999999999
 31
0.0
  0
LINE
  5
60
  8
_________1
 62
     7
 10
96.422300000000007
 20
234.87799999999999
 30
0.0
 11
97.606899999999996
 21
234.87799999999999
 31
0.0
  0
LINE
  5
61
  8
_________1
 62
     7
 10
97.021900000000016
 20
161.08799999999999
 30
0.0
 11
97.021900000000016
 21
237.08799999999999
 31
0.0
  0
ENDBLK
  5
62
  8
_________1
  0
BLOCK
  8
_________1
  2
AIGNBL02010009
 70
     0
 10
0.0
 20
0.0
 30
0.0
  3
AIGNBL02010009
  1

  0
LINE
  5
65
  8
_________1
 62
     7
 10
177.56200000000001
 20
181.29900000000001
 30
0.0
 11
178.155
 21
179.08799999999999
 31
0.0
  0
LINE
  5
66
  8
_________1
 62
     7
 10
178.155
 20
179.08799999999999
 30
0.0
 11
178.74700000000001
 21
181.29900000000001
 31
0.0
  0
LINE
  5
67
  8
_________1
 62
     7
 10
178.74700000000001
 20
181.29900000000001
 30
0.0
 11
177.56200000000001
 21
181.29900000000001
 31
0.0
  0
LINE
  5
68
  8
_________1
 62
     7
 10
178.732
 20
216.87799999999999
 30
0.0
 11
178.13999999999999
 21
219.08799999999999
 31
0.0
  0
LINE
  5
69
  8
_________1
 62
     7
 10
178.13999999999999
 20
219.08799999999999
 30
0.0
 11
177.548
 21
216.87799999999999
 31
0.0
  0
LINE
  5
6A
  8
_________1
 62
     7
 10
177.548
 20
216.87799999999999
 30
0.0
 11
178.732
 21
216.87799999999999
 31
0.0
  0
LINE
  5
6B
  8
_________1
 62
     7
 10
178.14699999999999
 20
179.08799999999999
 30
0.0
 11
178.14699999999999
 21
219.08799999999999
 31
0.0
  0
ENDBLK
  5
6C
  8
_________1
  0
BLOCK
  8
_________1
  2
AIGNBL0201000A
 70
     0
 10
0.0
 20
0.0
 30
0.0
  3
AIGNBL0201000A
  1

  0
LINE
  5
6F
  8
_________1
 62
     7
 10
152.82900000000001
 20
58.669299999999993
 30
0.0
 11
153.42099999999999
 21
56.4589
 31
0.0
  0
LINE
  5
70
  8
_________1
 62
     7
 10
153.42099999999999
 20
56.4589
 30
0.0
 11
154.01300000000001
 21
58.669299999999993
 31
0.0
  0
LINE
  5
71
  8
_________1
 62
     7
 10
154.01300000000001
 20
58.669299999999993
 30
0.0
 11
152.82900000000001
 21
58.669299999999993
 31
0.0
  0
LINE
  5
72
  8
_________1
 62
     7
 10
153.999
 20
71.248099999999994
 30
0.0
 11
153.40600000000001
 21
73.4589
 31
0.0
  0
LINE
  5
73
  8
_________1
 62
     7
 10
153.40600000000001
 20
73.4589
 30
0.0
 11
152.81399999999999
 21
71.248099999999994
 31
0.0
  0
LINE
  5
74
  8
_________1
 62
     7
 10
152.81399999999999
 20
71.248099999999994
 30
0.0
 11
153.999
 21
71.248099999999994
 31
0.0
  0
ENDBLK
  5
75
  8
_________1
  0
BLOCK
  8
_________1
  2
AIGNBL0201000B
 70
     0
 10
0.0
 20
0.0
 30
0.0
  3
AIGNBL0201000B
  1

  0
LINE
  5
78
  8
_________1
 62
     7
 10
132.524
 20
51.677399999999999
 30
0.0
 11
130.31299999999999
 21
51.08489999999999
 31
0.0
  0
LINE
  5
79
  8
_________1
 62
     7
 10
130.31299999999999
 20
51.08489999999999
 30
0.0
 11
132.524
 21
50.492699999999992
 31
0.0
  0
LINE
  5
7A
  8
_________1
 62
     7
 10
132.524
 20
50.492699999999992
 30
0.0
 11
132.524
 21
51.677399999999999
 31
0.0
  0
LINE
  5
7B
  8
_________1
 62
     7
 10
137.90299999999999
 20
50.5075
 30
0.0
 11
140.114
 21
51.099400000000003
 31
0.0
  0
LINE
  5
7C
  8
_________1
 62
     7
 10
140.114
 20
51.099400000000003
 30
0.0
 11
137.90299999999999
 21
51.691899999999997
 31
0.0
  0
LINE
  5
7D
  8
_________1
 62
     7
 10
137.90299999999999
 20
51.691899999999997
 30
0.0
 11
137.90299999999999
 21
50.5075
 31
0.0
  0
ENDBLK
  5
7E
  8
_________1
  0
BLOCK
  8
_________1
  2
AIGNBL0201000C
 70
     0
 10
0.0
 20
0.0
 30
0.0
  3
AIGNBL0201000C
  1

  0
LINE
  5
81
  8
_________1
 62
     7
 10
126.125
 20
81.466300000000004
 30
0.0
 11
123.914
 21
80.874499999999998
 31
0.0
  0
LINE
  5
82
  8
_________1
 62
     7
 10
123.914
 20
80.874499999999998
 30
0.0
 11
126.125
 21
80.281899999999993
 31
0.0
  0
LINE
  5
83
  8
_________1
 62
     7
 10
126.125
 20
80.281899999999993
 30
0.0
 11
126.125
 21
81.466300000000004
 31
0.0
  0
LINE
  5
84
  8
_________1
 62
     7
 10
144.303
 20
80.296700000000016
 30
0.0
 11
146.51400000000001
 21
80.888900000000007
 31
0.0
  0
LINE
  5
85
  8
_________1
 62
     7
 10
146.51400000000001
 20
80.888900000000007
 30
0.0
 11
144.303
 21
81.481200000000001
 31
0.0
  0
LINE
  5
86
  8
_________1
 62
     7
 10
144.303
 20
81.481200000000001
 30
0.0
 11
144.303
 21
80.296700000000016
 31
0.0
  0
ENDBLK
  5
87
  8
_________1
  0
BLOCK
  8
_________1
  2
AIGNBL0201000D
 70
     0
 10
0.0
 20
0.0
 30
0.0
  3
AIGNBL0201000D
  1

  0
LINE
  5
8A
  8
_________1
 62
     7
 10
72.342299999999994
 20
124.358
 30
0.0
 11
71.750100000000003
 21
126.569
 31
0.0
  0
LINE
  5
8B
  8
_________1
 62
     7
 10
71.750100000000003
 20
126.569
 30
0.0
 11
71.157700000000006
 21
124.358
 31
0.0
  0
LINE
  5
8C
  8
_________1
 62
     7
 10
71.157700000000006
 20
124.358
 30
0.0
 11
72.342299999999994
 21
124.358
 31
0.0
  0
LINE
  5
8D
  8
_________1
 62
     7
 10
71.172300000000007
 20
129.02000000000001
 30
0.0
 11
71.764499999999984
 21
126.809
 31
0.0
  0
LINE
  5
8E
  8
_________1
 62
     7
 10
71.764499999999984
 20
126.809
 30
0.0
 11
72.356899999999996
 21
129.02000000000001
 31
0.0
  0
LINE
  5
8F
  8
_________1
 62
     7
 10
72.356899999999996
 20
129.02000000000001
 30
0.0
 11
71.172300000000007
 21
129.02000000000001
 31
0.0
  0
LINE
  5
90
  8
_________1
 62
     7
 10
71.757300000000001
 20
135.589
 30
0.0
 11
71.757300000000001
 21
121.95999999999999
 31
0.0
  0
ENDBLK
  5
91
  8
_________1
  0
BLOCK
  8
_________1
  2
AIGNBL0201000E
 70
     0
 10
0.0
 20
0.0
 30
0.0
  3
AIGNBL0201000E
  1

  0
LINE
  5
94
  8
_________1
 62
     7
 10
33.8733
 20
124.598
 30
0.0
 11
33.280999999999999
 21
126.809
 31
0.0
  0
LINE
  5
95
  8
_________1
 62
     7
 10
33.280999999999999
 20
126.809
 30
0.0
 11
32.688699999999997
 21
124.598
 31
0.0
  0
LINE
  5
96
  8
_________1
 62
     7
 10
32.688699999999997
 20
124.598
 30
0.0
 11
33.8733
 21
124.598
 31
0.0
  0
LINE
  5
97
  8
_________1
 62
     7
 10
32.703299999999999
 20
101.01900000000001
 30
0.0
 11
33.295499999999997
 21
98.808400000000006
 31
0.0
  0
LINE
  5
98
  8
_________1
 62
     7
 10
33.295499999999997
 20
98.808400000000006
 30
0.0
 11
33.887900000000002
 21
101.01900000000001
 31
0.0
  0
LINE
  5
99
  8
_________1
 62
     7
 10
33.887900000000002
 20
101.01900000000001
 30
0.0
 11
32.703299999999999
 21
101.01900000000001
 31
0.0
  0
LINE
  5
9A
  8
_________1
 62
     7
 10
33.2883
 20
126.809
 30
0.0
 11
33.2883
 21
98.808400000000006
 31
0.0
  0
ENDBLK
  5
9B
  8
_________1
  0
BLOCK
  8
_________1
  2
AIGNBL0201000F
 70
     0
 10
0.0
 20
0.0
 30
0.0
  3
AIGNBL0201000F
  1

  0
LINE
  5
9E
  8
_________1
 62
     7
 10
32.736499999999999
 20
232.87799999999999
 30
0.0
 11
32.143999999999998
 21
235.08799999999999
 31
0.0
  0
LINE
  5
9F
  8
_________1
 62
     7
 10
32.143999999999998
 20
235.08799999999999
 30
0.0
 11
31.552099999999999
 21
232.87799999999999
 31
0.0
  0
LINE
  5
A0
  8
_________1
 62
     7
 10
31.552099999999999
 20
232.87799999999999
 30
0.0
 11
32.736499999999999
 21
232.87799999999999
 31
0.0
  0
LINE
  5
A1
  8
_________1
 62
     7
 10
31.566600000000001
 20
165.29900000000001
 30
0.0
 11
32.1584
 21
163.08799999999999
 31
0.0
  0
LINE
  5
A2
  8
_________1
 62
     7
 10
32.1584
 20
163.08799999999999
 30
0.0
 11
32.750999999999998
 21
165.29900000000001
 31
0.0
  0
LINE
  5
A3
  8
_________1
 62
     7
 10
32.750999999999998
 20
165.29900000000001
 30
0.0
 11
31.566600000000001
 21
165.29900000000001
 31
0.0
  0
LINE
  5
A4
  8
_________1
 62
     7
 10
32.151600000000002
 20
235.08799999999999
 30
0.0
 11
32.151600000000002
 21
163.08799999999999
 31
0.0
  0
ENDBLK
  5
A5
  8
_________1
  0
BLOCK
  8
_________1
  2
AIGNBL02010010
 70
     0
 10
0.0
 20
0.0
 30
0.0
  3
AIGNBL02010010
  1

  0
LINE
  5
A8
  8
_________1
 62
     7
 10
25.204999999999998
 20
160.29900000000001
 30
0.0
 11
25.797599999999999
 21
158.08799999999999
 31
0.0
  0
LINE
  5
A9
  8
_________1
 62
     7
 10
25.797599999999999
 20
158.08799999999999
 30
0.0
 11
26.389399999999998
 21
160.29900000000001
 31
0.0
  0
LINE
  5
AA
  8
_________1
 62
     7
 10
26.389399999999998
 20
160.29900000000001
 30
0.0
 11
25.204999999999998
 21
160.29900000000001
 31
0.0
  0
LINE
  5
AB
  8
_________1
 62
     7
 10
26.375
 20
237.87799999999999
 30
0.0
 11
25.783100000000001
 21
240.08799999999999
 31
0.0
  0
LINE
  5
AC
  8
_________1
 62
     7
 10
25.783100000000001
 20
240.08799999999999
 30
0.0
 11
25.1905
 21
237.87799999999999
 31
0.0
  0
LINE
  5
AD
  8
_________1
 62
     7
 10
25.1905
 20
237.87799999999999
 30
0.0
 11
26.375
 21
237.87799999999999
 31
0.0
  0
LINE
  5
AE
  8
_________1
 62
     7
 10
25.789999999999999
 20
158.08799999999999
 30
0.0
 11
25.789999999999999
 21
240.08799999999999
 31
0.0
  0
ENDBLK
  5
AF
  8
_________1
  0
BLOCK
  8
_________1
  2
AIGNBL02010011
 70
     0
 10
0.0
 20
0.0
 30
0.0
  3
AIGNBL02010011
  1

  0
LINE
  5
B2
  8
_________1
 62
     7
 10
66.4315
 20
193.803
 30
0.0
 11
68.413300000000007
 21
192.65899999999999
 31
0.0
  0
LINE
  5
B3
  8
_________1
 62
     7
 10
68.413300000000007
 20
192.65899999999999
 30
0.0
 11
67.269199999999984
 21
194.64099999999999
 31
0.0
  0
LINE
  5
B4
  8
_________1
 62
     7
 10
67.269199999999984
 20
194.64099999999999
 30
0.0
 11
66.4315
 21
193.803
 31
0.0
  0
LINE
  5
B5
  8
_________1
 62
     7
 10
57.515500000000003
 20
204.37299999999999
 30
0.0
 11
55.53370000000001
 21
205.518
 31
0.0
  0
LINE
  5
B6
  8
_________1
 62
     7
 10
55.53370000000001
 20
205.518
 30
0.0
 11
56.677900000000001
 21
203.536
 31
0.0
  0
LINE
  5
B7
  8
_________1
 62
     7
 10
56.677900000000001
 20
203.536
 30
0.0
 11
57.515500000000003
 21
204.37299999999999
 31
0.0
  0
LINE
  5
B8
  8
_________1
 62
     7
 10
71.837900000000005
 20
189.232
 30
0.0
 11
55.53370000000001
 21
205.518
 31
0.0
  0
ENDBLK
  5
B9
  8
_________1
  0
BLOCK
  8
_________1
  2
AIGNBL02010012
 70
     0
 10
0.0
 20
0.0
 30
0.0
  3
AIGNBL02010012
  1

  0
LINE
  5
BC
  8
_________1
 62
     7
 10
41.320900000000002
 20
144.54300000000001
 30
0.0
 11
39.110500000000002
 21
143.95099999999999
 31
0.0
  0
LINE
  5
BD
  8
_________1
 62
     7
 10
39.110500000000002
 20
143.95099999999999
 30
0.0
 11
41.320900000000002
 21
143.35900000000001
 31
0.0
  0
LINE
  5
BE
  8
_________1
 62
     7
 10
41.320900000000002
 20
143.35900000000001
 30
0.0
 11
41.320900000000002
 21
144.54300000000001
 31
0.0
  0
LINE
  5
BF
  8
_________1
 62
     7
 10
82.763400000000004
 20
143.374
 30
0.0
 11
84.973799999999983
 21
143.96600000000001
 31
0.0
  0
LINE
  5
C0
  8
_________1
 62
     7
 10
84.973799999999983
 20
143.96600000000001
 30
0.0
 11
82.763400000000004
 21
144.55799999999999
 31
0.0
  0
LINE
  5
C1
  8
_________1
 62
     7
 10
82.763400000000004
 20
144.55799999999999
 30
0.0
 11
82.763400000000004
 21
143.374
 31
0.0
  0
LINE
  5
C2
  8
_________1
 62
     7
 10
39.110500000000002
 20
143.959
 30
0.0
 11
84.973799999999983
 21
143.959
 31
0.0
  0
ENDBLK
  5
C3
  8
_________1
  0
BLOCK
  8
_________1
  2
AIGNBL02010013
 70
     0
 10
0.0
 20
0.0
 30
0.0
  3
AIGNBL02010013
  1

  0
LINE
  5
C6
  8
_________1
 62
     7
 10
46.183900000000001
 20
150.77799999999999
 30
0.0
 11
43.973500000000001
 21
150.18600000000001
 31
0.0
  0
LINE
  5
C7
  8
_________1
 62
     7
 10
43.973500000000001
 20
150.18600000000001
 30
0.0
 11
46.183900000000001
 21
149.59299999999999
 31
0.0
  0
LINE
  5
C8
  8
_________1
 62
     7
 10
46.183900000000001
 20
149.59299999999999
 30
0.0
 11
46.183900000000001
 21
150.77799999999999
 31
0.0
  0
LINE
  5
C9
  8
_________1
 62
     7
 10
77.763000000000005
 20
149.608
 30
0.0
 11
79.973399999999998
 21
150.19999999999999
 31
0.0
  0
LINE
  5
CA
  8
_________1
 62
     7
 10
79.973399999999998
 20
150.19999999999999
 30
0.0
 11
77.763000000000005
 21
150.792
 31
0.0
  0
LINE
  5
CB
  8
_________1
 62
     7
 10
77.763000000000005
 20
150.792
 30
0.0
 11
77.763000000000005
 21
149.608
 31
0.0
  0
LINE
  5
CC
  8
_________1
 62
     7
 10
71.837900000000005
 20
189.232
 30
0.0
 11
78.715800000000002
 21
189.232
 31
0.0
  0
LINE
  5
CD
  8
_________1
 62
     7
 10
43.973500000000001
 20
150.1929999999999
 30
0.0
 11
79.973600000000005
 21
150.1929999999999
 31
0.0
  0
ENDBLK
  5
CE
  8
_________1
  0
BLOCK
  8
_________2
  2
AIGNBL03010002
 70
     0
 10
0.0
 20
0.0
 30
0.0
  3
AIGNBL03010002
  1

  0
LINE
  5
D1
  8
_________2
 62
     7
 10
76.741
 20
29.8047
 30
0.0
 11
74.554699999999997
 21
29.8047
 31
0.0
  0
LINE
  5
D2
  8
_________2
 62
     7
 10
77.233699999999999
 20
29.8047
 30
0.0
 11
76.981499999999997
 21
29.8047
 31
0.0
  0
LINE
  5
D3
  8
_________2
 62
     7
 10
77.726299999999995
 20
29.8047
 30
0.0
 11
80.651200000000003
 21
29.8047
 31
0.0
  0
LINE
  5
D4
  8
_________2
 62
     7
 10
77.233699999999999
 20
29.8047
 30
0.0
 11
77.485500000000002
 21
29.8047
 31
0.0
  0
LINE
  5
D5
  8
_________2
 62
     7
 10
70.837100000000007
 20
29.8047
 30
0.0
 11
68.650499999999994
 21
29.8047
 31
0.0
  0
LINE
  5
D6
  8
_________2
 62
     7
 10
71.329400000000007
 20
29.8047
 30
0.0
 11
71.077600000000004
 21
29.8047
 31
0.0
  0
LINE
  5
D7
  8
_________2
 62
     7
 10
71.329400000000007
 20
30.2974
 30
0.0
 11
71.329400000000007
 21
32.484400000000001
 31
0.0
  0
LINE
  5
D8
  8
_________2
 62
     7
 10
71.329400000000007
 20
29.8047
 30
0.0
 11
71.329400000000007
 21
30.056899999999999
 31
0.0
  0
LINE
  5
D9
  8
_________2
 62
     7
 10
71.822100000000006
 20
29.8047
 30
0.0
 11
74.009
 21
29.8047
 31
0.0
  0
LINE
  5
DA
  8
_________2
 62
     7
 10
71.329400000000007
 20
29.8047
 30
0.0
 11
71.581599999999995
 21
29.8047
 31
0.0
  0
LINE
  5
DB
  8
_________2
 62
     7
 10
71.329400000000007
 20
29.312799999999999
 30
0.0
 11
71.329400000000007
 21
27.125800000000002
 31
0.0
  0
LINE
  5
DC
  8
_________2
 62
     7
 10
71.329400000000007
 20
29.8047
 30
0.0
 11
71.329400000000007
 21
29.5532
 31
0.0
  0
LINE
  5
DD
  8
_________2
 62
     7
 10
75.040499999999994
 20
28.5852
 30
0.0
 11
80.218500000000006
 21
27.720400000000001
 31
0.0
  0
LINE
  5
DE
  8
_________2
 62
     7
 10
75.040499999999994
 20
31.0243
 30
0.0
 11
80.218500000000006
 21
31.889700000000001
 31
0.0
  0
LINE
  5
DF
  8
_________2
 62
     7
 10
80.218500000000006
 20
27.720400000000001
 30
0.0
 11
80.218500000000006
 21
31.889700000000001
 31
0.0
  0
LINE
  5
E0
  8
_________2
 62
     7
 10
75.040499999999994
 20
28.5852
 30
0.0
 11
75.040499999999994
 21
31.0243
 31
0.0
  0
ARC
  5
E1
  8
_________2
 62
     7
 10
71.28285600000001
 20
29.757811
 30
0.0
 40
1.2673589999999999
 50
2.122214
 51
87.893958999999995
  0
ARC
  5
E2
  8
_________2
 62
     7
 10
71.375959999999992
 20
29.758213000000001
 30
0.0
 40
1.2669559999999991
 50
92.104701000000006
 51
177.89526900000001
  0
ARC
  5
E3
  8
_________2
 62
     7
 10
71.376357999999996
 20
29.851671
 30
0.0
 40
1.2673680000000001
 50
182.12203600000001
 51
267.877993
  0
ARC
  5
E4
  8
_________2
 62
     7
 10
71.282531999999989
 20
29.851998999999999
 30
0.0
 40
1.267695999999999
 50
272.12015300000002
 51
357.863674
  0
ARC
  5
E5
  8
_________2
 62
     7
 10
71.329430000000002
 20
29.804742999999998
 30
0.0
 40
2.0849849999999992
 50
0.00001
 51
89.999980000000008
  0
ARC
  5
E6
  8
_________2
 62
     7
 10
71.329603000000006
 20
29.804915000000001
 30
0.0
 40
2.084813
 50
90.004733999999999
 51
180.00474399999999
  0
ARC
  5
E7
  8
_________2
 62
     7
 10
71.409106000000008
 20
29.884775999999999
 30
0.0
 40
2.1657950000000001
 50
182.11776599999999
 51
267.89173399999999
  0
ARC
  5
E8
  8
_________2
 62
     7
 10
71.249459000000002
 20
29.885429999999999
 30
0.0
 40
2.1664590000000001
 50
272.11546800000002
 51
357.86560400000002
  0
ENDBLK
  5
E9
  8
_________2
  0
ENDSEC
  0
SECTION
  2
ENTITIES
  0
TEXT
  5
EA
  8
____
 62
     7
 10
31.654599999999999
 20
61.363399999999999
 30
0.0
 40
3.0923400000000001
  1
固定用木（別途）
 41
0.5
  0
TEXT
  5
EB
  8
____
 62
     7
 10
59.122652000000002
 20
52.279299999999999
 30
0.0
 40
3.0923400000000001
  1
（CET007R）
 41
0.5
 72
     1
 11
65.925799999999995
 21
52.279299999999999
 31
0.0
  0
TEXT
  5
EC
  8
____
 62
     7
 10
63.544009000000003
 20
57.40809999999999
 30
0.0
 40
3.0923400000000001
  1
固定金具
 41
0.5
 72
     1
 11
67.100200000000001
 21
57.40809999999999
 31
0.0
  0
TEXT
  5
ED
  8
____
 62
     7
 10
72.899647999999985
 20
83.349799999999988
 30
0.0
 40
3.0923400000000001
  1
カウンター
 41
0.5
 72
     2
 11
81.558199999999999
 21
83.349799999999988
 31
0.0
  0
TEXT
  5
EE
  8
____
 62
     7
 10
71.057299999999998
 20
130.53817799999999
 30
0.0
 40
3.0923400000000001
  1
t 1.2
 50
90.0
 41
0.5
 72
     2
 11
71.057299999999998
 21
135.589
 31
0.0
  0
TEXT
  5
EF
  8
____
 62
     7
 10
32.253700000000002
 20
111.1339825
 30
0.0
 40
3.0923400000000001
  1
140
 50
90.0
 41
0.5
 72
     1
 11
32.253700000000002
 21
112.809
 31
0.0
  0
TEXT
  5
F0
  8
____
 62
     7
 10
60.0407875
 20
144.65899999999999
 30
0.0
 40
3.0923400000000001
  1
230
 41
0.5
 72
     1
 11
61.973500000000001
 21
144.65899999999999
 31
0.0
  0
TEXT
  5
F1
  8
____
 62
     7
 10
36.600208500000001
 20
56.531999999999996
 30
0.0
 40
3.0923400000000001
  1
t12\U+00D7巾20
 41
0.5
 72
     1
 11
41.676799999999993
 21
56.531999999999996
 31
0.0
  0
TEXT
  5
F2
  8
____
 62
     7
 10
89.395613499999996
 20
53.183300000000003
 30
0.0
 40
3.0923400000000001
  1
t＝24～30
 41
0.5
 72
     1
 11
94.729900000000015
 21
53.183300000000003
 31
0.0
  0
TEXT
  5
F3
  8
____
 62
     7
 10
84.964165999999992
 20
57.791800000000002
 30
0.0
 40
3.0923400000000001
  1
カウンター補強木（別途）
 41
0.5
 72
     2
 11
105.889
 21
57.791800000000002
 31
0.0
  0
TEXT
  5
F4
  8
____
 62
     7
 10
154.9307135
 20
141.97499999999999
 30
0.0
 40
3.0923400000000001
  1
t＝24～30
 41
0.5
 72
     1
 11
160.26499999999999
 21
141.97499999999999
 31
0.0
  0
TEXT
  5
F5
  8
____
 62
     7
 10
146.99700000000001
 20
146.131
 30
0.0
 40
3.0923400000000001
  1
カウンター補強木（別途）
 41
0.5
  0
TEXT
  5
F6
  8
____
 62
     7
 10
53.801569000000001
 20
44.927399999999999
 30
0.0
 40
3.0923400000000001
  1
カウンター固定部詳細 1：3
 41
0.5
 72
     1
 11
65.603999999999999
 21
44.927399999999999
 31
0.0
  0
TEXT
  5
F7
  8
____
 62
     7
 10
127.26776
 20
139.25899999999999
 30
0.0
 40
3.0923400000000001
  1
カウンター切込寸法
 41
0.5
 72
     1
 11
135.51400000000001
 21
139.25899999999999
 31
0.0
  0
TEXT
  5
F8
  8
____
 62
     7
 10
131.00092057142851
 20
44.927399999999999
 30
0.0
 40
3.0923400000000001
  1
排水金具付
 41
0.5
 72
     1
 11
135.44800000000001
 21
44.927399999999999
 31
0.0
  0
TEXT
  5
F9
  8
____
 62
     7
 10
145.601618
 20
51.7849
 30
0.0
 40
3.0923400000000001
  1
G1 1/2
 41
0.5
 72
     2
 11
152.714
 21
51.7849
 31
0.0
  0
TEXT
  5
FA
  8
____
 62
     7
 10
133.19474500000001
 20
81.5745
 30
0.0
 40
3.0923400000000001
  1
%%c113
 41
0.5
 72
     1
 11
135.51400000000001
 21
81.5745
 31
0.0
  0
TEXT
  5
FB
  8
____
 62
     7
 10
125.9394124931803
 20
206.6701550605556
 30
0.0
 40
3.0923400000000001
  1
R1000
 50
22.767399999999999
 41
0.5
 72
     1
 11
128.672
 21
207.81700000000001
 31
0.0
  0
TEXT
  5
FC
  8
____
 62
     7
 10
127.24025694417701
 20
173.11825694417701
 30
0.0
 40
3.0923400000000001
  1
R95
 50
45.0
 41
0.5
 72
     1
 11
128.69800000000001
 21
174.57599999999999
 31
0.0
  0
TEXT
  5
FD
  8
____
 62
     7
 10
139.77425694417701
 20
223.6132569441771
 30
0.0
 40
3.0923400000000001
  1
R95
 50
45.0
 41
0.5
 72
     1
 11
141.232
 21
225.071
 31
0.0
  0
TEXT
  5
FE
  8
____
 62
     7
 10
133.71013500000001
 20
152.642
 30
0.0
 40
3.0923400000000001
  1
200
 41
0.5
 72
     1
 11
135.51400000000001
 21
152.642
 31
0.0
  0
TEXT
  5
FF
  8
____
 62
     7
 10
133.5812875
 20
246.53
 30
0.0
 40
3.0923400000000001
  1
240
 41
0.5
 72
     1
 11
135.51400000000001
 21
246.53
 31
0.0
  0
TEXT
  5
100
  8
____
 62
     7
 10
75.108069999999984
 20
189.93199999999999
 30
0.0
 40
3.0923400000000001
  1
%%c91
 41
0.5
 72
     2
 11
78.715800000000002
 21
189.93199999999999
 31
0.0
  0
TEXT
  5
101
  8
____
 62
     7
 10
60.298482499999999
 20
150.893
 30
0.0
 40
3.0923400000000001
  1
180
 41
0.5
 72
     1
 11
61.973500000000001
 21
150.893
 31
0.0
  0
TEXT
  5
102
  8
____
 62
     7
 10
31.265499999999999
 20
196.8132875
 30
0.0
 40
3.0923400000000001
  1
360
 50
90.0
 41
0.5
 72
     1
 11
31.265499999999999
 21
198.74600000000001
 31
0.0
  0
TEXT
  5
103
  8
____
 62
     7
 10
152.36099999999999
 20
63.488325000000003
 30
0.0
 40
3.0923400000000001
  1
85
 50
90.0
 41
0.5
 72
     1
 11
152.36099999999999
 21
64.776799999999994
 31
0.0
  0
TEXT
  5
104
  8
____
 62
     7
 10
96.118300000000005
 20
197.15528749999999
 30
0.0
 40
3.0923400000000001
  1
380
 50
90.0
 41
0.5
 72
     1
 11
96.118300000000005
 21
199.08799999999999
 31
0.0
  0
TEXT
  5
105
  8
____
 62
     7
 10
177.26300000000001
 20
197.28413499999999
 30
0.0
 40
3.0923400000000001
  1
200
 50
90.0
 41
0.5
 72
     1
 11
177.26300000000001
 21
199.08799999999999
 31
0.0
  0
TEXT
  5
106
  8
____
 62
     7
 10
24.841200000000001
 20
197.07098250000001
 30
0.0
 40
3.0923400000000001
  1
410
 50
90.0
 41
0.5
 72
     1
 11
24.841200000000001
 21
198.74600000000001
 31
0.0
  0
LINE
  5
107
  8
_________1
 62
     7
 10
55.201799999999992
 20
71.672200000000004
 30
0.0
 11
61.457999999999998
 21
71.672200000000004
 31
0.0
  0
LINE
  5
108
  8
_________1
 62
     7
 10
55.201799999999992
 20
72.1721
 30
0.0
 11
61.457999999999998
 21
72.1721
 31
0.0
  0
ARC
  5
109
  8
_________1
 62
     7
 10
55.25951899999999
 20
69.945313999999996
 30
0.0
 40
1.72787
 50
91.914186999999984
 51
175.65910299999999
  0
ARC
  5
10A
  8
_________1
 62
     7
 10
55.276797999999999
 20
69.927187000000004
 30
0.0
 40
2.2461720000000001
 50
91.91334599999999
 51
175.661349
  0
ARC
  5
10B
  8
_________1
 62
     7
 10
69.285895999999994
 20
66.339224999999999
 30
0.0
 40
4.2346899999999996
 50
278.45914900000002
 51
283.80251399999997
  0
ARC
  5
10C
  8
_________1
 62
     7
 10
69.894118000000006
 20
63.788465000000002
 30
0.0
 40
1.6125780000000001
 50
284.43821200000002
 51
294.89979299999999
  0
ARC
  5
10D
  8
_________1
 62
     7
 10
70.270712000000003
 20
62.955618999999992
 30
0.0
 40
0.698649
 50
295.643396
 51
311.59379100000001
  0
ARC
  5
10E
  8
_________1
 62
     7
 10
70.512473999999997
 20
62.672318999999987
 30
0.0
 40
0.326366
 50
312.86863899999997
 51
6.7070059999999989
  0
ARC
  5
10F
  8
_________1
 62
     7
 10
69.284441999999999
 20
66.362350000000006
 30
0.0
 40
4.2577780000000001
 50
273.11989699999998
 51
278.43272200000001
  0
ARC
  5
110
  8
_________1
 62
     7
 10
69.446539999999985
 20
63.722048000000001
 30
0.0
 40
1.6126689999999999
 50
262.01395200000002
 51
272.47477099999998
  0
ARC
  5
111
  8
_________1
 62
     7
 10
69.328543999999994
 20
62.815438
 30
0.0
 40
0.6985180000000001
 50
245.312602
 51
261.26699200000002
  0
ARC
  5
112
  8
_________1
 62
     7
 10
69.179808999999992
 20
62.474318000000011
 30
0.0
 40
0.326536
 50
190.186849
 51
244.02572699999999
  0
LINE
  5
113
  8
_________1
 62
     7
 10
68.373000000000005
 20
68.850999999999999
 30
0.0
 11
68.736800000000002
 21
70.030600000000007
 31
0.0
  0
LINE
  5
114
  8
_________1
 62
     7
 10
69.428100000000001
 20
69.008099999999985
 30
0.0
 11
68.736800000000002
 21
70.030600000000007
 31
0.0
  0
LINE
  5
115
  8
_________1
 62
     7
 10
70.463800000000006
 20
64.084699999999998
 30
0.0
 11
68.88600000000001
 21
63.363599999999991
 31
0.0
  0
LINE
  5
116
  8
_________1
 62
     7
 10
70.380300000000005
 20
64.646199999999993
 30
0.0
 11
68.802400000000006
 21
63.924799999999991
 31
0.0
  0
LINE
  5
117
  8
_________1
 62
     7
 10
70.296800000000005
 20
65.207800000000006
 30
0.0
 11
68.718900000000005
 21
64.486699999999985
 31
0.0
  0
LINE
  5
118
  8
_________1
 62
     7
 10
70.213200000000001
 20
65.768699999999995
 30
0.0
 11
68.635499999999993
 21
65.047899999999984
 31
0.0
  0
LINE
  5
119
  8
_________1
 62
     7
 10
70.1297
 20
66.330600000000004
 30
0.0
 11
68.5518
 21
65.609499999999997
 31
0.0
  0
LINE
  5
11A
  8
_________1
 62
     7
 10
70.046099999999996
 20
66.891800000000003
 30
0.0
 11
68.468400000000003
 21
66.170699999999997
 31
0.0
  0
LINE
  5
11B
  8
_________1
 62
     7
 10
69.962599999999995
 20
67.453299999999999
 30
0.0
 11
68.384900000000002
 21
66.732299999999995
 31
0.0
  0
LINE
  5
11C
  8
_________1
 62
     7
 10
69.879199999999983
 20
68.014899999999997
 30
0.0
 11
68.301299999999998
 21
67.293800000000005
 31
0.0
  0
LINE
  5
11D
  8
_________1
 62
     7
 10
69.795699999999997
 20
68.576400000000007
 30
0.0
 11
68.218000000000004
 21
67.855000000000004
 31
0.0
  0
LINE
  5
11E
  8
_________1
 62
     7
 10
69.712100000000007
 20
69.137600000000006
 30
0.0
 11
68.134299999999996
 21
68.416600000000003
 31
0.0
  0
LINE
  5
11F
  8
_________1
 62
     7
 10
69.628600000000006
 20
69.6995
 30
0.0
 11
68.050899999999984
 21
68.978099999999984
 31
0.0
  0
LINE
  5
120
  8
_________1
  6
AIGENLINE001
 62
     7
 10
79.791300000000007
 20
72.1721
 30
0.0
 11
63.124499999999998
 21
64.172200000000004
 31
0.0
  0
LINE
  5
121
  8
_________1
  6
AIGENLINE001
 62
     7
 10
63.124499999999998
 20
72.1721
 30
0.0
 11
79.791300000000007
 21
64.172200000000004
 31
0.0
  0
LINE
  5
122
  8
_________1
  6
AIGENLINE001
 62
     7
 10
63.124499999999998
 20
64.172200000000004
 30
0.0
 11
79.791300000000007
 21
64.172200000000004
 31
0.0
  0
LINE
  5
123
  8
_________1
 62
     7
 10
54.7911
 20
71.672200000000004
 30
0.0
 11
61.457999999999998
 21
67.672399999999996
 31
0.0
  0
LINE
  5
124
  8
_________1
 62
     7
 10
54.7911
 20
67.672399999999996
 30
0.0
 11
61.457999999999998
 21
71.672200000000004
 31
0.0
  0
LINE
  5
125
  8
_________1
 62
     7
 10
54.7911
 20
71.672200000000004
 30
0.0
 11
61.457999999999998
 21
71.672200000000004
 31
0.0
  0
LINE
  5
126
  8
_________1
 62
     7
 10
54.7911
 20
71.672200000000004
 30
0.0
 11
54.7911
 21
67.672399999999996
 31
0.0
  0
LINE
  5
127
  8
_________1
  6
AIGENLINE001
 62
     7
 10
79.791300000000007
 20
72.1721
 30
0.0
 11
79.791300000000007
 21
64.172200000000004
 31
0.0
  0
LINE
  5
128
  8
_________1
  6
AIGENLINE001
 62
     7
 10
63.124499999999998
 20
72.1721
 30
0.0
 11
63.124499999999998
 21
64.172200000000004
 31
0.0
  0
LINE
  5
129
  8
_________1
 62
     7
 10
61.457999999999998
 20
71.672200000000004
 30
0.0
 11
61.457999999999998
 21
67.672399999999996
 31
0.0
  0
ARC
  5
12A
  8
_________1
  6
AIGENLINE001
 62
     7
 10
58.124555000000008
 20
75.505686999999995
 30
0.0
 40
1.666661999999999
 50
90.002961000000013
 51
180.002971
  0
LINE
  5
12B
  8
_________1
  6
AIGENLINE001
 62
     7
 10
56.457900000000002
 20
75.505600000000001
 30
0.0
 11
56.457900000000002
 21
72.1721
 31
0.0
  0
LINE
  5
12C
  8
_________1
 62
     7
 10
61.457999999999998
 20
72.1721
 30
0.0
 11
61.457999999999998
 21
71.672200000000004
 31
0.0
  0
LINE
  5
12D
  8
_________1
 62
     7
 10
54.7911
 20
67.672399999999996
 30
0.0
 11
61.457999999999998
 21
67.672399999999996
 31
0.0
  0
LINE
  5
12E
  8
_________1
  6
AIGENLINE001
 62
     7
 10
45.56049999999999
 20
77.172300000000007
 30
0.0
 11
82.961500000000001
 21
77.172300000000007
 31
0.0
  0
LINE
  5
12F
  8
_________1
  6
AIGENLINE001
 62
     7
 10
45.56049999999999
 20
72.1721
 30
0.0
 11
82.961500000000001
 21
72.1721
 31
0.0
  0
LINE
  5
130
  8
_________1
 62
     7
 10
68.802099999999996
 20
62.794800000000002
 30
0.0
 11
68.858400000000003
 21
62.416600000000003
 31
0.0
  0
LINE
  5
131
  8
_________1
 62
     7
 10
70.780500000000004
 20
63.089100000000002
 30
0.0
 11
70.836600000000004
 21
62.7104
 31
0.0
  0
LINE
  5
132
  8
_________1
 62
     7
 10
68.373000000000005
 20
68.850999999999999
 30
0.0
 11
69.190200000000004
 21
63.3581
 31
0.0
  0
LINE
  5
133
  8
_________1
 62
     7
 10
69.428100000000001
 20
69.008099999999985
 30
0.0
 11
70.2453
 21
63.514899999999997
 31
0.0
  0
LINE
  5
134
  8
_________1
  6
AIGENLINE002
 62
     7
 10
68.6297
 20
70.751000000000005
 30
0.0
 11
69.970799999999997
 21
61.734400000000001
 31
0.0
  0
LINE
  5
135
  8
_________1
 62
     7
 10
74.736800000000002
 20
63.677799999999991
 30
0.0
 11
63.29229999999999
 21
61.974899999999998
 31
0.0
  0
LINE
  5
136
  8
_________1
 62
     7
 10
62.672199999999997
 20
62.219900000000003
 30
0.0
 11
58.722000000000001
 21
67.192899999999995
 31
0.0
  0
ARC
  5
137
  8
_________1
 62
     7
 10
63.200496999999999
 20
62.649885999999988
 30
0.0
 40
0.681199
 50
219.145421
 51
277.74656399999998
  0
LINE
  5
138
  8
_________1
 62
     7
 10
63.157400000000003
 20
62.460700000000003
 30
0.0
 11
59.2074
 21
67.433300000000003
 31
0.0
  0
LINE
  5
139
  8
_________1
 62
     7
 10
58.587499999999999
 20
67.678299999999993
 30
0.0
 11
57.319699999999997
 21
67.489800000000002
 31
0.0
  0
ARC
  5
13A
  8
_________1
 62
     7
 10
58.680123999999999
 20
67.005740000000003
 30
0.0
 40
0.678905
 50
39.038997999999999
 51
97.842068000000026
  0
LINE
  5
13B
  8
_________1
 62
     7
 10
58.722000000000001
 20
67.192899999999995
 30
0.0
 11
57.39309999999999
 21
66.995099999999994
 31
0.0
  0
LINE
  5
13C
  8
_________1
 62
     7
 10
57.39309999999999
 20
66.995099999999994
 30
0.0
 11
57.319699999999997
 21
67.489800000000002
 31
0.0
  0
LINE
  5
13D
  8
_________1
 62
     7
 10
74.663300000000007
 20
64.172200000000004
 30
0.0
 11
63.157400000000003
 21
62.460700000000003
 31
0.0
  0
LINE
  5
13E
  8
_________1
 62
     7
 10
74.736800000000002
 20
63.677799999999991
 30
0.0
 11
74.663300000000007
 21
64.172200000000004
 31
0.0
  0
LINE
  5
13F
  8
_________1
 62
     7
 10
75.391400000000004
 20
62.8217
 30
0.0
 11
76.102800000000002
 21
64.172200000000004
 31
0.0
  0
LINE
  5
140
  8
_________1
 62
     7
 10
76.102800000000002
 20
64.172200000000004
 30
0.0
 11
76.161900000000003
 21
62.646700000000003
 31
0.0
  0
LINE
  5
141
  8
_________1
 62
     7
 10
76.161900000000003
 20
62.646700000000003
 30
0.0
 11
75.391400000000004
 21
62.8217
 31
0.0
  0
LINE
  5
142
  8
_________1
 62
     7
 10
74.381600000000006
 20
56.6143
 30
0.0
 11
76.107500000000002
 21
64.2149
 31
0.0
  0
LINE
  5
143
  8
_________1
 62
     7
 10
104.749
 20
56.6143
 30
0.0
 11
74.381600000000006
 21
56.6143
 31
0.0
  0
LINE
  5
144
  8
_________1
 62
     7
 10
55.207500000000003
 20
66.322000000000003
 30
0.0
 11
55.9191
 21
67.672399999999996
 31
0.0
  0
LINE
  5
145
  8
_________1
 62
     7
 10
55.9191
 20
67.672399999999996
 30
0.0
 11
55.978200000000001
 21
66.146900000000002
 31
0.0
  0
LINE
  5
146
  8
_________1
 62
     7
 10
55.978200000000001
 20
66.146900000000002
 30
0.0
 11
55.207500000000003
 21
66.322000000000003
 31
0.0
  0
LINE
  5
147
  8
_________1
 62
     7
 10
54.19789999999999
 20
60.114199999999997
 30
0.0
 11
55.92369999999999
 21
67.714500000000001
 31
0.0
  0
LINE
  5
148
  8
_________1
 62
     7
 10
31.704899999999999
 20
60.114499999999992
 30
0.0
 11
54.19769999999999
 21
60.114499999999992
 31
0.0
  0
LINE
  5
149
  8
_________1
 62
     7
 10
60.849600000000002
 20
62.2684
 30
0.0
 11
61.561000000000007
 21
63.618899999999989
 31
0.0
  0
LINE
  5
14A
  8
_________1
 62
     7
 10
61.561000000000007
 20
63.618899999999989
 30
0.0
 11
61.620100000000001
 21
62.093400000000003
 31
0.0
  0
LINE
  5
14B
  8
_________1
 62
     7
 10
61.620100000000001
 20
62.093400000000003
 30
0.0
 11
60.849600000000002
 21
62.2684
 31
0.0
  0
LINE
  5
14C
  8
_________1
 62
     7
 10
59.83979999999999
 20
56.06069999999999
 30
0.0
 11
61.565600000000003
 21
63.661299999999997
 31
0.0
  0
LINE
  5
14D
  8
_________1
 62
     7
 10
72.644400000000005
 20
56.061000000000007
 30
0.0
 11
59.83979999999999
 21
56.061000000000007
 31
0.0
  0
LINE
  5
14E
  8
_________1
 62
     7
 10
63.020200000000003
 20
77.9358
 30
0.0
 11
61.698399999999999
 21
77.172300000000007
 31
0.0
  0
LINE
  5
14F
  8
_________1
 62
     7
 10
61.698399999999999
 20
77.172300000000007
 30
0.0
 11
62.461399999999998
 21
78.494600000000005
 31
0.0
  0
LINE
  5
150
  8
_________1
 62
     7
 10
62.461399999999998
 20
78.494600000000005
 30
0.0
 11
63.020200000000003
 21
77.9358
 31
0.0
  0
LINE
  5
151
  8
_________1
 62
     7
 10
67.182699999999997
 20
82.649699999999996
 30
0.0
 11
61.671700000000001
 21
77.138599999999997
 31
0.0
  0
LINE
  5
152
  8
_________1
 62
     7
 10
81.558199999999999
 20
82.649699999999996
 30
0.0
 11
67.182699999999997
 21
82.649699999999996
 31
0.0
  0
ARC
  5
153
  8
_________1
 62
     7
 10
165.71434600000001
 20
103.99321999999999
 30
0.0
 40
5.1878659999999996
 50
271.95530000000002
 51
355.62840999999997
  0
ARC
  5
154
  8
_________1
 62
     7
 10
173.44633999999999
 20
124.909329
 30
0.0
 40
1.6607810000000001
 50
91.967990999999984
 51
175.61192399999999
  0
LINE
  5
155
  8
_________1
 62
     7
 10
53.5366
 20
70.076099999999997
 30
0.0
 11
52.722700000000003
 21
50.799999999999997
 31
0.0
  0
LINE
  5
156
  8
_________1
 62
     7
 10
53.037100000000002
 20
70.097099999999998
 30
0.0
 11
52.223300000000002
 21
50.820999999999998
 31
0.0
  0
LINE
  5
157
  8
_________1
 62
     7
 10
171.78999999999999
 20
125.036
 30
0.0
 11
170.887
 21
103.598
 31
0.0
  0
LINE
  5
158
  8
_________1
  6
AIGENLINE002
 62
     7
 10
135.495
 20
94.247000000000014
 30
0.0
 11
135.495
 21
130.41499999999999
 31
0.0
  0
ARC
  5
159
  8
_________1
 62
     7
 10
105.26238600000001
 20
103.99321999999999
 30
0.0
 40
5.1878659999999996
 50
184.37161
 51
268.0447200000001
  0
ARC
  5
15A
  8
_________1
 62
     7
 10
76.181268000000003
 20
101.91958
 30
0.0
 40
3.113029
 50
271.96142099999997
 51
355.62843700000002
  0
ARC
  5
15B
  8
_________1
 62
     7
 10
81.925253999999995
 20
124.90951
 30
0.0
 40
1.6605989999999999
 50
91.968347999999992
 51
175.61773400000001
  0
LINE
  5
15C
  8
_________1
 62
     7
 10
80.269499999999994
 20
125.036
 30
0.0
 11
79.285200000000003
 21
101.682
 31
0.0
  0
ARC
  5
15D
  8
_________1
 62
     7
 10
47.765782999999992
 20
101.91958
 30
0.0
 40
3.113029
 50
184.37158299999999
 51
268.03859899999998
  0
ARC
  5
15E
  8
_________1
 62
     7
 10
97.530388000000002
 20
124.90951
 30
0.0
 40
1.6605989999999999
 50
4.3822460000000003
 51
88.031632000000002
  0
LINE
  5
15F
  8
_________1
 62
     7
 10
99.18610000000001
 20
125.036
 30
0.0
 11
100.09
 21
103.598
 31
0.0
  0
ARC
  5
160
  8
_________1
 62
     7
 10
42.021796999999999
 20
124.90951
 30
0.0
 40
1.6605989999999999
 50
4.3822460000000003
 51
88.031632000000002
  0
LINE
  5
161
  8
_________1
 62
     7
 10
70.651899999999998
 20
175.10400000000001
 30
0.0
 11
65.909700000000001
 21
188.279
 31
0.0
  0
LINE
  5
162
  8
_________1
 62
     7
 10
53.295099999999991
 20
175.10400000000001
 30
0.0
 11
58.037300000000002
 21
188.279
 31
0.0
  0
LINE
  5
163
  8
_________1
 62
     7
 10
70.651899999999998
 20
223.072
 30
0.0
 11
65.909700000000001
 21
209.89699999999999
 31
0.0
  0
LINE
  5
164
  8
_________1
  6
AIGENLINE002
 62
     7
 10
61.973500000000001
 20
155.548
 30
0.0
 11
61.973500000000001
 21
242.62200000000001
 31
0.0
  0
LINE
  5
165
  8
_________1
  6
AIGENLINE002
 62
     7
 10
87.751099999999994
 20
199.08799999999999
 30
0.0
 11
35.569600000000001
 21
199.08799999999999
 31
0.0
  0
ARC
  5
166
  8
_________1
 62
     7
 10
-118.206594
 20
199.08815899999999
 30
0.0
 40
198.180048
 50
354.0263799999999
 51
5.9736199999999986
  0
ARC
  5
167
  8
_________1
 62
     7
 10
242.16841600000001
 20
199.087987
 30
0.0
 40
198.19407100000001
 50
174.026734
 51
185.973266
  0
ARC
  5
168
  8
_________1
 62
     7
 10
62.498154000000007
 20
217.51001099999999
 30
0.0
 40
17.586244000000001
 50
91.709477000000021
 51
172.80419000000001
  0
ARC
  5
169
  8
_________1
 62
     7
 10
61.431247999999989
 20
217.48980299999999
 30
0.0
 40
17.606978999999999
 50
7.2535579999999991
 51
88.235056999999998
  0
ARC
  5
16A
  8
_________1
 62
     7
 10
62.497771999999998
 20
180.66593599999999
 30
0.0
 40
17.585861999999999
 50
187.19587999999999
 51
268.29173100000003
  0
ARC
  5
16B
  8
_________1
 62
     7
 10
61.430429000000011
 20
180.687466
 30
0.0
 40
17.607953999999999
 50
271.76750900000002
 51
352.74259799999999
  0
LINE
  5
16C
  8
_________1
 62
     7
 10
143.095
 20
212.75299999999999
 30
0.0
 11
139.78100000000001
 21
208.59
 31
0.0
  0
LINE
  5
16D
  8
_________1
 62
     7
 10
143.095
 20
212.75299999999999
 30
0.0
 11
110.08
 21
199.08799999999999
 31
0.0
  0
INSERT
  5
16E
  8
_________1
 62
     7
  2
AIGNBL02010002
 10
0.0
 20
0.0
 30
0.0
  0
LINE
  5
16F
  8
_________1
  6
AIGENLINE002
 62
     7
 10
135.51400000000001
 20
157.63499999999999
 30
0.0
 11
135.51400000000001
 21
240.078
 31
0.0
  0
LINE
  5
170
  8
_________1
  6
AIGENLINE002
 62
     7
 10
159.85499999999999
 20
199.08799999999999
 30
0.0
 11
106.045
 21
199.08799999999999
 31
0.0
  0
INSERT
  5
171
  8
_________1
 62
     7
  2
AIGNBL02010003
 10
0.0
 20
0.0
 30
0.0
  0
INSERT
  5
172
  8
_________1
 62
     7
  2
AIGNBL02010004
 10
0.0
 20
0.0
 30
0.0
  0
INSERT
  5
173
  8
_________1
 62
     7
  2
AIGNBL02010005
 10
0.0
 20
0.0
 30
0.0
  0
LINE
  5
174
  8
_________1
  6
AIGENLINE002
 62
     7
 10
113.858
 20
179.08799999999999
 30
0.0
 11
99.591300000000004
 21
179.08799999999999
 31
0.0
  0
LINE
  5
175
  8
_________1
  6
AIGENLINE001
 62
     7
 10
111.514
 20
184.08799999999999
 30
0.0
 11
101.51300000000001
 21
174.08799999999999
 31
0.0
  0
LINE
  5
176
  8
_________1
  6
AIGENLINE001
 62
     7
 10
101.51300000000001
 20
184.08799999999999
 30
0.0
 11
111.514
 21
174.08799999999999
 31
0.0
  0
LINE
  5
177
  8
_________1
  6
AIGENLINE001
 62
     7
 10
111.514
 20
174.08799999999999
 30
0.0
 11
101.51300000000001
 21
174.08799999999999
 31
0.0
  0
LINE
  5
178
  8
_________1
  6
AIGENLINE001
 62
     7
 10
111.514
 20
184.08799999999999
 30
0.0
 11
111.514
 21
174.08799999999999
 31
0.0
  0
LINE
  5
179
  8
_________1
  6
AIGENLINE001
 62
     7
 10
101.51300000000001
 20
184.08799999999999
 30
0.0
 11
101.51300000000001
 21
174.08799999999999
 31
0.0
  0
LINE
  5
17A
  8
_________1
  6
AIGENLINE001
 62
     7
 10
111.514
 20
184.08799999999999
 30
0.0
 11
101.51300000000001
 21
184.08799999999999
 31
0.0
  0
LINE
  5
17B
  8
_________1
  6
AIGENLINE002
 62
     7
 10
113.858
 20
219.08799999999999
 30
0.0
 11
99.591300000000004
 21
219.08799999999999
 31
0.0
  0
LINE
  5
17C
  8
_________1
  6
AIGENLINE001
 62
     7
 10
111.514
 20
224.08799999999999
 30
0.0
 11
101.51300000000001
 21
214.08799999999999
 31
0.0
  0
LINE
  5
17D
  8
_________1
  6
AIGENLINE001
 62
     7
 10
101.51300000000001
 20
224.08799999999999
 30
0.0
 11
111.514
 21
214.08799999999999
 31
0.0
  0
LINE
  5
17E
  8
_________1
  6
AIGENLINE001
 62
     7
 10
111.514
 20
214.08799999999999
 30
0.0
 11
101.51300000000001
 21
214.08799999999999
 31
0.0
  0
LINE
  5
17F
  8
_________1
  6
AIGENLINE001
 62
     7
 10
111.514
 20
224.08799999999999
 30
0.0
 11
111.514
 21
214.08799999999999
 31
0.0
  0
LINE
  5
180
  8
_________1
  6
AIGENLINE001
 62
     7
 10
101.51300000000001
 20
224.08799999999999
 30
0.0
 11
101.51300000000001
 21
214.08799999999999
 31
0.0
  0
LINE
  5
181
  8
_________1
  6
AIGENLINE001
 62
     7
 10
111.514
 20
224.089
 30
0.0
 11
101.51300000000001
 21
224.089
 31
0.0
  0
LINE
  5
182
  8
_________1
 62
     7
 10
111.514
 20
246.59999999999999
 30
0.0
 11
111.514
 21
225.61699999999999
 31
0.0
  0
LINE
  5
183
  8
_________1
 62
     7
 10
159.51400000000001
 20
246.59999999999999
 30
0.0
 11
159.51400000000001
 21
225.61699999999999
 31
0.0
  0
INSERT
  5
184
  8
_________1
 62
     7
  2
AIGNBL02010006
 10
0.0
 20
0.0
 30
0.0
  0
LINE
  5
185
  8
_________1
 62
     7
 10
115.51300000000001
 20
175.41
 30
0.0
 11
115.51300000000001
 21
150.726
 31
0.0
  0
LINE
  5
186
  8
_________1
 62
     7
 10
155.51400000000001
 20
150.726
 30
0.0
 11
155.51400000000001
 21
175.41
 31
0.0
  0
INSERT
  5
187
  8
_________1
 62
     7
  2
AIGNBL02010008
 10
0.0
 20
0.0
 30
0.0
  0
LINE
  5
188
  8
_________1
 62
     7
 10
128.614
 20
237.08799999999999
 30
0.0
 11
96.021799999999999
 21
237.08799999999999
 31
0.0
  0
ARC
  5
189
  8
_________1
 62
     7
 10
136.07104000000001
 20
217.458417
 30
0.0
 40
19.637813000000001
 50
91.626351999999997
 51
171.56858
  0
ARC
  5
18A
  8
_________1
 62
     7
 10
134.93441000000001
 20
217.43365900000001
 30
0.0
 40
19.663195000000002
 50
8.4943860000000004
 51
88.311812000000003
  0
LINE
  5
18B
  8
_________1
 62
     7
 10
96.021799999999999
 20
161.08799999999999
 30
0.0
 11
128.614
 21
161.08799999999999
 31
0.0
  0
INSERT
  5
18C
  8
_________1
 62
     7
  2
AIGNBL02010009
 10
0.0
 20
0.0
 30
0.0
  0
LINE
  5
18D
  8
_________1
 62
     7
 10
179.14699999999999
 20
179.08799999999999
 30
0.0
 11
172.81899999999999
 21
179.08799999999999
 31
0.0
  0
LINE
  5
18E
  8
_________1
 62
     7
 10
179.14699999999999
 20
219.08799999999999
 30
0.0
 11
172.81899999999999
 21
219.08799999999999
 31
0.0
  0
LINE
  5
18F
  8
_________1
  6
AIGENLINE002
 62
     7
 10
171.858
 20
179.08799999999999
 30
0.0
 11
157.59100000000001
 21
179.08799999999999
 31
0.0
  0
LINE
  5
190
  8
_________1
  6
AIGENLINE001
 62
     7
 10
169.51400000000001
 20
184.08799999999999
 30
0.0
 11
159.51400000000001
 21
174.08799999999999
 31
0.0
  0
LINE
  5
191
  8
_________1
  6
AIGENLINE001
 62
     7
 10
159.51400000000001
 20
184.08799999999999
 30
0.0
 11
169.51400000000001
 21
174.08799999999999
 31
0.0
  0
LINE
  5
192
  8
_________1
  6
AIGENLINE001
 62
     7
 10
169.51400000000001
 20
174.08799999999999
 30
0.0
 11
159.51400000000001
 21
174.08799999999999
 31
0.0
  0
LINE
  5
193
  8
_________1
  6
AIGENLINE001
 62
     7
 10
169.51400000000001
 20
184.08799999999999
 30
0.0
 11
169.51400000000001
 21
174.08799999999999
 31
0.0
  0
LINE
  5
194
  8
_________1
  6
AIGENLINE001
 62
     7
 10
159.51400000000001
 20
184.08799999999999
 30
0.0
 11
159.51400000000001
 21
174.08799999999999
 31
0.0
  0
LINE
  5
195
  8
_________1
  6
AIGENLINE001
 62
     7
 10
169.51400000000001
 20
184.08799999999999
 30
0.0
 11
159.51400000000001
 21
184.08799999999999
 31
0.0
  0
LINE
  5
196
  8
_________1
  6
AIGENLINE002
 62
     7
 10
171.858
 20
219.08799999999999
 30
0.0
 11
157.59100000000001
 21
219.08799999999999
 31
0.0
  0
LINE
  5
197
  8
_________1
  6
AIGENLINE001
 62
     7
 10
169.51400000000001
 20
224.08799999999999
 30
0.0
 11
159.51400000000001
 21
214.08799999999999
 31
0.0
  0
LINE
  5
198
  8
_________1
  6
AIGENLINE001
 62
     7
 10
159.51400000000001
 20
224.08799999999999
 30
0.0
 11
169.51400000000001
 21
214.08799999999999
 31
0.0
  0
LINE
  5
199
  8
_________1
  6
AIGENLINE001
 62
     7
 10
169.51400000000001
 20
214.08799999999999
 30
0.0
 11
159.51400000000001
 21
214.08799999999999
 31
0.0
  0
LINE
  5
19A
  8
_________1
  6
AIGENLINE001
 62
     7
 10
169.51400000000001
 20
224.08799999999999
 30
0.0
 11
169.51400000000001
 21
214.08799999999999
 31
0.0
  0
LINE
  5
19B
  8
_________1
  6
AIGENLINE001
 62
     7
 10
159.51400000000001
 20
224.08799999999999
 30
0.0
 11
159.51400000000001
 21
214.08799999999999
 31
0.0
  0
LINE
  5
19C
  8
_________1
  6
AIGENLINE001
 62
     7
 10
169.51400000000001
 20
224.089
 30
0.0
 11
159.51400000000001
 21
224.089
 31
0.0
  0
ARC
  5
19D
  8
_________1
 62
     7
 10
-44.675986999999992
 20
199.08815899999999
 30
0.0
 40
200.18889200000001
 50
353.90668699999998
 51
6.0933129999999993
  0
ARC
  5
19E
  8
_________1
 62
     7
 10
315.70271000000002
 20
199.08815899999999
 30
0.0
 40
200.188244
 50
173.90664799999999
 51
186.09335200000001
  0
ARC
  5
19F
  8
_________1
 62
     7
 10
136.07104000000001
 20
180.71790100000001
 30
0.0
 40
19.637813000000001
 50
188.43142
 51
268.373648
  0
ARC
  5
1A0
  8
_________1
 62
     7
 10
134.93438800000001
 20
180.74262400000001
 30
0.0
 40
19.663160000000001
 50
271.68825500000003
 51
351.50671699999998
  0
LINE
  5
1A1
  8
_________1
 62
     7
 10
176.482
 20
126.809
 30
0.0
 11
176.482
 21
126.569
 31
0.0
  0
LINE
  5
1A2
  8
_________1
 62
     7
 10
94.482200000000006
 20
126.809
 30
0.0
 11
94.482200000000006
 21
126.569
 31
0.0
  0
LINE
  5
1A3
  8
_________1
 62
     7
 10
84.973799999999983
 20
126.809
 30
0.0
 11
84.973799999999983
 21
126.569
 31
0.0
  0
LINE
  5
1A4
  8
_________1
 62
     7
 10
38.973399999999998
 20
126.809
 30
0.0
 11
38.973399999999998
 21
126.569
 31
0.0
  0
LINE
  5
1A5
  8
_________1
 62
     7
 10
38.973399999999998
 20
126.809
 30
0.0
 11
84.973799999999983
 21
126.809
 31
0.0
  0
LINE
  5
1A6
  8
_________1
 62
     7
 10
147.18199999999999
 20
98.308800000000005
 30
0.0
 11
144.482
 21
97.808599999999998
 31
0.0
  0
LINE
  5
1A7
  8
_________1
 62
     7
 10
126.482
 20
97.808599999999998
 30
0.0
 11
123.782
 21
98.308800000000005
 31
0.0
  0
LINE
  5
1A8
  8
_________1
 62
     7
 10
126.482
 20
97.808599999999998
 30
0.0
 11
144.482
 21
97.808599999999998
 31
0.0
  0
LINE
  5
1A9
  8
_________1
 62
     7
 10
123.782
 20
98.308800000000005
 30
0.0
 11
147.18199999999999
 21
98.308800000000005
 31
0.0
  0
LINE
  5
1AA
  8
_________1
 62
     7
 10
147.18199999999999
 20
98.808400000000006
 30
0.0
 11
147.18199999999999
 21
98.308800000000005
 31
0.0
  0
LINE
  5
1AB
  8
_________1
 62
     7
 10
123.782
 20
98.808400000000006
 30
0.0
 11
123.782
 21
98.308800000000005
 31
0.0
  0
LINE
  5
1AC
  8
_________1
 62
     7
 10
123.782
 20
98.808400000000006
 30
0.0
 11
147.18199999999999
 21
98.808400000000006
 31
0.0
  0
LINE
  5
1AD
  8
_________1
 62
     7
 10
105.08499999999999
 20
98.808400000000006
 30
0.0
 11
165.89099999999999
 21
98.808400000000006
 31
0.0
  0
LINE
  5
1AE
  8
_________1
 62
     7
 10
94.482200000000006
 20
126.809
 30
0.0
 11
176.482
 21
126.809
 31
0.0
  0
LINE
  5
1AF
  8
_________1
 62
     7
 10
94.482200000000006
 20
126.569
 30
0.0
 11
176.482
 21
126.569
 31
0.0
  0
LINE
  5
1B0
  8
_________1
 62
     7
 10
153.42099999999999
 20
73.4589
 30
0.0
 11
153.42099999999999
 21
56.4589
 31
0.0
  0
LINE
  5
1B1
  8
_________1
 62
     7
 10
154.24299999999999
 20
73.4589
 30
0.0
 11
148.291
 21
73.4589
 31
0.0
  0
LINE
  5
1B2
  8
_________1
 62
     7
 10
154.24299999999999
 20
56.4589
 30
0.0
 11
140.994
 21
56.4589
 31
0.0
  0
LINE
  5
1B3
  8
_________1
 62
     7
 10
130.31299999999999
 20
51.08489999999999
 30
0.0
 11
152.714
 21
51.08489999999999
 31
0.0
  0
LINE
  5
1B4
  8
_________1
 62
     7
 10
140.114
 20
50.358999999999988
 30
0.0
 11
140.114
 21
55.72549999999999
 31
0.0
  0
LINE
  5
1B5
  8
_________1
 62
     7
 10
130.31299999999999
 20
50.358999999999988
 30
0.0
 11
130.31299999999999
 21
55.72549999999999
 31
0.0
  0
LINE
  5
1B6
  8
_________1
 62
     7
 10
123.914
 20
80.874499999999998
 30
0.0
 11
146.51400000000001
 21
80.874499999999998
 31
0.0
  0
LINE
  5
1B7
  8
_________1
 62
     7
 10
146.51400000000001
 20
76.892300000000006
 30
0.0
 11
146.51400000000001
 21
81.774299999999997
 31
0.0
  0
LINE
  5
1B8
  8
_________1
 62
     7
 10
123.914
 20
76.892300000000006
 30
0.0
 11
123.914
 21
81.774299999999997
 31
0.0
  0
LINE
  5
1B9
  8
_________1
 62
     7
 10
144.01400000000001
 20
75.459100000000007
 30
0.0
 11
144.01400000000001
 21
75.859099999999998
 31
0.0
  0
LINE
  5
1BA
  8
_________1
 62
     7
 10
144.01400000000001
 20
74.658799999999999
 30
0.0
 11
144.01400000000001
 21
75.059100000000001
 31
0.0
  0
LINE
  5
1BB
  8
_________1
 62
     7
 10
146.01300000000001
 20
75.459100000000007
 30
0.0
 11
146.01300000000001
 21
75.059100000000001
 31
0.0
  0
LINE
  5
1BC
  8
_________1
 62
     7
 10
146.51400000000001
 20
76.059200000000004
 30
0.0
 11
146.51400000000001
 21
75.859099999999998
 31
0.0
  0
LINE
  5
1BD
  8
_________1
 62
     7
 10
146.614
 20
74.658799999999999
 30
0.0
 11
146.614
 21
73.4589
 31
0.0
  0
LINE
  5
1BE
  8
_________1
 62
     7
 10
147.51300000000001
 20
71.459000000000003
 30
0.0
 11
147.51300000000001
 21
73.4589
 31
0.0
  0
LINE
  5
1BF
  8
_________1
 62
     7
 10
144.81399999999999
 20
69.859099999999998
 30
0.0
 11
144.81399999999999
 21
71.459000000000003
 31
0.0
  0
LINE
  5
1C0
  8
_________1
 62
     7
 10
144.81399999999999
 20
69.859099999999998
 30
0.0
 11
141.81399999999999
 21
66.458699999999993
 31
0.0
  0
LINE
  5
1C1
  8
_________1
 62
     7
 10
126.413
 20
75.459100000000007
 30
0.0
 11
126.413
 21
75.859099999999998
 31
0.0
  0
LINE
  5
1C2
  8
_________1
 62
     7
 10
126.413
 20
74.658799999999999
 30
0.0
 11
126.413
 21
75.059100000000001
 31
0.0
  0
LINE
  5
1C3
  8
_________1
 62
     7
 10
124.414
 20
75.459100000000007
 30
0.0
 11
124.414
 21
75.059100000000001
 31
0.0
  0
LINE
  5
1C4
  8
_________1
 62
     7
 10
123.914
 20
76.059200000000004
 30
0.0
 11
123.914
 21
75.859099999999998
 31
0.0
  0
LINE
  5
1C5
  8
_________1
 62
     7
 10
123.81399999999999
 20
74.658799999999999
 30
0.0
 11
123.81399999999999
 21
73.4589
 31
0.0
  0
LINE
  5
1C6
  8
_________1
 62
     7
 10
122.914
 20
71.459000000000003
 30
0.0
 11
122.914
 21
73.4589
 31
0.0
  0
LINE
  5
1C7
  8
_________1
 62
     7
 10
125.613
 20
69.859099999999998
 30
0.0
 11
125.613
 21
71.459000000000003
 31
0.0
  0
LINE
  5
1C8
  8
_________1
 62
     7
 10
125.613
 20
69.859099999999998
 30
0.0
 11
128.613
 21
66.458699999999993
 31
0.0
  0
LINE
  5
1C9
  8
_________1
 62
     7
 10
139.9129999999999
 20
59.858899999999998
 30
0.0
 11
140.114
 21
59.658799999999999
 31
0.0
  0
LINE
  5
1CA
  8
_________1
 62
     7
 10
140.114
 20
56.658700000000003
 30
0.0
 11
140.114
 21
59.658799999999999
 31
0.0
  0
LINE
  5
1CB
  8
_________1
 62
     7
 10
140.114
 20
56.658700000000003
 30
0.0
 11
139.9129999999999
 21
56.4589
 31
0.0
  0
LINE
  5
1CC
  8
_________1
 62
     7
 10
139.9129999999999
 20
59.858899999999998
 30
0.0
 11
139.9129999999999
 21
56.4589
 31
0.0
  0
LINE
  5
1CD
  8
_________1
 62
     7
 10
130.51400000000001
 20
59.858899999999998
 30
0.0
 11
130.51400000000001
 21
56.4589
 31
0.0
  0
LINE
  5
1CE
  8
_________1
 62
     7
 10
130.31299999999999
 20
56.658700000000003
 30
0.0
 11
130.51400000000001
 21
56.4589
 31
0.0
  0
LINE
  5
1CF
  8
_________1
 62
     7
 10
130.31299999999999
 20
56.658700000000003
 30
0.0
 11
130.31299999999999
 21
59.658799999999999
 31
0.0
  0
LINE
  5
1D0
  8
_________1
 62
     7
 10
130.51400000000001
 20
59.858899999999998
 30
0.0
 11
130.31299999999999
 21
59.658799999999999
 31
0.0
  0
LINE
  5
1D1
  8
_________1
 62
     7
 10
130.51400000000001
 20
59.858899999999998
 30
0.0
 11
139.9129999999999
 21
59.858899999999998
 31
0.0
  0
LINE
  5
1D2
  8
_________1
 62
     7
 10
141.81399999999999
 20
66.458699999999993
 30
0.0
 11
139.714
 21
59.858899999999998
 31
0.0
  0
LINE
  5
1D3
  8
_________1
 62
     7
 10
130.714
 20
59.858899999999998
 30
0.0
 11
128.613
 21
66.458699999999993
 31
0.0
  0
LINE
  5
1D4
  8
_________1
 62
     7
 10
130.51400000000001
 20
56.4589
 30
0.0
 11
139.9129999999999
 21
56.4589
 31
0.0
  0
LINE
  5
1D5
  8
_________1
 62
     7
 10
130.31299999999999
 20
56.658700000000003
 30
0.0
 11
140.114
 21
56.658700000000003
 31
0.0
  0
LINE
  5
1D6
  8
_________1
 62
     7
 10
130.31299999999999
 20
59.658799999999999
 30
0.0
 11
140.114
 21
59.658799999999999
 31
0.0
  0
LINE
  5
1D7
  8
_________1
 62
     7
 10
128.613
 20
66.458699999999993
 30
0.0
 11
141.81399999999999
 21
66.458699999999993
 31
0.0
  0
LINE
  5
1D8
  8
_________1
 62
     7
 10
125.613
 20
69.859099999999998
 30
0.0
 11
144.81399999999999
 21
69.859099999999998
 31
0.0
  0
LINE
  5
1D9
  8
_________1
 62
     7
 10
122.914
 20
71.459000000000003
 30
0.0
 11
147.51300000000001
 21
71.459000000000003
 31
0.0
  0
LINE
  5
1DA
  8
_________1
 62
     7
 10
122.914
 20
73.4589
 30
0.0
 11
147.51300000000001
 21
73.4589
 31
0.0
  0
LINE
  5
1DB
  8
_________1
 62
     7
 10
123.81399999999999
 20
74.658799999999999
 30
0.0
 11
146.614
 21
74.658799999999999
 31
0.0
  0
LINE
  5
1DC
  8
_________1
 62
     7
 10
124.414
 20
75.059100000000001
 30
0.0
 11
146.01300000000001
 21
75.059100000000001
 31
0.0
  0
LINE
  5
1DD
  8
_________1
 62
     7
 10
124.414
 20
75.459100000000007
 30
0.0
 11
146.01300000000001
 21
75.459100000000007
 31
0.0
  0
LINE
  5
1DE
  8
_________1
 62
     7
 10
123.914
 20
75.859099999999998
 30
0.0
 11
146.51400000000001
 21
75.859099999999998
 31
0.0
  0
LINE
  5
1DF
  8
_________1
 62
     7
 10
123.914
 20
76.059200000000004
 30
0.0
 11
146.51400000000001
 21
76.059200000000004
 31
0.0
  0
LINE
  5
1E0
  8
_________1
  6
AIGENLINE002
 62
     7
 10
135.51400000000001
 20
54.5944
 30
0.0
 11
135.51400000000001
 21
77.559600000000003
 31
0.0
  0
INSERT
  5
1E1
  8
_________1
 62
     7
  2
AIGNBL0201000A
 10
0.0
 20
0.0
 30
0.0
  0
INSERT
  5
1E2
  8
_________1
 62
     7
  2
AIGNBL0201000B
 10
0.0
 20
0.0
 30
0.0
  0
INSERT
  5
1E3
  8
_________1
 62
     7
  2
AIGNBL0201000C
 10
0.0
 20
0.0
 30
0.0
  0
LINE
  5
1E4
  8
_________1
 62
     7
 10
32.260599999999997
 20
98.808400000000006
 30
0.0
 11
44.450299999999999
 21
98.808400000000006
 31
0.0
  0
LINE
  5
1E5
  8
_________1
 62
     7
 10
32.260599999999997
 20
126.809
 30
0.0
 11
38.436700000000002
 21
126.809
 31
0.0
  0
INSERT
  5
1E6
  8
_________1
 62
     7
  2
AIGNBL0201000D
 10
0.0
 20
0.0
 30
0.0
  0
INSERT
  5
1E7
  8
_________1
 62
     7
  2
AIGNBL0201000E
 10
0.0
 20
0.0
 30
0.0
  0
LINE
  5
1E8
  8
_________1
 62
     7
 10
73.6738
 20
98.308800000000005
 30
0.0
 11
70.973500000000001
 21
97.808599999999998
 31
0.0
  0
LINE
  5
1E9
  8
_________1
 62
     7
 10
52.973500000000001
 20
97.808599999999998
 30
0.0
 11
50.273600000000002
 21
98.308800000000005
 31
0.0
  0
LINE
  5
1EA
  8
_________1
 62
     7
 10
52.973500000000001
 20
97.808599999999998
 30
0.0
 11
70.973500000000001
 21
97.808599999999998
 31
0.0
  0
LINE
  5
1EB
  8
_________1
 62
     7
 10
50.273600000000002
 20
98.308800000000005
 30
0.0
 11
73.6738
 21
98.308800000000005
 31
0.0
  0
LINE
  5
1EC
  8
_________1
 62
     7
 10
73.6738
 20
98.808400000000006
 30
0.0
 11
73.6738
 21
98.308800000000005
 31
0.0
  0
LINE
  5
1ED
  8
_________1
 62
     7
 10
50.273600000000002
 20
98.808400000000006
 30
0.0
 11
50.273600000000002
 21
98.308800000000005
 31
0.0
  0
LINE
  5
1EE
  8
_________1
  6
AIGENLINE002
 62
     7
 10
61.973500000000001
 20
94.247000000000014
 30
0.0
 11
61.973500000000001
 21
130.41499999999999
 31
0.0
  0
LINE
  5
1EF
  8
_________1
 62
     7
 10
47.659199999999998
 20
98.808400000000006
 30
0.0
 11
76.287800000000004
 21
98.808400000000006
 31
0.0
  0
LINE
  5
1F0
  8
_________1
 62
     7
 10
43.677500000000002
 20
125.036
 30
0.0
 11
44.661799999999999
 21
101.682
 31
0.0
  0
LINE
  5
1F1
  8
_________1
 62
     7
 10
38.973399999999998
 20
126.569
 30
0.0
 11
84.973799999999983
 21
126.569
 31
0.0
  0
LINE
  5
1F2
  8
_________1
 62
     7
 10
49.215400000000002
 20
163.08799999999999
 30
0.0
 11
30.822800000000001
 21
163.08799999999999
 31
0.0
  0
LINE
  5
1F3
  8
_________1
 62
     7
 10
49.215400000000002
 20
235.08799999999999
 30
0.0
 11
30.822800000000001
 21
235.08799999999999
 31
0.0
  0
INSERT
  5
1F4
  8
_________1
 62
     7
  2
AIGNBL0201000F
 10
0.0
 20
0.0
 30
0.0
  0
LINE
  5
1F5
  8
_________1
 62
     7
 10
41.094200000000001
 20
240.08799999999999
 30
0.0
 11
24.221800000000002
 21
240.08799999999999
 31
0.0
  0
LINE
  5
1F6
  8
_________1
 62
     7
 10
41.094200000000001
 20
158.08799999999999
 30
0.0
 11
24.221800000000002
 21
158.08799999999999
 31
0.0
  0
INSERT
  5
1F7
  8
_________1
 62
     7
  2
AIGNBL02010010
 10
0.0
 20
0.0
 30
0.0
  0
INSERT
  5
1F8
  8
_________1
 62
     7
  2
AIGNBL02010011
 10
0.0
 20
0.0
 30
0.0
  0
LINE
  5
1F9
  8
_________1
 62
     7
 10
84.973799999999983
 20
143.30799999999999
 30
0.0
 11
84.973799999999983
 21
161.06399999999999
 31
0.0
  0
LINE
  5
1FA
  8
_________1
 62
     7
 10
39.110500000000002
 20
143.30799999999999
 30
0.0
 11
39.110500000000002
 21
161.06399999999999
 31
0.0
  0
INSERT
  5
1FB
  8
_________1
 62
     7
  2
AIGNBL02010012
 10
0.0
 20
0.0
 30
0.0
  0
LINE
  5
1FC
  8
_________1
 62
     7
 10
79.973600000000005
 20
149.32599999999999
 30
0.0
 11
79.973600000000005
 21
168.98699999999999
 31
0.0
  0
LINE
  5
1FD
  8
_________1
 62
     7
 10
43.973500000000001
 20
149.32599999999999
 30
0.0
 11
43.973500000000001
 21
168.98699999999999
 31
0.0
  0
INSERT
  5
1FE
  8
_________1
 62
     7
  2
AIGNBL02010013
 10
0.0
 20
0.0
 30
0.0
  0
ARC
  5
1FF
  8
_________1
 62
     7
 10
61.973523
 20
199.087985
 30
0.0
 40
11.500147999999999
 50
0.00001
 51
89.999980000000008
  0
ARC
  5
200
  8
_________1
 62
     7
 10
61.973526999999997
 20
199.087985
 30
0.0
 40
11.500147999999999
 50
90.0
 51
179.99996999999999
  0
ARC
  5
201
  8
_________1
 62
     7
 10
61.973351000000001
 20
199.088157
 30
0.0
 40
11.499972
 50
180.000868
 51
270.000878
  0
ARC
  5
202
  8
_________1
 62
     7
 10
61.973695999999997
 20
199.08816100000001
 30
0.0
 40
11.499976
 50
269.99916200000001
 51
359.99913199999997
  0
ARC
  5
203
  8
_________1
 62
     7
 10
61.973351999999998
 20
199.088157
 30
0.0
 40
9.1001070000000013
 50
359.99892499999999
 51
89.998896000000016
  0
ARC
  5
204
  8
_________1
 62
     7
 10
61.973698999999989
 20
199.088157
 30
0.0
 40
9.1001070000000013
 50
90.001085000000003
 51
180.00109399999999
  0
ARC
  5
205
  8
_________1
 62
     7
 10
61.973523999999991
 20
199.087985
 30
0.0
 40
9.0999309999999998
 50
179.99996999999999
 51
270.00002000000001
  0
ARC
  5
206
  8
_________1
 62
     7
 10
61.973523999999991
 20
199.087988
 30
0.0
 40
9.0999339999999993
 50
270.00002000000001
 51
359.99999000000003
  0
LINE
  5
207
  8
_________1
 62
     7
 10
53.295099999999991
 20
223.072
 30
0.0
 11
58.037300000000002
 21
209.89699999999999
 31
0.0
  0
LINE
  5
208
  8
_________1
 62
     7
 10
38.973399999999998
 20
232.08799999999999
 30
0.0
 11
38.973399999999998
 21
166.08799999999999
 31
0.0
  0
LINE
  5
209
  8
_________1
 62
     7
 10
76.973699999999994
 20
240.08799999999999
 30
0.0
 11
46.973300000000002
 21
240.08799999999999
 31
0.0
  0
ARC
  5
20A
  8
_________1
 62
     7
 10
46.973486000000001
 20
232.08841899999999
 30
0.0
 40
8.0000800000000005
 50
90.001234000000011
 51
180.00124400000001
  0
LINE
  5
20B
  8
_________1
 62
     7
 10
76.973699999999994
 20
158.08799999999999
 30
0.0
 11
46.973300000000002
 21
158.08799999999999
 31
0.0
  0
ARC
  5
20C
  8
_________1
 62
     7
 10
46.973483000000002
 20
166.087896
 30
0.0
 40
8.0000780000000002
 50
179.99873700000001
 51
269.998786
  0
LINE
  5
20D
  8
_________1
 62
     7
 10
84.973799999999983
 20
232.08799999999999
 30
0.0
 11
84.973799999999983
 21
166.08799999999999
 31
0.0
  0
ARC
  5
20E
  8
_________1
 62
     7
 10
76.973651000000004
 20
166.087985
 30
0.0
 40
8.0001669999999994
 50
270.00063699999998
 51
0.000607
  0
ARC
  5
20F
  8
_________1
 62
     7
 10
76.973651000000004
 20
232.08833300000001
 30
0.0
 40
8.0001669999999994
 50
359.999393
 51
89.999362999999988
  0
LINE
  5
210
  8
_________2
 62
     7
 10
205.30099999999999
 20
127.411
 30
0.0
 11
183.55000000000001
 21
127.411
 31
0.0
  0
LINE
  5
211
  8
_________2
 62
     7
 10
100.3
 20
-4.0910799999999998
 30
0.0
 11
100.3
 21
-21.071400000000001
 31
0.0
  0
LINE
  5
212
  8
_________2
 62
     7
 10
100.3
 20
275.93000000000001
 30
0.0
 11
100.3
 21
258.91000000000003
 31
0.0
  0
LINE
  5
213
  8
_________2
 62
     7
 10
17.049499999999998
 20
127.411
 30
0.0
 11
-4.70052
 21
127.411
 31
0.0
  0
INSERT
  5
214
  8
_________2
 62
     7
  2
AIGNBL03010002
 10
0.0
 20
0.0
 30
0.0
  0
TEXT
  5
215
  8
_________2
 62
     7
 10
104.605
 20
1.6794899999999999
 30
0.0
 40
3.0923400000000001
  1
図番
 41
0.5
  0
LINE
  5
216
  8
_________2
 62
     7
 10
103.55
 20
5.9087199999999989
 30
0.0
 11
183.55099999999999
 21
5.9087199999999989
 31
0.0
  0
TEXT
  5
217
  8
_________2
 62
     7
 10
104.605
 20
11.6793
 30
0.0
 40
3.0923400000000001
  1
品番
 41
0.5
  0
TEXT
  5
218
  8
_________2
 62
     7
 10
104.605
 20
31.818100000000001
 30
0.0
 40
3.0923400000000001
  1
名称
 41
0.5
  0
TEXT
  5
219
  8
_________2
 62
     7
 10
91.845058333333341
 20
26.821999999999999
 30
0.0
 40
3.6545800000000002
  1
mm
 41
0.5
 72
     1
 11
93.367800000000003
 21
26.821999999999999
 31
0.0
  0
TEXT
  5
21A
  8
_________2
 62
     7
 10
85.643199999999993
 20
31.818100000000001
 30
0.0
 40
3.0923400000000001
  1
単位
 41
0.5
  0
TEXT
  5
21B
  8
_________2
 62
     7
 10
85.643199999999993
 20
19.410799999999998
 30
0.0
 40
3.0923400000000001
  1
尺度
 41
0.5
  0
TEXT
  5
21C
  8
_________2
 62
     7
 10
90.548758666666686
 20
13.2179
 30
0.0
 40
3.6545800000000002
  1
1 ： 5
 41
0.5
 72
     1
 11
93.959699999999998
 21
13.2179
 31
0.0
  0
TEXT
  5
21D
  8
_________2
 62
     7
 10
136.33455000000001
 20
9.1078600000000005
 30
0.0
 40
3.9357000000000002
  1
KDKSS1UT
 41
0.5
 72
     1
 11
143.55000000000001
 21
9.1078600000000005
 31
0.0
  0
TEXT
  5
21E
  8
_________2
 62
     7
 10
136.33455000000001
 20
-0.8926299999999999
 30
0.0
 40
3.9357000000000002
  1
KDKSS1UT
 41
0.5
 72
     1
 11
143.55000000000001
 21
-0.8926299999999999
 31
0.0
  0
TEXT
  5
21F
  8
_________2
 62
     7
 10
109.179
 20
25.2258
 30
0.0
 40
3.9357000000000002
  1
ステンレス製・パーティーシンク
 41
0.5
  0
TEXT
  5
220
  8
_________2
 62
     7
 10
109.179
 20
20.3062
 30
0.0
 40
3.9357000000000002
  1
（アンダーカウンター式）
 41
0.5
  0
TEXT
  5
221
  8
_________2
 62
     7
 10
39.303480999999998
 20
13.603
 30
0.0
 40
3.6545800000000002
  1
中村
 41
0.5
 72
     1
 11
41.313499999999998
 21
13.603
 31
0.0
  0
TEXT
  5
222
  8
_________2
 62
     7
 10
20.851000333333339
 20
13.603
 30
0.0
 40
3.6545800000000002
  1
井田
 41
0.5
 72
     1
 11
22.7392
 21
13.603
 31
0.0
  0
TEXT
  5
223
  8
_________2
 62
     7
 10
67.785399999999996
 20
13.2179
 30
0.0
 40
3.6545800000000002
  1
17.06.26
 41
0.5
  0
TEXT
  5
224
  8
_________2
 62
     7
 10
66.593100000000007
 20
19.410799999999998
 30
0.0
 40
3.0923400000000001
  1
日付
 41
0.5
  0
TEXT
  5
225
  8
_________2
 62
     7
 10
29.639399999999998
 20
19.410799999999998
 30
0.0
 40
3.0923400000000001
  1
検図
 41
0.5
  0
TEXT
  5
226
  8
_________2
 62
     7
 10
18.021100000000001
 20
5.21143
 30
0.0
 40
3.0923400000000001
  1
備考
 41
0.5
  0
TEXT
  5
227
  8
_________2
 62
     7
 10
18.021100000000001
 20
19.410799999999998
 30
0.0
 40
3.0923400000000001
  1
製図
 41
0.5
  0
TEXT
  5
228
  8
_________2
 62
     7
 10
23.788465333333338
 20
27.936800000000002
 30
0.0
 40
4.4979399999999989
  1
セラトレーディング株式会社
 41
0.5
 72
     1
 11
41.180500000000002
 21
27.936800000000002
 31
0.0
  0
LINE
  5
229
  8
_________2
 62
     7
 10
183.55099999999999
 20
-4.0910799999999998
 30
0.0
 11
17.049499999999998
 21
-4.0910799999999998
 31
0.0
  0
LINE
  5
22A
  8
_________2
 62
     7
 10
17.049499999999998
 20
-4.0910799999999998
 30
0.0
 11
17.049499999999998
 21
258.91000000000003
 31
0.0
  0
LINE
  5
22B
  8
_________2
 62
     7
 10
17.049499999999998
 20
258.91000000000003
 30
0.0
 11
183.55099999999999
 21
258.91000000000003
 31
0.0
  0
LINE
  5
22C
  8
_________2
 62
     7
 10
183.55099999999999
 20
258.91000000000003
 30
0.0
 11
183.55099999999999
 21
-4.0910799999999998
 31
0.0
  0
LINE
  5
22D
  8
_________2
 62
     7
 10
65.549599999999998
 20
9.4089600000000004
 30
0.0
 11
65.549599999999998
 21
35.908799999999999
 31
0.0
  0
LINE
  5
22E
  8
_________2
 62
     7
 10
84.549700000000016
 20
9.4089600000000004
 30
0.0
 11
84.549700000000016
 21
35.908799999999999
 31
0.0
  0
LINE
  5
22F
  8
_________2
 62
     7
 10
103.55
 20
-4.0910799999999998
 30
0.0
 11
103.55
 21
35.908799999999999
 31
0.0
  0
LINE
  5
230
  8
_________2
 62
     7
 10
28.549299999999999
 20
9.4089600000000004
 30
0.0
 11
28.549299999999999
 21
23.409199999999998
 31
0.0
  0
LINE
  5
231
  8
_________2
 62
     7
 10
17.049499999999998
 20
9.4089600000000004
 30
0.0
 11
103.55
 21
9.4089600000000004
 31
0.0
  0
LINE
  5
232
  8
_________2
 62
     7
 10
17.049499999999998
 20
23.409199999999998
 30
0.0
 11
103.55
 21
23.409199999999998
 31
0.0
  0
LINE
  5
233
  8
_________2
 62
     7
 10
103.55
 20
15.9085
 30
0.0
 11
183.55099999999999
 21
15.9085
 31
0.0
  0
LINE
  5
234
  8
_________2
 62
     7
 10
17.049499999999998
 20
35.908799999999999
 30
0.0
 11
183.55099999999999
 21
35.908799999999999
 31
0.0
  0
ENDSEC
  0
EOF
