  0
SECTION
  2
HEADER
  9
$ACADVER
  1
AC1009
  9
$INSBASE
 10
0.0
 20
0.0
 30
0.0
  9
$EXTMIN
 10
-4.70052
 20
-21.071400000000001
 30
0.0
  9
$EXTMAX
 10
205.30099999999999
 20
275.93000000000001
 30
0.0
  9
$LIMMIN
 10
0.0
 20
0.0
  9
$LIMMAX
 10
12.0
 20
9.0
  9
$ORTHOMODE
 70
     0
  9
$REGENMODE
 70
     1
  9
$FILLMODE
 70
     1
  9
$QTEXTMODE
 70
     0
  9
$MIRRTEXT
 70
     1
  9
$DRAGMODE
 70
     2
  9
$LTSCALE
 40
1.0
  9
$OSMODE
 70
    37
  9
$ATTMODE
 70
     1
  9
$TEXTSIZE
 40
0.0
  9
$TRACEWID
 40
0.05
  9
$TEXTSTYLE
  7
STANDARD
  9
$CLAYER
  8
0
  9
$CELTYPE
  6
CONTINUOUS
  9
$CECOLOR
 62
   256
  9
$DIMSCALE
 40
1.0
  9
$DIMASZ
 40
0.18
  9
$DIMEXO
 40
0.0625
  9
$DIMDLI
 40
0.38
  9
$DIMRND
 40
0.0
  9
$DIMDLE
 40
0.0
  9
$DIMEXE
 40
0.18
  9
$DIMTP
 40
0.0
  9
$DIMTM
 40
0.0
  9
$DIMTXT
 40
0.18
  9
$DIMCEN
 40
0.09
  9
$DIMTSZ
 40
0.0
  9
$DIMTOL
 70
     0
  9
$DIMLIM
 70
     0
  9
$DIMTIH
 70
     1
  9
$DIMTOH
 70
     1
  9
$DIMSE1
 70
     0
  9
$DIMSE2
 70
     0
  9
$DIMTAD
 70
     0
  9
$DIMZIN
 70
     0
  9
$DIMBLK
  1

  9
$DIMASO
 70
     1
  9
$DIMSHO
 70
     1
  9
$DIMPOST
  1

  9
$DIMAPOST
  1

  9
$DIMALT
 70
     0
  9
$DIMALTD
 70
     2
  9
$DIMALTF
 40
25.399999999999999
  9
$DIMLFAC
 40
1.0
  9
$DIMTOFL
 70
     0
  9
$DIMTVP
 40
0.0
  9
$DIMTIX
 70
     0
  9
$DIMSOXD
 70
     0
  9
$DIMSAH
 70
     0
  9
$DIMBLK1
  1

  9
$DIMBLK2
  1

  9
$DIMSTYLE
  2
STANDARD
  9
$DIMCLRD
 70
     0
  9
$DIMCLRE
 70
     0
  9
$DIMCLRT
 70
     0
  9
$DIMTFAC
 40
1.0
  9
$DIMGAP
 40
0.09
  9
$LUNITS
 70
     2
  9
$LUPREC
 70
     4
  9
$SKETCHINC
 40
0.1
  9
$FILLETRAD
 40
0.0
  9
$AUNITS
 70
     0
  9
$AUPREC
 70
     0
  9
$MENU
  1
.
  9
$ELEVATION
 40
0.0
  9
$PELEVATION
 40
0.0
  9
$THICKNESS
 40
0.0
  9
$LIMCHECK
 70
     0
  9
$BLIPMODE
 70
     0
  9
$CHAMFERA
 40
0.0
  9
$CHAMFERB
 40
0.0
  9
$SKPOLY
 70
     0
  9
$TDCREATE
 40
2444972.375
  9
$TDUPDATE
 40
2457478.2472008909
  9
$TDINDWG
 40
0.0000371065
  9
$TDUSRTIMER
 40
0.0000371065
  9
$USRTIMER
 70
     1
  9
$ANGBASE
 50
0.0
  9
$ANGDIR
 70
     0
  9
$PDMODE
 70
     0
  9
$PDSIZE
 40
0.0
  9
$PLINEWID
 40
0.0
  9
$COORDS
 70
     1
  9
$SPLFRAME
 70
     0
  9
$SPLINETYPE
 70
     6
  9
$SPLINESEGS
 70
     8
  9
$ATTDIA
 70
     1
  9
$ATTREQ
 70
     1
  9
$HANDLING
 70
     1
  9
$HANDSEED
  5
3D2
  9
$SURFTAB1
 70
     6
  9
$SURFTAB2
 70
     6
  9
$SURFTYPE
 70
     6
  9
$SURFU
 70
     6
  9
$SURFV
 70
     6
  9
$UCSNAME
  2

  9
$UCSORG
 10
0.0
 20
0.0
 30
0.0
  9
$UCSXDIR
 10
1.0
 20
0.0
 30
0.0
  9
$UCSYDIR
 10
0.0
 20
1.0
 30
0.0
  9
$PUCSNAME
  2

  9
$PUCSORG
 10
0.0
 20
0.0
 30
0.0
  9
$PUCSXDIR
 10
1.0
 20
0.0
 30
0.0
  9
$PUCSYDIR
 10
0.0
 20
1.0
 30
0.0
  9
$USERI1
 70
     0
  9
$USERI2
 70
     0
  9
$USERI3
 70
     0
  9
$USERI4
 70
     0
  9
$USERI5
 70
     0
  9
$USERR1
 40
0.0
  9
$USERR2
 40
0.0
  9
$USERR3
 40
0.0
  9
$USERR4
 40
0.0
  9
$USERR5
 40
0.0
  9
$WORLDVIEW
 70
     1
  9
$SHADEDGE
 70
     3
  9
$SHADEDIF
 70
    70
  9
$TILEMODE
 70
     1
  9
$MAXACTVP
 70
    48
  9
$PLIMCHECK
 70
     0
  9
$PEXTMIN
 10
1.0000000000000000E+020
 20
1.0000000000000000E+020
 30
1.0000000000000000E+020
  9
$PEXTMAX
 10
-1.0000000000000000E+020
 20
-1.0000000000000000E+020
 30
-1.0000000000000000E+020
  9
$PLIMMIN
 10
0.0
 20
0.0
  9
$PLIMMAX
 10
12.0
 20
9.0
  9
$UNITMODE
 70
     0
  9
$VISRETAIN
 70
     1
  9
$PLINEGEN
 70
     0
  9
$PSLTSCALE
 70
     1
  0
ENDSEC
  0
SECTION
  2
TABLES
  0
TABLE
  2
VPORT
 70
     1
  0
VPORT
  2
*ACTIVE
 70
     0
 10
0.0
 20
0.0
 11
1.0
 21
1.0
 12
156.2904114449201
 22
127.4293
 13
0.0
 23
0.0
 14
1.0
 24
1.0
 15
0.0
 25
0.0
 16
0.0
 26
0.0
 36
1.0
 17
0.0
 27
0.0
 37
0.0
 40
282.89897131949419
 41
2.0381526104417671
 42
50.0
 43
0.0
 44
0.0
 50
0.0
 51
0.0
 71
     0
 72
   100
 73
     1
 74
     1
 75
     0
 76
     0
 77
     0
 78
     0
  0
ENDTAB
  0
TABLE
  2
LTYPE
 70
     3
  0
LTYPE
  2
CONTINUOUS
 70
     0
  3
Solid line
 72
    65
 73
     0
 40
0.0
  0
LTYPE
  2
AIGENLINE001
 70
     0
  3
generate AI->DXF Converter
 72
    65
 73
     4
 40
5.8561449999999988
 49
3.5278
 49
-0.776115
 49
0.776115
 49
-0.776115
  0
LTYPE
  2
AIGENLINE002
 70
     0
  3
generate AI->DXF Converter
 72
    65
 73
     6
 40
7.4083750000000004
 49
3.5278
 49
-0.776115
 49
0.776115
 49
-0.776115
 49
0.776115
 49
-0.776115
  0
ENDTAB
  0
TABLE
  2
LAYER
 70
     2
  0
LAYER
  2
0
 70
     0
 62
     7
  6
CONTINUOUS
  0
LAYER
  2
_________2
 70
     0
 62
     7
  6
CONTINUOUS
  0
ENDTAB
  0
TABLE
  2
STYLE
 70
     1
  0
STYLE
  2
STANDARD
 70
     0
 40
0.0
 41
0.0
 50
0.0
 71
     0
 42
0.0
  3
TXT
  4
EXTFONT.SHX
  0
ENDTAB
  0
TABLE
  2
VIEW
 70
     0
  0
ENDTAB
  0
TABLE
  2
UCS
 70
     0
  0
ENDTAB
  0
TABLE
  2
APPID
 70
     3
  0
APPID
  2
ACAD
 70
     0
  0
APPID
  2
ACAD_NAV_VCDISPLAY
 70
     0
  0
APPID
  2
ACAD_MLEADERVER
 70
     0
  0
ENDTAB
  0
TABLE
  2
DIMSTYLE
 70
     1
  0
DIMSTYLE
  2
STANDARD
 70
     0
  3

  4

  5

  6

  7

 40
1.0
 41
0.18
 42
0.0625
 43
0.38
 44
0.18
 45
0.0
 46
0.0
 47
0.0
 48
0.0
140
0.18
141
0.09
142
0.0
143
25.399999999999999
144
1.0
145
0.0
146
1.0
147
0.09
 71
     0
 72
     0
 73
     1
 74
     1
 75
     0
 76
     0
 77
     0
 78
     0
170
     0
171
     2
172
     0
173
     0
174
     0
175
     0
176
     0
177
     0
178
     0
  0
ENDTAB
  0
ENDSEC
  0
SECTION
  2
BLOCKS
  0
BLOCK
  8
0
  2
$MODEL_SPACE
 70
     0
 10
0.0
 20
0.0
 30
0.0
  3
$MODEL_SPACE
  1

  0
ENDBLK
  5
1A
  8
0
  0
BLOCK
 67
     1
  8
0
  2
$PAPER_SPACE
 70
     0
 10
0.0
 20
0.0
 30
0.0
  3
$PAPER_SPACE
  1

  0
ENDBLK
  5
17
 67
     1
  8
0
  0
ENDSEC
  0
SECTION
  2
ENTITIES
  0
TEXT
  5
23
  8
0
 62
     7
 10
141.94074499999999
 20
109.004
 30
0.0
 40
3.0923400000000001
  1
%%c113
 41
0.5
 72
     1
 11
144.25999999999999
 21
109.004
 31
0.0
  0
TEXT
  5
24
  8
0
 62
     7
 10
56.334818000000013
 20
51.314300000000003
 30
0.0
 40
3.0923400000000001
  1
固定部詳細 1：3
 41
0.5
 72
     1
 11
63.447200000000002
 21
51.314300000000003
 31
0.0
  0
TEXT
  5
25
  8
0
 62
     7
 10
81.119467499999985
 20
101.682
 30
0.0
 40
3.0923400000000001
  1
10
 41
0.5
 72
     1
 11
82.021399999999986
 21
101.682
 31
0.0
  0
TEXT
  5
26
  8
0
 62
     7
 10
58.475200000000001
 20
81.3399
 30
0.0
 40
3.0923400000000001
  1
カウンター
 41
0.5
  0
TEXT
  5
27
  8
0
 62
     7
 10
61.753399999999999
 20
70.027199999999993
 30
0.0
 40
3.0923400000000001
  1
固定金具\U+00D74
 41
0.5
  0
TEXT
  5
28
  8
0
 62
     7
 10
68.037599999999998
 20
88.432395499999984
 30
0.0
 40
3.0923400000000001
  1
15～50
 50
90.0
 41
0.5
 72
     1
 11
68.037599999999998
 21
91.808199999999999
 31
0.0
  0
TEXT
  5
29
  8
0
 62
     7
 10
74.786100000000005
 20
109.081
 30
0.0
 40
3.0923400000000001
  1
クッションテープ
 41
0.5
  0
TEXT
  5
2A
  8
0
 62
     7
 10
37.323900000000002
 20
153.43422000000001
 30
0.0
 40
3.0923400000000001
  1
5
 50
90.0
 41
0.5
 72
     2
 11
37.323900000000002
 21
154.465
 31
0.0
  0
TEXT
  5
2B
  8
0
 62
     7
 10
30.430900000000001
 20
134.97098249999999
 30
0.0
 40
3.0923400000000001
  1
150
 50
90.0
 41
0.5
 72
     1
 11
30.430900000000001
 21
136.64599999999999
 31
0.0
  0
TEXT
  5
2C
  8
0
 62
     7
 10
69.243039999999993
 20
170.066
 30
0.0
 40
3.0923400000000001
  1
345
 41
0.5
 72
     1
 11
71.304599999999994
 21
170.066
 31
0.0
  0
TEXT
  5
2D
  8
0
 62
     7
 10
136.01375999999999
 20
179.524
 30
0.0
 40
3.0923400000000001
  1
カウンター切込寸法
 41
0.5
 72
     1
 11
144.25999999999999
 21
179.524
 31
0.0
  0
TEXT
  5
2E
  8
0
 62
     7
 10
139.7589205714286
 20
46.464599999999997
 30
0.0
 40
3.0923400000000001
  1
排水金具付
 41
0.5
 72
     1
 11
144.20599999999999
 21
46.464599999999997
 31
0.0
  0
TEXT
  5
2F
  8
0
 62
     7
 10
151.61661799999999
 20
54.529699999999998
 30
0.0
 40
3.0923400000000001
  1
G1 1/2
 41
0.5
 72
     2
 11
158.72900000000001
 21
54.529699999999998
 31
0.0
  0
TEXT
  5
30
  8
0
 62
     7
 10
142.32728750000001
 20
239.93899999999999
 30
0.0
 40
3.0923400000000001
  1
320
 41
0.5
 72
     1
 11
144.25999999999999
 21
239.93899999999999
 31
0.0
  0
TEXT
  5
31
  8
0
 62
     7
 10
69.243039999999993
 20
177.24199999999999
 30
0.0
 40
3.0923400000000001
  1
295
 41
0.5
 72
     1
 11
71.304599999999994
 21
177.24199999999999
 31
0.0
  0
TEXT
  5
32
  8
0
 62
     7
 10
35.814100000000003
 20
207.5994399999999
 30
0.0
 40
3.0923400000000001
  1
235
 50
90.0
 41
0.5
 72
     1
 11
35.814100000000003
 21
209.661
 31
0.0
  0
TEXT
  5
33
  8
0
 62
     7
 10
158.483
 20
65.479624999999999
 30
0.0
 40
3.0923400000000001
  1
85
 50
90.0
 41
0.5
 72
     1
 11
158.483
 21
66.768100000000004
 31
0.0
  0
TEXT
  5
34
  8
0
 62
     7
 10
161.199365885166
 20
223.323365885166
 30
0.0
 40
3.0923400000000001
  1
R70
 50
45.0
 41
0.5
 72
     1
 11
162.566
 21
224.69
 31
0.0
  0
TEXT
  5
35
  8
0
 62
     7
 10
79.173004457136145
 20
199.0022358585843
 30
0.0
 40
3.0923400000000001
  1
%%c91
 50
2.06128
 41
0.5
 72
     2
 11
82.778400000000005
 21
199.13200000000001
 31
0.0
  0
TEXT
  5
36
  8
0
 62
     7
 10
123.442365885166
 20
195.30236588516601
 30
0.0
 40
3.0923400000000001
  1
R70
 50
45.0
 41
0.5
 72
     1
 11
124.809
 21
196.66900000000001
 31
0.0
  0
TEXT
  5
37
  8
0
 62
     7
 10
153.88
 20
212.15528749999999
 30
0.0
 40
3.0923400000000001
  1
260
 50
90.0
 41
0.5
 72
     1
 11
153.88
 21
214.08799999999999
 31
0.0
  0
TEXT
  5
38
  8
0
 62
     7
 10
28.196200000000001
 20
207.5994399999999
 30
0.0
 40
3.0923400000000001
  1
285
 50
90.0
 41
0.5
 72
     1
 11
28.196200000000001
 21
209.661
 31
0.0
  0
ARC
  5
39
  8
0
 62
     7
 10
144.26049499999999
 20
93.958337
 30
0.0
 40
6.9167630000000004
 50
0.00001
 51
89.999980000000008
  0
ARC
  5
3A
  8
0
 62
     7
 10
144.26066900000001
 20
93.958510000000004
 30
0.0
 40
6.9165910000000004
 50
90.001427000000007
 51
180.0014369999999
  0
ARC
  5
3B
  8
0
 62
     7
 10
144.2606669999999
 20
93.958164999999994
 30
0.0
 40
6.916588
 50
179.9985429999999
 51
269.99859300000003
  0
ARC
  5
3C
  8
0
 62
     7
 10
144.26049499999999
 20
93.958340000000007
 30
0.0
 40
6.9167630000000004
 50
270.00002000000001
 51
359.99999000000003
  0
ARC
  5
3D
  8
0
 62
     7
 10
144.26049499999999
 20
93.958337
 30
0.0
 40
7.083507
 50
0.00001
 51
89.999980000000008
  0
ARC
  5
3E
  8
0
 62
     7
 10
144.26066900000001
 20
93.958510000000004
 30
0.0
 40
7.0833349999999999
 50
90.001392999999993
 51
180.00140300000001
  0
ARC
  5
3F
  8
0
 62
     7
 10
144.2606669999999
 20
93.958164999999994
 30
0.0
 40
7.0833320000000004
 50
179.99857700000001
 51
269.998627
  0
ARC
  5
40
  8
0
 62
     7
 10
144.26049499999999
 20
93.958340000000007
 30
0.0
 40
7.083507
 50
270.00002000000001
 51
359.99999000000003
  0
ARC
  5
41
  8
0
 62
     7
 10
144.26049399999999
 20
93.958337
 30
0.0
 40
9.4168850000000006
 50
0.00001
 51
89.999980000000008
  0
ARC
  5
42
  8
0
 62
     7
 10
144.26067
 20
93.958508999999992
 30
0.0
 40
9.4167129999999997
 50
90.001047999999997
 51
180.001058
  0
ARC
  5
43
  8
0
 62
     7
 10
144.26066599999999
 20
93.958164999999994
 30
0.0
 40
9.4167100000000001
 50
179.99892199999999
 51
269.99897199999998
  0
ARC
  5
44
  8
0
 62
     7
 10
144.26049399999999
 20
93.958340000000007
 30
0.0
 40
9.4168850000000006
 50
270.00002000000001
 51
359.99999000000003
  0
LINE
  5
45
  8
0
  6
AIGENLINE001
 62
     7
 10
144.25999999999999
 20
105.327
 30
0.0
 11
144.25999999999999
 21
82.866799999999998
 31
0.0
  0
LINE
  5
46
  8
0
  6
AIGENLINE001
 62
     7
 10
133.17099999999999
 20
93.958299999999994
 30
0.0
 11
155.749
 21
93.958299999999994
 31
0.0
  0
LINE
  5
47
  8
0
 62
     7
 10
138.63499999999999
 20
95.523499999999999
 30
0.0
 11
140.696
 21
94.853700000000003
 31
0.0
  0
LINE
  5
48
  8
0
 62
     7
 10
138.78999999999999
 20
95.998900000000006
 30
0.0
 11
140.851
 21
95.3292
 31
0.0
  0
ARC
  5
49
  8
0
 62
     7
 10
140.76741799999999
 20
95.103067999999993
 30
0.0
 40
0.259321
 50
254.05464499999999
 51
339.974602
  0
ARC
  5
4A
  8
0
 62
     7
 10
140.779032
 20
95.091138999999998
 30
0.0
 40
0.244431
 50
341.66971799999999
 51
0.069931
  0
ARC
  5
4B
  8
0
 62
     7
 10
140.76697799999999
 20
95.086604000000008
 30
0.0
 40
0.256531
 50
1.0797509999999999
 51
70.994734999999991
  0
ARC
  5
4C
  8
0
 62
     7
 10
138.71879799999999
 20
95.748925999999997
 30
0.0
 40
0.259897
 50
74.101248999999996
 51
159.87726799999999
  0
ARC
  5
4D
  8
0
 62
     7
 10
138.724403
 20
95.767247999999995
 30
0.0
 40
0.259562
 50
164.10418799999999
 51
249.925039
  0
LINE
  5
4E
  8
0
 62
     7
 10
139.39400000000001
 20
97.184700000000007
 30
0.0
 11
141.14699999999999
 21
95.911400000000015
 31
0.0
  0
LINE
  5
4F
  8
0
 62
     7
 10
139.68799999999999
 20
97.589500000000001
 30
0.0
 11
141.441
 21
96.315799999999996
 31
0.0
  0
ARC
  5
50
  8
0
 62
     7
 10
141.291954
 20
96.126879000000002
 30
0.0
 40
0.259637
 50
236.100302
 51
321.85077799999999
  0
ARC
  5
51
  8
0
 62
     7
 10
141.29480000000001
 20
96.113968999999997
 30
0.0
 40
0.249565
 50
323.77828899999997
 51
359.91630300000003
  0
ARC
  5
52
  8
0
 62
     7
 10
141.28965400000001
 20
96.110953000000023
 30
0.0
 40
0.254725
 50
0.5963530000000001
 51
53.544361999999992
  0
ARC
  5
53
  8
0
 62
     7
 10
139.543162
 20
97.373407
 30
0.0
 40
0.2599260000000001
 50
56.099479000000002
 51
141.834146
  0
ARC
  5
54
  8
0
 62
     7
 10
139.55505700000001
 20
97.389493000000016
 30
0.0
 40
0.260108
 50
146.24349799999999
 51
231.817913
  0
LINE
  5
55
  8
0
 62
     7
 10
140.62899999999999
 20
98.530699999999996
 30
0.0
 11
141.90299999999999
 21
96.777799999999999
 31
0.0
  0
LINE
  5
56
  8
0
 62
     7
 10
141.03399999999999
 20
98.824600000000004
 30
0.0
 11
142.30799999999999
 21
97.071700000000007
 31
0.0
  0
ARC
  5
57
  8
0
 62
     7
 10
142.107359
 20
96.937977000000004
 30
0.0
 40
0.259637
 50
218.08583999999999
 51
303.85276900000002
  0
ARC
  5
58
  8
0
 62
     7
 10
142.10097099999999
 20
96.927060000000012
 30
0.0
 40
0.254384
 50
306.41827799999999
 51
359.52000700000002
  0
ARC
  5
59
  8
0
 62
     7
 10
142.10351800000001
 20
96.924432999999993
 30
0.0
 40
0.2518289999999999
 50
0.112983
 51
35.785819000000011
  0
ARC
  5
5A
  8
0
 62
     7
 10
140.829622
 20
98.664275000000004
 30
0.0
 40
0.259851
 50
38.087253000000011
 51
123.868835
  0
ARC
  5
5B
  8
0
 62
     7
 10
140.84496299999989
 20
98.675675999999996
 30
0.0
 40
0.259637
 50
128.085793
 51
213.85279600000001
  0
LINE
  5
5C
  8
0
 62
     7
 10
142.22
 20
99.428799999999995
 30
0.0
 11
142.88999999999999
 21
97.368300000000005
 31
0.0
  0
LINE
  5
5D
  8
0
 62
     7
 10
142.696
 20
99.583500000000015
 30
0.0
 11
143.36500000000001
 21
97.522999999999996
 31
0.0
  0
ARC
  5
5E
  8
0
 62
     7
 10
143.13420099999999
 20
97.458488000000003
 30
0.0
 40
0.260495
 50
200.171708
 51
285.75037500000002
  0
ARC
  5
5F
  8
0
 62
     7
 10
143.12040099999999
 20
97.450645999999992
 30
0.0
 40
0.257156
 50
289.18597999999997
 51
358.92708599999997
  0
ARC
  5
60
  8
0
 62
     7
 10
143.12473399999999
 20
97.445516000000012
 30
0.0
 40
0.2527789999999999
 50
0.071273
 51
17.768412999999999
  0
ARC
  5
61
  8
0
 62
     7
 10
142.45162999999999
 20
99.493841000000003
 30
0.0
 40
0.260048
 50
20.17437
 51
105.79638300000001
  0
ARC
  5
62
  8
0
 62
     7
 10
142.47058100000001
 20
99.499868999999975
 30
0.0
 40
0.260167
 50
110.177858
 51
195.843605
  0
LINE
  5
63
  8
0
 62
     7
 10
144.00999999999999
 20
99.792000000000002
 30
0.0
 11
144.00999999999999
 21
97.625000000000014
 31
0.0
  0
LINE
  5
64
  8
0
 62
     7
 10
144.511
 20
99.792000000000002
 30
0.0
 11
144.511
 21
97.625000000000014
 31
0.0
  0
ARC
  5
65
  8
0
 62
     7
 10
144.270161
 20
97.634642000000014
 30
0.0
 40
0.25996
 50
182.13073
 51
267.86930000000001
  0
ARC
  5
66
  8
0
 62
     7
 10
144.26049599999999
 20
97.624977000000001
 30
0.0
 40
0.250116
 50
270.00002000000001
 51
359.99999000000003
  0
ARC
  5
67
  8
0
 62
     7
 10
144.25117900000001
 20
99.782281999999995
 30
0.0
 40
0.259612
 50
2.1355430000000002
 51
87.943421999999998
  0
ARC
  5
68
  8
0
 62
     7
 10
144.27013700000001
 20
99.781957000000006
 30
0.0
 40
0.259949
 50
92.125431000000006
 51
177.7955649999999
  0
LINE
  5
69
  8
0
 62
     7
 10
145.82499999999999
 20
99.583500000000015
 30
0.0
 11
145.15600000000001
 21
97.522999999999996
 31
0.0
  0
LINE
  5
6A
  8
0
 62
     7
 10
146.30099999999999
 20
99.428799999999995
 30
0.0
 11
145.63200000000001
 21
97.368300000000005
 31
0.0
  0
ARC
  5
6B
  8
0
 62
     7
 10
145.406215
 20
97.451899999999995
 30
0.0
 40
0.260235
 50
164.14402999999999
 51
249.73501999999999
  0
ARC
  5
6C
  8
0
 62
     7
 10
145.38664399999999
 20
97.458968999999996
 30
0.0
 40
0.260919
 50
254.30936800000001
 51
339.66918900000002
  0
ARC
  5
6D
  8
0
 62
     7
 10
146.0686649999999
 20
99.505713
 30
0.0
 40
0.244431
 50
341.66971799999999
 51
0.069931
  0
ARC
  5
6E
  8
0
 62
     7
 10
146.053326
 20
99.496356000000006
 30
0.0
 40
0.25995
 50
2.1285279999999989
 51
87.871461999999994
  0
ARC
  5
6F
  8
0
 62
     7
 10
146.06779700000001
 20
99.499499
 30
0.0
 40
0.256672
 50
91.075008999999994
 51
160.89078699999999
  0
LINE
  5
70
  8
0
 62
     7
 10
147.48699999999999
 20
98.824600000000004
 30
0.0
 11
146.214
 21
97.071700000000007
 31
0.0
  0
LINE
  5
71
  8
0
 62
     7
 10
147.892
 20
98.530699999999996
 30
0.0
 11
146.61799999999999
 21
96.777799999999999
 31
0.0
  0
ARC
  5
72
  8
0
 62
     7
 10
146.430027
 20
96.926994999999991
 30
0.0
 40
0.260397
 50
146.24269200000001
 51
231.80119999999999
  0
ARC
  5
73
  8
0
 62
     7
 10
146.413532
 20
96.938612000000006
 30
0.0
 40
0.260108
 50
236.24354500000001
 51
321.81788599999999
  0
ARC
  5
74
  8
0
 62
     7
 10
147.68777600000001
 20
98.677823000000004
 30
0.0
 40
0.2514159999999999
 50
324.18403699999999
 51
359.995857
  0
ARC
  5
75
  8
0
 62
     7
 10
147.67942199999999
 20
98.668164000000004
 30
0.0
 40
0.259949
 50
2.125440999999999
 51
87.795575000000014
  0
ARC
  5
76
  8
0
 62
     7
 10
147.692059
 20
98.673236000000003
 30
0.0
 40
0.254698
 50
90.593370999999976
 51
143.547324
  0
LINE
  5
77
  8
0
 62
     7
 10
148.833
 20
97.589500000000001
 30
0.0
 11
147.08000000000001
 21
96.315799999999996
 31
0.0
  0
LINE
  5
78
  8
0
 62
     7
 10
149.12700000000001
 20
97.184700000000007
 30
0.0
 11
147.374
 21
95.911400000000015
 31
0.0
  0
ARC
  5
79
  8
0
 62
     7
 10
147.240128
 20
96.111545999999976
 30
0.0
 40
0.259577
 50
128.09424300000001
 51
213.97211300000001
  0
ARC
  5
7A
  8
0
 62
     7
 10
147.22897900000001
 20
96.126508000000001
 30
0.0
 40
0.259363
 50
218.092861
 51
303.95609899999999
  0
ARC
  5
7B
  8
0
 62
     7
 10
148.97618299999999
 20
97.388718000000011
 30
0.0
 40
0.253554
 50
306.42168400000003
 51
359.67133999999999
  0
ARC
  5
7C
  8
0
 62
     7
 10
148.96995200000001
 20
97.377599000000004
 30
0.0
 40
0.25996
 50
2.1307099999999992
 51
87.869280000000003
  0
ARC
  5
7D
  8
0
 62
     7
 10
148.98012700000001
 20
97.386980000000008
 30
0.0
 40
0.2504
 50
90.116596000000015
 51
126.025465
  0
LINE
  5
7E
  8
0
 62
     7
 10
149.73099999999999
 20
95.998900000000006
 30
0.0
 11
147.66999999999999
 21
95.3292
 31
0.0
  0
LINE
  5
7F
  8
0
 62
     7
 10
149.886
 20
95.523499999999999
 30
0.0
 11
147.82499999999999
 21
94.853700000000003
 31
0.0
  0
ARC
  5
80
  8
0
 62
     7
 10
147.76015799999999
 20
95.085056999999978
 30
0.0
 40
0.260048
 50
110.17434299999999
 51
195.79642999999999
  0
ARC
  5
81
  8
0
 62
     7
 10
147.75402399999999
 20
95.103952000000007
 30
0.0
 40
0.260048
 50
200.17438999999999
 51
285.796403
  0
ARC
  5
82
  8
0
 62
     7
 10
149.80148
 20
95.766132999999996
 30
0.0
 40
0.257196
 50
289.11044800000002
 51
358.89399800000001
  0
ARC
  5
83
  8
0
 62
     7
 10
149.79919599999999
 20
95.751493999999994
 30
0.0
 40
0.259612
 50
2.1355430000000002
 51
87.943421999999998
  0
ARC
  5
84
  8
0
 62
     7
 10
149.808843
 20
95.755851000000007
 30
0.0
 40
0.255089
 50
90.074173999999985
 51
107.687122
  0
LINE
  5
85
  8
0
 62
     7
 10
150.09399999999999
 20
94.208499999999987
 30
0.0
 11
147.92699999999999
 21
94.208499999999987
 31
0.0
  0
LINE
  5
86
  8
0
 62
     7
 10
150.09399999999999
 20
93.708600000000004
 30
0.0
 11
147.92699999999999
 21
93.708600000000004
 31
0.0
  0
ARC
  5
87
  8
0
 62
     7
 10
147.93713399999999
 20
93.948684
 30
0.0
 40
0.25995
 50
92.128518000000014
 51
177.87145200000001
  0
ARC
  5
88
  8
0
 62
     7
 10
147.93678399999999
 20
93.967988000000005
 30
0.0
 40
0.2596
 50
182.13028499999999
 51
267.86974500000002
  0
ARC
  5
89
  8
0
 62
     7
 10
150.08412799999999
 20
93.968338000000017
 30
0.0
 40
0.259949
 50
272.125451
 51
357.79558500000002
  0
ARC
  5
8A
  8
0
 62
     7
 10
150.084103
 20
93.948672999999985
 30
0.0
 40
0.25996
 50
2.1307099999999992
 51
87.869280000000003
  0
LINE
  5
8B
  8
0
 62
     7
 10
149.886
 20
92.393600000000006
 30
0.0
 11
147.82499999999999
 21
93.062999999999974
 31
0.0
  0
LINE
  5
8C
  8
0
 62
     7
 10
149.73099999999999
 20
91.917799999999986
 30
0.0
 11
147.66999999999999
 21
92.587500000000006
 31
0.0
  0
ARC
  5
8D
  8
0
 62
     7
 10
147.753963
 20
92.812996999999996
 30
0.0
 40
0.259897
 50
74.101248999999996
 51
159.87726799999999
  0
ARC
  5
8E
  8
0
 62
     7
 10
147.759274
 20
92.831168999999989
 30
0.0
 40
0.259321
 50
164.054598
 51
249.97462899999999
  0
ARC
  5
8F
  8
0
 62
     7
 10
149.8021
 20
92.168086000000002
 30
0.0
 40
0.2601
 50
254.21421900000001
 51
339.81502799999998
  0
ARC
  5
90
  8
0
 62
     7
 10
149.80916999999999
 20
92.156017000000006
 30
0.0
 40
0.249458
 50
341.85699399999999
 51
359.96245399999998
  0
ARC
  5
91
  8
0
 62
     7
 10
149.802143
 20
92.151018999999977
 30
0.0
 40
0.256531
 50
1.0797509999999999
 51
70.994734999999991
  0
LINE
  5
92
  8
0
 62
     7
 10
149.12700000000001
 20
90.732000000000014
 30
0.0
 11
147.374
 21
92.005300000000005
 31
0.0
  0
LINE
  5
93
  8
0
 62
     7
 10
148.833
 20
90.327500000000001
 30
0.0
 11
147.08000000000001
 21
91.600800000000007
 31
0.0
  0
ARC
  5
94
  8
0
 62
     7
 10
147.229218
 20
91.789560999999978
 30
0.0
 40
0.2599260000000001
 50
56.099479000000002
 51
141.834146
  0
ARC
  5
95
  8
0
 62
     7
 10
147.24059800000001
 20
91.805205000000001
 30
0.0
 40
0.2599260000000001
 50
146.09945200000001
 51
231.83419300000011
  0
ARC
  5
96
  8
0
 62
     7
 10
148.97783000000001
 20
90.543269999999978
 30
0.0
 40
0.2599260000000001
 50
236.09949900000001
 51
321.83416499999998
  0
ARC
  5
97
  8
0
 62
     7
 10
148.978329
 20
90.529773000000006
 30
0.0
 40
0.2514050000000001
 50
324.18308000000002
 51
359.91811799999999
  0
ARC
  5
98
  8
0
 62
     7
 10
148.973386
 20
90.526797999999985
 30
0.0
 40
0.256361
 50
0.584628
 51
53.167397999999991
  0
LINE
  5
99
  8
0
 62
     7
 10
147.892
 20
89.385999999999996
 30
0.0
 11
146.61799999999999
 21
91.138900000000007
 31
0.0
  0
LINE
  5
9A
  8
0
 62
     7
 10
147.48699999999999
 20
89.092099999999988
 30
0.0
 11
146.214
 21
90.844999999999999
 31
0.0
  0
ARC
  5
9B
  8
0
 62
     7
 10
146.413633
 20
90.978700000000003
 30
0.0
 40
0.259637
 50
38.085821000000003
 51
123.852749
  0
ARC
  5
9C
  8
0
 62
     7
 10
146.42929099999989
 20
90.989800000000002
 30
0.0
 40
0.259851
 50
128.08722599999999
 51
213.86888200000001
  0
ARC
  5
9D
  8
0
 62
     7
 10
147.69136599999999
 20
89.252447999999987
 30
0.0
 40
0.259605
 50
218.14262400000001
 51
303.90633600000001
  0
ARC
  5
9E
  8
0
 62
     7
 10
147.68678
 20
89.240441000000004
 30
0.0
 40
0.252417
 50
306.291247
 51
359.64387199999999
  0
ARC
  5
9F
  8
0
 62
     7
 10
147.68634900000001
 20
89.238393000000002
 30
0.0
 40
0.252844
 50
0.108641
 51
35.711465000000011
  0
LINE
  5
A0
  8
0
 62
     7
 10
146.30099999999999
 20
88.487799999999993
 30
0.0
 11
145.63200000000001
 21
90.548400000000001
 31
0.0
  0
LINE
  5
A1
  8
0
 62
     7
 10
145.82499999999999
 20
88.333500000000015
 30
0.0
 11
145.15600000000001
 21
90.393699999999995
 31
0.0
  0
ARC
  5
A2
  8
0
 62
     7
 10
145.38745299999999
 20
90.458620999999994
 30
0.0
 40
0.260167
 50
20.177885
 51
105.843558
  0
ARC
  5
A3
  8
0
 62
     7
 10
145.40610899999999
 20
90.464810999999983
 30
0.0
 40
0.260048
 50
110.17434299999999
 51
195.79642999999999
  0
ARC
  5
A4
  8
0
 62
     7
 10
146.06927999999999
 20
88.423020999999991
 30
0.0
 40
0.259917
 50
200.147614
 51
285.82317799999998
  0
ARC
  5
A5
  8
0
 62
     7
 10
146.05730199999999
 20
88.414997999999997
 30
0.0
 40
0.255832
 50
288.89569599999999
 51
359.02981799999998
  0
ARC
  5
A6
  8
0
 62
     7
 10
146.058008
 20
88.410336000000015
 30
0.0
 40
0.255089
 50
0.074184
 51
17.687131999999998
  0
LINE
  5
A7
  8
0
 62
     7
 10
144.511
 20
88.125100000000003
 30
0.0
 11
144.511
 21
90.291700000000006
 31
0.0
  0
LINE
  5
A8
  8
0
 62
     7
 10
144.00999999999999
 20
88.125100000000003
 30
0.0
 11
144.00999999999999
 21
90.291700000000006
 31
0.0
  0
ARC
  5
A9
  8
0
 62
     7
 10
144.26049599999999
 20
90.291700000000006
 30
0.0
 40
0.250116
 50
0.00001
 51
89.999980000000008
  0
ARC
  5
AA
  8
0
 62
     7
 10
144.270161
 20
90.282034999999993
 30
0.0
 40
0.25996
 50
92.130700000000004
 51
177.86927
  0
ARC
  5
AB
  8
0
 62
     7
 10
144.27015599999999
 20
88.134726000000001
 30
0.0
 40
0.259955
 50
182.129638
 51
267.87039199999998
  0
ARC
  5
AC
  8
0
 62
     7
 10
144.26049599999999
 20
88.125066000000004
 30
0.0
 40
0.250116
 50
270.00002000000001
 51
359.99999000000003
  0
LINE
  5
AD
  8
0
 62
     7
 10
142.696
 20
88.333500000000015
 30
0.0
 11
143.36500000000001
 21
90.393699999999995
 31
0.0
  0
LINE
  5
AE
  8
0
 62
     7
 10
142.22
 20
88.487799999999993
 30
0.0
 11
142.88999999999999
 21
90.548400000000001
 31
0.0
  0
ARC
  5
AF
  8
0
 62
     7
 10
143.11875599999999
 20
90.471746999999993
 30
0.0
 40
0.258757
 50
342.43938900000001
 51
359.87698399999999
  0
ARC
  5
B0
  8
0
 62
     7
 10
143.11809199999999
 20
90.461540999999997
 30
0.0
 40
0.2596
 50
2.1302650000000001
 51
87.869725000000003
  0
ARC
  5
B1
  8
0
 62
     7
 10
143.132543
 20
90.463870000000014
 30
0.0
 40
0.257137
 50
91.069890999999984
 51
160.81702200000001
  0
ARC
  5
B2
  8
0
 62
     7
 10
142.46993499999999
 20
88.416745999999989
 30
0.0
 40
0.259562
 50
164.10418799999999
 51
249.925039
  0
ARC
  5
B3
  8
0
 62
     7
 10
142.452135
 20
88.422381000000016
 30
0.0
 40
0.259417
 50
254.04811400000011
 51
339.88158099999998
  0
LINE
  5
B4
  8
0
 62
     7
 10
141.03399999999999
 20
89.092099999999988
 30
0.0
 11
142.30799999999999
 21
90.844999999999999
 31
0.0
  0
LINE
  5
B5
  8
0
 62
     7
 10
140.62899999999999
 20
89.385999999999996
 30
0.0
 11
141.90299999999999
 21
91.138900000000007
 31
0.0
  0
ARC
  5
B6
  8
0
 62
     7
 10
142.10394199999999
 20
90.992106999999976
 30
0.0
 40
0.2514050000000001
 50
324.18308000000002
 51
359.91811799999999
  0
ARC
  5
B7
  8
0
 62
     7
 10
142.09557599999999
 20
90.982093000000006
 30
0.0
 40
0.25995
 50
2.1285279999999989
 51
87.871461999999994
  0
ARC
  5
B8
  8
0
 62
     7
 10
142.10786999999999
 20
90.987352999999985
 30
0.0
 40
0.254524
 50
90.594206000000014
 51
143.47065499999999
  0
ARC
  5
B9
  8
0
 62
     7
 10
140.845598
 20
89.241445999999996
 30
0.0
 40
0.260108
 50
146.24349799999999
 51
231.817913
  0
ARC
  5
BA
  8
0
 62
     7
 10
140.82961900000001
 20
89.252492000000004
 30
0.0
 40
0.259637
 50
236.100302
 51
321.85077799999999
  0
LINE
  5
BB
  8
0
 62
     7
 10
139.68799999999999
 20
90.327500000000001
 30
0.0
 11
141.441
 21
91.600800000000007
 31
0.0
  0
LINE
  5
BC
  8
0
 62
     7
 10
139.39400000000001
 20
90.732000000000014
 30
0.0
 11
141.14699999999999
 21
92.005300000000005
 31
0.0
  0
ARC
  5
BD
  8
0
 62
     7
 10
141.292224
 20
91.804411000000016
 30
0.0
 40
0.252145
 50
306.16328099999998
 51
359.69600400000002
  0
ARC
  5
BE
  8
0
 62
     7
 10
141.28458499999999
 20
91.793407999999999
 30
0.0
 40
0.25996
 50
2.1307099999999992
 51
87.869280000000003
  0
ARC
  5
BF
  8
0
 62
     7
 10
141.29472899999999
 20
91.802881999999997
 30
0.0
 40
0.250307
 50
90.109672000000003
 51
126.03238899999999
  0
ARC
  5
C0
  8
0
 62
     7
 10
139.55455900000001
 20
90.527465000000007
 30
0.0
 40
0.259851
 50
128.08722599999999
 51
213.86888200000001
  0
ARC
  5
C1
  8
0
 62
     7
 10
139.54308700000001
 20
90.542799000000002
 30
0.0
 40
0.259577
 50
218.09429
 51
303.97208599999999
  0
LINE
  5
C2
  8
0
 62
     7
 10
138.78999999999999
 20
91.917799999999986
 30
0.0
 11
140.851
 21
92.587500000000006
 31
0.0
  0
LINE
  5
C3
  8
0
 62
     7
 10
138.63499999999999
 20
92.393600000000006
 30
0.0
 11
140.696
 21
93.062999999999974
 31
0.0
  0
ARC
  5
C4
  8
0
 62
     7
 10
140.766334
 20
92.830541999999994
 30
0.0
 40
0.257184
 50
289.10690499999998
 51
358.81861000000009
  0
ARC
  5
C5
  8
0
 62
     7
 10
140.773348
 20
92.825239999999994
 30
0.0
 40
0.250116
 50
0.00001
 51
89.999980000000008
  0
ARC
  5
C6
  8
0
 62
     7
 10
140.77363399999999
 20
92.827291000000002
 30
0.0
 40
0.248064
 50
90.065929000000011
 51
108.194402
  0
ARC
  5
C7
  8
0
 62
     7
 10
138.72537
 20
92.149203999999997
 30
0.0
 40
0.260431
 50
110.231663
 51
195.78979899999999
  0
ARC
  5
C8
  8
0
 62
     7
 10
138.71912900000001
 20
92.168400000000005
 30
0.0
 40
0.260431
 50
200.23170999999999
 51
285.78977200000003
  0
LINE
  5
C9
  8
0
 62
     7
 10
138.42699999999999
 20
93.708600000000004
 30
0.0
 11
140.59399999999999
 21
93.708600000000004
 31
0.0
  0
LINE
  5
CA
  8
0
 62
     7
 10
138.42699999999999
 20
94.208499999999987
 30
0.0
 11
140.59399999999999
 21
94.208499999999987
 31
0.0
  0
ARC
  5
CB
  8
0
 62
     7
 10
140.584217
 20
93.968338000000017
 30
0.0
 40
0.259949
 50
272.125451
 51
357.79558500000002
  0
ARC
  5
CC
  8
0
 62
     7
 10
140.59385700000001
 20
93.958338999999995
 30
0.0
 40
0.250116
 50
0.00001
 51
89.999980000000008
  0
ARC
  5
CD
  8
0
 62
     7
 10
138.427223
 20
93.958338999999995
 30
0.0
 40
0.250116
 50
90.0
 51
179.99996999999999
  0
ARC
  5
CE
  8
0
 62
     7
 10
138.43654000000001
 20
93.968012999999985
 30
0.0
 40
0.259612
 50
182.13556199999999
 51
267.943442
  0
ARC
  5
CF
  8
0
 62
     7
 10
144.260323
 20
93.958510999999987
 30
0.0
 40
1.2500610000000001
 50
359.99211500000013
 51
89.992084999999989
  0
ARC
  5
D0
  8
0
 62
     7
 10
144.26066800000001
 20
93.958510999999987
 30
0.0
 40
1.2500610000000001
 50
90.007894999999991
 51
180.00790499999999
  0
ARC
  5
D1
  8
0
 62
     7
 10
144.26049599999999
 20
93.958337999999998
 30
0.0
 40
1.249887999999999
 50
179.99996999999999
 51
270.00002000000001
  0
ARC
  5
D2
  8
0
 62
     7
 10
144.26049599999999
 20
93.958338999999995
 30
0.0
 40
1.249889
 50
270.00002000000001
 51
359.99999000000003
  0
LINE
  5
D3
  8
0
 62
     7
 10
137.05500000000001
 20
108.896
 30
0.0
 11
134.84399999999999
 21
108.303
 31
0.0
  0
LINE
  5
D4
  8
0
 62
     7
 10
134.84399999999999
 20
108.303
 30
0.0
 11
137.05500000000001
 21
107.711
 31
0.0
  0
LINE
  5
D5
  8
0
 62
     7
 10
137.05500000000001
 20
107.711
 30
0.0
 11
137.05500000000001
 21
108.896
 31
0.0
  0
LINE
  5
D6
  8
0
 62
     7
 10
151.46700000000001
 20
107.711
 30
0.0
 11
153.67699999999999
 21
108.303
 31
0.0
  0
LINE
  5
D7
  8
0
 62
     7
 10
153.67699999999999
 20
108.303
 30
0.0
 11
151.46700000000001
 21
108.896
 31
0.0
  0
LINE
  5
D8
  8
0
 62
     7
 10
151.46700000000001
 20
108.896
 30
0.0
 11
151.46700000000001
 21
107.711
 31
0.0
  0
LINE
  5
D9
  8
0
 62
     7
 10
134.84399999999999
 20
108.303
 30
0.0
 11
153.67699999999999
 21
108.303
 31
0.0
  0
LINE
  5
DA
  8
0
 62
     7
 10
153.67699999999999
 20
97.684899999999985
 30
0.0
 11
153.67699999999999
 21
109.004
 31
0.0
  0
LINE
  5
DB
  8
0
 62
     7
 10
134.84399999999999
 20
97.684899999999985
 30
0.0
 11
134.84399999999999
 21
109.004
 31
0.0
  0
ARC
  5
DC
  8
0
 62
     7
 10
167.40890099999999
 20
139.541785
 30
0.0
 40
0.257648
 50
271.23189200000002
 51
344.91032999999999
  0
ARC
  5
DD
  8
0
 62
     7
 10
167.39836399999999
 20
139.55487199999999
 30
0.0
 40
0.687723
 50
271.33947799999999
 51
344.940001
  0
LINE
  5
DE
  8
0
 62
     7
 10
167.41399999999999
 20
139.28399999999999
 30
0.0
 11
165.93899999999999
 21
139.28399999999999
 31
0.0
  0
LINE
  5
DF
  8
0
 62
     7
 10
168.99199999999999
 20
144.86699999999999
 30
0.0
 11
167.65799999999999
 21
139.47499999999999
 31
0.0
  0
LINE
  5
E0
  8
0
 62
     7
 10
167.41399999999999
 20
138.86699999999999
 30
0.0
 11
165.93899999999999
 21
138.86699999999999
 31
0.0
  0
LINE
  5
E1
  8
0
 62
     7
 10
169.39699999999999
 20
144.76900000000001
 30
0.0
 11
168.06200000000001
 21
139.376
 31
0.0
  0
LINE
  5
E2
  8
0
 62
     7
 10
169.39699999999999
 20
144.76900000000001
 30
0.0
 11
168.99199999999999
 21
144.86699999999999
 31
0.0
  0
ARC
  5
E3
  8
0
 62
     7
 10
99.269649000000015
 20
139.541785
 30
0.0
 40
0.257648
 50
271.23189200000002
 51
344.91032999999999
  0
ARC
  5
E4
  8
0
 62
     7
 10
99.259112000000016
 20
139.55487199999999
 30
0.0
 40
0.687723
 50
271.33947799999999
 51
344.940001
  0
LINE
  5
E5
  8
0
 62
     7
 10
99.275200000000012
 20
139.28399999999999
 30
0.0
 11
97.799300000000002
 21
139.28399999999999
 31
0.0
  0
LINE
  5
E6
  8
0
 62
     7
 10
100.85299999999999
 20
144.86699999999999
 30
0.0
 11
99.5184
 21
139.47499999999999
 31
0.0
  0
LINE
  5
E7
  8
0
 62
     7
 10
99.275200000000012
 20
138.86699999999999
 30
0.0
 11
97.799300000000002
 21
138.86699999999999
 31
0.0
  0
LINE
  5
E8
  8
0
 62
     7
 10
101.258
 20
144.76900000000001
 30
0.0
 11
99.923199999999994
 21
139.376
 31
0.0
  0
LINE
  5
E9
  8
0
 62
     7
 10
101.258
 20
144.76900000000001
 30
0.0
 11
100.85299999999999
 21
144.86699999999999
 31
0.0
  0
ARC
  5
EA
  8
0
 62
     7
 10
121.112435
 20
139.541785
 30
0.0
 40
0.257648
 50
195.08968899999999
 51
268.76812799999999
  0
ARC
  5
EB
  8
0
 62
     7
 10
121.122972
 20
139.55487199999999
 30
0.0
 40
0.687723
 50
195.06001900000001
 51
268.66054100000002
  0
LINE
  5
EC
  8
0
 62
     7
 10
121.107
 20
139.28399999999999
 30
0.0
 11
122.583
 21
139.28399999999999
 31
0.0
  0
LINE
  5
ED
  8
0
 62
     7
 10
119.529
 20
144.86699999999999
 30
0.0
 11
120.864
 21
139.47499999999999
 31
0.0
  0
LINE
  5
EE
  8
0
 62
     7
 10
121.107
 20
138.86699999999999
 30
0.0
 11
122.583
 21
138.86699999999999
 31
0.0
  0
LINE
  5
EF
  8
0
 62
     7
 10
119.124
 20
144.76900000000001
 30
0.0
 11
120.459
 21
139.376
 31
0.0
  0
LINE
  5
F0
  8
0
 62
     7
 10
119.124
 20
144.76900000000001
 30
0.0
 11
119.529
 21
144.86699999999999
 31
0.0
  0
ARC
  5
F1
  8
0
 62
     7
 10
42.973224000000002
 20
139.541349
 30
0.0
 40
0.257212
 50
195.01522199999999
 51
268.763733
  0
ARC
  5
F2
  8
0
 62
     7
 10
42.983928999999989
 20
139.554879
 30
0.0
 40
0.6877300000000001
 50
195.060451
 51
268.66010899999998
  0
LINE
  5
F3
  8
0
 62
     7
 10
42.967700000000001
 20
139.28399999999999
 30
0.0
 11
44.443600000000004
 21
139.28399999999999
 31
0.0
  0
LINE
  5
F4
  8
0
 62
     7
 10
41.3902
 20
144.86699999999999
 30
0.0
 11
42.724800000000002
 21
139.47499999999999
 31
0.0
  0
LINE
  5
F5
  8
0
 62
     7
 10
42.967799999999997
 20
138.86699999999999
 30
0.0
 11
44.443600000000004
 21
138.86699999999999
 31
0.0
  0
LINE
  5
F6
  8
0
 62
     7
 10
40.985199999999992
 20
144.76900000000001
 30
0.0
 11
42.319800000000001
 21
139.376
 31
0.0
  0
LINE
  5
F7
  8
0
 62
     7
 10
40.985199999999992
 20
144.76900000000001
 30
0.0
 11
41.3902
 21
144.86699999999999
 31
0.0
  0
ARC
  5
F8
  8
0
 62
     7
 10
84.312681000000026
 20
76.976437000000004
 30
0.0
 40
0.5156450000000001
 50
195.11686900000001
 51
268.66208599999999
  0
ARC
  5
F9
  8
0
 62
     7
 10
84.332529000000008
 20
77.001381999999992
 30
0.0
 40
1.374533999999999
 50
195.016423
 51
268.67789800000003
  0
LINE
  5
FA
  8
0
 62
     7
 10
84.300600000000003
 20
76.460899999999995
 30
0.0
 11
87.252399999999994
 21
76.460899999999995
 31
0.0
  0
LINE
  5
FB
  8
0
 62
     7
 10
81.145399999999995
 20
87.627199999999988
 30
0.0
 11
83.814899999999994
 21
76.841999999999999
 31
0.0
  0
LINE
  5
FC
  8
0
 62
     7
 10
84.300799999999995
 20
75.627200000000002
 30
0.0
 11
87.252399999999994
 21
75.627200000000002
 31
0.0
  0
LINE
  5
FD
  8
0
 62
     7
 10
80.335700000000003
 20
87.430499999999995
 30
0.0
 11
83.004900000000006
 21
76.645200000000003
 31
0.0
  0
LINE
  5
FE
  8
0
 62
     7
 10
80.335700000000003
 20
87.430499999999995
 30
0.0
 11
81.145399999999995
 21
87.627199999999988
 31
0.0
  0
LINE
  5
FF
  8
0
 62
     7
 10
144.63900000000001
 20
132.70099999999999
 30
0.0
 11
144.63900000000001
 21
138.86799999999999
 31
0.0
  0
LINE
  5
100
  8
0
 62
     7
 10
143.97200000000001
 20
132.70099999999999
 30
0.0
 11
143.97200000000001
 21
138.86799999999999
 31
0.0
  0
LINE
  5
101
  8
0
 62
     7
 10
143.72200000000001
 20
131.36699999999999
 30
0.0
 11
143.72200000000001
 21
132.03399999999999
 31
0.0
  0
LINE
  5
102
  8
0
 62
     7
 10
144.88900000000001
 20
131.36699999999999
 30
0.0
 11
144.88900000000001
 21
132.03399999999999
 31
0.0
  0
LINE
  5
103
  8
0
 62
     7
 10
144.88900000000001
 20
131.36699999999999
 30
0.0
 11
143.72200000000001
 21
131.36699999999999
 31
0.0
  0
LINE
  5
104
  8
0
 62
     7
 10
145.05600000000001
 20
132.03399999999999
 30
0.0
 11
143.55500000000001
 21
132.03399999999999
 31
0.0
  0
LINE
  5
105
  8
0
 62
     7
 10
143.55500000000001
 20
132.03399999999999
 30
0.0
 11
143.55500000000001
 21
132.36799999999999
 31
0.0
  0
LINE
  5
106
  8
0
 62
     7
 10
145.05600000000001
 20
132.03399999999999
 30
0.0
 11
145.05600000000001
 21
132.36799999999999
 31
0.0
  0
LINE
  5
107
  8
0
 62
     7
 10
143.80500000000001
 20
132.70099999999999
 30
0.0
 11
143.80500000000001
 21
138.86799999999999
 31
0.0
  0
LINE
  5
108
  8
0
 62
     7
 10
144.80500000000001
 20
132.70099999999999
 30
0.0
 11
144.80500000000001
 21
138.86799999999999
 31
0.0
  0
LINE
  5
109
  8
0
 62
     7
 10
143.30600000000001
 20
141.535
 30
0.0
 11
143.30600000000001
 21
134.36799999999999
 31
0.0
  0
LINE
  5
10A
  8
0
 62
     7
 10
143.55500000000001
 20
134.36799999999999
 30
0.0
 11
143.55500000000001
 21
138.86799999999999
 31
0.0
  0
LINE
  5
10B
  8
0
 62
     7
 10
143.55500000000001
 20
134.36799999999999
 30
0.0
 11
143.30600000000001
 21
134.36799999999999
 31
0.0
  0
LINE
  5
10C
  8
0
 62
     7
 10
142.97200000000001
 20
137.36799999999999
 30
0.0
 11
142.30500000000001
 21
134.86799999999999
 31
0.0
  0
LINE
  5
10D
  8
0
 62
     7
 10
142.30500000000001
 20
132.36799999999999
 30
0.0
 11
142.30500000000001
 21
134.86799999999999
 31
0.0
  0
LINE
  5
10E
  8
0
 62
     7
 10
142.97200000000001
 20
137.36799999999999
 30
0.0
 11
142.97200000000001
 21
141.81999999999999
 31
0.0
  0
LINE
  5
10F
  8
0
 62
     7
 10
145.05600000000001
 20
132.70099999999999
 30
0.0
 11
145.05600000000001
 21
138.86799999999999
 31
0.0
  0
LINE
  5
110
  8
0
 62
     7
 10
143.55500000000001
 20
138.86799999999999
 30
0.0
 11
145.05600000000001
 21
138.86799999999999
 31
0.0
  0
LINE
  5
111
  8
0
 62
     7
 10
145.05600000000001
 20
132.70099999999999
 30
0.0
 11
142.30500000000001
 21
132.70099999999999
 31
0.0
  0
LINE
  5
112
  8
0
 62
     7
 10
145.63900000000001
 20
132.70099999999999
 30
0.0
 11
145.30500000000001
 21
132.70099999999999
 31
0.0
  0
LINE
  5
113
  8
0
 62
     7
 10
145.30500000000001
 20
141.53399999999999
 30
0.0
 11
145.30500000000001
 21
132.70099999999999
 31
0.0
  0
LINE
  5
114
  8
0
 62
     7
 10
145.63900000000001
 20
141.81999999999999
 30
0.0
 11
145.63900000000001
 21
132.36799999999999
 31
0.0
  0
LINE
  5
115
  8
0
 62
     7
 10
145.63900000000001
 20
132.36799999999999
 30
0.0
 11
142.30500000000001
 21
132.36799999999999
 31
0.0
  0
LINE
  5
116
  8
0
 62
     7
 10
143.55500000000001
 20
144.86799999999999
 30
0.0
 11
143.55500000000001
 21
138.86799999999999
 31
0.0
  0
LINE
  5
117
  8
0
 62
     7
 10
140.38900000000001
 20
144.03399999999999
 30
0.0
 11
143.30600000000001
 21
141.535
 31
0.0
  0
LINE
  5
118
  8
0
 62
     7
 10
140.38900000000001
 20
144.03399999999999
 30
0.0
 11
140.38900000000001
 21
149.035
 31
0.0
  0
LINE
  5
119
  8
0
 62
     7
 10
145.05600000000001
 20
144.70099999999999
 30
0.0
 11
145.05600000000001
 21
138.86799999999999
 31
0.0
  0
LINE
  5
11A
  8
0
 62
     7
 10
148.22200000000001
 20
144.03399999999999
 30
0.0
 11
145.30500000000001
 21
141.53399999999999
 31
0.0
  0
LINE
  5
11B
  8
0
 62
     7
 10
148.22200000000001
 20
144.03399999999999
 30
0.0
 11
148.22200000000001
 21
149.03399999999999
 31
0.0
  0
ARC
  5
11C
  8
0
 62
     7
 10
144.006259
 20
144.97626099999999
 30
0.0
 40
0.463861
 50
193.53519999999989
 51
220.42121800000001
  0
ARC
  5
11D
  8
0
 62
     7
 10
144.172977
 20
145.106495
 30
0.0
 40
0.675287
 50
219.661497
 51
245.08517399999999
  0
ARC
  5
11E
  8
0
 62
     7
 10
144.31537700000001
 20
145.370273
 30
0.0
 40
0.9746719999999999
 50
244.025477
 51
270.88501000000002
  0
ARC
  5
11F
  8
0
 62
     7
 10
144.33031700000001
 20
145.69303300000001
 30
0.0
 40
1.297315999999999
 50
270.0050700000001
 51
285.68120800000003
  0
ARC
  5
120
  8
0
 62
     7
 10
144.45281199999999
 20
145.20913400000001
 30
0.0
 40
0.7984220000000001
 50
286.60370999999998
 51
308.95460100000003
  0
ARC
  5
121
  8
0
 62
     7
 10
144.59145899999999
 20
145.01431600000001
 30
0.0
 40
0.559948
 50
310.45534600000002
 51
325.99127800000002
  0
ARC
  5
122
  8
0
 62
     7
 10
144.285967
 20
145.515185
 30
0.0
 40
0.5195610000000001
 50
2.130487
 51
87.869502999999995
  0
ARC
  5
123
  8
0
 62
     7
 10
144.32459700000001
 20
145.515185
 30
0.0
 40
0.5195610000000001
 50
92.130477999999997
 51
177.86949300000001
  0
ARC
  5
124
  8
0
 62
     7
 10
144.324761
 20
145.5538
 30
0.0
 40
0.519724
 50
182.128209
 51
267.852081
  0
ARC
  5
125
  8
0
 62
     7
 10
144.285966
 20
145.55363800000001
 30
0.0
 40
0.5195560000000001
 50
272.1307240000001
 51
357.889026
  0
LINE
  5
126
  8
0
 62
     7
 10
71.454700000000003
 20
132.70099999999999
 30
0.0
 11
71.454700000000003
 21
138.86799999999999
 31
0.0
  0
LINE
  5
127
  8
0
 62
     7
 10
70.787999999999997
 20
132.70099999999999
 30
0.0
 11
70.787999999999997
 21
138.86799999999999
 31
0.0
  0
LINE
  5
128
  8
0
 62
     7
 10
70.537899999999993
 20
131.36699999999999
 30
0.0
 11
70.537899999999993
 21
132.03399999999999
 31
0.0
  0
LINE
  5
129
  8
0
 62
     7
 10
71.704800000000006
 20
131.36699999999999
 30
0.0
 11
71.704800000000006
 21
132.03399999999999
 31
0.0
  0
LINE
  5
12A
  8
0
 62
     7
 10
71.704800000000006
 20
131.36699999999999
 30
0.0
 11
70.537899999999993
 21
131.36699999999999
 31
0.0
  0
LINE
  5
12B
  8
0
 62
     7
 10
71.871300000000005
 20
132.03399999999999
 30
0.0
 11
70.371300000000005
 21
132.03399999999999
 31
0.0
  0
LINE
  5
12C
  8
0
 62
     7
 10
70.371300000000005
 20
132.03399999999999
 30
0.0
 11
70.371300000000005
 21
132.36799999999999
 31
0.0
  0
LINE
  5
12D
  8
0
 62
     7
 10
71.871300000000005
 20
132.03399999999999
 30
0.0
 11
71.871300000000005
 21
132.36799999999999
 31
0.0
  0
LINE
  5
12E
  8
0
 62
     7
 10
70.621499999999983
 20
132.70099999999999
 30
0.0
 11
70.621499999999983
 21
138.86799999999999
 31
0.0
  0
LINE
  5
12F
  8
0
 62
     7
 10
71.621399999999994
 20
132.70099999999999
 30
0.0
 11
71.621399999999994
 21
138.86799999999999
 31
0.0
  0
LINE
  5
130
  8
0
 62
     7
 10
70.121200000000002
 20
141.535
 30
0.0
 11
70.121200000000002
 21
134.36799999999999
 31
0.0
  0
LINE
  5
131
  8
0
 62
     7
 10
70.371300000000005
 20
134.36799999999999
 30
0.0
 11
70.371300000000005
 21
138.86799999999999
 31
0.0
  0
LINE
  5
132
  8
0
 62
     7
 10
70.371300000000005
 20
134.36799999999999
 30
0.0
 11
70.121200000000002
 21
134.36799999999999
 31
0.0
  0
LINE
  5
133
  8
0
 62
     7
 10
69.7881
 20
137.36799999999999
 30
0.0
 11
69.121300000000005
 21
134.86799999999999
 31
0.0
  0
LINE
  5
134
  8
0
 62
     7
 10
69.121300000000005
 20
132.36799999999999
 30
0.0
 11
69.121300000000005
 21
134.86799999999999
 31
0.0
  0
LINE
  5
135
  8
0
 62
     7
 10
69.7881
 20
137.36799999999999
 30
0.0
 11
69.7881
 21
141.81999999999999
 31
0.0
  0
LINE
  5
136
  8
0
 62
     7
 10
71.871300000000005
 20
132.70099999999999
 30
0.0
 11
71.871300000000005
 21
138.86799999999999
 31
0.0
  0
LINE
  5
137
  8
0
 62
     7
 10
70.371300000000005
 20
138.86799999999999
 30
0.0
 11
71.871300000000005
 21
138.86799999999999
 31
0.0
  0
LINE
  5
138
  8
0
 62
     7
 10
71.871300000000005
 20
132.70099999999999
 30
0.0
 11
69.121499999999997
 21
132.70099999999999
 31
0.0
  0
LINE
  5
139
  8
0
 62
     7
 10
72.454599999999999
 20
132.70099999999999
 30
0.0
 11
72.121300000000005
 21
132.70099999999999
 31
0.0
  0
LINE
  5
13A
  8
0
 62
     7
 10
72.121300000000005
 20
141.53399999999999
 30
0.0
 11
72.121300000000005
 21
132.70099999999999
 31
0.0
  0
LINE
  5
13B
  8
0
 62
     7
 10
72.454800000000006
 20
141.81999999999999
 30
0.0
 11
72.454800000000006
 21
132.36799999999999
 31
0.0
  0
LINE
  5
13C
  8
0
 62
     7
 10
72.454599999999999
 20
132.36799999999999
 30
0.0
 11
69.121300000000005
 21
132.36799999999999
 31
0.0
  0
LINE
  5
13D
  8
0
 62
     7
 10
70.371300000000005
 20
144.86799999999999
 30
0.0
 11
70.371300000000005
 21
138.86799999999999
 31
0.0
  0
LINE
  5
13E
  8
0
 62
     7
 10
67.204599999999999
 20
144.03399999999999
 30
0.0
 11
70.121200000000002
 21
141.535
 31
0.0
  0
LINE
  5
13F
  8
0
 62
     7
 10
67.204599999999999
 20
144.03399999999999
 30
0.0
 11
67.204599999999999
 21
149.035
 31
0.0
  0
LINE
  5
140
  8
0
 62
     7
 10
71.871300000000005
 20
144.70099999999999
 30
0.0
 11
71.871300000000005
 21
138.86799999999999
 31
0.0
  0
LINE
  5
141
  8
0
 62
     7
 10
75.0381
 20
144.03399999999999
 30
0.0
 11
72.121300000000005
 21
141.53399999999999
 31
0.0
  0
LINE
  5
142
  8
0
 62
     7
 10
75.0381
 20
144.03399999999999
 30
0.0
 11
75.0381
 21
149.03399999999999
 31
0.0
  0
ARC
  5
143
  8
0
 62
     7
 10
70.822507999999999
 20
144.97630699999999
 30
0.0
 40
0.4640540000000001
 50
193.53527800000001
 51
220.40839399999999
  0
ARC
  5
144
  8
0
 62
     7
 10
70.988844
 20
145.106199
 30
0.0
 40
0.674968
 50
219.651342
 51
245.083923
  0
ARC
  5
145
  8
0
 62
     7
 10
71.13136999999999
 20
145.37028599999999
 30
0.0
 40
0.9746870000000001
 50
244.02552600000001
 51
270.88910299999998
  0
ARC
  5
146
  8
0
 62
     7
 10
71.146375000000006
 20
145.69295199999999
 30
0.0
 40
1.2972349999999999
 50
270.00529399999999
 51
285.68169900000009
  0
ARC
  5
147
  8
0
 62
     7
 10
71.269137999999998
 20
145.20805999999999
 30
0.0
 40
0.7973140000000001
 50
286.60650600000002
 51
308.97875499999998
  0
ARC
  5
148
  8
0
 62
     7
 10
71.408541
 20
145.0125449999999
 30
0.0
 40
0.557828
 50
310.48024900000001
 51
326.0636970000001
  0
ARC
  5
149
  8
0
 62
     7
 10
71.102197000000004
 20
145.515173
 30
0.0
 40
0.519567
 50
2.1318060000000001
 51
87.887923999999998
  0
ARC
  5
14A
  8
0
 62
     7
 10
71.140659999999997
 20
145.515185
 30
0.0
 40
0.5195610000000001
 50
92.130477999999997
 51
177.86949300000001
  0
ARC
  5
14B
  8
0
 62
     7
 10
71.140823999999995
 20
145.5538
 30
0.0
 40
0.519724
 50
182.128209
 51
267.852081
  0
ARC
  5
14C
  8
0
 62
     7
 10
71.102023000000003
 20
145.55382299999999
 30
0.0
 40
0.519741
 50
272.13060899999999
 51
357.86940099999998
  0
LINE
  5
14D
  8
0
 62
     7
 10
165.60499999999999
 20
141.53399999999999
 30
0.0
 11
165.60499999999999
 21
143.70099999999999
 31
0.0
  0
LINE
  5
14E
  8
0
 62
     7
 10
165.93899999999999
 20
143.36799999999999
 30
0.0
 11
165.60499999999999
 21
143.70099999999999
 31
0.0
  0
LINE
  5
14F
  8
0
 62
     7
 10
165.93899999999999
 20
132.36799999999999
 30
0.0
 11
165.93899999999999
 21
143.36799999999999
 31
0.0
  0
LINE
  5
150
  8
0
 62
     7
 10
165.52199999999999
 20
131.36699999999999
 30
0.0
 11
165.52199999999999
 21
132.03399999999999
 31
0.0
  0
LINE
  5
151
  8
0
 62
     7
 10
164.35499999999999
 20
131.36699999999999
 30
0.0
 11
164.35499999999999
 21
132.03399999999999
 31
0.0
  0
LINE
  5
152
  8
0
 62
     7
 10
164.35499999999999
 20
131.36699999999999
 30
0.0
 11
165.52199999999999
 21
131.36699999999999
 31
0.0
  0
LINE
  5
153
  8
0
 62
     7
 10
164.18799999999999
 20
132.03399999999999
 30
0.0
 11
165.68799999999999
 21
132.03399999999999
 31
0.0
  0
LINE
  5
154
  8
0
 62
     7
 10
165.68799999999999
 20
132.03399999999999
 30
0.0
 11
165.68799999999999
 21
132.36799999999999
 31
0.0
  0
LINE
  5
155
  8
0
 62
     7
 10
164.18799999999999
 20
132.03399999999999
 30
0.0
 11
164.18799999999999
 21
132.36799999999999
 31
0.0
  0
LINE
  5
156
  8
0
  6
AIGENLINE001
 62
     7
 10
164.93799999999999
 20
130.881
 30
0.0
 11
164.93799999999999
 21
133.06700000000001
 31
0.0
  0
LINE
  5
157
  8
0
 62
     7
 10
164.10499999999999
 20
145.03399999999999
 30
0.0
 11
163.98699999999999
 21
145.03399999999999
 31
0.0
  0
LINE
  5
158
  8
0
 62
     7
 10
164.10499999999999
 20
146.03399999999999
 30
0.0
 11
164.02600000000001
 21
146.03399999999999
 31
0.0
  0
LINE
  5
159
  8
0
 62
     7
 10
165.93899999999999
 20
132.36799999999999
 30
0.0
 11
164.10499999999999
 21
132.36799999999999
 31
0.0
  0
ARC
  5
15A
  8
0
 62
     7
 10
164.072856
 20
149.23828800000001
 30
0.0
 40
1.20445
 50
271.548565
 51
350.237236
  0
LINE
  5
15B
  8
0
 62
     7
 10
164.10499999999999
 20
132.36799999999999
 30
0.0
 11
164.10499999999999
 21
148.03399999999999
 31
0.0
  0
LINE
  5
15C
  8
0
 62
     7
 10
165.60499999999999
 20
149.03399999999999
 30
0.0
 11
165.60499999999999
 21
143.70099999999999
 31
0.0
  0
LINE
  5
15D
  8
0
 62
     7
 10
97.466200000000001
 20
141.53399999999999
 30
0.0
 11
97.466200000000001
 21
143.70099999999999
 31
0.0
  0
LINE
  5
15E
  8
0
 62
     7
 10
97.799300000000002
 20
143.36799999999999
 30
0.0
 11
97.466200000000001
 21
143.70099999999999
 31
0.0
  0
LINE
  5
15F
  8
0
 62
     7
 10
97.799300000000002
 20
132.36799999999999
 30
0.0
 11
97.799300000000002
 21
143.36799999999999
 31
0.0
  0
LINE
  5
160
  8
0
 62
     7
 10
97.382800000000003
 20
131.36699999999999
 30
0.0
 11
97.382800000000003
 21
132.03399999999999
 31
0.0
  0
LINE
  5
161
  8
0
 62
     7
 10
96.215900000000005
 20
131.36699999999999
 30
0.0
 11
96.215900000000005
 21
132.03399999999999
 31
0.0
  0
LINE
  5
162
  8
0
 62
     7
 10
96.215900000000005
 20
131.36699999999999
 30
0.0
 11
97.382800000000003
 21
131.36699999999999
 31
0.0
  0
LINE
  5
163
  8
0
 62
     7
 10
96.049199999999985
 20
132.03399999999999
 30
0.0
 11
97.549199999999999
 21
132.03399999999999
 31
0.0
  0
LINE
  5
164
  8
0
 62
     7
 10
97.549199999999999
 20
132.03399999999999
 30
0.0
 11
97.549199999999999
 21
132.36799999999999
 31
0.0
  0
LINE
  5
165
  8
0
 62
     7
 10
96.049199999999985
 20
132.03399999999999
 30
0.0
 11
96.049199999999985
 21
132.36799999999999
 31
0.0
  0
LINE
  5
166
  8
0
  6
AIGENLINE001
 62
     7
 10
96.799199999999999
 20
130.881
 30
0.0
 11
96.799199999999999
 21
133.06700000000001
 31
0.0
  0
LINE
  5
167
  8
0
 62
     7
 10
95.965999999999994
 20
145.03399999999999
 30
0.0
 11
95.847499999999997
 21
145.03399999999999
 31
0.0
  0
LINE
  5
168
  8
0
 62
     7
 10
95.965999999999994
 20
146.03399999999999
 30
0.0
 11
95.887100000000004
 21
146.03399999999999
 31
0.0
  0
LINE
  5
169
  8
0
 62
     7
 10
97.799300000000002
 20
132.36799999999999
 30
0.0
 11
95.965999999999994
 21
132.36799999999999
 31
0.0
  0
ARC
  5
16A
  8
0
 62
     7
 10
95.933767000000003
 20
149.23831000000001
 30
0.0
 40
1.2044639999999991
 50
271.53260399999999
 51
350.23627699999997
  0
LINE
  5
16B
  8
0
 62
     7
 10
95.965999999999994
 20
132.36799999999999
 30
0.0
 11
95.965999999999994
 21
148.03399999999999
 31
0.0
  0
LINE
  5
16C
  8
0
 62
     7
 10
97.466200000000001
 20
149.03399999999999
 30
0.0
 11
97.466200000000001
 21
143.70099999999999
 31
0.0
  0
LINE
  5
16D
  8
0
 62
     7
 10
122.916
 20
141.53399999999999
 30
0.0
 11
122.916
 21
143.70099999999999
 31
0.0
  0
LINE
  5
16E
  8
0
 62
     7
 10
122.583
 20
143.36799999999999
 30
0.0
 11
122.916
 21
143.70099999999999
 31
0.0
  0
LINE
  5
16F
  8
0
 62
     7
 10
122.583
 20
132.36799999999999
 30
0.0
 11
122.583
 21
143.36799999999999
 31
0.0
  0
LINE
  5
170
  8
0
 62
     7
 10
122.999
 20
131.36699999999999
 30
0.0
 11
122.999
 21
132.03399999999999
 31
0.0
  0
LINE
  5
171
  8
0
 62
     7
 10
124.166
 20
131.36699999999999
 30
0.0
 11
124.166
 21
132.03399999999999
 31
0.0
  0
LINE
  5
172
  8
0
 62
     7
 10
124.166
 20
131.36699999999999
 30
0.0
 11
122.999
 21
131.36699999999999
 31
0.0
  0
LINE
  5
173
  8
0
 62
     7
 10
124.333
 20
132.03399999999999
 30
0.0
 11
122.833
 21
132.03399999999999
 31
0.0
  0
LINE
  5
174
  8
0
 62
     7
 10
122.833
 20
132.03399999999999
 30
0.0
 11
122.833
 21
132.36799999999999
 31
0.0
  0
LINE
  5
175
  8
0
 62
     7
 10
124.333
 20
132.03399999999999
 30
0.0
 11
124.333
 21
132.36799999999999
 31
0.0
  0
LINE
  5
176
  8
0
  6
AIGENLINE001
 62
     7
 10
123.583
 20
130.881
 30
0.0
 11
123.583
 21
133.06700000000001
 31
0.0
  0
LINE
  5
177
  8
0
 62
     7
 10
124.416
 20
145.03399999999999
 30
0.0
 11
124.535
 21
145.03399999999999
 31
0.0
  0
LINE
  5
178
  8
0
 62
     7
 10
124.416
 20
146.03399999999999
 30
0.0
 11
124.495
 21
146.03399999999999
 31
0.0
  0
LINE
  5
179
  8
0
 62
     7
 10
122.583
 20
132.36799999999999
 30
0.0
 11
124.416
 21
132.36799999999999
 31
0.0
  0
ARC
  5
17A
  8
0
 62
     7
 10
124.449029
 20
149.23933
 30
0.0
 40
1.205506999999999
 50
189.804416
 51
268.4267430000001
  0
LINE
  5
17B
  8
0
 62
     7
 10
124.416
 20
132.36799999999999
 30
0.0
 11
124.416
 21
148.03399999999999
 31
0.0
  0
LINE
  5
17C
  8
0
 62
     7
 10
122.916
 20
149.03399999999999
 30
0.0
 11
122.916
 21
143.70099999999999
 31
0.0
  0
LINE
  5
17D
  8
0
 62
     7
 10
44.776899999999991
 20
141.53399999999999
 30
0.0
 11
44.776899999999991
 21
143.70099999999999
 31
0.0
  0
LINE
  5
17E
  8
0
 62
     7
 10
44.443600000000004
 20
143.36799999999999
 30
0.0
 11
44.776899999999991
 21
143.70099999999999
 31
0.0
  0
LINE
  5
17F
  8
0
 62
     7
 10
44.443600000000004
 20
132.36799999999999
 30
0.0
 11
44.443600000000004
 21
143.36799999999999
 31
0.0
  0
LINE
  5
180
  8
0
 62
     7
 10
44.860199999999992
 20
131.36699999999999
 30
0.0
 11
44.860199999999992
 21
132.03399999999999
 31
0.0
  0
LINE
  5
181
  8
0
 62
     7
 10
46.026899999999991
 20
131.36699999999999
 30
0.0
 11
46.026899999999991
 21
132.03399999999999
 31
0.0
  0
LINE
  5
182
  8
0
 62
     7
 10
46.026899999999991
 20
131.36699999999999
 30
0.0
 11
44.860199999999992
 21
131.36699999999999
 31
0.0
  0
LINE
  5
183
  8
0
 62
     7
 10
46.193699999999993
 20
132.03399999999999
 30
0.0
 11
44.6935
 21
132.03399999999999
 31
0.0
  0
LINE
  5
184
  8
0
 62
     7
 10
44.6935
 20
132.03399999999999
 30
0.0
 11
44.6935
 21
132.36799999999999
 31
0.0
  0
LINE
  5
185
  8
0
 62
     7
 10
46.193699999999993
 20
132.03399999999999
 30
0.0
 11
46.193699999999993
 21
132.36799999999999
 31
0.0
  0
LINE
  5
186
  8
0
  6
AIGENLINE001
 62
     7
 10
45.443699999999993
 20
130.881
 30
0.0
 11
45.443699999999993
 21
133.06700000000001
 31
0.0
  0
LINE
  5
187
  8
0
 62
     7
 10
46.276899999999998
 20
145.03399999999999
 30
0.0
 11
46.395400000000002
 21
145.03399999999999
 31
0.0
  0
LINE
  5
188
  8
0
 62
     7
 10
46.276899999999998
 20
146.03399999999999
 30
0.0
 11
46.355800000000002
 21
146.03399999999999
 31
0.0
  0
LINE
  5
189
  8
0
 62
     7
 10
44.443600000000004
 20
132.36799999999999
 30
0.0
 11
46.276899999999998
 21
132.36799999999999
 31
0.0
  0
ARC
  5
18A
  8
0
 62
     7
 10
46.309538000000003
 20
149.23882
 30
0.0
 40
1.2049849999999991
 50
189.78407899999999
 51
268.44707899999997
  0
LINE
  5
18B
  8
0
 62
     7
 10
46.276899999999998
 20
132.36799999999999
 30
0.0
 11
46.276899999999998
 21
148.03399999999999
 31
0.0
  0
LINE
  5
18C
  8
0
 62
     7
 10
44.776899999999991
 20
149.03399999999999
 30
0.0
 11
44.776899999999991
 21
143.70099999999999
 31
0.0
  0
LINE
  5
18D
  8
0
 62
     7
 10
87.918999999999997
 20
80.960899999999995
 30
0.0
 11
87.918999999999997
 21
85.294200000000004
 31
0.0
  0
LINE
  5
18E
  8
0
 62
     7
 10
87.252399999999994
 20
84.627200000000002
 30
0.0
 11
87.918999999999997
 21
85.294200000000004
 31
0.0
  0
LINE
  5
18F
  8
0
 62
     7
 10
80.335999999999984
 20
101.682
 30
0.0
 11
80.335999999999984
 21
88.327299999999994
 31
0.0
  0
LINE
  5
190
  8
0
 62
     7
 10
83.669200000000004
 20
101.682
 30
0.0
 11
83.669200000000004
 21
96.934600000000003
 31
0.0
  0
LINE
  5
191
  8
0
 62
     7
 10
87.252399999999994
 20
62.627400000000002
 30
0.0
 11
87.252399999999994
 21
84.627200000000002
 31
0.0
  0
LINE
  5
192
  8
0
 62
     7
 10
88.085800000000006
 20
60.627200000000002
 30
0.0
 11
88.085800000000006
 21
61.960399999999993
 31
0.0
  0
LINE
  5
193
  8
0
 62
     7
 10
90.419200000000004
 20
60.627200000000002
 30
0.0
 11
90.419200000000004
 21
61.960399999999993
 31
0.0
  0
LINE
  5
194
  8
0
 62
     7
 10
90.419200000000004
 20
60.627200000000002
 30
0.0
 11
88.085800000000006
 21
60.627200000000002
 31
0.0
  0
LINE
  5
195
  8
0
 62
     7
 10
90.752499999999998
 20
61.960399999999993
 30
0.0
 11
87.752499999999984
 21
61.960399999999993
 31
0.0
  0
LINE
  5
196
  8
0
 62
     7
 10
87.752499999999984
 20
61.960399999999993
 30
0.0
 11
87.752499999999984
 21
62.627400000000002
 31
0.0
  0
LINE
  5
197
  8
0
 62
     7
 10
90.752499999999998
 20
61.960399999999993
 30
0.0
 11
90.752499999999998
 21
62.627400000000002
 31
0.0
  0
LINE
  5
198
  8
0
  6
AIGENLINE001
 62
     7
 10
89.252499999999998
 20
59.653599999999997
 30
0.0
 11
89.252499999999998
 21
64.028199999999998
 31
0.0
  0
LINE
  5
199
  8
0
 62
     7
 10
90.9191
 20
87.960700000000003
 30
0.0
 11
91.155900000000003
 21
87.960700000000003
 31
0.0
  0
LINE
  5
19A
  8
0
 62
     7
 10
90.9191
 20
89.960999999999999
 30
0.0
 11
91.077000000000012
 21
89.960999999999999
 31
0.0
  0
LINE
  5
19B
  8
0
 62
     7
 10
85.876099999999994
 20
97.294200000000004
 30
0.0
 11
89.506899999999987
 21
97.294200000000004
 31
0.0
  0
ARC
  5
19C
  8
0
 62
     7
 10
89.463464000000016
 20
95.913426999999999
 30
0.0
 40
1.3815010000000001
 50
6.6452099999999996
 51
88.198150999999996
  0
LINE
  5
19D
  8
0
 62
     7
 10
88.6096
 20
95.960999999999984
 30
0.0
 11
90.840199999999996
 21
95.960999999999984
 31
0.0
  0
LINE
  5
19E
  8
0
 62
     7
 10
86.257599999999996
 20
95.960999999999984
 30
0.0
 11
87.918999999999997
 21
95.960999999999984
 31
0.0
  0
LINE
  5
19F
  8
0
 62
     7
 10
89.506899999999987
 20
97.627700000000004
 30
0.0
 11
102.089
 21
97.627700000000004
 31
0.0
  0
LINE
  5
1A0
  8
0
 62
     7
 10
85.876099999999994
 20
97.627700000000004
 30
0.0
 11
89.506899999999987
 21
97.627700000000004
 31
0.0
  0
ARC
  5
1A1
  8
0
 62
     7
 10
89.45252099999999
 20
95.901716000000008
 30
0.0
 40
1.726874
 50
6.6450309999999986
 51
88.195370999999994
  0
LINE
  5
1A2
  8
0
 62
     7
 10
87.252399999999994
 20
62.627400000000002
 30
0.0
 11
90.9191
 21
62.627400000000002
 31
0.0
  0
ARC
  5
1A3
  8
0
 62
     7
 10
91.008797000000001
 20
96.383677000000006
 30
0.0
 40
2.4245879999999991
 50
182.10849999999999
 51
267.87884200000002
  0
LINE
  5
1A4
  8
0
 62
     7
 10
90.9191
 20
62.627400000000002
 30
0.0
 11
90.9191
 21
93.960800000000006
 31
0.0
  0
LINE
  5
1A5
  8
0
 62
     7
 10
87.918999999999997
 20
96.294499999999999
 30
0.0
 11
87.918999999999997
 21
85.294200000000004
 31
0.0
  0
LINE
  5
1A6
  8
0
 62
     7
 10
87.918999999999997
 20
96.294499999999999
 30
0.0
 11
88.585899999999995
 21
96.294499999999999
 31
0.0
  0
LINE
  5
1A7
  8
0
 62
     7
 10
83.859800000000007
 20
95.960999999999984
 30
0.0
 11
85.685400000000001
 21
97.234300000000005
 31
0.0
  0
ARC
  5
1A8
  8
0
 62
     7
 10
85.876394999999988
 20
96.960021999999995
 30
0.0
 40
0.3342239999999999
 50
90.051739999999995
 51
124.85068800000001
  0
LINE
  5
1A9
  8
0
 62
     7
 10
83.669200000000004
 20
96.234499999999997
 30
0.0
 11
85.494699999999995
 21
97.507800000000003
 31
0.0
  0
ARC
  5
1AA
  8
0
 62
     7
 10
85.878299999999996
 20
96.954184999999995
 30
0.0
 40
0.673551
 50
90.187710999999993
 51
124.71471699999999
  0
LINE
  5
1AB
  8
0
 62
     7
 10
83.859800000000007
 20
95.960999999999984
 30
0.0
 11
83.669200000000004
 21
96.234499999999997
 31
0.0
  0
LINE
  5
1AC
  8
0
  6
AIGENLINE002
 62
     7
 10
73.971699999999998
 20
87.627199999999988
 30
0.0
 11
86.257599999999996
 21
87.627199999999988
 31
0.0
  0
LINE
  5
1AD
  8
0
  6
AIGENLINE002
 62
     7
 10
73.971699999999998
 20
95.960999999999984
 30
0.0
 11
86.257599999999996
 21
95.960999999999984
 31
0.0
  0
LINE
  5
1AE
  8
0
 62
     7
 10
41.790100000000002
 20
63.294400000000003
 30
0.0
 11
41.790100000000002
 21
75.627200000000002
 31
0.0
  0
LINE
  5
1AF
  8
0
 62
     7
 10
40.456699999999998
 20
63.294400000000003
 30
0.0
 11
40.456699999999998
 21
75.627200000000002
 31
0.0
  0
LINE
  5
1B0
  8
0
 62
     7
 10
39.956600000000002
 20
60.627200000000002
 30
0.0
 11
39.956600000000002
 21
61.960399999999993
 31
0.0
  0
LINE
  5
1B1
  8
0
 62
     7
 10
42.289999999999999
 20
60.627200000000002
 30
0.0
 11
42.289999999999999
 21
61.960399999999993
 31
0.0
  0
LINE
  5
1B2
  8
0
 62
     7
 10
42.289999999999999
 20
60.627200000000002
 30
0.0
 11
39.956600000000002
 21
60.627200000000002
 31
0.0
  0
LINE
  5
1B3
  8
0
 62
     7
 10
42.6233
 20
61.960399999999993
 30
0.0
 11
39.6233
 21
61.960399999999993
 31
0.0
  0
LINE
  5
1B4
  8
0
 62
     7
 10
39.6233
 20
61.960399999999993
 30
0.0
 11
39.6233
 21
62.627400000000002
 31
0.0
  0
LINE
  5
1B5
  8
0
 62
     7
 10
42.6233
 20
61.960399999999993
 30
0.0
 11
42.6233
 21
62.627400000000002
 31
0.0
  0
LINE
  5
1B6
  8
0
 62
     7
 10
40.123399999999997
 20
63.294400000000003
 30
0.0
 11
40.123399999999997
 21
75.627200000000002
 31
0.0
  0
LINE
  5
1B7
  8
0
 62
     7
 10
42.123399999999997
 20
63.294400000000003
 30
0.0
 11
42.123399999999997
 21
75.627200000000002
 31
0.0
  0
LINE
  5
1B8
  8
0
  6
AIGENLINE001
 62
     7
 10
41.1233
 20
58.1233
 30
0.0
 11
41.1233
 21
100.639
 31
0.0
  0
LINE
  5
1B9
  8
0
 62
     7
 10
39.1233
 20
80.960899999999995
 30
0.0
 11
39.1233
 21
66.627200000000002
 31
0.0
  0
LINE
  5
1BA
  8
0
 62
     7
 10
39.6233
 20
66.627200000000002
 30
0.0
 11
39.6233
 21
75.627899999999997
 31
0.0
  0
LINE
  5
1BB
  8
0
 62
     7
 10
39.6233
 20
66.627200000000002
 30
0.0
 11
39.1233
 21
66.627200000000002
 31
0.0
  0
LINE
  5
1BC
  8
0
 62
     7
 10
38.456800000000001
 20
72.627200000000002
 30
0.0
 11
37.123399999999997
 21
67.627700000000004
 31
0.0
  0
LINE
  5
1BD
  8
0
 62
     7
 10
37.123399999999997
 20
62.627400000000002
 30
0.0
 11
37.123399999999997
 21
67.627700000000004
 31
0.0
  0
LINE
  5
1BE
  8
0
 62
     7
 10
38.456800000000001
 20
72.627200000000002
 30
0.0
 11
38.456800000000001
 21
81.532099999999986
 31
0.0
  0
LINE
  5
1BF
  8
0
 62
     7
 10
42.6235
 20
63.293700000000001
 30
0.0
 11
42.6235
 21
75.627200000000002
 31
0.0
  0
LINE
  5
1C0
  8
0
 62
     7
 10
39.6233
 20
75.627200000000002
 30
0.0
 11
42.6235
 21
75.627200000000002
 31
0.0
  0
LINE
  5
1C1
  8
0
 62
     7
 10
42.6233
 20
63.293700000000001
 30
0.0
 11
37.123600000000003
 21
63.293700000000001
 31
0.0
  0
LINE
  5
1C2
  8
0
 62
     7
 10
43.789999999999999
 20
63.293700000000001
 30
0.0
 11
43.12339999999999
 21
63.293700000000001
 31
0.0
  0
LINE
  5
1C3
  8
0
 62
     7
 10
43.12339999999999
 20
80.960899999999995
 30
0.0
 11
43.12339999999999
 21
63.293700000000001
 31
0.0
  0
LINE
  5
1C4
  8
0
 62
     7
 10
43.790199999999992
 20
81.532099999999986
 30
0.0
 11
43.790199999999992
 21
62.627400000000002
 31
0.0
  0
LINE
  5
1C5
  8
0
 62
     7
 10
43.789999999999999
 20
62.627400000000002
 30
0.0
 11
37.123399999999997
 21
62.627400000000002
 31
0.0
  0
LINE
  5
1C6
  8
0
 62
     7
 10
39.6233
 20
87.627199999999988
 30
0.0
 11
39.6233
 21
75.627899999999997
 31
0.0
  0
LINE
  5
1C7
  8
0
 62
     7
 10
33.2898
 20
85.961200000000005
 30
0.0
 11
39.1233
 21
80.960899999999995
 31
0.0
  0
LINE
  5
1C8
  8
0
 62
     7
 10
33.2898
 20
85.961200000000005
 30
0.0
 11
33.2898
 21
95.960999999999984
 31
0.0
  0
LINE
  5
1C9
  8
0
 62
     7
 10
42.6235
 20
87.294399999999996
 30
0.0
 11
42.6235
 21
75.627200000000002
 31
0.0
  0
LINE
  5
1CA
  8
0
 62
     7
 10
48.956800000000001
 20
85.961200000000005
 30
0.0
 11
43.12339999999999
 21
80.960899999999995
 31
0.0
  0
LINE
  5
1CB
  8
0
 62
     7
 10
48.956800000000001
 20
85.961200000000005
 30
0.0
 11
48.956800000000001
 21
95.960999999999984
 31
0.0
  0
ARC
  5
1CC
  8
0
 62
     7
 10
40.521698999999991
 20
87.843211999999994
 30
0.0
 40
0.9239659999999998
 50
193.51723699999999
 51
219.652514
  0
ARC
  5
1CD
  8
0
 62
     7
 10
40.800488999999999
 20
88.048973000000004
 30
0.0
 40
1.2700649999999989
 50
218.77354299999999
 51
237.446766
  0
ARC
  5
1CE
  8
0
 62
     7
 10
41.062142000000001
 20
88.427172999999996
 30
0.0
 40
1.729722
 50
236.882251
 51
258.02272499999998
  0
ARC
  5
1CF
  8
0
 62
     7
 10
41.168141999999989
 20
88.794758999999999
 30
0.0
 40
2.1114820000000001
 50
257.27893899999998
 51
270.148931
  0
ARC
  5
1D0
  8
0
 62
     7
 10
41.174348999999999
 20
89.285043000000002
 30
0.0
 40
2.601758999999999
 50
269.98416500000002
 51
285.037509
  0
ARC
  5
1D1
  8
0
 62
     7
 10
41.394396999999991
 20
88.36439399999999
 30
0.0
 40
1.6557539999999999
 50
285.94940600000001
 51
306.424193
  0
ARC
  5
1D2
  8
0
 62
     7
 10
41.674819999999997
 20
87.937496999999993
 30
0.0
 40
1.1460879999999991
 50
307.8157930000001
 51
325.86942699999997
  0
ARC
  5
1D3
  8
0
 62
     7
 10
41.085428
 20
88.922940999999994
 30
0.0
 40
1.038726
 50
2.1105959999999988
 51
87.899264999999986
  0
ARC
  5
1D4
  8
0
 62
     7
 10
41.161726999999992
 20
88.922615000000008
 30
0.0
 40
1.039058
 50
92.108188999999967
 51
177.872041
  0
ARC
  5
1D5
  8
0
 62
     7
 10
41.123676000000003
 20
88.961023999999995
 30
0.0
 40
1.000289999999999
 50
179.990104
 51
269.99015299999991
  0
ARC
  5
1D6
  8
0
 62
     7
 10
41.123244999999997
 20
88.960937999999999
 30
0.0
 40
1.0002040000000001
 50
270.01482099999998
 51
0.014791
  0
LINE
  5
1D7
  8
0
 62
     7
 10
30.451899999999998
 20
95.960999999999984
 30
0.0
 11
51.795099999999998
 21
95.960999999999984
 31
0.0
  0
LINE
  5
1D8
  8
0
 62
     7
 10
30.451899999999998
 20
97.627700000000004
 30
0.0
 11
51.795099999999998
 21
97.627700000000004
 31
0.0
  0
LINE
  5
1D9
  8
0
 62
     7
 10
72.627200000000002
 20
80.639899999999997
 30
0.0
 11
58.475200000000001
 21
80.639899999999997
 31
0.0
  0
LINE
  5
1DA
  8
0
 62
     7
 10
81.011600000000001
 20
76.418599999999998
 30
0.0
 11
82.671099999999996
 21
77.994399999999999
 31
0.0
  0
LINE
  5
1DB
  8
0
 62
     7
 10
82.671099999999996
 20
77.994399999999999
 30
0.0
 11
82.022000000000006
 21
75.799800000000005
 31
0.0
  0
LINE
  5
1DC
  8
0
 62
     7
 10
82.022000000000006
 20
75.799800000000005
 30
0.0
 11
81.011600000000001
 21
76.418599999999998
 31
0.0
  0
LINE
  5
1DD
  8
0
 62
     7
 10
77.364900000000006
 20
69.327100000000002
 30
0.0
 11
82.671099999999996
 21
77.994399999999999
 31
0.0
  0
LINE
  5
1DE
  8
0
 62
     7
 10
77.088800000000006
 20
89.0625
 30
0.0
 11
78.7483
 21
90.638300000000015
 31
0.0
  0
LINE
  5
1DF
  8
0
 62
     7
 10
78.7483
 20
90.638300000000015
 30
0.0
 11
78.099299999999999
 21
88.443700000000007
 31
0.0
  0
LINE
  5
1E0
  8
0
 62
     7
 10
78.099299999999999
 20
88.443700000000007
 30
0.0
 11
77.088800000000006
 21
89.0625
 31
0.0
  0
LINE
  5
1E1
  8
0
 62
     7
 10
72.627200000000002
 20
80.639899999999997
 30
0.0
 11
78.7483
 21
90.638300000000015
 31
0.0
  0
LINE
  5
1E2
  8
0
 62
     7
 10
85.879499999999993
 20
101.574
 30
0.0
 11
83.669200000000004
 21
100.982
 31
0.0
  0
LINE
  5
1E3
  8
0
 62
     7
 10
83.669200000000004
 20
100.982
 30
0.0
 11
85.879499999999993
 21
100.39
 31
0.0
  0
LINE
  5
1E4
  8
0
 62
     7
 10
85.879499999999993
 20
100.39
 30
0.0
 11
85.879499999999993
 21
101.574
 31
0.0
  0
LINE
  5
1E5
  8
0
 62
     7
 10
78.125600000000006
 20
100.39
 30
0.0
 11
80.335999999999984
 21
100.982
 31
0.0
  0
LINE
  5
1E6
  8
0
 62
     7
 10
80.335999999999984
 20
100.982
 30
0.0
 11
78.125600000000006
 21
101.574
 31
0.0
  0
LINE
  5
1E7
  8
0
 62
     7
 10
78.125600000000006
 20
101.574
 30
0.0
 11
78.125600000000006
 21
100.39
 31
0.0
  0
LINE
  5
1E8
  8
0
 62
     7
 10
76.395499999999984
 20
100.982
 30
0.0
 11
87.268999999999977
 21
100.982
 31
0.0
  0
LINE
  5
1E9
  8
0
 62
     7
 10
77.364900000000006
 20
69.327100000000002
 30
0.0
 11
61.753399999999999
 21
69.327100000000002
 31
0.0
  0
LINE
  5
1EA
  8
0
 62
     7
 10
68.320599999999999
 20
93.749899999999997
 30
0.0
 11
68.912499999999994
 21
95.960300000000004
 31
0.0
  0
LINE
  5
1EB
  8
0
 62
     7
 10
68.912499999999994
 20
95.960300000000004
 30
0.0
 11
69.505099999999999
 21
93.749899999999997
 31
0.0
  0
LINE
  5
1EC
  8
0
 62
     7
 10
69.505099999999999
 20
93.749899999999997
 30
0.0
 11
68.320599999999999
 21
93.749899999999997
 31
0.0
  0
LINE
  5
1ED
  8
0
 62
     7
 10
69.490600000000001
 20
89.837599999999995
 30
0.0
 11
68.897999999999996
 21
87.627199999999988
 31
0.0
  0
LINE
  5
1EE
  8
0
 62
     7
 10
68.897999999999996
 20
87.627199999999988
 30
0.0
 11
68.306200000000004
 21
89.837599999999995
 31
0.0
  0
LINE
  5
1EF
  8
0
 62
     7
 10
68.306200000000004
 20
89.837599999999995
 30
0.0
 11
69.490600000000001
 21
89.837599999999995
 31
0.0
  0
LINE
  5
1F0
  8
0
 62
     7
 10
68.912499999999994
 20
95.960300000000004
 30
0.0
 11
68.912499999999994
 21
87.626599999999996
 31
0.0
  0
LINE
  5
1F1
  8
0
 62
     7
 10
68.126999999999995
 20
95.960999999999984
 30
0.0
 11
73.271600000000007
 21
95.960999999999984
 31
0.0
  0
LINE
  5
1F2
  8
0
 62
     7
 10
68.185599999999994
 20
87.627199999999988
 30
0.0
 11
73.271600000000007
 21
87.627199999999988
 31
0.0
  0
LINE
  5
1F3
  8
0
 62
     7
 10
74.786100000000005
 20
108.381
 30
0.0
 11
96.567199999999985
 21
108.381
 31
0.0
  0
LINE
  5
1F4
  8
0
 62
     7
 10
86.948899999999995
 20
98.920000000000016
 30
0.0
 11
85.876099999999994
 21
96.898399999999995
 31
0.0
  0
LINE
  5
1F5
  8
0
 62
     7
 10
85.876099999999994
 20
96.898399999999995
 30
0.0
 11
87.815899999999985
 21
98.112799999999993
 31
0.0
  0
LINE
  5
1F6
  8
0
 62
     7
 10
87.815899999999985
 20
98.112799999999993
 30
0.0
 11
86.948899999999995
 21
98.920000000000016
 31
0.0
  0
LINE
  5
1F7
  8
0
 62
     7
 10
96.567199999999985
 20
108.381
 30
0.0
 11
85.876099999999994
 21
96.898399999999995
 31
0.0
  0
LINE
  5
1F8
  8
0
 62
     7
 10
84.257400000000004
 20
95.960999999999984
 30
0.0
 11
86.257599999999996
 21
95.960999999999984
 31
0.0
  0
LINE
  5
1F9
  8
0
 62
     7
 10
84.257400000000004
 20
95.960999999999984
 30
0.0
 11
84.257400000000004
 21
96.238000000000014
 31
0.0
  0
LINE
  5
1FA
  8
0
 62
     7
 10
86.257599999999996
 20
95.960999999999984
 30
0.0
 11
86.257599999999996
 21
97.294200000000004
 31
0.0
  0
LINE
  5
1FB
  8
0
  6
AIGENLINE002
 62
     7
 10
86.257599999999996
 20
95.960999999999984
 30
0.0
 11
86.257599999999996
 21
87.627199999999988
 31
0.0
  0
LINE
  5
1FC
  8
0
 62
     7
 10
91.1678
 20
96.101500000000001
 30
0.0
 11
92.588899999999995
 21
60.104199999999992
 31
0.0
  0
LINE
  5
1FD
  8
0
 62
     7
 10
90.835699999999989
 20
96.073300000000003
 30
0.0
 11
92.256799999999998
 21
60.076599999999999
 31
0.0
  0
LINE
  5
1FE
  8
0
 62
     7
 10
159.18299999999999
 20
74.002799999999993
 30
0.0
 11
159.18299999999999
 21
59.836500000000001
 31
0.0
  0
LINE
  5
1FF
  8
0
 62
     7
 10
159.86799999999999
 20
74.002799999999993
 30
0.0
 11
154.90799999999999
 21
74.002799999999993
 31
0.0
  0
LINE
  5
200
  8
0
 62
     7
 10
159.86799999999999
 20
59.836500000000001
 30
0.0
 11
148.827
 21
59.836500000000001
 31
0.0
  0
LINE
  5
201
  8
0
 62
     7
 10
139.92699999999999
 20
53.829599999999999
 30
0.0
 11
158.72900000000001
 21
53.829599999999999
 31
0.0
  0
LINE
  5
202
  8
0
 62
     7
 10
148.09399999999999
 20
53.224699999999999
 30
0.0
 11
148.09399999999999
 21
59.2254
 31
0.0
  0
LINE
  5
203
  8
0
 62
     7
 10
139.92699999999999
 20
53.224699999999999
 30
0.0
 11
139.92699999999999
 21
59.2254
 31
0.0
  0
LINE
  5
204
  8
0
 62
     7
 10
151.34399999999999
 20
75.669600000000003
 30
0.0
 11
151.34399999999999
 21
76.003100000000003
 31
0.0
  0
LINE
  5
205
  8
0
 62
     7
 10
151.34399999999999
 20
75.003299999999996
 30
0.0
 11
151.34399999999999
 21
75.336799999999997
 31
0.0
  0
LINE
  5
206
  8
0
 62
     7
 10
153.00999999999999
 20
75.669600000000003
 30
0.0
 11
153.00999999999999
 21
75.336799999999997
 31
0.0
  0
LINE
  5
207
  8
0
 62
     7
 10
153.42699999999999
 20
76.169799999999995
 30
0.0
 11
153.42699999999999
 21
76.003100000000003
 31
0.0
  0
LINE
  5
208
  8
0
 62
     7
 10
153.50999999999999
 20
75.003299999999996
 30
0.0
 11
153.50999999999999
 21
74.002799999999993
 31
0.0
  0
LINE
  5
209
  8
0
 62
     7
 10
154.25999999999999
 20
72.336799999999997
 30
0.0
 11
154.25999999999999
 21
74.002799999999993
 31
0.0
  0
LINE
  5
20A
  8
0
 62
     7
 10
152.011
 20
71.003500000000003
 30
0.0
 11
152.011
 21
72.336799999999997
 31
0.0
  0
LINE
  5
20B
  8
0
 62
     7
 10
152.011
 20
71.003500000000003
 30
0.0
 11
149.511
 21
68.169600000000003
 31
0.0
  0
LINE
  5
20C
  8
0
 62
     7
 10
136.67699999999999
 20
75.669600000000003
 30
0.0
 11
136.67699999999999
 21
76.003100000000003
 31
0.0
  0
LINE
  5
20D
  8
0
 62
     7
 10
136.67699999999999
 20
75.003299999999996
 30
0.0
 11
136.67699999999999
 21
75.336799999999997
 31
0.0
  0
LINE
  5
20E
  8
0
 62
     7
 10
135.011
 20
75.669600000000003
 30
0.0
 11
135.011
 21
75.336799999999997
 31
0.0
  0
LINE
  5
20F
  8
0
 62
     7
 10
134.59399999999999
 20
76.169799999999995
 30
0.0
 11
134.59399999999999
 21
76.003100000000003
 31
0.0
  0
LINE
  5
210
  8
0
 62
     7
 10
134.50999999999999
 20
75.003299999999996
 30
0.0
 11
134.50999999999999
 21
74.002799999999993
 31
0.0
  0
LINE
  5
211
  8
0
 62
     7
 10
133.761
 20
72.336799999999997
 30
0.0
 11
133.761
 21
74.002799999999993
 31
0.0
  0
LINE
  5
212
  8
0
 62
     7
 10
136.00999999999999
 20
71.003500000000003
 30
0.0
 11
136.00999999999999
 21
72.336799999999997
 31
0.0
  0
LINE
  5
213
  8
0
 62
     7
 10
136.00999999999999
 20
71.003500000000003
 30
0.0
 11
138.50999999999999
 21
68.169600000000003
 31
0.0
  0
LINE
  5
214
  8
0
 62
     7
 10
147.92699999999999
 20
62.669800000000002
 30
0.0
 11
148.09399999999999
 21
62.503
 31
0.0
  0
LINE
  5
215
  8
0
 62
     7
 10
148.09399999999999
 20
60.003300000000003
 30
0.0
 11
148.09399999999999
 21
62.503
 31
0.0
  0
LINE
  5
216
  8
0
 62
     7
 10
148.09399999999999
 20
60.003300000000003
 30
0.0
 11
147.92699999999999
 21
59.836500000000001
 31
0.0
  0
LINE
  5
217
  8
0
 62
     7
 10
147.92699999999999
 20
62.669800000000002
 30
0.0
 11
147.92699999999999
 21
59.836500000000001
 31
0.0
  0
LINE
  5
218
  8
0
 62
     7
 10
140.09399999999999
 20
62.669800000000002
 30
0.0
 11
140.09399999999999
 21
59.836500000000001
 31
0.0
  0
LINE
  5
219
  8
0
 62
     7
 10
139.92699999999999
 20
60.003300000000003
 30
0.0
 11
140.09399999999999
 21
59.836500000000001
 31
0.0
  0
LINE
  5
21A
  8
0
 62
     7
 10
139.92699999999999
 20
60.003300000000003
 30
0.0
 11
139.92699999999999
 21
62.503
 31
0.0
  0
LINE
  5
21B
  8
0
 62
     7
 10
140.09399999999999
 20
62.669800000000002
 30
0.0
 11
139.92699999999999
 21
62.503
 31
0.0
  0
LINE
  5
21C
  8
0
 62
     7
 10
140.09399999999999
 20
62.669800000000002
 30
0.0
 11
147.92699999999999
 21
62.669800000000002
 31
0.0
  0
LINE
  5
21D
  8
0
 62
     7
 10
149.511
 20
68.169600000000003
 30
0.0
 11
147.75999999999999
 21
62.669800000000002
 31
0.0
  0
LINE
  5
21E
  8
0
 62
     7
 10
140.25999999999999
 20
62.669800000000002
 30
0.0
 11
138.50999999999999
 21
68.169600000000003
 31
0.0
  0
LINE
  5
21F
  8
0
 62
     7
 10
140.09399999999999
 20
59.836500000000001
 30
0.0
 11
147.92699999999999
 21
59.836500000000001
 31
0.0
  0
LINE
  5
220
  8
0
 62
     7
 10
139.92699999999999
 20
60.003300000000003
 30
0.0
 11
148.09399999999999
 21
60.003300000000003
 31
0.0
  0
LINE
  5
221
  8
0
 62
     7
 10
139.92699999999999
 20
62.503
 30
0.0
 11
148.09399999999999
 21
62.503
 31
0.0
  0
LINE
  5
222
  8
0
 62
     7
 10
138.50999999999999
 20
68.169600000000003
 30
0.0
 11
149.511
 21
68.169600000000003
 31
0.0
  0
LINE
  5
223
  8
0
 62
     7
 10
136.00999999999999
 20
71.003500000000003
 30
0.0
 11
152.011
 21
71.003500000000003
 31
0.0
  0
LINE
  5
224
  8
0
 62
     7
 10
133.761
 20
72.336799999999997
 30
0.0
 11
154.25999999999999
 21
72.336799999999997
 31
0.0
  0
LINE
  5
225
  8
0
 62
     7
 10
133.761
 20
74.002799999999993
 30
0.0
 11
154.25999999999999
 21
74.002799999999993
 31
0.0
  0
LINE
  5
226
  8
0
 62
     7
 10
134.50999999999999
 20
75.003299999999996
 30
0.0
 11
153.50999999999999
 21
75.003299999999996
 31
0.0
  0
LINE
  5
227
  8
0
 62
     7
 10
135.011
 20
75.336799999999997
 30
0.0
 11
153.00999999999999
 21
75.336799999999997
 31
0.0
  0
LINE
  5
228
  8
0
 62
     7
 10
135.011
 20
75.669600000000003
 30
0.0
 11
153.00999999999999
 21
75.669600000000003
 31
0.0
  0
LINE
  5
229
  8
0
 62
     7
 10
134.59399999999999
 20
76.003100000000003
 30
0.0
 11
153.42699999999999
 21
76.003100000000003
 31
0.0
  0
LINE
  5
22A
  8
0
 62
     7
 10
134.59399999999999
 20
76.169799999999995
 30
0.0
 11
153.42699999999999
 21
76.169799999999995
 31
0.0
  0
LINE
  5
22B
  8
0
 62
     7
 10
168.24600000000001
 20
238.65600000000001
 30
0.0
 11
170.45599999999999
 21
239.24799999999999
 31
0.0
  0
LINE
  5
22C
  8
0
 62
     7
 10
170.45599999999999
 20
239.24799999999999
 30
0.0
 11
168.24600000000001
 21
239.84
 31
0.0
  0
LINE
  5
22D
  8
0
 62
     7
 10
168.24600000000001
 20
239.84
 30
0.0
 11
168.24600000000001
 21
238.65600000000001
 31
0.0
  0
LINE
  5
22E
  8
0
 62
     7
 10
119.804
 20
239.82300000000001
 30
0.0
 11
117.59399999999999
 21
239.23099999999999
 31
0.0
  0
LINE
  5
22F
  8
0
 62
     7
 10
117.59399999999999
 20
239.23099999999999
 30
0.0
 11
119.804
 21
238.63900000000001
 31
0.0
  0
LINE
  5
230
  8
0
 62
     7
 10
119.804
 20
238.63900000000001
 30
0.0
 11
119.804
 21
239.82300000000001
 31
0.0
  0
LINE
  5
231
  8
0
 62
     7
 10
170.92699999999999
 20
239.239
 30
0.0
 11
117.59399999999999
 21
239.239
 31
0.0
  0
LINE
  5
232
  8
0
 62
     7
 10
117.59399999999999
 20
239.93100000000001
 30
0.0
 11
117.59399999999999
 21
223.91499999999999
 31
0.0
  0
LINE
  5
233
  8
0
 62
     7
 10
170.92699999999999
 20
239.93100000000001
 30
0.0
 11
170.92699999999999
 21
223.91499999999999
 31
0.0
  0
LINE
  5
234
  8
0
 62
     7
 10
166.274
 20
226.30099999999999
 30
0.0
 11
167.41900000000001
 21
228.28299999999999
 31
0.0
  0
LINE
  5
235
  8
0
 62
     7
 10
167.41900000000001
 20
228.28299999999999
 30
0.0
 11
165.43700000000001
 21
227.13800000000001
 31
0.0
  0
LINE
  5
236
  8
0
 62
     7
 10
165.43700000000001
 20
227.13800000000001
 30
0.0
 11
166.274
 21
226.30099999999999
 31
0.0
  0
LINE
  5
237
  8
0
 62
     7
 10
167.42500000000001
 20
228.27699999999999
 30
0.0
 11
160.97799999999989
 21
221.83000000000001
 31
0.0
  0
LINE
  5
238
  8
0
 62
     7
 10
122.163
 20
193.67099999999999
 30
0.0
 11
121.01900000000001
 21
191.68899999999999
 31
0.0
  0
LINE
  5
239
  8
0
 62
     7
 10
121.01900000000001
 20
191.68899999999999
 30
0.0
 11
123.001
 21
192.833
 31
0.0
  0
LINE
  5
23A
  8
0
 62
     7
 10
123.001
 20
192.833
 30
0.0
 11
122.163
 21
193.67099999999999
 31
0.0
  0
LINE
  5
23B
  8
0
 62
     7
 10
121.01300000000001
 20
191.69499999999999
 30
0.0
 11
127.45999999999999
 21
198.142
 31
0.0
  0
LINE
  5
23C
  8
0
 62
     7
 10
153.99600000000001
 20
190.49000000000001
 30
0.0
 11
154.58799999999999
 21
188.279
 31
0.0
  0
LINE
  5
23D
  8
0
 62
     7
 10
154.58799999999999
 20
188.279
 30
0.0
 11
155.18000000000001
 21
190.49000000000001
 31
0.0
  0
LINE
  5
23E
  8
0
 62
     7
 10
155.18000000000001
 20
190.49000000000001
 30
0.0
 11
153.99600000000001
 21
190.49000000000001
 31
0.0
  0
LINE
  5
23F
  8
0
 62
     7
 10
155.16399999999999
 20
229.40299999999999
 30
0.0
 11
154.571
 21
231.613
 31
0.0
  0
LINE
  5
240
  8
0
 62
     7
 10
154.571
 20
231.613
 30
0.0
 11
153.97999999999999
 21
229.40299999999999
 31
0.0
  0
LINE
  5
241
  8
0
 62
     7
 10
153.97999999999999
 20
229.40299999999999
 30
0.0
 11
155.16399999999999
 21
229.40299999999999
 31
0.0
  0
LINE
  5
242
  8
0
 62
     7
 10
154.58000000000001
 20
188.279
 30
0.0
 11
154.58000000000001
 21
231.613
 31
0.0
  0
LINE
  5
243
  8
0
  6
AIGENLINE001
 62
     7
 10
144.25999999999999
 20
184.09200000000001
 30
0.0
 11
144.25999999999999
 21
236.39099999999999
 31
0.0
  0
LINE
  5
244
  8
0
 62
     7
 10
129.25999999999999
 20
188.279
 30
0.0
 11
159.261
 21
188.279
 31
0.0
  0
LINE
  5
245
  8
0
 62
     7
 10
117.59399999999999
 20
219.946
 30
0.0
 11
117.59399999999999
 21
199.947
 31
0.0
  0
ARC
  5
246
  8
0
 62
     7
 10
129.260625
 20
199.946336
 30
0.0
 40
11.667059999999999
 50
179.99912399999999
 51
269.9991740000001
  0
LINE
  5
247
  8
0
 62
     7
 10
170.92699999999999
 20
219.946
 30
0.0
 11
170.92699999999999
 21
199.947
 31
0.0
  0
LINE
  5
248
  8
0
  6
AIGENLINE001
 62
     7
 10
115.675
 20
209.946
 30
0.0
 11
173.666
 21
209.946
 31
0.0
  0
ARC
  5
249
  8
0
 62
     7
 10
159.26036199999999
 20
199.94633999999999
 30
0.0
 40
11.667064
 50
270.00086599999997
 51
0.000836
  0
LINE
  5
24A
  8
0
 62
     7
 10
129.25999999999999
 20
231.613
 30
0.0
 11
159.261
 21
231.613
 31
0.0
  0
ARC
  5
24B
  8
0
 62
     7
 10
159.26053400000001
 20
219.94627500000001
 30
0.0
 40
11.666892000000001
 50
0.00001
 51
89.999980000000008
  0
ARC
  5
24C
  8
0
 62
     7
 10
129.260457
 20
219.94627500000001
 30
0.0
 40
11.666892000000001
 50
90.0
 51
179.99996999999999
  0
LINE
  5
24D
  8
0
  6
AIGENLINE001
 62
     7
 10
144.25999999999999
 20
58.282800000000002
 30
0.0
 11
144.25999999999999
 21
77.419700000000006
 31
0.0
  0
LINE
  5
24E
  8
0
 62
     7
 10
158.59100000000001
 20
62.046900000000001
 30
0.0
 11
159.18299999999999
 21
59.836500000000001
 31
0.0
  0
LINE
  5
24F
  8
0
 62
     7
 10
159.18299999999999
 20
59.836500000000001
 30
0.0
 11
159.77600000000001
 21
62.046900000000001
 31
0.0
  0
LINE
  5
250
  8
0
 62
     7
 10
159.77600000000001
 20
62.046900000000001
 30
0.0
 11
158.59100000000001
 21
62.046900000000001
 31
0.0
  0
LINE
  5
251
  8
0
 62
     7
 10
159.76400000000001
 20
71.792500000000004
 30
0.0
 11
159.17099999999999
 21
74.002799999999993
 31
0.0
  0
LINE
  5
252
  8
0
 62
     7
 10
159.17099999999999
 20
74.002799999999993
 30
0.0
 11
158.57900000000001
 21
71.792500000000004
 31
0.0
  0
LINE
  5
253
  8
0
 62
     7
 10
158.57900000000001
 20
71.792500000000004
 30
0.0
 11
159.76400000000001
 21
71.792500000000004
 31
0.0
  0
LINE
  5
254
  8
0
 62
     7
 10
142.13800000000001
 20
54.421500000000002
 30
0.0
 11
139.92699999999999
 21
53.829599999999999
 31
0.0
  0
LINE
  5
255
  8
0
 62
     7
 10
139.92699999999999
 20
53.829599999999999
 30
0.0
 11
142.13800000000001
 21
53.237099999999998
 31
0.0
  0
LINE
  5
256
  8
0
 62
     7
 10
142.13800000000001
 20
53.237099999999998
 30
0.0
 11
142.13800000000001
 21
54.421500000000002
 31
0.0
  0
LINE
  5
257
  8
0
 62
     7
 10
145.88300000000001
 20
53.249499999999998
 30
0.0
 11
148.09399999999999
 21
53.84129999999999
 31
0.0
  0
LINE
  5
258
  8
0
 62
     7
 10
148.09399999999999
 20
53.84129999999999
 30
0.0
 11
145.88300000000001
 21
54.433900000000001
 31
0.0
  0
LINE
  5
259
  8
0
 62
     7
 10
145.88300000000001
 20
54.433900000000001
 30
0.0
 11
145.88300000000001
 21
53.249499999999998
 31
0.0
  0
LINE
  5
25A
  8
0
 62
     7
 10
154.011
 20
124.45099999999999
 30
0.0
 11
151.761
 21
124.03400000000001
 31
0.0
  0
LINE
  5
25B
  8
0
 62
     7
 10
136.75999999999999
 20
124.03400000000001
 30
0.0
 11
134.511
 21
124.45099999999999
 31
0.0
  0
LINE
  5
25C
  8
0
 62
     7
 10
136.75999999999999
 20
124.03400000000001
 30
0.0
 11
151.761
 21
124.03400000000001
 31
0.0
  0
LINE
  5
25D
  8
0
 62
     7
 10
134.511
 20
124.45099999999999
 30
0.0
 11
154.011
 21
124.45099999999999
 31
0.0
  0
LINE
  5
25E
  8
0
 62
     7
 10
154.011
 20
124.867
 30
0.0
 11
154.011
 21
124.45099999999999
 31
0.0
  0
LINE
  5
25F
  8
0
 62
     7
 10
134.511
 20
124.867
 30
0.0
 11
134.511
 21
124.45099999999999
 31
0.0
  0
LINE
  5
260
  8
0
 62
     7
 10
134.511
 20
124.867
 30
0.0
 11
154.011
 21
124.867
 31
0.0
  0
LINE
  5
261
  8
0
 62
     7
 10
164.14500000000001
 20
149.03399999999999
 30
0.0
 11
163.50700000000001
 21
132.87200000000001
 31
0.0
  0
ARC
  5
262
  8
0
 62
     7
 10
154.882972
 20
133.508926
 30
0.0
 40
8.6471250000000008
 50
271.96714400000002
 51
355.77915400000001
  0
LINE
  5
263
  8
0
  6
AIGENLINE001
 62
     7
 10
144.25999999999999
 20
121.066
 30
0.0
 11
144.25999999999999
 21
153.79599999999999
 31
0.0
  0
LINE
  5
264
  8
0
 62
     7
 10
133.34100000000001
 20
124.867
 30
0.0
 11
155.18000000000001
 21
124.867
 31
0.0
  0
LINE
  5
265
  8
0
 62
     7
 10
124.377
 20
149.03399999999999
 30
0.0
 11
125.014
 21
132.87200000000001
 31
0.0
  0
ARC
  5
266
  8
0
 62
     7
 10
133.638417
 20
133.50933900000001
 30
0.0
 40
8.6475509999999982
 50
184.2234
 51
268.03034200000008
  0
LINE
  5
267
  8
0
 62
     7
 10
167.011
 20
149.86799999999999
 30
0.0
 11
168.00999999999999
 21
149.03399999999999
 31
0.0
  0
LINE
  5
268
  8
0
 62
     7
 10
121.511
 20
149.86799999999999
 30
0.0
 11
167.011
 21
149.86799999999999
 31
0.0
  0
LINE
  5
269
  8
0
 62
     7
 10
121.511
 20
149.86799999999999
 30
0.0
 11
120.511
 21
149.03399999999999
 31
0.0
  0
LINE
  5
26A
  8
0
 62
     7
 10
120.511
 20
149.03399999999999
 30
0.0
 11
168.00999999999999
 21
149.03399999999999
 31
0.0
  0
LINE
  5
26B
  8
0
 62
     7
 10
30.274699999999999
 20
124.867
 30
0.0
 11
51.020800000000001
 21
124.867
 31
0.0
  0
LINE
  5
26C
  8
0
 62
     7
 10
37.4407
 20
149.03399999999999
 30
0.0
 11
41.758399999999988
 21
149.03399999999999
 31
0.0
  0
LINE
  5
26D
  8
0
 62
     7
 10
30.274699999999999
 20
149.86799999999999
 30
0.0
 11
42.394100000000002
 21
149.86799999999999
 31
0.0
  0
LINE
  5
26E
  8
0
 62
     7
 10
38.61610000000001
 20
146.82300000000001
 30
0.0
 11
38.023899999999998
 21
149.03399999999999
 31
0.0
  0
LINE
  5
26F
  8
0
 62
     7
 10
38.023899999999998
 20
149.03399999999999
 30
0.0
 11
37.4315
 21
146.82300000000001
 31
0.0
  0
LINE
  5
270
  8
0
 62
     7
 10
37.4315
 20
146.82300000000001
 30
0.0
 11
38.61610000000001
 21
146.82300000000001
 31
0.0
  0
LINE
  5
271
  8
0
 62
     7
 10
31.717099999999999
 20
147.65700000000001
 30
0.0
 11
31.1249
 21
149.86799999999999
 31
0.0
  0
LINE
  5
272
  8
0
 62
     7
 10
31.1249
 20
149.86799999999999
 30
0.0
 11
30.532699999999998
 21
147.65700000000001
 31
0.0
  0
LINE
  5
273
  8
0
 62
     7
 10
30.532699999999998
 20
147.65700000000001
 30
0.0
 11
31.717099999999999
 21
147.65700000000001
 31
0.0
  0
LINE
  5
274
  8
0
 62
     7
 10
37.431699999999999
 20
152.07900000000001
 30
0.0
 11
38.023899999999998
 21
149.86799999999999
 31
0.0
  0
LINE
  5
275
  8
0
 62
     7
 10
38.023899999999998
 20
149.86799999999999
 30
0.0
 11
38.616300000000003
 21
152.07900000000001
 31
0.0
  0
LINE
  5
276
  8
0
 62
     7
 10
38.616300000000003
 20
152.07900000000001
 30
0.0
 11
37.431699999999999
 21
152.07900000000001
 31
0.0
  0
LINE
  5
277
  8
0
 62
     7
 10
30.544799999999999
 20
127.078
 30
0.0
 11
31.137
 21
124.867
 31
0.0
  0
LINE
  5
278
  8
0
 62
     7
 10
31.137
 20
124.867
 30
0.0
 11
31.729399999999998
 21
127.078
 31
0.0
  0
LINE
  5
279
  8
0
 62
     7
 10
31.729399999999998
 20
127.078
 30
0.0
 11
30.544799999999999
 21
127.078
 31
0.0
  0
LINE
  5
27A
  8
0
 62
     7
 10
31.1309
 20
149.86799999999999
 30
0.0
 11
31.1309
 21
124.867
 31
0.0
  0
LINE
  5
27B
  8
0
 62
     7
 10
80.871499999999983
 20
124.45099999999999
 30
0.0
 11
78.621399999999994
 21
124.03400000000001
 31
0.0
  0
LINE
  5
27C
  8
0
 62
     7
 10
63.621299999999998
 20
124.03400000000001
 30
0.0
 11
61.371299999999991
 21
124.45099999999999
 31
0.0
  0
LINE
  5
27D
  8
0
 62
     7
 10
63.621299999999998
 20
124.03400000000001
 30
0.0
 11
78.621399999999994
 21
124.03400000000001
 31
0.0
  0
LINE
  5
27E
  8
0
 62
     7
 10
61.371299999999991
 20
124.45099999999999
 30
0.0
 11
80.871499999999983
 21
124.45099999999999
 31
0.0
  0
LINE
  5
27F
  8
0
 62
     7
 10
80.871499999999983
 20
124.867
 30
0.0
 11
80.871499999999983
 21
124.45099999999999
 31
0.0
  0
LINE
  5
280
  8
0
 62
     7
 10
61.371299999999991
 20
124.867
 30
0.0
 11
61.371299999999991
 21
124.45099999999999
 31
0.0
  0
LINE
  5
281
  8
0
 62
     7
 10
61.371299999999991
 20
124.867
 30
0.0
 11
80.871499999999983
 21
124.867
 31
0.0
  0
LINE
  5
282
  8
0
 62
     7
 10
96.005399999999995
 20
149.03399999999999
 30
0.0
 11
95.367599999999996
 21
132.87200000000001
 31
0.0
  0
ARC
  5
283
  8
0
 62
     7
 10
86.743897000000004
 20
133.50892099999999
 30
0.0
 40
8.6471189999999982
 50
271.96711199999999
 51
355.77918599999998
  0
LINE
  5
284
  8
0
  6
AIGENLINE001
 62
     7
 10
71.121300000000005
 20
121.066
 30
0.0
 11
71.121300000000005
 21
153.79599999999999
 31
0.0
  0
LINE
  5
285
  8
0
 62
     7
 10
55.201999999999991
 20
124.867
 30
0.0
 11
87.040699999999987
 21
124.867
 31
0.0
  0
LINE
  5
286
  8
0
 62
     7
 10
46.237599999999993
 20
149.03399999999999
 30
0.0
 11
46.875100000000003
 21
132.87200000000001
 31
0.0
  0
ARC
  5
287
  8
0
 62
     7
 10
55.499600000000001
 20
133.509759
 30
0.0
 40
8.6479850000000003
 50
184.22598199999999
 51
268.02776
  0
LINE
  5
288
  8
0
 62
     7
 10
98.871799999999993
 20
149.86799999999999
 30
0.0
 11
99.871499999999983
 21
149.03399999999999
 31
0.0
  0
LINE
  5
289
  8
0
 62
     7
 10
43.371299999999998
 20
149.86799999999999
 30
0.0
 11
98.871799999999993
 21
149.86799999999999
 31
0.0
  0
LINE
  5
28A
  8
0
 62
     7
 10
43.371299999999998
 20
149.86799999999999
 30
0.0
 11
42.371299999999991
 21
149.03399999999999
 31
0.0
  0
LINE
  5
28B
  8
0
 62
     7
 10
42.371299999999991
 20
149.03399999999999
 30
0.0
 11
99.871499999999983
 21
149.03399999999999
 31
0.0
  0
LINE
  5
28C
  8
0
 62
     7
 10
52.068800000000003
 20
190.363
 30
0.0
 11
35.807899999999997
 21
190.363
 31
0.0
  0
LINE
  5
28D
  8
0
 62
     7
 10
52.068800000000003
 20
229.53
 30
0.0
 11
35.807899999999997
 21
229.53
 31
0.0
  0
LINE
  5
28E
  8
0
 62
     7
 10
37.100299999999997
 20
227.31899999999999
 30
0.0
 11
36.507899999999999
 21
229.53
 31
0.0
  0
LINE
  5
28F
  8
0
 62
     7
 10
36.507899999999999
 20
229.53
 30
0.0
 11
35.915900000000001
 21
227.31899999999999
 31
0.0
  0
LINE
  5
290
  8
0
 62
     7
 10
35.915900000000001
 20
227.31899999999999
 30
0.0
 11
37.100299999999997
 21
227.31899999999999
 31
0.0
  0
LINE
  5
291
  8
0
 62
     7
 10
35.927900000000001
 20
192.57400000000001
 30
0.0
 11
36.52000000000001
 21
190.364
 31
0.0
  0
LINE
  5
292
  8
0
 62
     7
 10
36.52000000000001
 20
190.364
 30
0.0
 11
37.112400000000001
 21
192.57400000000001
 31
0.0
  0
LINE
  5
293
  8
0
 62
     7
 10
37.112400000000001
 20
192.57400000000001
 30
0.0
 11
35.927900000000001
 21
192.57400000000001
 31
0.0
  0
LINE
  5
294
  8
0
 62
     7
 10
38.023899999999998
 20
154.465
 30
0.0
 11
38.023899999999998
 21
145.922
 31
0.0
  0
LINE
  5
295
  8
0
 62
     7
 10
36.514099999999999
 20
229.53
 30
0.0
 11
36.514099999999999
 21
190.363
 31
0.0
  0
LINE
  5
296
  8
0
 62
     7
 10
45.084200000000003
 20
233.697
 30
0.0
 11
28.1905
 21
233.697
 31
0.0
  0
LINE
  5
297
  8
0
 62
     7
 10
45.084200000000003
 20
186.197
 30
0.0
 11
28.1905
 21
186.197
 31
0.0
  0
LINE
  5
298
  8
0
 62
     7
 10
28.310099999999998
 20
188.40700000000001
 30
0.0
 11
28.9026
 21
186.197
 31
0.0
  0
LINE
  5
299
  8
0
 62
     7
 10
28.9026
 20
186.197
 30
0.0
 11
29.494499999999999
 21
188.40700000000001
 31
0.0
  0
LINE
  5
29A
  8
0
 62
     7
 10
29.494499999999999
 20
188.40700000000001
 30
0.0
 11
28.310099999999998
 21
188.40700000000001
 31
0.0
  0
LINE
  5
29B
  8
0
 62
     7
 10
29.482500000000002
 20
231.48599999999999
 30
0.0
 11
28.890599999999999
 21
233.697
 31
0.0
  0
LINE
  5
29C
  8
0
 62
     7
 10
28.890599999999999
 20
233.697
 30
0.0
 11
28.297999999999998
 21
231.48599999999999
 31
0.0
  0
LINE
  5
29D
  8
0
 62
     7
 10
28.297999999999998
 20
231.48599999999999
 30
0.0
 11
29.482500000000002
 21
231.48599999999999
 31
0.0
  0
LINE
  5
29E
  8
0
 62
     7
 10
28.8963
 20
186.197
 30
0.0
 11
28.8963
 21
233.697
 31
0.0
  0
LINE
  5
29F
  8
0
 62
     7
 10
74.502399999999994
 20
205.72900000000001
 30
0.0
 11
76.484899999999996
 21
204.58600000000001
 31
0.0
  0
LINE
  5
2A0
  8
0
 62
     7
 10
76.484899999999996
 20
204.58600000000001
 30
0.0
 11
75.339699999999993
 21
206.56700000000001
 31
0.0
  0
LINE
  5
2A1
  8
0
 62
     7
 10
75.339699999999993
 20
206.56700000000001
 30
0.0
 11
74.502399999999994
 21
205.72900000000001
 31
0.0
  0
LINE
  5
2A2
  8
0
 62
     7
 10
67.737399999999994
 20
214.161
 30
0.0
 11
65.754900000000006
 21
215.304
 31
0.0
  0
LINE
  5
2A3
  8
0
 62
     7
 10
65.754900000000006
 20
215.304
 30
0.0
 11
66.900000000000006
 21
213.32300000000001
 31
0.0
  0
LINE
  5
2A4
  8
0
 62
     7
 10
66.900000000000006
 20
213.32300000000001
 30
0.0
 11
67.737399999999994
 21
214.161
 31
0.0
  0
LINE
  5
2A5
  8
0
 62
     7
 10
82.361699999999985
 20
198.715
 30
0.0
 11
65.754900000000006
 21
215.304
 31
0.0
  0
LINE
  5
2A6
  8
0
 62
     7
 10
99.871499999999983
 20
168.82300000000001
 30
0.0
 11
99.871499999999983
 21
190.60400000000001
 31
0.0
  0
LINE
  5
2A7
  8
0
 62
     7
 10
42.371299999999991
 20
168.82300000000001
 30
0.0
 11
42.371299999999991
 21
190.60400000000001
 31
0.0
  0
LINE
  5
2A8
  8
0
 62
     7
 10
44.581699999999991
 20
169.952
 30
0.0
 11
42.371299999999991
 21
169.35900000000001
 31
0.0
  0
LINE
  5
2A9
  8
0
 62
     7
 10
42.371299999999991
 20
169.35900000000001
 30
0.0
 11
44.581699999999991
 21
168.767
 31
0.0
  0
LINE
  5
2AA
  8
0
 62
     7
 10
44.581699999999991
 20
168.767
 30
0.0
 11
44.581699999999991
 21
169.952
 31
0.0
  0
LINE
  5
2AB
  8
0
 62
     7
 10
97.661199999999994
 20
168.779
 30
0.0
 11
99.871499999999983
 21
169.37100000000001
 31
0.0
  0
LINE
  5
2AC
  8
0
 62
     7
 10
99.871499999999983
 20
169.37100000000001
 30
0.0
 11
97.661199999999994
 21
169.964
 31
0.0
  0
LINE
  5
2AD
  8
0
 62
     7
 10
97.661199999999994
 20
169.964
 30
0.0
 11
97.661199999999994
 21
168.779
 31
0.0
  0
LINE
  5
2AE
  8
0
 62
     7
 10
42.371299999999991
 20
169.36600000000001
 30
0.0
 11
99.871499999999983
 21
169.36600000000001
 31
0.0
  0
LINE
  5
2AF
  8
0
 62
     7
 10
95.704800000000006
 20
175.81899999999999
 30
0.0
 11
95.704800000000006
 21
196.386
 31
0.0
  0
LINE
  5
2B0
  8
0
 62
     7
 10
46.537799999999997
 20
175.81899999999999
 30
0.0
 11
46.537799999999997
 21
196.386
 31
0.0
  0
LINE
  5
2B1
  8
0
 62
     7
 10
48.74819999999999
 20
177.12799999999999
 30
0.0
 11
46.537799999999997
 21
176.536
 31
0.0
  0
LINE
  5
2B2
  8
0
 62
     7
 10
46.537799999999997
 20
176.536
 30
0.0
 11
48.74819999999999
 21
175.94300000000001
 31
0.0
  0
LINE
  5
2B3
  8
0
 62
     7
 10
48.74819999999999
 20
175.94300000000001
 30
0.0
 11
48.74819999999999
 21
177.12799999999999
 31
0.0
  0
LINE
  5
2B4
  8
0
 62
     7
 10
93.494299999999996
 20
175.95599999999999
 30
0.0
 11
95.704700000000003
 21
176.548
 31
0.0
  0
LINE
  5
2B5
  8
0
 62
     7
 10
95.704700000000003
 20
176.548
 30
0.0
 11
93.494299999999996
 21
177.13999999999999
 31
0.0
  0
LINE
  5
2B6
  8
0
 62
     7
 10
93.494299999999996
 20
177.13999999999999
 30
0.0
 11
93.494299999999996
 21
175.95599999999999
 31
0.0
  0
LINE
  5
2B7
  8
0
 62
     7
 10
46.537799999999997
 20
176.542
 30
0.0
 11
95.704800000000006
 21
176.542
 31
0.0
  0
LINE
  5
2B8
  8
0
 62
     7
 10
70.371200000000002
 20
186.197
 30
0.0
 11
70.371200000000002
 21
184.53
 31
0.0
  0
LINE
  5
2B9
  8
0
 62
     7
 10
70.371200000000002
 20
184.53
 30
0.0
 11
71.871200000000002
 21
184.53
 31
0.0
  0
LINE
  5
2BA
  8
0
 62
     7
 10
71.871200000000002
 20
184.53
 30
0.0
 11
71.871200000000002
 21
186.197
 31
0.0
  0
LINE
  5
2BB
  8
0
 62
     7
 10
70.371200000000002
 20
233.697
 30
0.0
 11
70.371200000000002
 21
235.364
 31
0.0
  0
LINE
  5
2BC
  8
0
 62
     7
 10
70.371200000000002
 20
235.364
 30
0.0
 11
71.871200000000002
 21
235.364
 31
0.0
  0
LINE
  5
2BD
  8
0
 62
     7
 10
71.871200000000002
 20
235.364
 30
0.0
 11
71.871200000000002
 21
233.697
 31
0.0
  0
LINE
  5
2BE
  8
0
 62
     7
 10
42.371299999999991
 20
210.697
 30
0.0
 11
40.704599999999992
 21
210.697
 31
0.0
  0
LINE
  5
2BF
  8
0
 62
     7
 10
40.704599999999992
 20
210.697
 30
0.0
 11
40.704599999999992
 21
209.197
 31
0.0
  0
LINE
  5
2C0
  8
0
 62
     7
 10
40.704599999999992
 20
209.197
 30
0.0
 11
42.371299999999991
 21
209.197
 31
0.0
  0
LINE
  5
2C1
  8
0
 62
     7
 10
99.871499999999983
 20
210.697
 30
0.0
 11
101.538
 21
210.697
 31
0.0
  0
LINE
  5
2C2
  8
0
 62
     7
 10
101.538
 20
210.697
 30
0.0
 11
101.538
 21
209.197
 31
0.0
  0
LINE
  5
2C3
  8
0
 62
     7
 10
101.538
 20
209.197
 30
0.0
 11
99.871499999999983
 21
209.197
 31
0.0
  0
LINE
  5
2C4
  8
0
  6
AIGENLINE001
 62
     7
 10
103.276
 20
209.946
 30
0.0
 11
39.305
 21
209.946
 31
0.0
  0
LINE
  5
2C5
  8
0
  6
AIGENLINE001
 62
     7
 10
71.121300000000005
 20
183.02099999999999
 30
0.0
 11
71.121300000000005
 21
237.06800000000001
 31
0.0
  0
ARC
  5
2C6
  8
0
 62
     7
 10
71.121343999999993
 20
209.94647800000001
 30
0.0
 40
9.583457000000001
 50
0.00001
 51
89.999980000000008
  0
ARC
  5
2C7
  8
0
 62
     7
 10
71.121347
 20
209.94647800000001
 30
0.0
 40
9.583457000000001
 50
90.0
 51
179.99996999999999
  0
ARC
  5
2C8
  8
0
 62
     7
 10
71.121170999999975
 20
209.94665000000001
 30
0.0
 40
9.5832809999999995
 50
180.00103999999999
 51
270.00105000000002
  0
ARC
  5
2C9
  8
0
 62
     7
 10
71.121516
 20
209.946654
 30
0.0
 40
9.583283999999999
 50
269.99898999999999
 51
359.99896000000001
  0
ARC
  5
2CA
  8
0
 62
     7
 10
71.121172000000001
 20
209.946651
 30
0.0
 40
7.5833929999999992
 50
359.99870800000002
 51
89.99867900000001
  0
ARC
  5
2CB
  8
0
 62
     7
 10
71.121518999999992
 20
209.946651
 30
0.0
 40
7.5833929999999992
 50
90.001301000000012
 51
180.00131099999999
  0
ARC
  5
2CC
  8
0
 62
     7
 10
71.121343999999993
 20
209.94647800000001
 30
0.0
 40
7.5832189999999997
 50
179.99996999999999
 51
270.00002000000001
  0
ARC
  5
2CD
  8
0
 62
     7
 10
71.121343999999993
 20
209.94648100000001
 30
0.0
 40
7.583221
 50
270.00002000000001
 51
359.99999000000003
  0
LINE
  5
2CE
  8
0
 62
     7
 10
46.537799999999997
 20
219.53
 30
0.0
 11
46.537799999999997
 21
200.363
 31
0.0
  0
LINE
  5
2CF
  8
0
 62
     7
 10
85.704899999999995
 20
229.53
 30
0.0
 11
56.537799999999997
 21
229.53
 31
0.0
  0
ARC
  5
2D0
  8
0
 62
     7
 10
56.537906999999997
 20
219.53001900000001
 30
0.0
 40
10.000057
 50
90.000493000000006
 51
180.00050300000001
  0
LINE
  5
2D1
  8
0
 62
     7
 10
85.704899999999995
 20
190.363
 30
0.0
 11
56.537799999999997
 21
190.363
 31
0.0
  0
ARC
  5
2D2
  8
0
 62
     7
 10
56.537818000000001
 20
200.36336700000001
 30
0.0
 40
9.9999679999999991
 50
179.99996999999999
 51
270.00002000000001
  0
LINE
  5
2D3
  8
0
 62
     7
 10
95.704800000000006
 20
219.53
 30
0.0
 11
95.704800000000006
 21
200.363
 31
0.0
  0
ARC
  5
2D4
  8
0
 62
     7
 10
85.704868999999974
 20
200.363371
 30
0.0
 40
9.9999710000000004
 50
270.00002000000001
 51
359.99999000000003
  0
ARC
  5
2D5
  8
0
 62
     7
 10
85.704782999999992
 20
219.53001900000001
 30
0.0
 40
10.000057
 50
359.99951600000003
 51
89.999487000000002
  0
LINE
  5
2D6
  8
0
 62
     7
 10
43.371299999999998
 20
227.03
 30
0.0
 11
43.371299999999998
 21
192.863
 31
0.0
  0
LINE
  5
2D7
  8
0
 62
     7
 10
93.204899999999995
 20
232.697
 30
0.0
 11
49.037799999999997
 21
232.697
 31
0.0
  0
ARC
  5
2D8
  8
0
 62
     7
 10
49.038058999999997
 20
227.03021200000001
 30
0.0
 40
5.6667879999999986
 50
90.002611999999985
 51
180.002622
  0
LINE
  5
2D9
  8
0
 62
     7
 10
93.204899999999995
 20
187.196
 30
0.0
 11
49.037799999999997
 21
187.196
 31
0.0
  0
ARC
  5
2DA
  8
0
 62
     7
 10
49.037970000000001
 20
192.86317600000001
 30
0.0
 40
5.6666999999999987
 50
179.99822900000001
 51
269.99827800000003
  0
LINE
  5
2DB
  8
0
 62
     7
 10
98.871799999999993
 20
227.03
 30
0.0
 11
98.871799999999993
 21
192.863
 31
0.0
  0
ARC
  5
2DC
  8
0
 62
     7
 10
93.204891000000003
 20
192.86335
 30
0.0
 40
5.6668739999999991
 50
270.00002000000001
 51
359.99999000000003
  0
ARC
  5
2DD
  8
0
 62
     7
 10
93.204803999999996
 20
227.03004000000001
 30
0.0
 40
5.6669599999999987
 50
359.99913900000001
 51
89.99910899999999
  0
LINE
  5
2DE
  8
0
 62
     7
 10
42.371299999999991
 20
227.03
 30
0.0
 11
42.371299999999991
 21
192.863
 31
0.0
  0
LINE
  5
2DF
  8
0
 62
     7
 10
93.204899999999995
 20
233.697
 30
0.0
 11
49.037799999999997
 21
233.697
 31
0.0
  0
ARC
  5
2E0
  8
0
 62
     7
 10
49.038058999999997
 20
227.03021200000001
 30
0.0
 40
6.666733999999999
 50
90.002221000000006
 51
180.00223099999999
  0
LINE
  5
2E1
  8
0
 62
     7
 10
93.204899999999995
 20
186.197
 30
0.0
 11
49.037799999999997
 21
186.197
 31
0.0
  0
ARC
  5
2E2
  8
0
 62
     7
 10
49.037970000000001
 20
192.86317500000001
 30
0.0
 40
6.666644999999999
 50
179.99849
 51
269.99853899999999
  0
LINE
  5
2E3
  8
0
 62
     7
 10
99.871499999999983
 20
227.03
 30
0.0
 11
99.871499999999983
 21
192.863
 31
0.0
  0
ARC
  5
2E4
  8
0
 62
     7
 10
93.204803999999996
 20
192.86326399999999
 30
0.0
 40
6.666733999999999
 50
270.00076000000001
 51
0.00073
  0
ARC
  5
2E5
  8
0
 62
     7
 10
93.204717999999986
 20
227.030126
 30
0.0
 40
6.6668199999999986
 50
359.99853000000002
 51
89.998500000000007
  0
LINE
  5
2E6
  8
_________2
 62
     7
 10
205.30099999999999
 20
127.411
 30
0.0
 11
183.55000000000001
 21
127.411
 31
0.0
  0
LINE
  5
2E7
  8
_________2
 62
     7
 10
100.3
 20
-4.0910799999999998
 30
0.0
 11
100.3
 21
-21.071400000000001
 31
0.0
  0
LINE
  5
2E8
  8
_________2
 62
     7
 10
100.3
 20
275.93000000000001
 30
0.0
 11
100.3
 21
258.91000000000003
 31
0.0
  0
LINE
  5
2E9
  8
_________2
 62
     7
 10
17.049499999999998
 20
127.411
 30
0.0
 11
-4.70052
 21
127.411
 31
0.0
  0
LINE
  5
2EA
  8
_________2
 62
     7
 10
76.741
 20
29.8047
 30
0.0
 11
74.554699999999997
 21
29.8047
 31
0.0
  0
LINE
  5
2EB
  8
_________2
 62
     7
 10
77.233699999999999
 20
29.8047
 30
0.0
 11
76.981499999999997
 21
29.8047
 31
0.0
  0
LINE
  5
2EC
  8
_________2
 62
     7
 10
77.726299999999995
 20
29.8047
 30
0.0
 11
80.651200000000003
 21
29.8047
 31
0.0
  0
LINE
  5
2ED
  8
_________2
 62
     7
 10
77.233699999999999
 20
29.8047
 30
0.0
 11
77.485500000000002
 21
29.8047
 31
0.0
  0
LINE
  5
2EE
  8
_________2
 62
     7
 10
70.837100000000007
 20
29.8047
 30
0.0
 11
68.650499999999994
 21
29.8047
 31
0.0
  0
LINE
  5
2EF
  8
_________2
 62
     7
 10
71.329400000000007
 20
29.8047
 30
0.0
 11
71.077600000000004
 21
29.8047
 31
0.0
  0
LINE
  5
2F0
  8
_________2
 62
     7
 10
71.329400000000007
 20
30.2974
 30
0.0
 11
71.329400000000007
 21
32.484400000000001
 31
0.0
  0
LINE
  5
2F1
  8
_________2
 62
     7
 10
71.329400000000007
 20
29.8047
 30
0.0
 11
71.329400000000007
 21
30.056899999999999
 31
0.0
  0
LINE
  5
2F2
  8
_________2
 62
     7
 10
71.822100000000006
 20
29.8047
 30
0.0
 11
74.009
 21
29.8047
 31
0.0
  0
LINE
  5
2F3
  8
_________2
 62
     7
 10
71.329400000000007
 20
29.8047
 30
0.0
 11
71.581599999999995
 21
29.8047
 31
0.0
  0
LINE
  5
2F4
  8
_________2
 62
     7
 10
71.329400000000007
 20
29.312799999999999
 30
0.0
 11
71.329400000000007
 21
27.125800000000002
 31
0.0
  0
LINE
  5
2F5
  8
_________2
 62
     7
 10
71.329400000000007
 20
29.8047
 30
0.0
 11
71.329400000000007
 21
29.5532
 31
0.0
  0
LINE
  5
2F6
  8
_________2
 62
     7
 10
75.040499999999994
 20
28.5852
 30
0.0
 11
80.218500000000006
 21
27.720400000000001
 31
0.0
  0
LINE
  5
2F7
  8
_________2
 62
     7
 10
75.040499999999994
 20
31.0243
 30
0.0
 11
80.218500000000006
 21
31.889700000000001
 31
0.0
  0
LINE
  5
2F8
  8
_________2
 62
     7
 10
80.218500000000006
 20
27.720400000000001
 30
0.0
 11
80.218500000000006
 21
31.889700000000001
 31
0.0
  0
LINE
  5
2F9
  8
_________2
 62
     7
 10
75.040499999999994
 20
28.5852
 30
0.0
 11
75.040499999999994
 21
31.0243
 31
0.0
  0
ARC
  5
2FA
  8
_________2
 62
     7
 10
71.28285600000001
 20
29.757811
 30
0.0
 40
1.2673589999999999
 50
2.122214
 51
87.893958999999995
  0
ARC
  5
2FB
  8
_________2
 62
     7
 10
71.375959999999992
 20
29.758213000000001
 30
0.0
 40
1.2669559999999991
 50
92.104701000000006
 51
177.89526900000001
  0
ARC
  5
2FC
  8
_________2
 62
     7
 10
71.376357999999996
 20
29.851671
 30
0.0
 40
1.2673680000000001
 50
182.12203600000001
 51
267.877993
  0
ARC
  5
2FD
  8
_________2
 62
     7
 10
71.282531999999989
 20
29.851998999999999
 30
0.0
 40
1.267695999999999
 50
272.12015300000002
 51
357.863674
  0
ARC
  5
2FE
  8
_________2
 62
     7
 10
71.329430000000002
 20
29.804742999999998
 30
0.0
 40
2.0849849999999992
 50
0.00001
 51
89.999980000000008
  0
ARC
  5
2FF
  8
_________2
 62
     7
 10
71.329603000000006
 20
29.804915000000001
 30
0.0
 40
2.084813
 50
90.004733999999999
 51
180.00474399999999
  0
ARC
  5
300
  8
_________2
 62
     7
 10
71.409106000000008
 20
29.884775999999999
 30
0.0
 40
2.1657950000000001
 50
182.11776599999999
 51
267.89173399999999
  0
ARC
  5
301
  8
_________2
 62
     7
 10
71.249459000000002
 20
29.885429999999999
 30
0.0
 40
2.1664590000000001
 50
272.11546800000002
 51
357.86560400000002
  0
TEXT
  5
302
  8
_________2
 62
     7
 10
104.605
 20
1.6794899999999999
 30
0.0
 40
3.0923400000000001
  1
図番
 41
0.5
  0
LINE
  5
303
  8
_________2
 62
     7
 10
103.55
 20
5.9087199999999989
 30
0.0
 11
183.55099999999999
 21
5.9087199999999989
 31
0.0
  0
TEXT
  5
304
  8
_________2
 62
     7
 10
104.605
 20
11.6793
 30
0.0
 40
3.0923400000000001
  1
品番
 41
0.5
  0
TEXT
  5
305
  8
_________2
 62
     7
 10
104.605
 20
31.818100000000001
 30
0.0
 40
3.0923400000000001
  1
名称
 41
0.5
  0
TEXT
  5
306
  8
_________2
 62
     7
 10
91.845058333333341
 20
26.821999999999999
 30
0.0
 40
3.6545800000000002
  1
mm
 41
0.5
 72
     1
 11
93.367800000000003
 21
26.821999999999999
 31
0.0
  0
TEXT
  5
307
  8
_________2
 62
     7
 10
85.643199999999993
 20
31.818100000000001
 30
0.0
 40
3.0923400000000001
  1
単位
 41
0.5
  0
TEXT
  5
308
  8
_________2
 62
     7
 10
85.643199999999993
 20
19.410799999999998
 30
0.0
 40
3.0923400000000001
  1
尺度
 41
0.5
  0
TEXT
  5
309
  8
_________2
 62
     7
 10
90.548758666666686
 20
13.2179
 30
0.0
 40
3.6545800000000002
  1
1 ： 6
 41
0.5
 72
     1
 11
93.959699999999998
 21
13.2179
 31
0.0
  0
TEXT
  5
30A
  8
_________2
 62
     7
 10
136.006575
 20
9.1078600000000005
 30
0.0
 40
3.9357000000000002
  1
KDQS1113S
 41
0.5
 72
     1
 11
143.55000000000001
 21
9.1078600000000005
 31
0.0
  0
TEXT
  5
30B
  8
_________2
 62
     7
 10
136.006575
 20
-0.8926299999999999
 30
0.0
 40
3.9357000000000002
  1
KDQS1113S
 41
0.5
 72
     1
 11
143.55000000000001
 21
-0.8926299999999999
 31
0.0
  0
TEXT
  5
30C
  8
_________2
 62
     7
 10
109.179
 20
24.2257
 30
0.0
 40
3.9357000000000002
  1
ステンレス製・パーティーシンク
 41
0.5
  0
TEXT
  5
30D
  8
_________2
 62
     7
 10
39.425300333333333
 20
13.603
 30
0.0
 40
3.6545800000000002
  1
早川
 41
0.5
 72
     1
 11
41.313499999999998
 21
13.603
 31
0.0
  0
TEXT
  5
30E
  8
_________2
 62
     7
 10
20.790090666666661
 20
13.603
 30
0.0
 40
3.6545800000000002
  1
石原
 41
0.5
 72
     1
 11
22.7392
 21
13.603
 31
0.0
  0
TEXT
  5
30F
  8
_________2
 62
     7
 10
67.785399999999996
 20
13.2179
 30
0.0
 40
3.6545800000000002
  1
16.03.14
 41
0.5
  0
TEXT
  5
310
  8
_________2
 62
     7
 10
66.593100000000007
 20
19.410799999999998
 30
0.0
 40
3.0923400000000001
  1
日付
 41
0.5
  0
TEXT
  5
311
  8
_________2
 62
     7
 10
29.639399999999998
 20
19.410799999999998
 30
0.0
 40
3.0923400000000001
  1
検図
 41
0.5
  0
TEXT
  5
312
  8
_________2
 62
     7
 10
18.021100000000001
 20
5.21143
 30
0.0
 40
3.0923400000000001
  1
備考
 41
0.5
  0
TEXT
  5
313
  8
_________2
 62
     7
 10
18.021100000000001
 20
19.410799999999998
 30
0.0
 40
3.0923400000000001
  1
製図
 41
0.5
  0
TEXT
  5
314
  8
_________2
 62
     7
 10
23.788465333333338
 20
27.936800000000002
 30
0.0
 40
4.4979399999999989
  1
セラトレーディング株式会社
 41
0.5
 72
     1
 11
41.180500000000002
 21
27.936800000000002
 31
0.0
  0
LINE
  5
315
  8
_________2
 62
     7
 10
183.55099999999999
 20
-4.0910799999999998
 30
0.0
 11
17.049499999999998
 21
-4.0910799999999998
 31
0.0
  0
LINE
  5
316
  8
_________2
 62
     7
 10
17.049499999999998
 20
-4.0910799999999998
 30
0.0
 11
17.049499999999998
 21
258.91000000000003
 31
0.0
  0
LINE
  5
317
  8
_________2
 62
     7
 10
17.049499999999998
 20
258.91000000000003
 30
0.0
 11
183.55099999999999
 21
258.91000000000003
 31
0.0
  0
LINE
  5
318
  8
_________2
 62
     7
 10
183.55099999999999
 20
258.91000000000003
 30
0.0
 11
183.55099999999999
 21
-4.0910799999999998
 31
0.0
  0
LINE
  5
319
  8
_________2
 62
     7
 10
65.549599999999998
 20
9.4089600000000004
 30
0.0
 11
65.549599999999998
 21
35.908799999999999
 31
0.0
  0
LINE
  5
31A
  8
_________2
 62
     7
 10
84.549700000000016
 20
9.4089600000000004
 30
0.0
 11
84.549700000000016
 21
35.908799999999999
 31
0.0
  0
LINE
  5
31B
  8
_________2
 62
     7
 10
103.55
 20
-4.0910799999999998
 30
0.0
 11
103.55
 21
35.908799999999999
 31
0.0
  0
LINE
  5
31C
  8
_________2
 62
     7
 10
28.549299999999999
 20
9.4089600000000004
 30
0.0
 11
28.549299999999999
 21
23.409199999999998
 31
0.0
  0
LINE
  5
31D
  8
_________2
 62
     7
 10
17.049499999999998
 20
9.4089600000000004
 30
0.0
 11
103.55
 21
9.4089600000000004
 31
0.0
  0
LINE
  5
31E
  8
_________2
 62
     7
 10
17.049499999999998
 20
23.409199999999998
 30
0.0
 11
103.55
 21
23.409199999999998
 31
0.0
  0
LINE
  5
31F
  8
_________2
 62
     7
 10
103.55
 20
15.9085
 30
0.0
 11
183.55099999999999
 21
15.9085
 31
0.0
  0
LINE
  5
320
  8
_________2
 62
     7
 10
17.049499999999998
 20
35.908799999999999
 30
0.0
 11
183.55099999999999
 21
35.908799999999999
 31
0.0
  0
ENDSEC
  0
EOF
