  0
SECTION
  2
HEADER
  9
$ACADVER
  1
AC1009
  9
$INSBASE
 10
0.0
 20
0.0
 30
0.0
  9
$EXTMIN
 10
-4.70052
 20
-21.070699999999992
 30
0.0
  9
$EXTMAX
 10
205.30099999999999
 20
275.93099999999993
 30
0.0
  9
$LIMMIN
 10
0.0
 20
0.0
  9
$LIMMAX
 10
12.0
 20
9.0
  9
$ORTHOMODE
 70
     0
  9
$REGENMODE
 70
     1
  9
$FILLMODE
 70
     1
  9
$QTEXTMODE
 70
     0
  9
$MIRRTEXT
 70
     1
  9
$DRAGMODE
 70
     2
  9
$LTSCALE
 40
1.0
  9
$OSMODE
 70
    37
  9
$ATTMODE
 70
     1
  9
$TEXTSIZE
 40
0.0
  9
$TRACEWID
 40
0.05
  9
$TEXTSTYLE
  7
STANDARD
  9
$CLAYER
  8
0
  9
$CELTYPE
  6
CONTINUOUS
  9
$CECOLOR
 62
   256
  9
$DIMSCALE
 40
1.0
  9
$DIMASZ
 40
0.18
  9
$DIMEXO
 40
0.0625
  9
$DIMDLI
 40
0.38
  9
$DIMRND
 40
0.0
  9
$DIMDLE
 40
0.0
  9
$DIMEXE
 40
0.18
  9
$DIMTP
 40
0.0
  9
$DIMTM
 40
0.0
  9
$DIMTXT
 40
0.18
  9
$DIMCEN
 40
0.09
  9
$DIMTSZ
 40
0.0
  9
$DIMTOL
 70
     0
  9
$DIMLIM
 70
     0
  9
$DIMTIH
 70
     1
  9
$DIMTOH
 70
     1
  9
$DIMSE1
 70
     0
  9
$DIMSE2
 70
     0
  9
$DIMTAD
 70
     0
  9
$DIMZIN
 70
     0
  9
$DIMBLK
  1

  9
$DIMASO
 70
     1
  9
$DIMSHO
 70
     1
  9
$DIMPOST
  1

  9
$DIMAPOST
  1

  9
$DIMALT
 70
     0
  9
$DIMALTD
 70
     2
  9
$DIMALTF
 40
25.399999999999999
  9
$DIMLFAC
 40
1.0
  9
$DIMTOFL
 70
     0
  9
$DIMTVP
 40
0.0
  9
$DIMTIX
 70
     0
  9
$DIMSOXD
 70
     0
  9
$DIMSAH
 70
     0
  9
$DIMBLK1
  1

  9
$DIMBLK2
  1

  9
$DIMSTYLE
  2
STANDARD
  9
$DIMCLRD
 70
     0
  9
$DIMCLRE
 70
     0
  9
$DIMCLRT
 70
     0
  9
$DIMTFAC
 40
1.0
  9
$DIMGAP
 40
0.09
  9
$LUNITS
 70
     2
  9
$LUPREC
 70
     4
  9
$SKETCHINC
 40
0.1
  9
$FILLETRAD
 40
0.0
  9
$AUNITS
 70
     0
  9
$AUPREC
 70
     0
  9
$MENU
  1
.
  9
$ELEVATION
 40
0.0
  9
$PELEVATION
 40
0.0
  9
$THICKNESS
 40
0.0
  9
$LIMCHECK
 70
     0
  9
$BLIPMODE
 70
     0
  9
$CHAMFERA
 40
0.0
  9
$CHAMFERB
 40
0.0
  9
$SKPOLY
 70
     0
  9
$TDCREATE
 40
2444972.375
  9
$TDUPDATE
 40
2455387.3983260989
  9
$TDINDWG
 40
0.0227516667
  9
$TDUSRTIMER
 40
0.0227516667
  9
$USRTIMER
 70
     1
  9
$ANGBASE
 50
0.0
  9
$ANGDIR
 70
     0
  9
$PDMODE
 70
     0
  9
$PDSIZE
 40
0.0
  9
$PLINEWID
 40
0.0
  9
$COORDS
 70
     1
  9
$SPLFRAME
 70
     0
  9
$SPLINETYPE
 70
     6
  9
$SPLINESEGS
 70
     8
  9
$ATTDIA
 70
     0
  9
$ATTREQ
 70
     1
  9
$HANDLING
 70
     1
  9
$HANDSEED
  5
340
  9
$SURFTAB1
 70
     6
  9
$SURFTAB2
 70
     6
  9
$SURFTYPE
 70
     6
  9
$SURFU
 70
     6
  9
$SURFV
 70
     6
  9
$UCSNAME
  2

  9
$UCSORG
 10
0.0
 20
0.0
 30
0.0
  9
$UCSXDIR
 10
1.0
 20
0.0
 30
0.0
  9
$UCSYDIR
 10
0.0
 20
1.0
 30
0.0
  9
$PUCSNAME
  2

  9
$PUCSORG
 10
0.0
 20
0.0
 30
0.0
  9
$PUCSXDIR
 10
1.0
 20
0.0
 30
0.0
  9
$PUCSYDIR
 10
0.0
 20
1.0
 30
0.0
  9
$USERI1
 70
     0
  9
$USERI2
 70
     0
  9
$USERI3
 70
     0
  9
$USERI4
 70
     0
  9
$USERI5
 70
     0
  9
$USERR1
 40
0.0
  9
$USERR2
 40
0.0
  9
$USERR3
 40
0.0
  9
$USERR4
 40
0.0
  9
$USERR5
 40
0.0
  9
$WORLDVIEW
 70
     1
  9
$SHADEDGE
 70
     3
  9
$SHADEDIF
 70
    70
  9
$TILEMODE
 70
     1
  9
$MAXACTVP
 70
    48
  9
$PLIMCHECK
 70
     0
  9
$PEXTMIN
 10
1.0000000000000000E+020
 20
1.0000000000000000E+020
 30
1.0000000000000000E+020
  9
$PEXTMAX
 10
-1.0000000000000000E+020
 20
-1.0000000000000000E+020
 30
-1.0000000000000000E+020
  9
$PLIMMIN
 10
0.0
 20
0.0
  9
$PLIMMAX
 10
12.0
 20
9.0
  9
$UNITMODE
 70
     0
  9
$VISRETAIN
 70
     1
  9
$PLINEGEN
 70
     0
  9
$PSLTSCALE
 70
     1
  0
ENDSEC
  0
SECTION
  2
TABLES
  0
TABLE
  2
VPORT
 70
     2
  0
VPORT
  2
*ACTIVE
 70
     0
 10
0.0
 20
0.0
 11
1.0
 21
1.0
 12
250.53567872578159
 22
124.6063187738783
 13
0.0
 23
0.0
 14
1.0
 24
1.0
 15
0.0
 25
0.0
 16
0.0
 26
0.0
 36
1.0
 17
0.0
 27
0.0
 37
0.0
 40
285.44829330687611
 41
2.2894736842105261
 42
50.0
 43
0.0
 44
0.0
 50
0.0
 51
0.0
 71
     0
 72
   100
 73
     1
 74
     1
 75
     0
 76
     0
 77
     0
 78
     0
  0
ENDTAB
  0
TABLE
  2
LTYPE
 70
     4
  0
LTYPE
  2
CONTINUOUS
 70
     0
  3
Solid line
 72
    65
 73
     0
 40
0.0
  0
LTYPE
  2
AIGENLINE001
 70
     0
  3
generate AI->DXF Converter
 72
    65
 73
     4
 40
5.8561449999999988
 49
3.5278
 49
-0.776115
 49
0.776115
 49
-0.776115
  0
LTYPE
  2
AIGENLINE002
 70
     0
  3
generate AI->DXF Converter
 72
    65
 73
     2
 40
1.5522299999999991
 49
0.776115
 49
-0.776115
  0
LTYPE
  2
AIGENLINE003
 70
     0
  3
generate AI->DXF Converter
 72
    65
 73
     6
 40
7.4083750000000004
 49
3.5278
 49
-0.776115
 49
0.776115
 49
-0.776115
 49
0.776115
 49
-0.776115
  0
ENDTAB
  0
TABLE
  2
LAYER
 70
     2
  0
LAYER
  2
0
 70
     0
 62
     7
  6
CONTINUOUS
  0
LAYER
  2
_________2
 70
     0
 62
     7
  6
CONTINUOUS
  0
ENDTAB
  0
TABLE
  2
STYLE
 70
     1
  0
STYLE
  2
STANDARD
 70
     0
 40
0.0
 41
0.0
 50
0.0
 71
     0
 42
0.0
  3
TXT
  4
EXTFONT.SHX
  0
ENDTAB
  0
TABLE
  2
VIEW
 70
     0
  0
ENDTAB
  0
TABLE
  2
UCS
 70
     0
  0
ENDTAB
  0
TABLE
  2
APPID
 70
     1
  0
APPID
  2
ACAD
 70
     0
  0
ENDTAB
  0
TABLE
  2
DIMSTYLE
 70
     1
  0
DIMSTYLE
  2
STANDARD
 70
     0
  3

  4

  5

  6

  7

 40
1.0
 41
0.18
 42
0.0625
 43
0.38
 44
0.18
 45
0.0
 46
0.0
 47
0.0
 48
0.0
140
0.18
141
0.09
142
0.0
143
25.399999999999999
144
1.0
145
0.0
146
1.0
147
0.09
 71
     0
 72
     0
 73
     1
 74
     1
 75
     0
 76
     0
 77
     0
 78
     0
170
     0
171
     2
172
     0
173
     0
174
     0
175
     0
176
     0
177
     0
178
     0
  0
ENDTAB
  0
ENDSEC
  0
SECTION
  2
BLOCKS
  0
BLOCK
  8
0
  2
$MODEL_SPACE
 70
     0
 10
0.0
 20
0.0
 30
0.0
  3
$MODEL_SPACE
  1

  0
ENDBLK
  5
1A
  8
0
  0
BLOCK
 67
     1
  8
0
  2
$PAPER_SPACE
 70
     0
 10
0.0
 20
0.0
 30
0.0
  3
$PAPER_SPACE
  1

  0
ENDBLK
  5
17
 67
     1
  8
0
  0
ENDSEC
  0
SECTION
  2
ENTITIES
  0
TEXT
  5
24
  8
0
 62
     7
 10
92.304299999999998
 20
201.86199999999991
 30
0.0
 40
3.0923400000000001
  1
※カウンターを設ける場合も
 50
90.0
 41
0.5
  0
TEXT
  5
25
  8
0
 62
     7
 10
96.169799999999995
 20
201.86199999999991
 30
0.0
 40
3.0923400000000001
  1
　洗面器の壁固定が必要です。
 50
90.0
 41
0.5
  0
TEXT
  5
26
  8
0
 62
     7
 10
102.995
 20
201.86199999999991
 30
0.0
 40
3.0923400000000001
  1
※カウンターの製作可否はカウンター
 50
90.0
 41
0.5
  0
TEXT
  5
27
  8
0
 62
     7
 10
106.8599999999999
 20
201.86199999999991
 30
0.0
 40
3.0923400000000001
  1
　製作業者様にご確認ください。
 50
90.0
 41
0.5
  0
TEXT
  5
28
  8
0
 62
     7
 10
86.307100000000005
 20
201.86199999999991
 30
0.0
 40
3.0923400000000001
  1
カウンター切込寸法 尺度1：20
 50
90.0
 41
0.5
  0
TEXT
  5
2A
  8
0
 62
     7
 10
141.807525
 20
179.893
 30
0.0
 40
3.0923400000000001
  1
55
 41
0.5
 72
     1
 11
143.09599999999989
 21
179.893
 31
0.0
  0
TEXT
  5
2B
  8
0
 62
     7
 10
63.307299999999991
 20
125.19199999999999
 30
0.0
 40
3.0923400000000001
  1
235
 41
0.5
  0
TEXT
  5
2C
  8
0
 62
     7
 10
53.092872499999999
 20
119.974
 30
0.0
 40
3.0923400000000001
  1
60
 41
0.5
 72
     1
 11
54.252499999999998
 21
119.974
 31
0.0
  0
TEXT
  5
2D
  8
0
 62
     7
 10
44.08509999999999
 20
120.1579999999999
 30
0.0
 40
3.0923400000000001
  1
%%c15
 41
0.5
  0
TEXT
  5
2E
  8
0
 62
     7
 10
53.092872499999999
 20
149.512
 30
0.0
 40
3.0923400000000001
  1
60
 41
0.5
 72
     1
 11
54.252499999999998
 21
149.512
 31
0.0
  0
TEXT
  5
2F
  8
0
 62
     7
 10
95.497472500000015
 20
44.088500000000003
 30
0.0
 40
3.0923400000000001
  1
60
 41
0.5
 72
     1
 11
96.6571
 21
44.088500000000003
 31
0.0
  0
TEXT
  5
30
  8
0
 62
     7
 10
55.36063
 20
43.912799999999997
 30
0.0
 40
3.0923400000000001
  1
115
 41
0.5
 72
     1
 11
56.906799999999997
 21
43.912799999999997
 31
0.0
  0
TEXT
  5
31
  8
0
 62
     7
 10
143.6863725
 20
43.912799999999997
 30
0.0
 40
3.0923400000000001
  1
90
 41
0.5
 72
     1
 11
144.846
 21
43.912799999999997
 31
0.0
  0
TEXT
  5
32
  8
0
 62
     7
 10
76.481982500000001
 20
43.912799999999997
 30
0.0
 40
3.0923400000000001
  1
310
 41
0.5
 72
     1
 11
78.156999999999996
 21
43.912799999999997
 31
0.0
  0
TEXT
  5
33
  8
0
 62
     7
 10
146.67098250000001
 20
251.49799999999991
 30
0.0
 40
3.0923400000000001
  1
160
 41
0.5
 72
     1
 11
148.346
 21
251.49799999999991
 31
0.0
  0
TEXT
  5
34
  8
0
 62
     7
 10
144.21167749999989
 20
189.16199999999989
 30
0.0
 40
3.0923400000000001
  1
110
 41
0.5
 72
     1
 11
145.62899999999991
 21
189.16199999999989
 31
0.0
  0
TEXT
  5
35
  8
0
 62
     7
 10
73.345339999999993
 20
179.54900000000001
 30
0.0
 40
3.0923400000000001
  1
485
 41
0.5
 72
     1
 11
75.406899999999993
 21
179.54900000000001
 31
0.0
  0
TEXT
  5
36
  8
0
 62
     7
 10
68.277100000000004
 20
235.3952919999999
 30
0.0
 40
3.0923400000000001
  1
排水口位置
 50
90.0
 41
0.5
 72
     2
 11
68.277100000000004
 21
244.25999999999999
 31
0.0
  0
TEXT
  5
37
  8
0
 62
     7
 10
59.9739875
 20
211.1809999999999
 30
0.0
 40
3.0923400000000001
  1
430
 41
0.5
 72
     1
 11
61.906700000000001
 21
211.1809999999999
 31
0.0
  0
TEXT
  5
38
  8
0
 62
     7
 10
54.97023999999999
 20
229.416
 30
0.0
 40
3.0923400000000001
  1
235
 41
0.5
 72
     1
 11
57.03179999999999
 21
229.416
 31
0.0
  0
TEXT
  5
39
  8
0
 62
     7
 10
48.811100000000003
 20
230.753454
 30
0.0
 40
3.0923400000000001
  1
壁
 50
90.0
 41
0.5
 72
     1
 11
48.811100000000003
 21
231.47499999999999
 31
0.0
  0
TEXT
  5
3A
  8
0
 62
     7
 10
78.752499999999998
 20
218.82943999999989
 30
0.0
 40
3.0923400000000001
  1
1100
 50
90.0
 41
0.5
 72
     1
 11
78.752499999999998
 21
220.89099999999991
 31
0.0
  0
TEXT
  5
3B
  8
0
 62
     7
 10
62.609999999999999
 20
198.977
 30
0.0
 40
3.0923400000000001
  1
R10
 41
0.5
  0
TEXT
  5
3C
  8
0
 62
     7
 10
32.990400000000001
 20
109.37274499999999
 30
0.0
 40
3.0923400000000001
  1
1200
 50
90.0
 41
0.5
 72
     1
 11
32.990400000000001
 21
111.69199999999999
 31
0.0
  0
TEXT
  5
3D
  8
0
 62
     7
 10
110.274
 20
43.451500000000003
 30
0.0
 40
3.0923400000000001
  1
27.5
 50
90.0
 41
0.5
  0
TEXT
  5
3E
  8
0
 62
     7
 10
110.274
 20
175.73149000000001
 30
0.0
 40
3.0923400000000001
  1
27.5
 50
90.0
 41
0.5
 72
     2
 11
110.274
 21
180.37
 31
0.0
  0
TEXT
  5
3F
  8
0
 62
     7
 10
130.03
 20
137.75928749999991
 30
0.0
 40
3.0923400000000001
  1
280
 50
90.0
 41
0.5
 72
     1
 11
130.03
 21
139.69200000000001
 31
0.0
  0
TEXT
  5
40
  8
0
 62
     7
 10
130.03
 20
109.7592875
 30
0.0
 40
3.0923400000000001
  1
280
 50
90.0
 41
0.5
 72
     1
 11
130.03
 21
111.69199999999999
 31
0.0
  0
TEXT
  5
41
  8
0
 62
     7
 10
130.03
 20
81.758787499999997
 30
0.0
 40
3.0923400000000001
  1
280
 50
90.0
 41
0.5
 72
     1
 11
130.03
 21
83.691500000000005
 31
0.0
  0
TEXT
  5
42
  8
0
 62
     7
 10
110.274
 20
109.37274499999999
 30
0.0
 40
3.0923400000000001
  1
1145
 50
90.0
 41
0.5
 72
     1
 11
110.274
 21
111.69199999999999
 31
0.0
  0
TEXT
  5
43
  8
0
 62
     7
 10
41.12919999999999
 20
109.7592875
 30
0.0
 40
3.0923400000000001
  1
560
 50
90.0
 41
0.5
 72
     1
 11
41.12919999999999
 21
111.69199999999999
 31
0.0
  0
TEXT
  5
44
  8
0
 62
     7
 10
163.74199999999999
 20
230.96643999999989
 30
0.0
 40
3.0923400000000001
  1
235
 50
90.0
 41
0.5
 72
     1
 11
163.74199999999999
 21
233.02799999999999
 31
0.0
  0
TEXT
  5
45
  8
0
 62
     7
 10
42.535499999999992
 20
75.075999999999993
 30
0.0
 40
3.0923400000000001
  1
%%c35
 41
0.5
  0
TEXT
  5
46
  8
0
 62
     7
 10
42.535499999999992
 20
149.70799999999991
 30
0.0
 40
3.0923400000000001
  1
%%c35
 41
0.5
  0
TEXT
  5
47
  8
0
 62
     7
 10
83.270579999999995
 20
105.285
 30
0.0
 40
3.0923400000000001
  1
%%c46
 41
0.5
 72
     2
 11
87.393699999999995
 21
105.285
 31
0.0
  0
LINE
  5
48
  8
0
 62
     7
 10
142.55799999999991
 20
179.54099999999991
 30
0.0
 11
140.346
 21
178.94799999999989
 31
0.0
  0
LINE
  5
49
  8
0
 62
     7
 10
140.346
 20
178.94799999999989
 30
0.0
 11
142.55799999999991
 21
178.35599999999999
 31
0.0
  0
LINE
  5
4A
  8
0
 62
     7
 10
142.55799999999991
 20
178.35599999999999
 30
0.0
 11
142.55799999999991
 21
179.54099999999991
 31
0.0
  0
LINE
  5
4B
  8
0
 62
     7
 10
143.63499999999999
 20
178.37
 30
0.0
 11
145.846
 21
178.96299999999999
 31
0.0
  0
LINE
  5
4C
  8
0
 62
     7
 10
145.846
 20
178.96299999999999
 30
0.0
 11
143.63499999999999
 21
179.55500000000001
 31
0.0
  0
LINE
  5
4D
  8
0
 62
     7
 10
143.63499999999999
 20
179.55500000000001
 30
0.0
 11
143.63499999999999
 21
178.37
 31
0.0
  0
LINE
  5
4E
  8
0
 62
     7
 10
140.346
 20
178.94799999999989
 30
0.0
 11
145.846
 21
178.94799999999989
 31
0.0
  0
LINE
  5
4F
  8
0
 62
     7
 10
145.846
 20
156.88699999999989
 30
0.0
 11
145.846
 21
179.648
 31
0.0
  0
LINE
  5
50
  8
0
 62
     7
 10
140.346
 20
172.49199999999999
 30
0.0
 11
140.346
 21
179.648
 31
0.0
  0
LINE
  5
51
  8
0
 62
     7
 10
49.656700000000001
 20
232.34099999999989
 30
0.0
 11
51.156700000000001
 21
231.47499999999999
 31
0.0
  0
LINE
  5
52
  8
0
 62
     7
 10
51.156700000000001
 20
231.47499999999999
 30
0.0
 11
49.656700000000001
 21
230.60900000000001
 31
0.0
  0
LINE
  5
53
  8
0
 62
     7
 10
49.656700000000001
 20
230.60900000000001
 30
0.0
 11
49.656700000000001
 21
232.34099999999989
 31
0.0
  0
LINE
  5
54
  8
0
 62
     7
 10
62.906799999999997
 20
228.67799999999991
 30
0.0
 11
62.906799999999997
 21
225.08199999999999
 31
0.0
  0
LINE
  5
55
  8
0
 62
     7
 10
60.695
 20
227.74299999999991
 30
0.0
 11
62.906799999999997
 21
228.33499999999989
 31
0.0
  0
LINE
  5
56
  8
0
 62
     7
 10
62.906799999999997
 20
228.33499999999989
 30
0.0
 11
60.695
 21
228.928
 31
0.0
  0
LINE
  5
57
  8
0
 62
     7
 10
60.695
 20
228.928
 30
0.0
 11
60.695
 21
227.74299999999991
 31
0.0
  0
LINE
  5
58
  8
0
 62
     7
 10
53.368099999999991
 20
228.92099999999999
 30
0.0
 11
51.156700000000001
 21
228.32799999999989
 31
0.0
  0
LINE
  5
59
  8
0
 62
     7
 10
51.156700000000001
 20
228.32799999999989
 30
0.0
 11
53.368099999999991
 21
227.7359999999999
 31
0.0
  0
LINE
  5
5A
  8
0
 62
     7
 10
53.368099999999991
 20
227.7359999999999
 30
0.0
 11
53.368099999999991
 21
228.92099999999999
 31
0.0
  0
LINE
  5
5B
  8
0
 62
     7
 10
62.906799999999997
 20
228.32799999999989
 30
0.0
 11
51.156700000000001
 21
228.32799999999989
 31
0.0
  0
LINE
  5
5C
  8
0
 62
     7
 10
79.802199999999999
 20
248.39099999999991
 30
0.0
 11
73.031999999999996
 21
248.39099999999991
 31
0.0
  0
LINE
  5
5D
  8
0
 62
     7
 10
79.802199999999999
 20
193.39099999999999
 30
0.0
 11
73.031999999999996
 21
193.39099999999999
 31
0.0
  0
LINE
  5
5E
  8
0
 62
     7
 10
64.768500000000003
 20
223.69200000000001
 30
0.0
 11
63.7943
 21
221.62
 31
0.0
  0
LINE
  5
5F
  8
0
 62
     7
 10
63.7943
 20
221.62
 30
0.0
 11
65.673900000000003
 21
222.92699999999999
 31
0.0
  0
LINE
  5
60
  8
0
 62
     7
 10
65.673900000000003
 20
222.92699999999999
 30
0.0
 11
64.768500000000003
 21
223.69200000000001
 31
0.0
  0
LINE
  5
61
  8
0
 62
     7
 10
63.7943
 20
221.62
 30
0.0
 11
69.221500000000006
 21
228.04499999999999
 31
0.0
  0
LINE
  5
62
  8
0
 62
     7
 10
70.445099999999996
 20
210.00099999999989
 30
0.0
 11
72.656800000000004
 21
210.59399999999999
 31
0.0
  0
LINE
  5
63
  8
0
 62
     7
 10
72.656800000000004
 20
210.59399999999999
 30
0.0
 11
70.445099999999996
 21
211.18599999999989
 31
0.0
  0
LINE
  5
64
  8
0
 62
     7
 10
70.445099999999996
 20
211.18599999999989
 30
0.0
 11
70.445099999999996
 21
210.00099999999989
 31
0.0
  0
LINE
  5
65
  8
0
 62
     7
 10
53.368099999999991
 20
211.179
 30
0.0
 11
51.156700000000001
 21
210.58699999999999
 31
0.0
  0
LINE
  5
66
  8
0
 62
     7
 10
51.156700000000001
 20
210.58699999999999
 30
0.0
 11
53.368099999999991
 21
209.994
 31
0.0
  0
LINE
  5
67
  8
0
 62
     7
 10
53.368099999999991
 20
209.994
 30
0.0
 11
53.368099999999991
 21
211.179
 31
0.0
  0
LINE
  5
68
  8
0
 62
     7
 10
69.221500000000006
 20
244.25999999999999
 30
0.0
 11
69.221500000000006
 21
228.04499999999999
 31
0.0
  0
LINE
  5
69
  8
0
 62
     7
 10
72.656800000000004
 20
210.58699999999999
 30
0.0
 11
51.156700000000001
 21
210.58699999999999
 31
0.0
  0
LINE
  5
6A
  8
0
 62
     7
 10
51.156700000000001
 20
193.39099999999999
 30
0.0
 11
51.156700000000001
 21
191.3829999999999
 31
0.0
  0
LINE
  5
6B
  8
0
 62
     7
 10
51.156700000000001
 20
250.39899999999989
 30
0.0
 11
51.156700000000001
 21
248.39099999999991
 31
0.0
  0
ARC
  5
6C
  8
0
 62
     7
 10
72.137734999999992
 20
247.87213999999989
 30
0.0
 40
0.5194479999999999
 50
2.099936
 51
87.880313999999984
  0
ARC
  5
6D
  8
0
 62
     7
 10
72.137579000000002
 20
193.909865
 30
0.0
 40
0.519602
 50
272.13619299999999
 51
357.90329100000002
  0
LINE
  5
6E
  8
0
 62
     7
 10
67.703100000000006
 20
198.34499999999991
 30
0.0
 11
62.609999999999999
 21
198.34499999999991
 31
0.0
  0
LINE
  5
6F
  8
0
 62
     7
 10
70.424199999999985
 20
194.78599999999989
 30
0.0
 11
72.406899999999993
 21
193.64099999999999
 31
0.0
  0
LINE
  5
70
  8
0
 62
     7
 10
72.406899999999993
 20
193.64099999999999
 30
0.0
 11
71.2624
 21
195.624
 31
0.0
  0
LINE
  5
71
  8
0
 62
     7
 10
71.2624
 20
195.624
 30
0.0
 11
70.424199999999985
 21
194.78599999999989
 31
0.0
  0
LINE
  5
72
  8
0
 62
     7
 10
67.703100000000006
 20
198.34499999999991
 30
0.0
 11
72.510400000000004
 21
193.53699999999989
 31
0.0
  0
LINE
  5
73
  8
0
  6
AIGENLINE001
 62
     7
 10
49.307899999999997
 20
220.89099999999991
 30
0.0
 11
74.129599999999996
 21
220.89099999999991
 31
0.0
  0
ARC
  5
74
  8
0
  6
AIGENLINE002
 62
     7
 10
62.950693000000008
 20
220.93481399999999
 30
0.0
 40
1.1946719999999991
 50
182.1052169999999
 51
267.894813
  0
ARC
  5
75
  8
0
  6
AIGENLINE002
 62
     7
 10
62.906807999999998
 20
220.89092799999989
 30
0.0
 40
1.14998
 50
270.00002000000001
 51
359.99998999999991
  0
ARC
  5
76
  8
0
  6
AIGENLINE002
 62
     7
 10
62.906807999999998
 20
220.89092799999989
 30
0.0
 40
1.14998
 50
0.00001
 51
89.999980000000008
  0
ARC
  5
77
  8
0
  6
AIGENLINE002
 62
     7
 10
62.950291999999997
 20
220.84744399999991
 30
0.0
 40
1.1942559999999991
 50
92.08664499999999
 51
177.9133249999999
  0
LINE
  5
78
  8
0
  6
AIGENLINE001
 62
     7
 10
62.906799999999997
 20
217.423
 30
0.0
 11
62.906799999999997
 21
224.38199999999989
 31
0.0
  0
LINE
  5
79
  8
0
 62
     7
 10
72.656800000000004
 20
193.89099999999991
 30
0.0
 11
72.656800000000004
 21
247.89099999999991
 31
0.0
  0
LINE
  5
7A
  8
0
 62
     7
 10
78.8596
 20
195.602
 30
0.0
 11
79.452200000000005
 21
193.39099999999999
 31
0.0
  0
LINE
  5
7B
  8
0
 62
     7
 10
79.452200000000005
 20
193.39099999999999
 30
0.0
 11
80.044700000000006
 21
195.602
 31
0.0
  0
LINE
  5
7C
  8
0
 62
     7
 10
80.044700000000006
 20
195.602
 30
0.0
 11
78.8596
 21
195.602
 31
0.0
  0
LINE
  5
7D
  8
0
 62
     7
 10
80.037499999999994
 20
246.179
 30
0.0
 11
79.444900000000004
 21
248.39099999999991
 31
0.0
  0
LINE
  5
7E
  8
0
 62
     7
 10
79.444900000000004
 20
248.39099999999991
 30
0.0
 11
78.852400000000003
 21
246.179
 31
0.0
  0
LINE
  5
7F
  8
0
 62
     7
 10
78.852400000000003
 20
246.179
 30
0.0
 11
80.037499999999994
 21
246.179
 31
0.0
  0
LINE
  5
80
  8
0
 62
     7
 10
79.452200000000005
 20
193.39099999999999
 30
0.0
 11
79.452200000000005
 21
248.39099999999991
 31
0.0
  0
LINE
  5
81
  8
0
  6
AIGENLINE003
 62
     7
 10
51.156700000000001
 20
193.39099999999999
 30
0.0
 11
51.156700000000001
 21
248.39099999999991
 31
0.0
  0
LINE
  5
82
  8
0
 62
     7
 10
72.156899999999993
 20
248.39099999999991
 30
0.0
 11
51.156700000000001
 21
248.39099999999991
 31
0.0
  0
LINE
  5
83
  8
0
 62
     7
 10
72.156899999999993
 20
193.39099999999999
 30
0.0
 11
51.156700000000001
 21
193.39099999999999
 31
0.0
  0
ARC
  5
84
  8
0
  6
AIGENLINE002
 62
     7
 10
141.10804999999991
 20
201.49972700000001
 30
0.0
 40
0.8700359999999999
 50
115.885352
 51
142.9745889999999
  0
ARC
  5
85
  8
0
  6
AIGENLINE002
 62
     7
 10
140.67664600000001
 20
201.8319929999999
 30
0.0
 40
0.325583
 50
143.94116199999999
 51
177.72060300000001
  0
LINE
  5
86
  8
0
 62
     7
 10
155.65999999999991
 20
224.72099999999989
 30
0.0
 11
156.16
 21
224.72099999999989
 31
0.0
  0
LINE
  5
87
  8
0
 62
     7
 10
140.36199999999991
 20
196.101
 30
0.0
 11
140.36199999999991
 21
187.62899999999999
 31
0.0
  0
LINE
  5
88
  8
0
 62
     7
 10
148.68399999999991
 20
187.75099999999989
 30
0.0
 11
150.89500000000001
 21
188.3429999999999
 31
0.0
  0
LINE
  5
89
  8
0
 62
     7
 10
150.89500000000001
 20
188.3429999999999
 30
0.0
 11
148.68399999999991
 21
188.93599999999989
 31
0.0
  0
LINE
  5
8A
  8
0
 62
     7
 10
148.68399999999991
 20
188.93599999999989
 30
0.0
 11
148.68399999999991
 21
187.75099999999989
 31
0.0
  0
LINE
  5
8B
  8
0
 62
     7
 10
142.57299999999989
 20
188.92099999999999
 30
0.0
 11
140.36199999999991
 21
188.32900000000001
 31
0.0
  0
LINE
  5
8C
  8
0
 62
     7
 10
140.36199999999991
 20
188.32900000000001
 30
0.0
 11
142.57299999999989
 21
187.7359999999999
 31
0.0
  0
LINE
  5
8D
  8
0
 62
     7
 10
142.57299999999989
 20
187.7359999999999
 30
0.0
 11
142.57299999999989
 21
188.92099999999999
 31
0.0
  0
LINE
  5
8E
  8
0
 62
     7
 10
150.89500000000001
 20
188.32900000000001
 30
0.0
 11
140.36199999999991
 21
188.32900000000001
 31
0.0
  0
LINE
  5
8F
  8
0
 62
     7
 10
154.13499999999991
 20
250.22
 30
0.0
 11
156.346
 21
250.81200000000001
 31
0.0
  0
LINE
  5
90
  8
0
 62
     7
 10
156.346
 20
250.81200000000001
 30
0.0
 11
154.13499999999991
 21
251.405
 31
0.0
  0
LINE
  5
91
  8
0
 62
     7
 10
154.13499999999991
 20
251.405
 30
0.0
 11
154.13499999999991
 21
250.22
 31
0.0
  0
LINE
  5
92
  8
0
 62
     7
 10
142.55799999999991
 20
251.38999999999999
 30
0.0
 11
140.346
 21
250.79799999999989
 31
0.0
  0
LINE
  5
93
  8
0
 62
     7
 10
140.346
 20
250.79799999999989
 30
0.0
 11
142.55799999999991
 21
250.20500000000001
 31
0.0
  0
LINE
  5
94
  8
0
 62
     7
 10
142.55799999999991
 20
250.20500000000001
 30
0.0
 11
142.55799999999991
 21
251.38999999999999
 31
0.0
  0
LINE
  5
95
  8
0
 62
     7
 10
156.346
 20
250.79799999999989
 30
0.0
 11
140.346
 21
250.79799999999989
 31
0.0
  0
LINE
  5
96
  8
0
 62
     7
 10
140.346
 20
245.47999999999999
 30
0.0
 11
140.346
 21
251.49799999999991
 31
0.0
  0
LINE
  5
97
  8
0
 62
     7
 10
163.864
 20
223.489
 30
0.0
 11
164.45599999999999
 21
221.27699999999999
 31
0.0
  0
LINE
  5
98
  8
0
 62
     7
 10
164.45599999999999
 20
221.27699999999999
 30
0.0
 11
165.04900000000001
 21
223.489
 31
0.0
  0
LINE
  5
99
  8
0
 62
     7
 10
165.04900000000001
 20
223.489
 30
0.0
 11
163.864
 21
223.489
 31
0.0
  0
LINE
  5
9A
  8
0
 62
     7
 10
165.03399999999999
 20
242.56700000000001
 30
0.0
 11
164.44200000000001
 21
244.779
 31
0.0
  0
LINE
  5
9B
  8
0
 62
     7
 10
164.44200000000001
 20
244.779
 30
0.0
 11
163.84899999999999
 21
242.56700000000001
 31
0.0
  0
LINE
  5
9C
  8
0
 62
     7
 10
163.84899999999999
 20
242.56700000000001
 30
0.0
 11
165.03399999999999
 21
242.56700000000001
 31
0.0
  0
LINE
  5
9D
  8
0
 62
     7
 10
164.44200000000001
 20
221.27699999999999
 30
0.0
 11
164.44200000000001
 21
244.779
 31
0.0
  0
LINE
  5
9E
  8
0
 62
     7
 10
165.14199999999991
 20
221.27699999999999
 30
0.0
 11
159.505
 21
221.27699999999999
 31
0.0
  0
LINE
  5
9F
  8
0
 62
     7
 10
155.29599999999991
 20
244.779
 30
0.0
 11
165.14199999999991
 21
244.779
 31
0.0
  0
LINE
  5
A0
  8
0
 62
     7
 10
156.346
 20
225.21700000000001
 30
0.0
 11
156.346
 21
251.49799999999991
 31
0.0
  0
LINE
  5
A1
  8
0
 62
     7
 10
110.38200000000001
 20
173.904
 30
0.0
 11
110.9739999999999
 21
171.69200000000001
 31
0.0
  0
LINE
  5
A2
  8
0
 62
     7
 10
110.9739999999999
 20
171.69200000000001
 30
0.0
 11
111.56699999999999
 21
173.904
 31
0.0
  0
LINE
  5
A3
  8
0
 62
     7
 10
111.56699999999999
 20
173.904
 30
0.0
 11
110.38200000000001
 21
173.904
 31
0.0
  0
LINE
  5
A4
  8
0
 62
     7
 10
110.38200000000001
 20
56.652500000000003
 30
0.0
 11
110.9739999999999
 21
54.441099999999999
 31
0.0
  0
LINE
  5
A5
  8
0
 62
     7
 10
110.9739999999999
 20
54.441099999999999
 30
0.0
 11
111.56699999999999
 21
56.652500000000003
 31
0.0
  0
LINE
  5
A6
  8
0
 62
     7
 10
111.56699999999999
 20
56.652500000000003
 30
0.0
 11
110.38200000000001
 21
56.652500000000003
 31
0.0
  0
LINE
  5
A7
  8
0
 62
     7
 10
111.56699999999999
 20
49.479500000000002
 30
0.0
 11
110.9739999999999
 21
51.691200000000002
 31
0.0
  0
LINE
  5
A8
  8
0
 62
     7
 10
110.9739999999999
 20
51.691200000000002
 30
0.0
 11
110.38200000000001
 21
49.479500000000002
 31
0.0
  0
LINE
  5
A9
  8
0
 62
     7
 10
110.38200000000001
 20
49.479500000000002
 30
0.0
 11
111.56699999999999
 21
49.479500000000002
 31
0.0
  0
LINE
  5
AA
  8
0
 62
     7
 10
111.56699999999999
 20
166.72999999999999
 30
0.0
 11
110.9739999999999
 21
168.94200000000001
 31
0.0
  0
LINE
  5
AB
  8
0
 62
     7
 10
110.9739999999999
 20
168.94200000000001
 30
0.0
 11
110.38200000000001
 21
166.72999999999999
 31
0.0
  0
LINE
  5
AC
  8
0
 62
     7
 10
110.38200000000001
 20
166.72999999999999
 30
0.0
 11
111.56699999999999
 21
166.72999999999999
 31
0.0
  0
LINE
  5
AD
  8
0
 62
     7
 10
110.9739999999999
 20
43.451500000000003
 30
0.0
 11
110.9739999999999
 21
180.37
 31
0.0
  0
LINE
  5
AE
  8
0
 62
     7
 10
91.336100000000002
 20
168.94200000000001
 30
0.0
 11
111.67399999999989
 21
168.94200000000001
 31
0.0
  0
LINE
  5
AF
  8
0
 62
     7
 10
99.557199999999995
 20
171.69200000000001
 30
0.0
 11
111.67399999999989
 21
171.69200000000001
 31
0.0
  0
LINE
  5
B0
  8
0
 62
     7
 10
91.130099999999999
 20
54.441099999999999
 30
0.0
 11
111.67399999999989
 21
54.441099999999999
 31
0.0
  0
LINE
  5
B1
  8
0
 62
     7
 10
99.557199999999995
 20
51.691200000000002
 30
0.0
 11
111.67399999999989
 21
51.691200000000002
 31
0.0
  0
LINE
  5
B2
  8
0
 62
     7
 10
99.657100000000014
 20
51.7911
 30
0.0
 11
99.657100000000014
 21
42.512700000000002
 31
0.0
  0
LINE
  5
B3
  8
0
 62
     7
 10
91.445499999999996
 20
42.62019999999999
 30
0.0
 11
93.657099999999986
 21
43.212800000000001
 31
0.0
  0
LINE
  5
B4
  8
0
 62
     7
 10
93.657099999999986
 20
43.212800000000001
 30
0.0
 11
91.445499999999996
 21
43.805399999999992
 31
0.0
  0
LINE
  5
B5
  8
0
 62
     7
 10
91.445499999999996
 20
43.805399999999992
 30
0.0
 11
91.445499999999996
 21
42.62019999999999
 31
0.0
  0
LINE
  5
B6
  8
0
 62
     7
 10
95.868700000000004
 20
43.805399999999992
 30
0.0
 11
93.657099999999986
 21
43.212800000000001
 31
0.0
  0
LINE
  5
B7
  8
0
 62
     7
 10
93.657099999999986
 20
43.212800000000001
 30
0.0
 11
95.868700000000004
 21
42.62019999999999
 31
0.0
  0
LINE
  5
B8
  8
0
 62
     7
 10
95.868700000000004
 20
42.62019999999999
 30
0.0
 11
95.868700000000004
 21
43.805399999999992
 31
0.0
  0
LINE
  5
B9
  8
0
 62
     7
 10
60.445300000000003
 20
42.62019999999999
 30
0.0
 11
62.6569
 21
43.212800000000001
 31
0.0
  0
LINE
  5
BA
  8
0
 62
     7
 10
62.6569
 20
43.212800000000001
 30
0.0
 11
60.445300000000003
 21
43.805399999999992
 31
0.0
  0
LINE
  5
BB
  8
0
 62
     7
 10
60.445300000000003
 20
43.805399999999992
 30
0.0
 11
60.445300000000003
 21
42.62019999999999
 31
0.0
  0
LINE
  5
BC
  8
0
 62
     7
 10
97.445499999999996
 20
42.634700000000002
 30
0.0
 11
99.657100000000014
 21
43.227299999999993
 31
0.0
  0
LINE
  5
BD
  8
0
 62
     7
 10
99.657100000000014
 20
43.227299999999993
 30
0.0
 11
97.445499999999996
 21
43.819800000000001
 31
0.0
  0
LINE
  5
BE
  8
0
 62
     7
 10
97.445499999999996
 20
43.819800000000001
 30
0.0
 11
97.445499999999996
 21
42.634700000000002
 31
0.0
  0
LINE
  5
BF
  8
0
 62
     7
 10
64.868499999999997
 20
43.805399999999992
 30
0.0
 11
62.6569
 21
43.212800000000001
 31
0.0
  0
LINE
  5
C0
  8
0
 62
     7
 10
62.6569
 20
43.212800000000001
 30
0.0
 11
64.868499999999997
 21
42.62019999999999
 31
0.0
  0
LINE
  5
C1
  8
0
 62
     7
 10
64.868499999999997
 20
42.62019999999999
 30
0.0
 11
64.868499999999997
 21
43.805399999999992
 31
0.0
  0
LINE
  5
C2
  8
0
 62
     7
 10
53.368299999999991
 20
43.805399999999992
 30
0.0
 11
51.156700000000001
 21
43.212800000000001
 31
0.0
  0
LINE
  5
C3
  8
0
 62
     7
 10
51.156700000000001
 20
43.212800000000001
 30
0.0
 11
53.368299999999991
 21
42.62019999999999
 31
0.0
  0
LINE
  5
C4
  8
0
 62
     7
 10
53.368299999999991
 20
42.62019999999999
 30
0.0
 11
53.368299999999991
 21
43.805399999999992
 31
0.0
  0
LINE
  5
C5
  8
0
 62
     7
 10
99.657100000000014
 20
43.212800000000001
 30
0.0
 11
51.156700000000001
 21
43.212800000000001
 31
0.0
  0
LINE
  5
C6
  8
0
 62
     7
 10
59.516800000000003
 20
86.932000000000002
 30
0.0
 11
58.372
 21
84.949399999999983
 31
0.0
  0
LINE
  5
C7
  8
0
 62
     7
 10
58.372
 20
84.949399999999983
 30
0.0
 11
60.35479999999999
 21
86.093799999999987
 31
0.0
  0
LINE
  5
C8
  8
0
 62
     7
 10
60.35479999999999
 20
86.093799999999987
 30
0.0
 11
59.516800000000003
 21
86.932000000000002
 31
0.0
  0
LINE
  5
C9
  8
0
 62
     7
 10
54.7744
 20
80.471400000000003
 30
0.0
 11
55.919199999999996
 21
82.454099999999997
 31
0.0
  0
LINE
  5
CA
  8
0
 62
     7
 10
55.919199999999996
 20
82.454099999999997
 30
0.0
 11
53.936399999999999
 21
81.309599999999989
 31
0.0
  0
LINE
  5
CB
  8
0
 62
     7
 10
53.936399999999999
 20
81.309599999999989
 30
0.0
 11
54.7744
 21
80.471400000000003
 31
0.0
  0
LINE
  5
CC
  8
0
 62
     7
 10
47.841299999999997
 20
74.375900000000001
 30
0.0
 11
61.327199999999991
 21
87.862200000000001
 31
0.0
  0
LINE
  5
CD
  8
0
  6
AIGENLINE001
 62
     7
 10
57.1569
 20
80.191299999999998
 30
0.0
 11
57.1569
 21
87.189700000000002
 31
0.0
  0
LINE
  5
CE
  8
0
  6
AIGENLINE001
 62
     7
 10
60.656999999999989
 20
83.691500000000005
 30
0.0
 11
53.656799999999997
 21
83.691500000000005
 31
0.0
  0
ARC
  5
CF
  8
0
 62
     7
 10
57.15690699999999
 20
83.691543999999993
 30
0.0
 40
1.7501199999999999
 50
90.0
 51
179.99996999999991
  0
ARC
  5
D0
  8
0
 62
     7
 10
57.224133999999999
 20
83.758771999999993
 30
0.0
 40
1.8185899999999999
 50
182.11853699999989
 51
267.88149299999998
  0
ARC
  5
D1
  8
0
 62
     7
 10
57.089680000000001
 20
83.758593000000005
 30
0.0
 40
1.818411
 50
272.11873600000001
 51
357.88691399999999
  0
ARC
  5
D2
  8
0
 62
     7
 10
57.156820999999987
 20
83.691630999999987
 30
0.0
 40
1.7500340000000001
 50
359.99718999999988
 51
89.997159999999994
  0
LINE
  5
D3
  8
0
 62
     7
 10
47.841299999999997
 20
74.375900000000001
 30
0.0
 11
42.535499999999992
 21
74.375900000000001
 31
0.0
  0
LINE
  5
D4
  8
0
 62
     7
 10
49.390900000000002
 20
119.4579999999999
 30
0.0
 11
44.08509999999999
 21
119.4579999999999
 31
0.0
  0
LINE
  5
D5
  8
0
 62
     7
 10
59.669800000000002
 20
110.017
 30
0.0
 11
57.687100000000001
 21
111.16200000000001
 31
0.0
  0
LINE
  5
D6
  8
0
 62
     7
 10
57.687100000000001
 20
111.16200000000001
 30
0.0
 11
58.831800000000001
 21
109.179
 31
0.0
  0
LINE
  5
D7
  8
0
 62
     7
 10
58.831800000000001
 20
109.179
 30
0.0
 11
59.669800000000002
 21
110.017
 31
0.0
  0
LINE
  5
D8
  8
0
 62
     7
 10
54.643900000000002
 20
113.367
 30
0.0
 11
56.6265
 21
112.223
 31
0.0
  0
LINE
  5
D9
  8
0
 62
     7
 10
56.6265
 20
112.223
 30
0.0
 11
55.481900000000003
 21
114.206
 31
0.0
  0
LINE
  5
DA
  8
0
 62
     7
 10
55.481900000000003
 20
114.206
 30
0.0
 11
54.643900000000002
 21
113.367
 31
0.0
  0
LINE
  5
DB
  8
0
 62
     7
 10
49.390900000000002
 20
119.4579999999999
 30
0.0
 11
61.327199999999991
 21
107.52200000000001
 31
0.0
  0
LINE
  5
DC
  8
0
  6
AIGENLINE001
 62
     7
 10
57.1569
 20
115.19199999999999
 30
0.0
 11
57.1569
 21
108.194
 31
0.0
  0
LINE
  5
DD
  8
0
 62
     7
 10
53.368299999999991
 20
119.533
 30
0.0
 11
51.156700000000001
 21
118.94
 31
0.0
  0
LINE
  5
DE
  8
0
 62
     7
 10
51.156700000000001
 20
118.94
 30
0.0
 11
53.368299999999991
 21
118.348
 31
0.0
  0
LINE
  5
DF
  8
0
 62
     7
 10
53.368299999999991
 20
118.348
 30
0.0
 11
53.368299999999991
 21
119.533
 31
0.0
  0
LINE
  5
E0
  8
0
 62
     7
 10
54.94530000000001
 20
118.348
 30
0.0
 11
57.1569
 21
118.94
 31
0.0
  0
LINE
  5
E1
  8
0
 62
     7
 10
57.1569
 20
118.94
 30
0.0
 11
54.94530000000001
 21
119.533
 31
0.0
  0
LINE
  5
E2
  8
0
 62
     7
 10
54.94530000000001
 20
119.533
 30
0.0
 11
54.94530000000001
 21
118.348
 31
0.0
  0
LINE
  5
E3
  8
0
 62
     7
 10
51.156700000000001
 20
118.94
 30
0.0
 11
57.1569
 21
118.94
 31
0.0
  0
LINE
  5
E4
  8
0
 62
     7
 10
57.1569
 20
115.892
 30
0.0
 11
57.1569
 21
119.64
 31
0.0
  0
LINE
  5
E5
  8
0
  6
AIGENLINE001
 62
     7
 10
60.656999999999989
 20
111.69199999999999
 30
0.0
 11
53.656799999999997
 21
111.69199999999999
 31
0.0
  0
ARC
  5
E6
  8
0
 62
     7
 10
57.185876999999998
 20
111.66293
 30
0.0
 40
0.77969
 50
92.129383000000004
 51
177.85742899999991
  0
ARC
  5
E7
  8
0
 62
     7
 10
57.185328000000013
 20
111.720679
 30
0.0
 40
0.77912
 50
182.10369
 51
267.90949799999993
  0
ARC
  5
E8
  8
0
 62
     7
 10
57.127921999999991
 20
111.720885
 30
0.0
 40
0.7793470000000001
 50
272.13137599999999
 51
357.88179500000001
  0
ARC
  5
E9
  8
0
 62
     7
 10
57.128152999999998
 20
111.663504
 30
0.0
 40
0.779108
 50
2.101926999999999
 51
87.884901999999997
  0
LINE
  5
EA
  8
0
 62
     7
 10
47.841299999999997
 20
149.0079999999999
 30
0.0
 11
42.535499999999992
 21
149.0079999999999
 31
0.0
  0
LINE
  5
EB
  8
0
 62
     7
 10
60.377099999999999
 20
137.30999999999989
 30
0.0
 11
58.39439999999999
 21
138.45400000000001
 31
0.0
  0
LINE
  5
EC
  8
0
 62
     7
 10
58.39439999999999
 20
138.45400000000001
 30
0.0
 11
59.538999999999987
 21
136.471
 31
0.0
  0
LINE
  5
ED
  8
0
 62
     7
 10
59.538999999999987
 20
136.471
 30
0.0
 11
60.377099999999999
 21
137.30999999999989
 31
0.0
  0
LINE
  5
EE
  8
0
 62
     7
 10
53.8932
 20
142.11799999999991
 30
0.0
 11
55.875799999999991
 21
140.9729999999999
 31
0.0
  0
LINE
  5
EF
  8
0
 62
     7
 10
55.875799999999991
 20
140.9729999999999
 30
0.0
 11
54.731200000000001
 21
142.95599999999999
 31
0.0
  0
LINE
  5
F0
  8
0
 62
     7
 10
54.731200000000001
 20
142.95599999999999
 30
0.0
 11
53.8932
 21
142.11799999999991
 31
0.0
  0
LINE
  5
F1
  8
0
 62
     7
 10
47.841299999999997
 20
149.0079999999999
 30
0.0
 11
61.327199999999991
 21
135.52199999999999
 31
0.0
  0
LINE
  5
F2
  8
0
  6
AIGENLINE001
 62
     7
 10
57.1569
 20
143.19200000000001
 30
0.0
 11
57.1569
 21
136.1939999999999
 31
0.0
  0
ARC
  5
F3
  8
0
 62
     7
 10
74.656897999999984
 20
111.69207899999989
 30
0.0
 40
3.6600929999999989
 50
90.0
 51
179.99996999999991
  0
ARC
  5
F4
  8
0
 62
     7
 10
74.656896000000003
 20
111.69207899999989
 30
0.0
 40
3.6600919999999988
 50
179.99996999999991
 51
270.00002000000001
  0
ARC
  5
F5
  8
0
 62
     7
 10
74.656896000000003
 20
111.69208
 30
0.0
 40
3.6600929999999989
 50
270.00002000000001
 51
359.99998999999991
  0
ARC
  5
F6
  8
0
 62
     7
 10
74.656896000000003
 20
111.69207899999989
 30
0.0
 40
3.6600929999999989
 50
0.00001
 51
89.999980000000008
  0
LINE
  5
F7
  8
0
 62
     7
 10
87.393699999999995
 20
104.41
 30
0.0
 11
81.938999999999993
 21
104.41
 31
0.0
  0
LINE
  5
F8
  8
0
 62
     7
 10
78.266199999999998
 20
108.92100000000001
 30
0.0
 11
76.283299999999997
 21
110.0659999999999
 31
0.0
  0
LINE
  5
F9
  8
0
 62
     7
 10
76.283299999999997
 20
110.0659999999999
 30
0.0
 11
77.428100000000001
 21
108.0829999999999
 31
0.0
  0
LINE
  5
FA
  8
0
 62
     7
 10
77.428100000000001
 20
108.0829999999999
 30
0.0
 11
78.266199999999998
 21
108.92100000000001
 31
0.0
  0
LINE
  5
FB
  8
0
 62
     7
 10
70.844200000000001
 20
114.667
 30
0.0
 11
72.826899999999995
 21
113.52200000000001
 31
0.0
  0
LINE
  5
FC
  8
0
 62
     7
 10
72.826899999999995
 20
113.52200000000001
 30
0.0
 11
71.682199999999995
 21
115.5049999999999
 31
0.0
  0
LINE
  5
FD
  8
0
 62
     7
 10
71.682199999999995
 20
115.5049999999999
 30
0.0
 11
70.844200000000001
 21
114.667
 31
0.0
  0
LINE
  5
FE
  8
0
 62
     7
 10
67.354299999999995
 20
118.995
 30
0.0
 11
81.938999999999993
 21
104.41
 31
0.0
  0
LINE
  5
FF
  8
0
  6
AIGENLINE001
 62
     7
 10
74.656899999999993
 20
118.566
 30
0.0
 11
74.656899999999993
 21
104.8649999999999
 31
0.0
  0
ARC
  5
100
  8
0
 62
     7
 10
74.744658000000001
 20
111.6043189999999
 30
0.0
 40
2.389333999999999
 50
92.104958000000025
 51
177.89501200000001
  0
ARC
  5
101
  8
0
 62
     7
 10
74.656897000000001
 20
111.69207899999989
 30
0.0
 40
2.29996
 50
179.99996999999991
 51
270.00002000000001
  0
ARC
  5
102
  8
0
 62
     7
 10
74.656897000000001
 20
111.69208
 30
0.0
 40
2.2999610000000001
 50
270.00002000000001
 51
359.99998999999991
  0
ARC
  5
103
  8
0
 62
     7
 10
74.568753000000001
 20
111.603936
 30
0.0
 40
2.3897300000000001
 50
2.113801
 51
87.886189000000016
  0
LINE
  5
104
  8
0
  6
AIGENLINE001
 62
     7
 10
47.4985
 20
111.69199999999999
 30
0.0
 11
102.68000000000001
 21
111.69199999999999
 31
0.0
  0
LINE
  5
105
  8
0
 62
     7
 10
53.368299999999991
 20
149.06999999999991
 30
0.0
 11
51.156700000000001
 21
148.47799999999989
 31
0.0
  0
LINE
  5
106
  8
0
 62
     7
 10
51.156700000000001
 20
148.47799999999989
 30
0.0
 11
53.368299999999991
 21
147.88499999999991
 31
0.0
  0
LINE
  5
107
  8
0
 62
     7
 10
53.368299999999991
 20
147.88499999999991
 30
0.0
 11
53.368299999999991
 21
149.06999999999991
 31
0.0
  0
LINE
  5
108
  8
0
 62
     7
 10
54.94530000000001
 20
147.88499999999991
 30
0.0
 11
57.1569
 21
148.47799999999989
 31
0.0
  0
LINE
  5
109
  8
0
 62
     7
 10
57.1569
 20
148.47799999999989
 30
0.0
 11
54.94530000000001
 21
149.06999999999991
 31
0.0
  0
LINE
  5
10A
  8
0
 62
     7
 10
54.94530000000001
 20
149.06999999999991
 30
0.0
 11
54.94530000000001
 21
147.88499999999991
 31
0.0
  0
LINE
  5
10B
  8
0
 62
     7
 10
51.156700000000001
 20
148.47799999999989
 30
0.0
 11
57.1569
 21
148.47799999999989
 31
0.0
  0
LINE
  5
10C
  8
0
 62
     7
 10
57.1569
 20
143.89199999999991
 30
0.0
 11
57.1569
 21
149.178
 31
0.0
  0
LINE
  5
10D
  8
0
 62
     7
 10
72.445300000000003
 20
123.846
 30
0.0
 11
74.656899999999993
 21
124.43899999999989
 31
0.0
  0
LINE
  5
10E
  8
0
 62
     7
 10
74.656899999999993
 20
124.43899999999989
 30
0.0
 11
72.445300000000003
 21
125.032
 31
0.0
  0
LINE
  5
10F
  8
0
 62
     7
 10
72.445300000000003
 20
125.032
 30
0.0
 11
72.445300000000003
 21
123.846
 31
0.0
  0
LINE
  5
110
  8
0
 62
     7
 10
53.368499999999997
 20
125.017
 30
0.0
 11
51.1569
 21
124.425
 31
0.0
  0
LINE
  5
111
  8
0
 62
     7
 10
51.1569
 20
124.425
 30
0.0
 11
53.368499999999997
 21
123.83199999999999
 31
0.0
  0
LINE
  5
112
  8
0
 62
     7
 10
53.368499999999997
 20
123.83199999999999
 30
0.0
 11
53.368499999999997
 21
125.017
 31
0.0
  0
LINE
  5
113
  8
0
 62
     7
 10
74.656899999999993
 20
124.425
 30
0.0
 11
51.1569
 21
124.425
 31
0.0
  0
LINE
  5
114
  8
0
 62
     7
 10
74.656899999999993
 20
119.26600000000001
 30
0.0
 11
74.656899999999993
 21
125.1239999999999
 31
0.0
  0
LINE
  5
115
  8
0
 62
     7
 10
53.368499999999997
 20
179.44200000000001
 30
0.0
 11
51.1569
 21
178.84899999999999
 31
0.0
  0
LINE
  5
116
  8
0
 62
     7
 10
51.1569
 20
178.84899999999999
 30
0.0
 11
53.368499999999997
 21
178.25699999999989
 31
0.0
  0
LINE
  5
117
  8
0
 62
     7
 10
53.368499999999997
 20
178.25699999999989
 30
0.0
 11
53.368499999999997
 21
179.44200000000001
 31
0.0
  0
LINE
  5
118
  8
0
 62
     7
 10
97.445499999999996
 20
178.2709999999999
 30
0.0
 11
99.657100000000014
 21
178.864
 31
0.0
  0
LINE
  5
119
  8
0
 62
     7
 10
99.657100000000014
 20
178.864
 30
0.0
 11
97.445499999999996
 21
179.4559999999999
 31
0.0
  0
LINE
  5
11A
  8
0
 62
     7
 10
97.445499999999996
 20
179.4559999999999
 30
0.0
 11
97.445499999999996
 21
178.2709999999999
 31
0.0
  0
LINE
  5
11B
  8
0
 62
     7
 10
51.1569
 20
178.84899999999999
 30
0.0
 11
99.657100000000014
 21
178.84899999999999
 31
0.0
  0
LINE
  5
11C
  8
0
 62
     7
 10
99.657100000000014
 20
172.1579999999999
 30
0.0
 11
99.657100000000014
 21
179.54900000000001
 31
0.0
  0
LINE
  5
11D
  8
0
 62
     7
 10
51.156700000000001
 20
172.39199999999991
 30
0.0
 11
51.156700000000001
 21
179.54900000000001
 31
0.0
  0
LINE
  5
11E
  8
0
 62
     7
 10
51.156700000000001
 20
50.991199999999999
 30
0.0
 11
51.156700000000001
 21
42.512700000000002
 31
0.0
  0
LINE
  5
11F
  8
0
 62
     7
 10
93.657099999999986
 20
57.203400000000002
 30
0.0
 11
93.657099999999986
 21
42.5124
 31
0.0
  0
LINE
  5
120
  8
0
 62
     7
 10
62.6569
 20
57.291600000000003
 30
0.0
 11
62.6569
 21
42.512700000000002
 31
0.0
  0
LINE
  5
121
  8
0
 62
     7
 10
33.112400000000001
 20
53.9026
 30
0.0
 11
33.704999999999991
 21
51.691200000000002
 31
0.0
  0
LINE
  5
122
  8
0
 62
     7
 10
33.704999999999991
 20
51.691200000000002
 30
0.0
 11
34.297499999999999
 21
53.9026
 31
0.0
  0
LINE
  5
123
  8
0
 62
     7
 10
34.297499999999999
 20
53.9026
 30
0.0
 11
33.112400000000001
 21
53.9026
 31
0.0
  0
LINE
  5
124
  8
0
 62
     7
 10
34.28309999999999
 20
169.48099999999991
 30
0.0
 11
33.6905
 21
171.69200000000001
 31
0.0
  0
LINE
  5
125
  8
0
 62
     7
 10
33.6905
 20
171.69200000000001
 30
0.0
 11
33.097900000000003
 21
169.48099999999991
 31
0.0
  0
LINE
  5
126
  8
0
 62
     7
 10
33.097900000000003
 20
169.48099999999991
 30
0.0
 11
34.28309999999999
 21
169.48099999999991
 31
0.0
  0
LINE
  5
127
  8
0
 62
     7
 10
33.6905
 20
51.691200000000002
 30
0.0
 11
33.6905
 21
171.69200000000001
 31
0.0
  0
LINE
  5
128
  8
0
 62
     7
 10
50.456699999999998
 20
171.69200000000001
 30
0.0
 11
32.990400000000001
 21
171.69200000000001
 31
0.0
  0
LINE
  5
129
  8
0
 62
     7
 10
50.456699999999998
 20
51.691200000000002
 30
0.0
 11
32.990400000000001
 21
51.691200000000002
 31
0.0
  0
LINE
  5
12A
  8
0
 62
     7
 10
150.89500000000001
 20
213.798
 30
0.0
 11
150.89500000000001
 21
187.62899999999999
 31
0.0
  0
LINE
  5
12B
  8
0
 62
     7
 10
42.421799999999998
 20
137.47999999999999
 30
0.0
 11
41.8292
 21
139.69200000000001
 31
0.0
  0
LINE
  5
12C
  8
0
 62
     7
 10
41.8292
 20
139.69200000000001
 30
0.0
 11
41.236699999999992
 21
137.47999999999999
 31
0.0
  0
LINE
  5
12D
  8
0
 62
     7
 10
41.236699999999992
 20
137.47999999999999
 30
0.0
 11
42.421799999999998
 21
137.47999999999999
 31
0.0
  0
LINE
  5
12E
  8
0
 62
     7
 10
41.251100000000001
 20
85.902999999999992
 30
0.0
 11
41.843699999999998
 21
83.691500000000005
 31
0.0
  0
LINE
  5
12F
  8
0
 62
     7
 10
41.843699999999998
 20
83.691500000000005
 30
0.0
 11
42.436300000000003
 21
85.902999999999992
 31
0.0
  0
LINE
  5
130
  8
0
 62
     7
 10
42.436300000000003
 20
85.902999999999992
 30
0.0
 11
41.251100000000001
 21
85.902999999999992
 31
0.0
  0
LINE
  5
131
  8
0
 62
     7
 10
41.8292
 20
139.69200000000001
 30
0.0
 11
41.8292
 21
83.691500000000005
 31
0.0
  0
LINE
  5
132
  8
0
 62
     7
 10
53.226700000000001
 20
139.69200000000001
 30
0.0
 11
41.12919999999999
 21
139.69200000000001
 31
0.0
  0
LINE
  5
133
  8
0
 62
     7
 10
52.956800000000001
 20
83.691500000000005
 30
0.0
 11
41.12919999999999
 21
83.691500000000005
 31
0.0
  0
LINE
  5
134
  8
0
  6
AIGENLINE002
 62
     7
 10
150.83999999999989
 20
116.196
 30
0.0
 11
150.83999999999989
 21
111.691
 31
0.0
  0
LINE
  5
135
  8
0
  6
AIGENLINE002
 62
     7
 10
150.58799999999991
 20
144.78200000000001
 30
0.0
 11
150.83999999999989
 21
116.196
 31
0.0
  0
ARC
  5
136
  8
0
  6
AIGENLINE002
 62
     7
 10
14.93149
 20
143.27817999999991
 30
0.0
 40
135.6649929999999
 50
0.635307
 51
5.1313649999999988
  0
ARC
  5
137
  8
0
  6
AIGENLINE002
 62
     7
 10
128.07549099999989
 20
153.1132629999999
 30
0.0
 40
22.094360000000002
 50
5.9701550000000001
 51
19.832632
  0
ARC
  5
138
  8
0
  6
AIGENLINE002
 62
     7
 10
137.984027
 20
156.35467
 30
0.0
 40
11.67773
 50
21.363159
 51
45.880071999999991
  0
ARC
  5
139
  8
0
  6
AIGENLINE002
 62
     7
 10
131.056107
 20
148.8773009999999
 30
0.0
 40
21.870278999999989
 50
46.486629999999991
 51
63.203788000000003
  0
LINE
  5
13A
  8
0
  6
AIGENLINE002
 62
     7
 10
150.83999999999989
 20
107.1849999999999
 30
0.0
 11
150.83999999999989
 21
111.691
 31
0.0
  0
LINE
  5
13B
  8
0
  6
AIGENLINE002
 62
     7
 10
150.58699999999999
 20
78.598600000000005
 30
0.0
 11
150.83999999999989
 21
107.1849999999999
 31
0.0
  0
ARC
  5
13C
  8
0
  6
AIGENLINE002
 62
     7
 10
15.077932999999989
 20
80.095517000000015
 30
0.0
 40
135.5177919999999
 50
354.86617100000001
 51
359.36696899999998
  0
ARC
  5
13D
  8
0
  6
AIGENLINE002
 62
     7
 10
128.0409249999999
 20
70.276397000000003
 30
0.0
 40
22.128912
 50
340.17785499999991
 51
354.01770499999998
  0
ARC
  5
13E
  8
0
  6
AIGENLINE002
 62
     7
 10
137.99026199999989
 20
67.022483999999992
 30
0.0
 40
11.66986
 50
314.11004899999989
 51
338.64231199999989
  0
ARC
  5
13F
  8
0
  6
AIGENLINE002
 62
     7
 10
131.04373000000001
 20
74.517863000000006
 30
0.0
 40
21.887830999999991
 50
296.80728399999992
 51
313.50944900000002
  0
LINE
  5
140
  8
0
 62
     7
 10
142.55799999999991
 20
43.835700000000003
 30
0.0
 11
140.346
 21
43.243099999999991
 31
0.0
  0
LINE
  5
141
  8
0
 62
     7
 10
140.346
 20
43.243099999999991
 30
0.0
 11
142.55799999999991
 21
42.650599999999997
 31
0.0
  0
LINE
  5
142
  8
0
 62
     7
 10
142.55799999999991
 20
42.650599999999997
 30
0.0
 11
142.55799999999991
 21
43.835700000000003
 31
0.0
  0
LINE
  5
143
  8
0
 62
     7
 10
147.13499999999991
 20
42.664999999999992
 30
0.0
 11
149.34599999999989
 21
43.257599999999989
 31
0.0
  0
LINE
  5
144
  8
0
 62
     7
 10
149.34599999999989
 20
43.257599999999989
 30
0.0
 11
147.13499999999991
 21
43.850099999999998
 31
0.0
  0
LINE
  5
145
  8
0
 62
     7
 10
147.13499999999991
 20
43.850099999999998
 30
0.0
 11
147.13499999999991
 21
42.664999999999992
 31
0.0
  0
LINE
  5
146
  8
0
 62
     7
 10
140.346
 20
43.243099999999991
 30
0.0
 11
149.34599999999989
 21
43.243099999999991
 31
0.0
  0
LINE
  5
147
  8
0
 62
     7
 10
149.34599999999989
 20
50.990499999999997
 30
0.0
 11
149.34599999999989
 21
42.543100000000003
 31
0.0
  0
LINE
  5
148
  8
0
 62
     7
 10
140.346
 20
50.990499999999997
 30
0.0
 11
140.346
 21
42.543100000000003
 31
0.0
  0
LINE
  5
149
  8
0
 62
     7
 10
130.137
 20
127.90299999999991
 30
0.0
 11
130.7299999999999
 21
125.69199999999999
 31
0.0
  0
LINE
  5
14A
  8
0
 62
     7
 10
130.7299999999999
 20
125.69199999999999
 30
0.0
 11
131.322
 21
127.90299999999991
 31
0.0
  0
LINE
  5
14B
  8
0
 62
     7
 10
131.322
 20
127.90299999999991
 30
0.0
 11
130.137
 21
127.90299999999991
 31
0.0
  0
LINE
  5
14C
  8
0
 62
     7
 10
130.137
 20
99.903199999999998
 30
0.0
 11
130.7299999999999
 21
97.691800000000001
 31
0.0
  0
LINE
  5
14D
  8
0
 62
     7
 10
130.7299999999999
 20
97.691800000000001
 30
0.0
 11
131.322
 21
99.903199999999998
 31
0.0
  0
LINE
  5
14E
  8
0
 62
     7
 10
131.322
 20
99.903199999999998
 30
0.0
 11
130.137
 21
99.903199999999998
 31
0.0
  0
LINE
  5
14F
  8
0
 62
     7
 10
130.15199999999999
 20
71.902699999999996
 30
0.0
 11
130.74399999999989
 21
69.691299999999984
 31
0.0
  0
LINE
  5
150
  8
0
 62
     7
 10
130.74399999999989
 20
69.691299999999984
 30
0.0
 11
131.33699999999999
 21
71.902699999999996
 31
0.0
  0
LINE
  5
151
  8
0
 62
     7
 10
131.33699999999999
 20
71.902699999999996
 30
0.0
 11
130.15199999999999
 21
71.902699999999996
 31
0.0
  0
LINE
  5
152
  8
0
 62
     7
 10
131.322
 20
95.480400000000003
 30
0.0
 11
130.7299999999999
 21
97.691800000000001
 31
0.0
  0
LINE
  5
153
  8
0
 62
     7
 10
130.7299999999999
 20
97.691800000000001
 30
0.0
 11
130.137
 21
95.480400000000003
 31
0.0
  0
LINE
  5
154
  8
0
 62
     7
 10
130.137
 20
95.480400000000003
 30
0.0
 11
131.322
 21
95.480400000000003
 31
0.0
  0
LINE
  5
155
  8
0
 62
     7
 10
131.322
 20
123.48
 30
0.0
 11
130.7299999999999
 21
125.69199999999999
 31
0.0
  0
LINE
  5
156
  8
0
 62
     7
 10
130.7299999999999
 20
125.69199999999999
 30
0.0
 11
130.137
 21
123.48
 31
0.0
  0
LINE
  5
157
  8
0
 62
     7
 10
130.137
 20
123.48
 30
0.0
 11
131.322
 21
123.48
 31
0.0
  0
LINE
  5
158
  8
0
 62
     7
 10
131.322
 20
151.4799999999999
 30
0.0
 11
130.7299999999999
 21
153.69200000000001
 31
0.0
  0
LINE
  5
159
  8
0
 62
     7
 10
130.7299999999999
 20
153.69200000000001
 30
0.0
 11
130.137
 21
151.4799999999999
 31
0.0
  0
LINE
  5
15A
  8
0
 62
     7
 10
130.137
 20
151.4799999999999
 30
0.0
 11
131.322
 21
151.4799999999999
 31
0.0
  0
LINE
  5
15B
  8
0
 62
     7
 10
130.7299999999999
 20
69.691299999999984
 30
0.0
 11
130.7299999999999
 21
153.69200000000001
 31
0.0
  0
LINE
  5
15C
  8
0
 62
     7
 10
142.45599999999999
 20
153.69200000000001
 30
0.0
 11
130.03
 21
153.69200000000001
 31
0.0
  0
LINE
  5
15D
  8
0
 62
     7
 10
142.45599999999999
 20
125.69199999999999
 30
0.0
 11
130.03
 21
125.69199999999999
 31
0.0
  0
LINE
  5
15E
  8
0
 62
     7
 10
142.45599999999999
 20
97.691800000000001
 30
0.0
 11
130.03
 21
97.691800000000001
 31
0.0
  0
LINE
  5
15F
  8
0
 62
     7
 10
142.45599999999999
 20
69.691299999999984
 30
0.0
 11
130.03
 21
69.691299999999984
 31
0.0
  0
ARC
  5
160
  8
0
  6
AIGENLINE002
 62
     7
 10
145.88848400000001
 20
153.23380499999999
 30
0.0
 40
1.142647999999999
 50
182.0986199999999
 51
267.88346300000001
  0
ARC
  5
161
  8
0
  6
AIGENLINE002
 62
     7
 10
145.80442500000001
 20
153.23417900000001
 30
0.0
 40
1.1430089999999991
 50
272.09872899999999
 51
357.88333999999992
  0
ARC
  5
162
  8
0
  6
AIGENLINE002
 62
     7
 10
145.846283
 20
154.19173499999999
 30
0.0
 40
1.1003709999999991
 50
0.00001
 51
89.999980000000008
  0
ARC
  5
163
  8
0
  6
AIGENLINE002
 62
     7
 10
145.88818399999991
 20
154.15055000000001
 30
0.0
 40
1.142325
 50
92.102089999999976
 51
177.93376900000001
  0
LINE
  5
164
  8
0
  6
AIGENLINE001
 62
     7
 10
53.949300000000001
 20
153.69200000000001
 30
0.0
 11
48.4268
 21
153.69200000000001
 31
0.0
  0
LINE
  5
165
  8
0
  6
AIGENLINE001
 62
     7
 10
53.949300000000001
 20
125.69199999999999
 30
0.0
 11
48.4268
 21
125.69199999999999
 31
0.0
  0
LINE
  5
166
  8
0
  6
AIGENLINE001
 62
     7
 10
53.949300000000001
 20
97.691800000000001
 30
0.0
 11
48.4268
 21
97.691800000000001
 31
0.0
  0
LINE
  5
167
  8
0
  6
AIGENLINE001
 62
     7
 10
53.949300000000001
 20
69.691299999999984
 30
0.0
 11
48.4268
 21
69.691299999999984
 31
0.0
  0
LINE
  5
168
  8
0
  6
AIGENLINE001
 62
     7
 10
148.67799999999991
 20
153.69200000000001
 30
0.0
 11
143.15600000000001
 21
153.69200000000001
 31
0.0
  0
LINE
  5
169
  8
0
  6
AIGENLINE001
 62
     7
 10
145.846
 20
241.32499999999999
 30
0.0
 11
145.846
 21
247.34999999999999
 31
0.0
  0
LINE
  5
16A
  8
0
  6
AIGENLINE001
 62
     7
 10
145.846
 20
150.86099999999999
 30
0.0
 11
145.846
 21
156.88699999999989
 31
0.0
  0
LINE
  5
16B
  8
0
  6
AIGENLINE002
 62
     7
 10
146.947
 20
154.19200000000001
 30
0.0
 11
146.947
 21
153.19200000000001
 31
0.0
  0
LINE
  5
16C
  8
0
  6
AIGENLINE002
 62
     7
 10
144.74700000000001
 20
154.19200000000001
 30
0.0
 11
144.74700000000001
 21
153.19200000000001
 31
0.0
  0
ARC
  5
16D
  8
0
  6
AIGENLINE002
 62
     7
 10
145.88849400000001
 20
125.233625
 30
0.0
 40
1.1426590000000001
 50
182.09909399999989
 51
267.88298900000001
  0
ARC
  5
16E
  8
0
  6
AIGENLINE002
 62
     7
 10
145.80442500000001
 20
125.2339879999999
 30
0.0
 40
1.1430089999999991
 50
272.09872899999999
 51
357.88333999999992
  0
ARC
  5
16F
  8
0
  6
AIGENLINE002
 62
     7
 10
145.84662800000001
 20
126.19154499999991
 30
0.0
 40
1.1000259999999991
 50
0.017954
 51
90.017924000000008
  0
ARC
  5
170
  8
0
  6
AIGENLINE002
 62
     7
 10
145.88813500000001
 20
126.150037
 30
0.0
 40
1.142301
 50
92.099688999999984
 51
177.90028100000001
  0
LINE
  5
171
  8
0
  6
AIGENLINE001
 62
     7
 10
148.67799999999991
 20
125.69199999999999
 30
0.0
 11
143.15600000000001
 21
125.69199999999999
 31
0.0
  0
LINE
  5
172
  8
0
  6
AIGENLINE001
 62
     7
 10
145.846
 20
122.8609999999999
 30
0.0
 11
145.846
 21
128.88599999999991
 31
0.0
  0
LINE
  5
173
  8
0
  6
AIGENLINE002
 62
     7
 10
146.947
 20
126.19199999999999
 30
0.0
 11
146.947
 21
125.19199999999999
 31
0.0
  0
LINE
  5
174
  8
0
  6
AIGENLINE002
 62
     7
 10
144.74700000000001
 20
126.19199999999999
 30
0.0
 11
144.74700000000001
 21
125.19199999999999
 31
0.0
  0
ARC
  5
175
  8
0
  6
AIGENLINE002
 62
     7
 10
145.88848400000001
 20
97.233423999999985
 30
0.0
 40
1.142647999999999
 50
182.0986199999999
 51
267.88346300000001
  0
ARC
  5
176
  8
0
  6
AIGENLINE002
 62
     7
 10
145.80442500000001
 20
97.233796999999996
 30
0.0
 40
1.1430089999999991
 50
272.09872899999999
 51
357.88333999999992
  0
ARC
  5
177
  8
0
  6
AIGENLINE002
 62
     7
 10
145.846283
 20
98.191354000000004
 30
0.0
 40
1.1003709999999991
 50
0.00001
 51
89.999980000000008
  0
ARC
  5
178
  8
0
  6
AIGENLINE002
 62
     7
 10
145.88818399999991
 20
98.150168000000022
 30
0.0
 40
1.142325
 50
92.102089999999976
 51
177.93376900000001
  0
LINE
  5
179
  8
0
  6
AIGENLINE001
 62
     7
 10
148.67799999999991
 20
97.691800000000001
 30
0.0
 11
143.15600000000001
 21
97.691800000000001
 31
0.0
  0
LINE
  5
17A
  8
0
  6
AIGENLINE001
 62
     7
 10
145.846
 20
94.861000000000004
 30
0.0
 11
145.846
 21
100.886
 31
0.0
  0
LINE
  5
17B
  8
0
  6
AIGENLINE002
 62
     7
 10
146.947
 20
98.191400000000002
 30
0.0
 11
146.947
 21
97.191599999999994
 31
0.0
  0
LINE
  5
17C
  8
0
  6
AIGENLINE002
 62
     7
 10
144.74700000000001
 20
98.191400000000002
 30
0.0
 11
144.74700000000001
 21
97.191599999999994
 31
0.0
  0
ARC
  5
17D
  8
0
  6
AIGENLINE002
 62
     7
 10
145.88848899999999
 20
69.233238999999983
 30
0.0
 40
1.1426540000000001
 50
182.09885700000001
 51
267.88322599999992
  0
ARC
  5
17E
  8
0
  6
AIGENLINE002
 62
     7
 10
145.804033
 20
69.233998999999983
 30
0.0
 40
1.1434150000000001
 50
272.117638
 51
357.86442999999991
  0
ARC
  5
17F
  8
0
  6
AIGENLINE002
 62
     7
 10
145.84662800000001
 20
70.191163000000003
 30
0.0
 40
1.1000259999999991
 50
0.017954
 51
90.017924000000008
  0
ARC
  5
180
  8
0
  6
AIGENLINE002
 62
     7
 10
145.88852700000001
 20
70.149264000000002
 30
0.0
 40
1.1427059999999989
 50
92.118597000000008
 51
177.88137299999991
  0
LINE
  5
181
  8
0
  6
AIGENLINE001
 62
     7
 10
142.89699999999999
 20
114.8009999999999
 30
0.0
 11
142.89699999999999
 21
108.505
 31
0.0
  0
ARC
  5
182
  8
0
  6
AIGENLINE002
 62
     7
 10
142.940842
 20
111.646434
 30
0.0
 40
1.195068
 50
92.122834999999995
 51
177.87713600000001
  0
ARC
  5
183
  8
0
  6
AIGENLINE002
 62
     7
 10
142.940842
 20
111.7349699999999
 30
0.0
 40
1.195068
 50
182.12286399999991
 51
267.87716499999988
  0
ARC
  5
184
  8
0
  6
AIGENLINE002
 62
     7
 10
142.85228599999999
 20
111.73499
 30
0.0
 40
1.195088999999999
 50
272.12379399999992
 51
357.876215
  0
ARC
  5
185
  8
0
  6
AIGENLINE002
 62
     7
 10
142.852306
 20
111.646434
 30
0.0
 40
1.195068
 50
2.122844999999999
 51
87.877145999999996
  0
ARC
  5
186
  8
0
 62
     7
 10
143.00169799999989
 20
76.585977999999983
 30
0.0
 40
88.859705000000005
 50
82.958545999999998
 51
85.825253999999987
  0
LINE
  5
187
  8
0
 62
     7
 10
151.68700000000001
 20
144.791
 30
0.0
 11
151.744
 21
137.7829999999999
 31
0.0
  0
ARC
  5
188
  8
0
 62
     7
 10
-62.816977999999999
 20
140.5933939999999
 30
0.0
 40
214.54535000000001
 50
1.123383
 51
3.4881319999999989
  0
LINE
  5
189
  8
0
 62
     7
 10
152.31200000000001
 20
154.83099999999999
 30
0.0
 11
152.49799999999999
 21
154.851
 31
0.0
  0
ARC
  5
18A
  8
0
 62
     7
 10
149.6728479999999
 20
160.135898
 30
0.0
 40
4.2484640000000002
 50
333.73631799999998
 51
353.84652699999992
  0
ARC
  5
18B
  8
0
 62
     7
 10
153.15646000000001
 20
160.32385500000001
 30
0.0
 40
0.8898930000000001
 50
336.51304699999997
 51
0.100888
  0
ARC
  5
18C
  8
0
 62
     7
 10
153.15646000000001
 20
160.32385500000001
 30
0.0
 40
0.8898930000000001
 50
336.51304699999997
 51
0.100888
  0
ARC
  5
18D
  8
0
 62
     7
 10
154.90843699999999
 20
159.569219
 30
0.0
 40
1.017704999999999
 50
156.857496
 51
173.72266099999999
  0
LINE
  5
18E
  8
0
 62
     7
 10
153.483
 20
158.25599999999989
 30
0.0
 11
153.483
 21
155.94499999999999
 31
0.0
  0
LINE
  5
18F
  8
0
 62
     7
 10
154.596
 20
163.98099999999991
 30
0.0
 11
154.596
 21
161.58500000000001
 31
0.0
  0
LINE
  5
190
  8
0
 62
     7
 10
154.596
 20
161.58500000000001
 30
0.0
 11
154.596
 21
163.98099999999991
 31
0.0
  0
ARC
  5
191
  8
0
 62
     7
 10
153.9905149999999
 20
161.587501
 30
0.0
 40
0.6056820000000001
 50
323.10850800000009
 51
359.75937499999992
  0
LINE
  5
192
  8
0
 62
     7
 10
154.30399999999989
 20
161.04099999999991
 30
0.0
 11
154.47499999999999
 21
161.2239999999999
 31
0.0
  0
ARC
  5
193
  8
0
 62
     7
 10
153.78304299999991
 20
163.96463299999999
 30
0.0
 40
0.8184140000000001
 50
21.498995000000001
 51
82.202624999999998
  0
ARC
  5
194
  8
0
 62
     7
 10
153.6446939999999
 20
163.954059
 30
0.0
 40
0.9518909999999999
 50
1.644765
 51
19.038523000000001
  0
ARC
  5
195
  8
0
 62
     7
 10
155.17647600000001
 20
160.32110599999999
 30
0.0
 40
1.1301950000000001
 50
134.13345799999999
 51
179.36197499999989
  0
ARC
  5
196
  8
0
 62
     7
 10
152.4717389999999
 20
153.7003399999999
 30
0.0
 40
1.142023999999999
 50
98.036480000000026
 51
182.62206
  0
ARC
  5
197
  8
0
 62
     7
 10
152.34488300000001
 20
155.97878700000001
 30
0.0
 40
1.1383609999999991
 50
277.73599300000001
 51
358.27962200000002
  0
ARC
  5
198
  8
0
 62
     7
 10
-62.713428999999998
 20
82.784002999999984
 30
0.0
 40
214.44174899999999
 50
356.5112529999999
 51
358.87705299999999
  0
ARC
  5
199
  8
0
 62
     7
 10
154.875022
 20
63.802944999999987
 30
0.0
 40
0.9834959999999998
 50
185.95518399999989
 51
203.4311109999999
  0
ARC
  5
19A
  8
0
 62
     7
 10
155.17828299999999
 20
63.061073999999998
 30
0.0
 40
1.1320099999999991
 50
180.67629999999991
 51
225.8282669999999
  0
LINE
  5
19B
  8
0
 62
     7
 10
154.47499999999999
 20
62.157499999999992
 30
0.0
 11
154.30399999999989
 21
62.340800000000002
 31
0.0
  0
ARC
  5
19C
  8
0
 62
     7
 10
153.99112099999991
 20
61.794109999999989
 30
0.0
 40
0.6050740000000001
 50
0.156009
 51
36.910215000000008
  0
ARC
  5
19D
  8
0
 62
     7
 10
153.65428199999999
 20
59.424906000000007
 30
0.0
 40
0.942257
 50
340.87186299999991
 51
358.44484799999992
  0
ARC
  5
19E
  8
0
 62
     7
 10
153.78340800000001
 20
59.41616299999999
 30
0.0
 40
0.8181039999999999
 50
277.7745109999999
 51
338.48632299999991
  0
ARC
  5
19F
  8
0
 62
     7
 10
142.97032400000001
 20
147.04038700000001
 30
0.0
 40
89.106837999999996
 50
274.18204199999991
 51
277.04126000000002
  0
ARC
  5
1A0
  8
0
 62
     7
 10
140.96812499999999
 20
171.07020600000001
 30
0.0
 40
0.6226770000000002
 50
95.345127000000005
 51
178.04814999999999
  0
LINE
  5
1A1
  8
0
 62
     7
 10
149.34599999999989
 20
171.01699999999991
 30
0.0
 11
149.34599999999989
 21
170.6629999999999
 31
0.0
  0
LINE
  5
1A2
  8
0
 62
     7
 10
149.34599999999989
 20
170.6629999999999
 30
0.0
 11
149.34599999999989
 21
171.01699999999991
 31
0.0
  0
ARC
  5
1A3
  8
0
 62
     7
 10
148.827449
 20
170.99964800000001
 30
0.0
 40
0.518675
 50
1.917025999999999
 51
85.249122000000014
  0
ARC
  5
1A4
  8
0
 62
     7
 10
139.892267
 20
-56.444359999999989
 30
0.0
 40
228.13757799999991
 50
87.744932999999989
 51
89.739687999999987
  0
ARC
  5
1A5
  8
0
 62
     7
 10
148.8275129999999
 20
52.381694000000003
 30
0.0
 40
0.518608
 50
274.74433599999998
 51
358.089516
  0
ARC
  5
1A6
  8
0
 62
     7
 10
139.91542199999989
 20
278.77107899999987
 30
0.0
 40
227.08279999999991
 50
270.25567899999999
 51
272.2596999999999
  0
ARC
  5
1A7
  8
0
 62
     7
 10
140.9688439999999
 20
52.311875999999998
 30
0.0
 40
0.623419
 50
182.01188400000001
 51
264.59483799999992
  0
ARC
  5
1A8
  8
0
 62
     7
 10
150.0162709999999
 20
164.32999599999999
 30
0.0
 40
0.830025
 50
1.9049780000000001
 51
84.475389000000007
  0
ARC
  5
1A9
  8
0
 62
     7
 10
152.85506100000001
 20
137.79662599999989
 30
0.0
 40
1.110816
 50
180.685811
 51
226.778312
  0
ARC
  5
1AA
  8
0
 62
     7
 10
153.14688599999999
 20
133.246386
 30
0.0
 40
0.899465
 50
0.026397
 51
23.359667999999999
  0
ARC
  5
1AB
  8
0
 62
     7
 10
153.14688599999999
 20
133.246386
 30
0.0
 40
0.899465
 50
0.026397
 51
23.359667999999999
  0
LINE
  5
1AC
  8
0
 62
     7
 10
154.04599999999991
 20
133.24700000000001
 30
0.0
 11
154.04599999999991
 21
131.43700000000001
 31
0.0
  0
LINE
  5
1AD
  8
0
 62
     7
 10
154.04599999999991
 20
133.24700000000001
 30
0.0
 11
154.04599999999991
 21
131.43700000000001
 31
0.0
  0
ARC
  5
1AE
  8
0
 62
     7
 10
154.31878399999999
 20
133.93803299999999
 30
0.0
 40
0.424447
 50
186.21667099999991
 51
189.59769299999991
  0
ARC
  5
1AF
  8
0
 62
     7
 10
153.193476
 20
133.7761769999999
 30
0.0
 40
0.712648
 50
5.3368679999999991
 51
7.343513999999999
  0
ARC
  5
1B0
  8
0
 62
     7
 10
153.534762
 20
133.75713799999991
 30
0.0
 40
0.378027
 50
9.2649550000000005
 51
13.044361999999991
  0
ARC
  5
1B1
  8
0
 62
     7
 10
154.27974999999989
 20
133.877442
 30
0.0
 40
0.376612
 50
189.0810229999999
 51
192.92609599999989
  0
ARC
  5
1B2
  8
0
 62
     7
 10
154.34480199999999
 20
133.879279
 30
0.0
 40
0.440612
 50
191.2663979999999
 51
194.48364199999989
  0
ARC
  5
1B3
  8
0
 62
     7
 10
154.56261699999999
 20
133.9036889999999
 30
0.0
 40
0.658333
 50
191.798473
 51
193.9515669999999
  0
ARC
  5
1B4
  8
0
 62
     7
 10
153.44184599999991
 20
133.59424799999991
 30
0.0
 40
0.50488
 50
14.52211099999999
 51
17.368677999999989
  0
ARC
  5
1B5
  8
0
 62
     7
 10
153.374403
 20
133.5488939999999
 30
0.0
 40
0.5821670000000001
 50
14.711093999999999
 51
17.179694000000001
  0
ARC
  5
1B6
  8
0
 62
     7
 10
151.80269299999989
 20
132.930104
 30
0.0
 40
2.2682720000000001
 50
19.126266999999999
 51
19.753797999999989
  0
ARC
  5
1B7
  8
0
 62
     7
 10
155.69900999999999
 20
134.27892999999989
 30
0.0
 40
1.854908999999999
 50
199.05636399999989
 51
199.8237409999999
  0
ARC
  5
1B8
  8
0
 62
     7
 10
152.89324699999989
 20
133.19938999999999
 30
0.0
 40
1.1524689999999991
 50
21.750344999999999
 51
23.009920999999991
  0
ARC
  5
1B9
  8
0
 62
     7
 10
153.381249
 20
133.39033699999999
 30
0.0
 40
0.6284609999999999
 50
19.781134000000002
 51
22.067865000000001
  0
ARC
  5
1BA
  8
0
 62
     7
 10
153.26216599999989
 20
133.34480500000001
 30
0.0
 40
0.7559300000000001
 50
19.973953999999999
 51
21.875043999999988
  0
ARC
  5
1BB
  8
0
 62
     7
 10
152.97203500000001
 20
133.23183199999991
 30
0.0
 40
1.0672680000000001
 50
21.700066
 51
23.060199000000001
  0
ARC
  5
1BC
  8
0
 62
     7
 10
156.0888149999999
 20
134.41650799999999
 30
0.0
 40
2.2682720000000001
 50
199.12628699999999
 51
199.753818
  0
ARC
  5
1BD
  8
0
 62
     7
 10
152.192498
 20
133.06768199999999
 30
0.0
 40
1.854908999999999
 50
19.056343999999999
 51
19.823720999999999
  0
ARC
  5
1BE
  8
0
 62
     7
 10
153.28476599999991
 20
133.52328399999999
 30
0.0
 40
0.675372
 50
14.88145499999999
 51
17.009332999999991
  0
ARC
  5
1BF
  8
0
 62
     7
 10
153.51442299999999
 20
133.61498399999999
 30
0.0
 40
0.4294260000000001
 50
14.271963
 51
17.618825000000001
  0
ARC
  5
1C0
  8
0
 62
     7
 10
154.62080700000001
 20
133.91698999999991
 30
0.0
 40
0.7180130000000001
 50
191.88796300000001
 51
193.86207699999991
  0
ARC
  5
1C1
  8
0
 62
     7
 10
154.28171999999989
 20
133.86485999999999
 30
0.0
 40
0.375933
 50
190.98954299999991
 51
194.76049699999999
  0
ARC
  5
1C2
  8
0
 62
     7
 10
154.341768
 20
133.88950099999991
 30
0.0
 40
0.439762
 50
189.35718
 51
192.64993899999999
  0
ARC
  5
1C3
  8
0
 62
     7
 10
153.58308600000001
 20
133.7666669999999
 30
0.0
 40
0.328804
 50
8.9819309999999994
 51
13.32738599999999
  0
ARC
  5
1C4
  8
0
 62
     7
 10
153.01724899999991
 20
133.756596
 30
0.0
 40
0.8899379999999998
 50
5.5367610000000003
 51
7.1436210000000004
  0
ARC
  5
1C5
  8
0
 62
     7
 10
154.242853
 20
133.9274879999999
 30
0.0
 40
0.347827
 50
185.8441399999999
 51
189.97022299999989
  0
ARC
  5
1C6
  8
0
 62
     7
 10
149.628953
 20
133.41507200000001
 30
0.0
 40
4.2944539999999991
 50
6.3771930000000001
 51
46.818322999999992
  0
ARC
  5
1C7
  8
0
 62
     7
 10
153.21428700000001
 20
131.33558199999999
 30
0.0
 40
0.808286
 50
341.06342199999989
 51
342.63117099999999
  0
ARC
  5
1C8
  8
0
 62
     7
 10
153.53357700000001
 20
131.22198399999999
 30
0.0
 40
0.4694270000000001
 50
338.80437899999993
 51
341.53136499999988
  0
ARC
  5
1C9
  8
0
 62
     7
 10
148.42414599999989
 20
132.65112999999991
 30
0.0
 40
5.7729299999999997
 50
343.700422
 51
343.92116900000002
  0
ARC
  5
1CA
  8
0
 62
     7
 10
151.85996299999991
 20
131.63047399999991
 30
0.0
 40
2.1888040000000002
 50
343.51968699999998
 51
344.10190399999999
  0
ARC
  5
1CB
  8
0
 62
     7
 10
155.012777
 20
130.73032399999991
 30
0.0
 40
1.0902899999999991
 50
165.1615449999999
 51
166.33835300000001
  0
ARC
  5
1CC
  8
0
 62
     7
 10
153.415616
 20
131.1128479999999
 30
0.0
 40
0.5520579999999999
 50
344.58783799999992
 51
346.91210000000001
  0
ARC
  5
1CD
  8
0
 62
     7
 10
153.1964879999999
 20
131.11893499999999
 30
0.0
 40
0.766714
 50
346.81756300000001
 51
348.50426599999997
  0
ARC
  5
1CE
  8
0
 62
     7
 10
128.03122300000001
 20
135.868414
 30
0.0
 40
26.375540000000001
 50
349.1917049999999
 51
349.23970099999991
  0
ARC
  5
1CF
  8
0
 62
     7
 10
166.86257399999991
 20
128.48777200000001
 30
0.0
 40
13.15102999999999
 50
169.33145899999991
 51
169.429194
  0
ARC
  5
1D0
  8
0
 62
     7
 10
153.4300649999999
 20
130.9678909999999
 30
0.0
 40
0.5091670000000002
 50
349.86363299999999
 51
352.37504999999987
  0
ARC
  5
1D1
  8
0
 62
     7
 10
153.13381699999991
 20
130.96676899999991
 30
0.0
 40
0.8023620000000001
 50
352.081594
 51
353.66837500000003
  0
ARC
  5
1D2
  8
0
 62
     7
 10
154.45340899999999
 20
130.7802669999999
 30
0.0
 40
0.53035
 50
171.764644
 51
174.202314
  0
LINE
  5
1D3
  8
0
 62
     7
 10
153.92599999999999
 20
130.834
 30
0.0
 11
153.92400000000001
 21
130.81200000000001
 31
0.0
  0
ARC
  5
1D4
  8
0
 62
     7
 10
193.3416409999999
 20
127.1052389999999
 30
0.0
 40
39.591819999999998
 50
174.62813199999999
 51
174.66018
  0
ARC
  5
1D5
  8
0
 62
     7
 10
153.20235600000001
 20
130.80016000000001
 30
0.0
 40
0.7193579999999999
 50
357.35832799999991
 51
359.17026399999997
  0
ARC
  5
1D6
  8
0
 62
     7
 10
153.330107
 20
130.79286499999989
 30
0.0
 40
0.591408
 50
355.353475
 51
357.49385699999999
  0
ARC
  5
1D7
  8
0
 62
     7
 10
153.20223899999991
 20
130.80085700000001
 30
0.0
 40
0.7195070000000001
 50
355.54402599999992
 51
357.30330600000002
  0
ARC
  5
1D8
  8
0
 62
     7
 10
153.36212900000001
 20
130.7953179999999
 30
0.0
 40
0.559537
 50
357.09952399999997
 51
359.42906699999992
  0
LINE
  5
1D9
  8
0
 62
     7
 10
153.922
 20
130.78999999999991
 30
0.0
 11
153.92400000000001
 21
130.81200000000001
 31
0.0
  0
ARC
  5
1DA
  8
0
 62
     7
 10
114.505769
 20
134.5183439999999
 30
0.0
 40
39.591819999999998
 50
354.62815199999989
 51
354.66019999999997
  0
ARC
  5
1DB
  8
0
 62
     7
 10
154.6164949999999
 20
130.7601949999999
 30
0.0
 40
0.694637
 50
172.05293800000001
 51
173.91401999999999
  0
ARC
  5
1DC
  8
0
 62
     7
 10
153.37651099999999
 20
130.936432
 30
0.0
 40
0.5578120000000001
 50
351.73372599999999
 51
354.01624199999992
  0
ARC
  5
1DD
  8
0
 62
     7
 10
153.27806799999991
 20
130.9916409999999
 30
0.0
 40
0.6629800000000001
 50
350.15499199999988
 51
352.08369199999993
  0
ARC
  5
1DE
  8
0
 62
     7
 10
164.55659299999999
 20
128.92014399999999
 30
0.0
 40
10.804866000000001
 50
169.32084800000001
 51
169.43980500000001
  0
ARC
  5
1DF
  8
0
 62
     7
 10
145.26207700000001
 20
132.5863469999999
 30
0.0
 40
8.834897999999999
 50
349.14406000000002
 51
349.28734600000001
  0
ARC
  5
1E0
  8
0
 62
     7
 10
153.34376299999991
 20
131.0867189999999
 30
0.0
 40
0.615976
 50
346.61116199999998
 51
348.710666
  0
ARC
  5
1E1
  8
0
 62
     7
 10
153.28622999999999
 20
131.14570800000001
 30
0.0
 40
0.6855290000000001
 50
344.81412499999988
 51
346.68581299999988
  0
ARC
  5
1E2
  8
0
 62
     7
 10
154.83765500000001
 20
130.77479899999989
 30
0.0
 40
0.9096209999999999
 50
165.04467099999991
 51
166.45522700000001
  0
ARC
  5
1E3
  8
0
 62
     7
 10
151.81778999999989
 20
131.642718
 30
0.0
 40
2.2327180000000002
 50
343.52541200000002
 51
344.09617900000001
  0
ARC
  5
1E4
  8
0
 62
     7
 10
151.116737
 20
131.86940999999999
 30
0.0
 40
2.9691689999999991
 50
343.59619700000002
 51
344.02539400000001
  0
ARC
  5
1E5
  8
0
 62
     7
 10
153.4445509999999
 20
131.2540909999999
 30
0.0
 40
0.564044
 50
339.03313500000002
 51
341.3026089999999
  0
ARC
  5
1E6
  8
0
 62
     7
 10
153.3872519999999
 20
131.27887200000001
 30
0.0
 40
0.6262840000000001
 50
340.83560199999988
 51
342.85898999999989
  0
ARC
  5
1E7
  8
0
 62
     7
 10
152.943457
 20
126.427408
 30
0.0
 40
1.106136
 50
139.75378799999999
 51
180.35032100000001
  0
LINE
  5
1E8
  8
0
 62
     7
 10
152.90899999999999
 20
128.096
 30
0.0
 11
152.0989999999999
 21
127.142
 31
0.0
  0
ARC
  5
1E9
  8
0
 62
     7
 10
149.63580400000001
 20
130.8621489999999
 30
0.0
 40
4.286058999999999
 50
319.79967599999992
 51
358.43317500000001
  0
ARC
  5
1EA
  8
0
 62
     7
 10
153.0417939999999
 20
131.43801499999989
 30
0.0
 40
1.0045580000000001
 50
339.99122799999992
 51
359.92705499999988
  0
ARC
  5
1EB
  8
0
 62
     7
 10
153.0417939999999
 20
131.43801499999989
 30
0.0
 40
1.0045580000000001
 50
339.99122799999992
 51
359.92705499999988
  0
LINE
  5
1EC
  8
0
 62
     7
 10
151.93399999999991
 20
116.871
 30
0.0
 11
151.95699999999991
 21
116.282
 31
0.0
  0
LINE
  5
1ED
  8
0
 62
     7
 10
151.83699999999999
 20
126.42100000000001
 30
0.0
 11
151.91800000000001
 21
116.5479999999999
 31
0.0
  0
LINE
  5
1EE
  8
0
 62
     7
 10
152.09399999999991
 20
136.98699999999991
 30
0.0
 11
152.5679999999999
 21
136.54699999999991
 31
0.0
  0
LINE
  5
1EF
  8
0
 62
     7
 10
151.93399999999991
 20
106.51000000000001
 30
0.0
 11
151.95699999999991
 21
107.0989999999999
 31
0.0
  0
ARC
  5
1F0
  8
0
 62
     7
 10
153.09315699999999
 20
107.01840300000001
 30
0.0
 40
1.139470999999999
 50
93.834716999999983
 51
175.94144199999991
  0
LINE
  5
1F1
  8
0
 62
     7
 10
152.90899999999999
 20
95.2851
 30
0.0
 11
152.0989999999999
 21
96.23899999999999
 31
0.0
  0
ARC
  5
1F2
  8
0
 62
     7
 10
152.94305999999989
 20
96.953507000000002
 30
0.0
 40
1.105739
 50
179.64207500000001
 51
220.253816
  0
LINE
  5
1F3
  8
0
 62
     7
 10
151.83699999999999
 20
96.960400000000007
 30
0.0
 11
151.91800000000001
 21
106.83199999999999
 31
0.0
  0
ARC
  5
1F4
  8
0
 62
     7
 10
155.63948199999999
 20
114.9220169999999
 30
0.0
 40
0.207409
 50
1.960264
 51
86.029554000000005
  0
LINE
  5
1F5
  8
0
 62
     7
 10
155.84699999999989
 20
111.691
 30
0.0
 11
155.84699999999989
 21
114.929
 31
0.0
  0
ARC
  5
1F6
  8
0
 62
     7
 10
155.63948099999999
 20
108.459042
 30
0.0
 40
0.20741
 50
273.97059000000002
 51
358.03959199999991
  0
LINE
  5
1F7
  8
0
 62
     7
 10
155.84699999999989
 20
111.691
 30
0.0
 11
155.84699999999989
 21
108.452
 31
0.0
  0
LINE
  5
1F8
  8
0
 62
     7
 10
153.017
 20
108.155
 30
0.0
 11
155.654
 21
108.252
 31
0.0
  0
LINE
  5
1F9
  8
0
 62
     7
 10
153.017
 20
115.22499999999989
 30
0.0
 11
155.654
 21
115.12899999999991
 31
0.0
  0
ARC
  5
1FA
  8
0
 62
     7
 10
153.307265
 20
92.587182999999996
 30
0.0
 40
0.6142570000000001
 50
2.475036999999999
 51
4.5678689999999991
  0
ARC
  5
1FB
  8
0
 62
     7
 10
153.40031099999999
 20
92.586404000000002
 30
0.0
 40
0.521354
 50
0.5776710000000001
 51
3.002149999999999
  0
ARC
  5
1FC
  8
0
 62
     7
 10
110.3405129999999
 20
88.557494999999989
 30
0.0
 40
43.767442000000003
 50
5.2591760000000001
 51
5.2886150000000001
  0
ARC
  5
1FD
  8
0
 62
     7
 10
146.6085919999999
 20
91.882733999999985
 30
0.0
 40
7.3472580000000001
 50
5.1862099999999991
 51
5.3615810000000002
  0
ARC
  5
1FE
  8
0
 62
     7
 10
154.72324
 20
92.635361000000003
 30
0.0
 40
0.8023620000000001
 50
186.33164500000001
 51
187.91842600000001
  0
ARC
  5
1FF
  8
0
 62
     7
 10
153.48476699999989
 20
92.458158999999995
 30
0.0
 40
0.448741
 50
5.7063119999999996
 51
8.5437189999999994
  0
ARC
  5
200
  8
0
 62
     7
 10
153.093447
 20
92.360570999999993
 30
0.0
 40
0.84982
 50
8.1283429999999992
 51
9.6329729999999998
  0
ARC
  5
201
  8
0
 62
     7
 10
164.55659299999999
 20
94.460914999999986
 30
0.0
 40
10.804866000000001
 50
190.56019499999991
 51
190.67915199999999
  0
ARC
  5
202
  8
0
 62
     7
 10
141.015154
 20
90.024072000000004
 30
0.0
 40
13.15102999999999
 50
10.57078699999999
 51
10.668521999999999
  0
ARC
  5
203
  8
0
 62
     7
 10
153.40691100000001
 20
92.306111999999999
 30
0.0
 40
0.551747
 50
11.374307
 51
13.683306
  0
ARC
  5
204
  8
0
 62
     7
 10
153.28622999999999
 20
92.235350999999994
 30
0.0
 40
0.6855290000000001
 50
13.314187
 51
15.18587499999999
  0
ARC
  5
205
  8
0
 62
     7
 10
154.3723159999999
 20
92.489955000000009
 30
0.0
 40
0.430004
 50
193.00049399999989
 51
195.94013000000001
  0
ARC
  5
206
  8
0
 62
     7
 10
155.50606499999989
 20
92.802187000000004
 30
0.0
 40
1.605947999999999
 50
195.542744
 51
196.348084
  0
ARC
  5
207
  8
0
 62
     7
 10
151.116737
 20
91.511649000000006
 30
0.0
 40
2.9691689999999991
 50
15.974605999999991
 51
16.403803
  0
ARC
  5
208
  8
0
 62
     7
 10
153.05450300000001
 20
91.986294999999998
 30
0.0
 40
0.978636
 50
19.178142999999992
 51
20.486111999999991
  0
ARC
  5
209
  8
0
 62
     7
 10
153.53235900000001
 20
92.151969999999992
 30
0.0
 40
0.4728760000000001
 50
16.518885000000001
 51
19.238503999999999
  0
ARC
  5
20A
  8
0
 62
     7
 10
153.04859400000001
 20
91.943903000000006
 30
0.0
 40
0.9977579999999999
 50
0.043919
 51
20.077457999999989
  0
ARC
  5
20B
  8
0
 62
     7
 10
153.04859400000001
 20
91.943903000000006
 30
0.0
 40
0.9977579999999999
 50
0.043919
 51
20.077457999999989
  0
ARC
  5
20C
  8
0
 62
     7
 10
153.38063299999999
 20
92.103026
 30
0.0
 40
0.6322670000000001
 50
16.861729
 51
18.895659999999999
  0
ARC
  5
20D
  8
0
 62
     7
 10
153.15518499999999
 20
92.022605999999996
 30
0.0
 40
0.8716139999999999
 50
19.097839
 51
20.566417000000001
  0
ARC
  5
20E
  8
0
 62
     7
 10
148.42414599999989
 20
90.729928999999998
 30
0.0
 40
5.7729299999999997
 50
16.078831000000001
 51
16.299578
  0
ARC
  5
20F
  8
0
 62
     7
 10
155.4814669999999
 20
92.795158999999984
 30
0.0
 40
1.580365
 50
195.536226
 51
196.354602
  0
ARC
  5
210
  8
0
 62
     7
 10
154.46367499999999
 20
92.513531999999998
 30
0.0
 40
0.5243310000000001
 50
193.26495800000001
 51
195.675667
  0
ARC
  5
211
  8
0
 62
     7
 10
153.415616
 20
92.268210999999994
 30
0.0
 40
0.5520579999999999
 50
13.087899999999999
 51
15.412162
  0
ARC
  5
212
  8
0
 62
     7
 10
153.23777599999991
 20
92.268525999999994
 30
0.0
 40
0.7249800000000001
 50
11.650199000000001
 51
13.407413999999999
  0
ARC
  5
213
  8
0
 62
     7
 10
143.321135
 20
90.456443000000007
 30
0.0
 40
10.804866000000001
 50
10.560176
 51
10.679133
  0
ARC
  5
214
  8
0
 62
     7
 10
166.86257399999991
 20
94.893286999999987
 30
0.0
 40
13.15102999999999
 50
190.570806
 51
190.668541
  0
ARC
  5
215
  8
0
 62
     7
 10
153.2727669999999
 20
92.388590000000008
 30
0.0
 40
0.6683440000000001
 50
7.924049000000001
 51
9.8372670000000006
  0
ARC
  5
216
  8
0
 62
     7
 10
153.304147
 20
92.435580999999985
 30
0.0
 40
0.6307270000000002
 50
6.1157059999999976
 51
8.1343259999999997
  0
ARC
  5
217
  8
0
 62
     7
 10
154.48054500000001
 20
92.605024
 30
0.0
 40
0.5578120000000001
 50
185.983777
 51
188.26629299999991
  0
ARC
  5
218
  8
0
 62
     7
 10
197.50689799999989
 20
96.581039000000004
 30
0.0
 40
43.767442000000003
 50
185.25919499999989
 51
185.288635
  0
ARC
  5
219
  8
0
 62
     7
 10
161.2388179999999
 20
93.255801000000005
 30
0.0
 40
7.3472580000000001
 50
185.18622999999991
 51
185.36160100000001
  0
ARC
  5
21A
  8
0
 62
     7
 10
153.26648399999999
 20
92.582222000000002
 30
0.0
 40
0.6552220000000001
 50
0.825369
 51
2.7544509999999991
  0
ARC
  5
21B
  8
0
 62
     7
 10
153.442815
 20
92.595524999999995
 30
0.0
 40
0.4784800000000001
 50
2.1780479999999991
 51
4.864857999999999
  0
ARC
  5
21C
  8
0
 62
     7
 10
153.15168600000001
 20
90.133336000000014
 30
0.0
 40
0.8946659999999999
 50
336.57681500000001
 51
0.059094
  0
ARC
  5
21D
  8
0
 62
     7
 10
153.15168600000001
 20
90.133336000000014
 30
0.0
 40
0.8946659999999999
 50
336.57681500000001
 51
0.059094
  0
ARC
  5
21E
  8
0
 62
     7
 10
152.99238799999989
 20
90.144800000000004
 30
0.0
 40
1.046726
 50
338.11312099999992
 51
339.46843100000001
  0
ARC
  5
21F
  8
0
 62
     7
 10
153.3944229999999
 20
89.978943000000001
 30
0.0
 40
0.6118550000000002
 50
336.14803799999987
 51
338.49084699999997
  0
ARC
  5
220
  8
0
 62
     7
 10
174.29846599999991
 20
82.641872000000006
 30
0.0
 40
21.54436299999999
 50
160.787508
 51
160.85444099999989
  0
ARC
  5
221
  8
0
 62
     7
 10
155.40364699999989
 20
89.187336000000016
 30
0.0
 40
1.5479940000000001
 50
160.35519500000001
 51
161.286754
  0
ARC
  5
222
  8
0
 62
     7
 10
152.2311379999999
 20
90.16569100000001
 30
0.0
 40
1.7730379999999999
 50
343.43560500000001
 51
344.23540000000003
  0
ARC
  5
223
  8
0
 62
     7
 10
153.64550500000001
 20
89.729961000000003
 30
0.0
 40
0.2935
 50
341.419014
 51
346.25199099999998
  0
ARC
  5
224
  8
0
 62
     7
 10
154.884229
 20
89.40713199999999
 30
0.0
 40
0.987516
 50
166.57298700000001
 51
168.027807
  0
ARC
  5
225
  8
0
 62
     7
 10
154.252959
 20
89.523686999999995
 30
0.0
 40
0.346213
 50
165.22518199999999
 51
169.37561199999999
  0
ARC
  5
226
  8
0
 62
     7
 10
154.33628300000001
 20
89.491284999999976
 30
0.0
 40
0.434396
 50
167.20090400000001
 51
170.48973899999999
  0
ARC
  5
227
  8
0
 62
     7
 10
153.53048799999991
 20
89.624763000000002
 30
0.0
 40
0.382382
 50
346.97716500000001
 51
350.71351800000002
  0
ARC
  5
228
  8
0
 62
     7
 10
153.01724899999991
 20
89.624463000000006
 30
0.0
 40
0.8899379999999998
 50
352.856379
 51
354.46323899999987
  0
ARC
  5
229
  8
0
 62
     7
 10
154.242853
 20
89.453570999999997
 30
0.0
 40
0.347827
 50
170.02977699999991
 51
174.15585999999999
  0
ARC
  5
22A
  8
0
 62
     7
 10
154.31878399999999
 20
89.443025000000006
 30
0.0
 40
0.424447
 50
170.40230700000001
 51
173.78332900000001
  0
ARC
  5
22B
  8
0
 62
     7
 10
153.193476
 20
89.604881999999975
 30
0.0
 40
0.712648
 50
352.65648599999992
 51
354.66313200000002
  0
ARC
  5
22C
  8
0
 62
     7
 10
153.479432
 20
89.634831000000005
 30
0.0
 40
0.434396
 50
347.2009240000001
 51
350.48975899999999
  0
ARC
  5
22D
  8
0
 62
     7
 10
154.2852279999999
 20
89.501353000000009
 30
0.0
 40
0.382382
 50
166.97714500000001
 51
170.71349799999999
  0
ARC
  5
22E
  8
0
 62
     7
 10
154.30797799999999
 20
89.511289000000005
 30
0.0
 40
0.4025800000000001
 50
165.5158439999999
 51
169.08494999999991
  0
ARC
  5
22F
  8
0
 62
     7
 10
154.703778
 20
89.447796999999994
 30
0.0
 40
0.8025579999999999
 50
166.40533600000001
 51
168.195458
  0
ARC
  5
230
  8
0
 62
     7
 10
153.5925629999999
 20
89.745305999999985
 30
0.0
 40
0.348579
 50
341.80101999999999
 51
345.86998599999993
  0
ARC
  5
231
  8
0
 62
     7
 10
152.67592400000001
 20
90.036766999999983
 30
0.0
 40
1.30996
 50
343.29423500000001
 51
344.37677000000002
  0
ARC
  5
232
  8
0
 62
     7
 10
155.68418500000001
 20
89.089757999999975
 30
0.0
 40
1.8450099999999989
 50
160.43017800000001
 51
161.21176999999989
  0
ARC
  5
233
  8
0
 62
     7
 10
177.60272699999999
 20
81.492564000000002
 30
0.0
 40
25.042798000000001
 50
160.79218299999991
 51
160.8497659999999
  0
ARC
  5
234
  8
0
 62
     7
 10
153.23293200000001
 20
90.046431999999996
 30
0.0
 40
0.786853
 50
336.40858600000001
 51
338.2303
  0
ARC
  5
235
  8
0
 62
     7
 10
153.14351300000001
 20
90.086155000000005
 30
0.0
 40
0.8846350000000001
 50
337.988947
 51
339.59260499999988
  0
LINE
  5
236
  8
0
 62
     7
 10
154.04599999999991
 20
90.134299999999996
 30
0.0
 11
154.04599999999991
 21
91.944699999999997
 31
0.0
  0
LINE
  5
237
  8
0
 62
     7
 10
154.04599999999991
 20
90.134299999999996
 30
0.0
 11
154.04599999999991
 21
91.944699999999997
 31
0.0
  0
LINE
  5
238
  8
0
 62
     7
 10
152.09399999999991
 20
86.393900000000002
 30
0.0
 11
152.5679999999999
 21
86.834199999999996
 31
0.0
  0
ARC
  5
239
  8
0
 62
     7
 10
152.8570629999999
 20
85.583545999999984
 30
0.0
 40
1.1128340000000001
 50
133.26556099999999
 51
179.25204099999991
  0
ARC
  5
23A
  8
0
 62
     7
 10
149.62867700000001
 20
89.965718999999993
 30
0.0
 40
4.2946980000000003
 50
313.18366400000002
 51
353.62677300000001
  0
LINE
  5
23B
  8
0
 62
     7
 10
151.68700000000001
 20
78.589699999999993
 30
0.0
 11
151.744
 21
85.598100000000002
 31
0.0
  0
ARC
  5
23C
  8
0
 62
     7
 10
149.62980699999989
 20
92.516261000000014
 30
0.0
 40
4.2921259999999997
 50
1.599972999999999
 51
40.172139000000001
  0
ARC
  5
23D
  8
0
 62
     7
 10
153.092759
 20
116.361886
 30
0.0
 40
1.1390199999999999
 50
184.02133000000001
 51
266.18382700000001
  0
LINE
  5
23E
  8
0
 62
     7
 10
151.94499999999991
 20
107.39399999999991
 30
0.0
 11
151.94499999999991
 21
116.577
 31
0.0
  0
LINE
  5
23F
  8
0
 62
     7
 10
149.34599999999989
 20
170.84
 30
0.0
 11
149.34599999999989
 21
111.691
 31
0.0
  0
LINE
  5
240
  8
0
 62
     7
 10
150.846
 20
111.691
 30
0.0
 11
150.846
 21
164.358
 31
0.0
  0
LINE
  5
241
  8
0
 62
     7
 10
140.346
 20
111.691
 30
0.0
 11
140.346
 21
171.09099999999989
 31
0.0
  0
LINE
  5
242
  8
0
 62
     7
 10
140.346
 20
111.691
 30
0.0
 11
140.346
 21
171.09099999999989
 31
0.0
  0
ARC
  5
243
  8
0
 62
     7
 10
152.34433200000001
 20
67.401786999999999
 30
0.0
 40
1.138916
 50
1.726608999999999
 51
82.239831999999993
  0
LINE
  5
244
  8
0
 62
     7
 10
152.31200000000001
 20
68.549899999999994
 30
0.0
 11
152.49799999999999
 21
68.530299999999997
 31
0.0
  0
ARC
  5
245
  8
0
 62
     7
 10
152.47219799999991
 20
69.681115000000005
 30
0.0
 40
1.142480999999999
 50
177.381586
 51
261.94347999999991
  0
ARC
  5
246
  8
0
 62
     7
 10
153.1451429999999
 20
63.054862
 30
0.0
 40
0.901208
 50
0.027342
 51
23.33674899999999
  0
ARC
  5
247
  8
0
 62
     7
 10
153.1451429999999
 20
63.054862
 30
0.0
 40
0.901208
 50
0.027342
 51
23.33674899999999
  0
ARC
  5
248
  8
0
 62
     7
 10
149.66003499999999
 20
63.241326000000001
 30
0.0
 40
4.2616509999999996
 50
6.1908829999999986
 51
26.233701
  0
LINE
  5
249
  8
0
 62
     7
 10
153.483
 20
65.125100000000003
 30
0.0
 11
153.483
 21
67.436099999999996
 31
0.0
  0
ARC
  5
24A
  8
0
 62
     7
 10
150.01713599999999
 20
59.050263000000001
 30
0.0
 40
0.8291459999999998
 50
275.47045400000002
 51
358.124505
  0
LINE
  5
24B
  8
0
 62
     7
 10
149.34599999999989
 20
52.718600000000002
 30
0.0
 11
149.34599999999989
 21
52.364400000000003
 31
0.0
  0
LINE
  5
24C
  8
0
 62
     7
 10
149.34599999999989
 20
52.364400000000003
 30
0.0
 11
149.34599999999989
 21
52.718600000000002
 31
0.0
  0
LINE
  5
24D
  8
0
 62
     7
 10
154.596
 20
61.7958
 30
0.0
 11
154.596
 21
59.399299999999997
 31
0.0
  0
LINE
  5
24E
  8
0
 62
     7
 10
154.596
 20
59.399299999999997
 30
0.0
 11
154.596
 21
61.7958
 31
0.0
  0
LINE
  5
24F
  8
0
 62
     7
 10
149.34599999999989
 20
52.541499999999999
 30
0.0
 11
149.34599999999989
 21
111.691
 31
0.0
  0
LINE
  5
250
  8
0
 62
     7
 10
140.346
 20
111.691
 30
0.0
 11
140.346
 21
52.289999999999999
 31
0.0
  0
LINE
  5
251
  8
0
 62
     7
 10
140.346
 20
111.691
 30
0.0
 11
140.346
 21
52.289999999999999
 31
0.0
  0
LINE
  5
252
  8
0
 62
     7
 10
150.846
 20
111.691
 30
0.0
 11
150.846
 21
59.023099999999992
 31
0.0
  0
ARC
  5
253
  8
0
 62
     7
 10
156.1323129999999
 20
218.04953499999999
 30
0.0
 40
0.214192
 50
277.501282
 51
357.56584500000002
  0
ARC
  5
254
  8
0
 62
     7
 10
20.795266673944969
 20
231.78991346193331
 30
0.0
 40
133.52632459751339
 50
350.4006644688169
 51
358.19603104005881
  0
ARC
  5
255
  8
0
 62
     7
 10
141.07078299999989
 20
218.89510000000001
 30
0.0
 40
16.783204000000001
 50
299.79337299999992
 51
308.38779699999998
  0
ARC
  5
256
  8
0
 62
     7
 10
151.03685799999991
 20
206.44116
 30
0.0
 40
0.8363899999999999
 50
303.036114
 51
348.32568300000003
  0
ARC
  5
257
  8
0
 62
     7
 10
16.177482999999992
 20
232.79923500000001
 30
0.0
 40
138.2479449999999
 50
348.93764599999992
 51
350.30735700000002
  0
ARC
  5
260
  8
0
  6
AIGENLINE002
 62
     7
 10
153.07737399999991
 20
216.61368599999989
 30
0.0
 40
1.1382289999999999
 50
93.598884999999996
 51
169.018314
  0
LINE
  5
261
  8
0
 62
     7
 10
153.58119976494709
 20
217.74799999999999
 30
0.0
 11
156.16
 21
217.83699999999999
 31
0.0
  0
ARC
  5
262
  8
0
 62
     7
 10
156.13951899999989
 20
218.04688699999991
 30
0.0
 40
0.206731
 50
273.84589099999988
 51
355.5347109999999
  0
LINE
  5
263
  8
0
 62
     7
 10
156.346
 20
224.51699999999991
 30
0.0
 11
156.346
 21
218.03999999999999
 31
0.0
  0
ARC
  5
264
  8
0
 62
     7
 10
156.1329629999999
 20
224.50875599999989
 30
0.0
 40
0.213518
 50
2.2820990000000001
 51
82.650773999999998
  0
ARC
  5
265
  8
0
 62
     7
 10
155.98227700000001
 20
225.833474
 30
0.0
 40
1.1586629999999991
 50
240.20184399999991
 51
253.8527379999999
  0
ARC
  5
266
  8
0
 62
     7
 10
155.97970199999989
 20
225.80256800000001
 30
0.0
 40
1.131097999999999
 50
199.55302
 51
241.55453
  0
LINE
  5
267
  8
0
 62
     7
 10
154.762
 20
226.03800000000001
 30
0.0
 11
154.916
 21
225.42500000000001
 31
0.0
  0
ARC
  5
268
  8
0
  6
AIGENLINE002
 62
     7
 10
144.78036333461631
 20
223.8524703088203
 30
0.0
 40
10.17257609570817
 50
21.355549898469668
 51
35.214336482694627
  0
ARC
  5
26A
  8
0
 62
     7
 10
-316.94171199999988
 20
245.50692599999991
 30
0.0
 40
471.53777400000001
 50
357.82107400000001
 51
359.91176300000001
  0
LINE
  5
26B
  8
0
 62
     7
 10
149.37700000000001
 20
197.31099999999989
 30
0.0
 11
149.37700000000001
 21
244.779
 31
0.0
  0
ARC
  5
26C
  8
0
 62
     7
 10
148.86769200000001
 20
197.389205
 30
0.0
 40
0.5150930000000001
 50
277.45077300000003
 51
351.28607499999993
  0
ARC
  5
26D
  8
0
 62
     7
 10
124.831973
 20
464.12915500000003
 30
0.0
 40
268.334858
 50
273.44190800000001
 51
275.15384899999998
  0
ARC
  5
26E
  8
0
 62
     7
 10
140.97801299999989
 20
196.90090399999991
 30
0.0
 40
0.623674
 50
189.19069200000001
 51
266.60920599999997
  0
ARC
  5
26F
  8
0
 62
     7
 10
209.69738499999991
 20
199.47504499999991
 30
0.0
 40
69.386548000000005
 50
178.04266299999989
 51
182.20784399999999
  0
LINE
  5
270
  8
0
 62
     7
 10
140.346
 20
244.77999999999989
 30
0.0
 11
140.35099999999991
 21
201.845
 31
0.0
  0
LINE
  5
271
  8
0
 62
     7
 10
154.596
 20
244.779
 30
0.0
 11
140.346
 21
244.77999999999989
 31
0.0
  0
LINE
  5
272
  8
0
 62
     7
 10
67.656899999999993
 20
168.94200000000001
 30
0.0
 11
88.657000000000025
 21
168.94200000000001
 31
0.0
  0
ARC
  5
273
  8
0
 62
     7
 10
67.657021999999984
 20
163.94219200000001
 30
0.0
 40
5.000157999999999
 50
90.000986999999981
 51
180.0009969999999
  0
ARC
  5
274
  8
0
 62
     7
 10
98.826527000000013
 20
170.8616899999999
 30
0.0
 40
0.8311159999999999
 50
2.109726999999999
 51
87.890263000000004
  0
ARC
  5
275
  8
0
 62
     7
 10
88.657076999999987
 20
163.9420189999999
 30
0.0
 40
4.9999859999999989
 50
0.000997
 51
90.000967000000017
  0
LINE
  5
276
  8
0
 62
     7
 10
51.156700000000001
 20
171.69200000000001
 30
0.0
 11
98.857100000000017
 21
171.69200000000001
 31
0.0
  0
LINE
  5
277
  8
0
 62
     7
 10
88.657000000000025
 20
54.441499999999998
 30
0.0
 11
67.656899999999993
 21
54.441499999999998
 31
0.0
  0
ARC
  5
278
  8
0
 62
     7
 10
67.656847999999997
 20
59.441450000000003
 30
0.0
 40
4.9999839999999987
 50
180.0009969999999
 51
270.0010069999999
  0
ARC
  5
279
  8
0
 62
     7
 10
98.826527000000013
 20
52.521780999999997
 30
0.0
 40
0.8311159999999999
 50
272.10973699999988
 51
357.89027299999992
  0
ARC
  5
27A
  8
0
 62
     7
 10
88.656905000000009
 20
59.441279000000002
 30
0.0
 40
5.000157999999999
 50
270.0010069999999
 51
0.000977
  0
LINE
  5
27B
  8
0
 62
     7
 10
98.857100000000017
 20
51.691200000000002
 30
0.0
 11
51.156700000000001
 21
51.691200000000002
 31
0.0
  0
LINE
  5
27C
  8
0
 62
     7
 10
99.657100000000014
 20
170.89199999999991
 30
0.0
 11
99.657100000000014
 21
52.491199999999999
 31
0.0
  0
LINE
  5
27D
  8
0
 62
     7
 10
93.657099999999986
 20
163.94200000000001
 30
0.0
 11
93.657099999999986
 21
59.441400000000002
 31
0.0
  0
LINE
  5
27E
  8
0
 62
     7
 10
62.6569
 20
59.441400000000002
 30
0.0
 11
62.6569
 21
163.94200000000001
 31
0.0
  0
LINE
  5
27F
  8
0
 62
     7
 10
51.156700000000001
 20
51.691200000000002
 30
0.0
 11
51.156700000000001
 21
171.69200000000001
 31
0.0
  0
LINE
  5
280
  8
0
  6
AIGENLINE001
 62
     7
 10
148.67799999999991
 20
69.691299999999984
 30
0.0
 11
143.15600000000001
 21
69.691299999999984
 31
0.0
  0
LINE
  5
281
  8
0
  6
AIGENLINE001
 62
     7
 10
138.43399999999991
 20
111.69199999999999
 30
0.0
 11
159.01300000000001
 21
111.69199999999999
 31
0.0
  0
LINE
  5
282
  8
0
  6
AIGENLINE001
 62
     7
 10
145.846
 20
66.860799999999998
 30
0.0
 11
145.846
 21
72.885900000000007
 31
0.0
  0
LINE
  5
284
  8
0
  6
AIGENLINE001
 62
     7
 10
146.68600000000001
 20
221.27699999999999
 30
0.0
 11
158.80500000000001
 21
221.27699999999999
 31
0.0
  0
LINE
  5
285
  8
0
  6
AIGENLINE001
 62
     7
 10
137.92699999999999
 20
238.51300000000001
 30
0.0
 11
143.202
 21
238.51300000000001
 31
0.0
  0
ARC
  5
286
  8
0
  6
AIGENLINE002
 62
     7
 10
146.71961200000001
 20
210.1420169999999
 30
0.0
 40
2.7424810000000002
 50
328.63719400000002
 51
335.21160900000001
  0
ARC
  5
287
  8
0
  6
AIGENLINE002
 62
     7
 10
141.31902400000001
 20
213.34223299999999
 30
0.0
 40
9.0198910000000012
 50
324.50519400000002
 51
329.13353699999999
  0
ARC
  5
288
  8
0
  6
AIGENLINE002
 62
     7
 10
134.80121
 20
217.87796900000001
 30
0.0
 40
16.960314999999991
 50
316.924172
 51
324.81457899999992
  0
LINE
  5
289
  8
0
  6
AIGENLINE002
 62
     7
 10
147.18999999999991
 20
206.2949999999999
 30
0.0
 11
146.92799999999991
 21
206.0559999999999
 31
0.0
  0
ARC
  5
28A
  8
0
  6
AIGENLINE002
 62
     7
 10
135.87715299999999
 20
218.81633199999999
 30
0.0
 40
16.880223000000001
 50
305.3335249999999
 51
310.89428599999991
  0
ARC
  5
28B
  8
0
  6
AIGENLINE002
 62
     7
 10
134.981382
 20
220.40954099999999
 30
0.0
 40
18.698989999999998
 50
302.24333799999988
 51
304.74937499999999
  0
ARC
  5
28C
  8
0
  6
AIGENLINE002
 62
     7
 10
128.6320959999999
 20
229.92421200000001
 30
0.0
 40
30.135283000000001
 50
298.20724799999988
 51
302.80219499999998
  0
ARC
  5
28D
  8
0
  6
AIGENLINE002
 62
     7
 10
118.56066800000001
 20
248.820899
 30
0.0
 40
51.548283000000012
 50
295.46976799999999
 51
298.14459699999998
  0
ARC
  5
28E
  8
0
  6
AIGENLINE002
 62
     7
 10
140.55181899999999
 20
213.31694999999999
 30
0.0
 40
9.6776769999999992
 50
333.45627100000002
 51
341.465755
  0
ARC
  5
28F
  8
0
  6
AIGENLINE002
 62
     7
 10
133.52040500000001
 20
215.658399
 30
0.0
 40
17.087471000000001
 50
344.45087999999993
 51
351.48068000000001
  0
ARC
  5
290
  8
0
  6
AIGENLINE002
 62
     7
 10
102.701042
 20
220.2831819999999
 30
0.0
 40
48.251900999999997
 50
351.47108199999991
 51
356.13289199999991
  0
LINE
  5
291
  8
0
  6
AIGENLINE002
 62
     7
 10
151.221
 20
217.89400000000001
 30
0.0
 11
152.0629999999999
 21
218.82900000000001
 31
0.0
  0
LINE
  5
292
  8
0
  6
AIGENLINE002
 62
     7
 10
156.346
 20
218.929
 30
0.0
 11
152.285
 21
218.929
 31
0.0
  0
LINE
  5
293
  8
0
  6
AIGENLINE002
 62
     7
 10
150.89500000000001
 20
225.15899999999999
 30
0.0
 11
150.89500000000001
 21
217.59299999999999
 31
0.0
  0
LINE
  5
294
  8
0
  6
AIGENLINE002
 62
     7
 10
152.285
 20
218.929
 30
0.0
 11
155.846
 21
218.929
 31
0.0
  0
LINE
  5
295
  8
0
  6
AIGENLINE002
 62
     7
 10
152.285
 20
223.62899999999999
 30
0.0
 11
152.285
 21
218.929
 31
0.0
  0
LINE
  5
296
  8
0
  6
AIGENLINE002
 62
     7
 10
156.346
 20
223.62899999999999
 30
0.0
 11
152.285
 21
223.62899999999999
 31
0.0
  0
LINE
  5
297
  8
0
  6
AIGENLINE002
 62
     7
 10
151.221
 20
224.66399999999999
 30
0.0
 11
152.0629999999999
 21
223.72799999999989
 31
0.0
  0
ARC
  5
298
  8
0
  6
AIGENLINE002
 62
     7
 10
152.721418
 20
226.00297499999999
 30
0.0
 40
2.0123129999999998
 50
206.30573299999989
 51
222.8517839999999
  0
ARC
  5
299
  8
0
  6
AIGENLINE002
 62
     7
 10
156.55052099999989
 20
227.292374
 30
0.0
 40
6.0422019999999987
 50
188.20900399999991
 51
200.91603699999999
  0
ARC
  5
29A
  8
0
  6
AIGENLINE002
 62
     7
 10
128.144373
 20
197.699736
 30
0.0
 40
37.622109999999999
 50
57.387163000000001
 51
69.999665000000007
  0
LINE
  5
29B
  8
0
  6
AIGENLINE002
 62
     7
 10
148.42099999999999
 20
229.3899999999999
 30
0.0
 11
148.42099999999999
 21
229.3899999999999
 31
0.0
  0
ARC
  5
29C
  8
0
  6
AIGENLINE002
 62
     7
 10
145.95447200000001
 20
225.3395569999999
 30
0.0
 40
4.7421649999999991
 50
12.550660000000001
 51
58.656905999999999
  0
LINE
  5
29D
  8
0
  6
AIGENLINE002
 62
     7
 10
140.346
 20
244.77999999999989
 30
0.0
 11
140.613
 21
233.59399999999999
 31
0.0
  0
LINE
  5
29E
  8
0
  6
AIGENLINE001
 62
     7
 10
60.656999999999989
 20
139.69200000000001
 30
0.0
 11
53.656799999999997
 21
139.69200000000001
 31
0.0
  0
LINE
  5
29F
  8
0
  6
AIGENLINE002
 62
     7
 10
146.947
 20
70.191500000000005
 30
0.0
 11
146.947
 21
69.191400000000002
 31
0.0
  0
LINE
  5
2A0
  8
0
  6
AIGENLINE002
 62
     7
 10
144.74700000000001
 20
70.191500000000005
 30
0.0
 11
144.74700000000001
 21
69.191400000000002
 31
0.0
  0
ARC
  5
2A1
  8
0
 62
     7
 10
57.15690699999999
 20
139.69192599999991
 30
0.0
 40
1.7501199999999999
 50
90.0
 51
179.99996999999991
  0
ARC
  5
2A2
  8
0
 62
     7
 10
57.224129000000012
 20
139.75914800000001
 30
0.0
 40
1.818584999999999
 50
182.11838299999999
 51
267.88164599999988
  0
ARC
  5
2A3
  8
0
 62
     7
 10
57.090071999999999
 20
139.75858199999999
 30
0.0
 40
1.818004999999999
 50
272.10684700000002
 51
357.89880199999999
  0
ARC
  5
2A4
  8
0
 62
     7
 10
57.156820999999987
 20
139.69201200000001
 30
0.0
 40
1.7500340000000001
 50
359.99718999999988
 51
89.997159999999994
  0
TEXT
  5
2A5
  8
_________2
 62
     7
 10
90.092336166666669
 20
13.218199999999991
 30
0.0
 40
3.6545800000000002
  1
1 ： 10
 41
0.5
 72
     1
 11
93.960099999999997
 21
13.218199999999991
 31
0.0
  0
LINE
  5
2A6
  8
_________2
 62
     7
 10
205.30099999999999
 20
127.41200000000001
 30
0.0
 11
183.55000000000001
 21
127.41200000000001
 31
0.0
  0
LINE
  5
2A7
  8
_________2
 62
     7
 10
100.2999999999999
 20
-4.0903900000000002
 30
0.0
 11
100.2999999999999
 21
-21.070699999999992
 31
0.0
  0
LINE
  5
2A8
  8
_________2
 62
     7
 10
100.2999999999999
 20
275.93099999999993
 30
0.0
 11
100.2999999999999
 21
258.911
 31
0.0
  0
LINE
  5
2A9
  8
_________2
 62
     7
 10
17.049499999999998
 20
127.41200000000001
 30
0.0
 11
-4.70052
 21
127.41200000000001
 31
0.0
  0
LINE
  5
2AA
  8
_________2
 62
     7
 10
76.741399999999999
 20
29.805099999999999
 30
0.0
 11
74.554699999999997
 21
29.805099999999999
 31
0.0
  0
LINE
  5
2AB
  8
_________2
 62
     7
 10
77.233999999999995
 20
29.805099999999999
 30
0.0
 11
76.981800000000007
 21
29.805099999999999
 31
0.0
  0
LINE
  5
2AC
  8
_________2
 62
     7
 10
77.726299999999995
 20
29.805099999999999
 30
0.0
 11
80.651600000000002
 21
29.805099999999999
 31
0.0
  0
LINE
  5
2AD
  8
_________2
 62
     7
 10
77.233999999999995
 20
29.805099999999999
 30
0.0
 11
77.485900000000001
 21
29.805099999999999
 31
0.0
  0
LINE
  5
2AE
  8
_________2
 62
     7
 10
70.837500000000006
 20
29.805099999999999
 30
0.0
 11
68.650499999999994
 21
29.805099999999999
 31
0.0
  0
LINE
  5
2AF
  8
_________2
 62
     7
 10
71.329800000000006
 20
29.805099999999999
 30
0.0
 11
71.0779
 21
29.805099999999999
 31
0.0
  0
LINE
  5
2B0
  8
_________2
 62
     7
 10
71.329800000000006
 20
30.2974
 30
0.0
 11
71.329800000000006
 21
32.484400000000001
 31
0.0
  0
LINE
  5
2B1
  8
_________2
 62
     7
 10
71.329800000000006
 20
29.805099999999999
 30
0.0
 11
71.329800000000006
 21
30.057600000000001
 31
0.0
  0
LINE
  5
2B2
  8
_________2
 62
     7
 10
71.822400000000002
 20
29.805099999999999
 30
0.0
 11
74.009
 21
29.805099999999999
 31
0.0
  0
LINE
  5
2B3
  8
_________2
 62
     7
 10
71.329800000000006
 20
29.805099999999999
 30
0.0
 11
71.581999999999994
 21
29.805099999999999
 31
0.0
  0
LINE
  5
2B4
  8
_________2
 62
     7
 10
71.329800000000006
 20
29.312799999999999
 30
0.0
 11
71.329800000000006
 21
27.126200000000001
 31
0.0
  0
LINE
  5
2B5
  8
_________2
 62
     7
 10
71.329800000000006
 20
29.805099999999999
 30
0.0
 11
71.329800000000006
 21
29.5532
 31
0.0
  0
LINE
  5
2B6
  8
_________2
 62
     7
 10
75.040899999999993
 20
28.585899999999992
 30
0.0
 11
80.218500000000006
 21
27.720400000000001
 31
0.0
  0
LINE
  5
2B7
  8
_________2
 62
     7
 10
75.040899999999993
 20
31.024699999999999
 30
0.0
 11
80.218500000000006
 21
31.8901
 31
0.0
  0
LINE
  5
2B8
  8
_________2
 62
     7
 10
80.218500000000006
 20
27.720400000000001
 30
0.0
 11
80.218500000000006
 21
31.8901
 31
0.0
  0
LINE
  5
2B9
  8
_________2
 62
     7
 10
75.040899999999993
 20
28.585899999999992
 30
0.0
 11
75.040899999999993
 21
31.024699999999999
 31
0.0
  0
ARC
  5
2BA
  8
_________2
 62
     7
 10
71.283201000000005
 20
29.758156
 30
0.0
 40
1.2673589999999999
 50
2.122214
 51
87.893958999999995
  0
ARC
  5
2BB
  8
_________2
 62
     7
 10
71.376300000000001
 20
29.758562000000001
 30
0.0
 40
1.2669509999999991
 50
92.104485999999994
 51
177.89548500000001
  0
ARC
  5
2BC
  8
_________2
 62
     7
 10
71.376343999999989
 20
29.852014
 30
0.0
 40
1.2670099999999991
 50
182.1225849999999
 51
267.89363300000002
  0
ARC
  5
2BD
  8
_________2
 62
     7
 10
71.282900999999995
 20
29.852677
 30
0.0
 40
1.267684
 50
272.11907200000002
 51
357.848567
  0
ARC
  5
2BE
  8
_________2
 62
     7
 10
71.249426999999997
 20
29.725096999999991
 30
0.0
 40
2.1664659999999989
 50
2.1159629999999998
 51
87.874558999999991
  0
ARC
  5
2BF
  8
_________2
 62
     7
 10
71.409410999999992
 20
29.725809000000002
 30
0.0
 40
2.1657280000000001
 50
92.107296999999988
 51
177.902142
  0
ARC
  5
2C0
  8
_________2
 62
     7
 10
71.409789000000004
 20
29.885100999999999
 30
0.0
 40
2.1661329999999999
 50
182.116929
 51
267.88310000000001
  0
ARC
  5
2C1
  8
_________2
 62
     7
 10
71.249769999999998
 20
29.88509199999999
 30
0.0
 40
2.1661229999999989
 50
272.11667999999992
 51
357.88332999999989
  0
TEXT
  5
2C2
  8
_________2
 62
     7
 10
104.605
 20
1.6794899999999999
 30
0.0
 40
3.0923400000000001
  1
図番
 41
0.5
  0
LINE
  5
2C3
  8
_________2
 62
     7
 10
103.55
 20
5.9087199999999989
 30
0.0
 11
183.55099999999999
 21
5.9087199999999989
 31
0.0
  0
TEXT
  5
2C4
  8
_________2
 62
     7
 10
104.605
 20
11.679600000000001
 30
0.0
 40
3.0923400000000001
  1
品番
 41
0.5
  0
TEXT
  5
2C5
  8
_________2
 62
     7
 10
104.605
 20
31.8184
 30
0.0
 40
3.0923400000000001
  1
名称
 41
0.5
  0
TEXT
  5
2C6
  8
_________2
 62
     7
 10
91.84545833333334
 20
26.822299999999998
 30
0.0
 40
3.6545800000000002
  1
mm
 41
0.5
 72
     1
 11
93.368200000000016
 21
26.822299999999998
 31
0.0
  0
TEXT
  5
2C7
  8
_________2
 62
     7
 10
85.643199999999993
 20
31.8184
 30
0.0
 40
3.0923400000000001
  1
単位
 41
0.5
  0
TEXT
  5
2C8
  8
_________2
 62
     7
 10
85.643199999999993
 20
19.411200000000001
 30
0.0
 40
3.0923400000000001
  1
尺度
 41
0.5
  0
TEXT
  5
2C9
  8
_________2
 62
     7
 10
136.66252499999999
 20
9.1082000000000001
 30
0.0
 40
3.9357000000000002
  1
KE124020
 41
0.5
 72
     1
 11
143.55000000000001
 21
9.1082000000000001
 31
0.0
  0
TEXT
  5
2CA
  8
_________2
 62
     7
 10
136.66252499999999
 20
-0.8919409999999999
 30
0.0
 40
3.9357000000000002
  1
KE124020
 41
0.5
 72
     1
 11
143.55000000000001
 21
-0.8919409999999999
 31
0.0
  0
TEXT
  5
2CB
  8
_________2
 62
     7
 10
24.587099999999989
 20
0.707627
 30
0.0
 40
3.9357000000000002
  1
実容量：10.0L、重量：35.0kg、オーバーフロー付
 41
0.5
  0
TEXT
  5
2CC
  8
_________2
 62
     7
 10
109.179
 20
24.226400000000002
 30
0.0
 40
3.9357000000000002
  1
洗面器
 41
0.5
  0
TEXT
  5
2CD
  8
_________2
 62
     7
 10
39.303480999999991
 20
13.603400000000001
 30
0.0
 40
3.6545800000000002
  1
田尻
 41
0.5
 72
     1
 11
41.313499999999998
 21
13.603400000000001
 31
0.0
  0
TEXT
  5
2CE
  8
_________2
 62
     7
 10
20.79039066666666
 20
13.603400000000001
 30
0.0
 40
3.6545800000000002
  1
石原
 41
0.5
 72
     1
 11
22.7395
 21
13.603400000000001
 31
0.0
  0
TEXT
  5
2CF
  8
_________2
 62
     7
 10
67.785799999999995
 20
13.218199999999991
 30
0.0
 40
3.6545800000000002
  1
10.06.24
 41
0.5
  0
TEXT
  5
2D0
  8
_________2
 62
     7
 10
66.593100000000007
 20
19.411200000000001
 30
0.0
 40
3.0923400000000001
  1
日付
 41
0.5
  0
TEXT
  5
2D1
  8
_________2
 62
     7
 10
29.639399999999998
 20
19.411200000000001
 30
0.0
 40
3.0923400000000001
  1
検図
 41
0.5
  0
TEXT
  5
2D2
  8
_________2
 62
     7
 10
18.021399999999989
 20
5.2117699999999987
 30
0.0
 40
3.0923400000000001
  1
備考
 41
0.5
  0
TEXT
  5
2D3
  8
_________2
 62
     7
 10
18.021399999999989
 20
19.411200000000001
 30
0.0
 40
3.0923400000000001
  1
製図
 41
0.5
  0
TEXT
  5
2D4
  8
_________2
 62
     7
 10
23.78886533333333
 20
27.936800000000002
 30
0.0
 40
4.4979399999999989
  1
セラトレーディング株式会社
 41
0.5
 72
     1
 11
41.180900000000001
 21
27.936800000000002
 31
0.0
  0
LINE
  5
2D5
  8
_________2
 62
     7
 10
183.55099999999999
 20
-4.0910799999999998
 30
0.0
 11
17.049499999999998
 21
-4.0910799999999998
 31
0.0
  0
LINE
  5
2D6
  8
_________2
 62
     7
 10
17.049499999999998
 20
-4.0910799999999998
 30
0.0
 11
17.049499999999998
 21
258.911
 31
0.0
  0
LINE
  5
2D7
  8
_________2
 62
     7
 10
17.049499999999998
 20
258.911
 30
0.0
 11
183.55099999999999
 21
258.911
 31
0.0
  0
LINE
  5
2D8
  8
_________2
 62
     7
 10
183.55099999999999
 20
258.911
 30
0.0
 11
183.55099999999999
 21
-4.0910799999999998
 31
0.0
  0
LINE
  5
2D9
  8
_________2
 62
     7
 10
65.549899999999994
 20
9.4096499999999992
 30
0.0
 11
65.549899999999994
 21
35.909500000000001
 31
0.0
  0
LINE
  5
2DA
  8
_________2
 62
     7
 10
84.550099999999986
 20
9.4096499999999992
 30
0.0
 11
84.550099999999986
 21
35.909500000000001
 31
0.0
  0
LINE
  5
2DB
  8
_________2
 62
     7
 10
103.55
 20
-4.0910799999999998
 30
0.0
 11
103.55
 21
35.909500000000001
 31
0.0
  0
LINE
  5
2DC
  8
_________2
 62
     7
 10
28.549700000000001
 20
9.4096499999999992
 30
0.0
 11
28.549700000000001
 21
23.409199999999998
 31
0.0
  0
LINE
  5
2DD
  8
_________2
 62
     7
 10
17.049499999999998
 20
9.4096499999999992
 30
0.0
 11
103.55
 21
9.4096499999999992
 31
0.0
  0
LINE
  5
2DE
  8
_________2
 62
     7
 10
17.049499999999998
 20
23.409199999999998
 30
0.0
 11
103.55
 21
23.409199999999998
 31
0.0
  0
LINE
  5
2DF
  8
_________2
 62
     7
 10
103.55
 20
15.9092
 30
0.0
 11
183.55099999999999
 21
15.9092
 31
0.0
  0
LINE
  5
2E0
  8
_________2
 62
     7
 10
17.049499999999998
 20
35.909500000000001
 30
0.0
 11
183.55099999999999
 21
35.909500000000001
 31
0.0
  0
LINE
  5
2F7
  8
0
  6
AIGENLINE002
 62
     7
 10
153.58119976494709
 20
217.74799999999999
 30
0.0
 11
153.00592611646709
 21
217.7496703556931
 31
0.0
  0
ARC
  5
2FA
  8
0
 62
     7
 10
142.27998594218229
 20
222.71138020211421
 30
0.0
 40
12.91770390662526
 50
14.923200305807701
 51
22.030719990841419
  0
TEXT
  5
31B
  8
0
 62
     7
 10
174.11116438722451
 20
96.701941506090407
 30
0.0
 40
3.9357000000000002
  1
※排水栓を閉めた状態で、水栓２台あわせて毎分10L以上吐水させないでください。
 50
90.0
 41
0.5
  0
TEXT
  5
31C
  8
0
 62
     7
 10
166.1146309245791
 20
96.527381966255703
 30
0.0
 40
3.9357000000000002
  1
※壁取付部には厚さ30mm以上の補強材を入れてください。
 50
90.0
 41
0.5
  0
ENDSEC
  0
EOF
