  0
SECTION
  2
HEADER
  9
$ACADVER
  1
AC1009
  9
$INSBASE
 10
0.0
 20
0.0
 30
0.0
  9
$EXTMIN
 10
-4.70052
 20
-21.070699999999992
 30
0.0
  9
$EXTMAX
 10
205.30099999999999
 20
275.93099999999993
 30
0.0
  9
$LIMMIN
 10
0.0
 20
0.0
  9
$LIMMAX
 10
12.0
 20
9.0
  9
$ORTHOMODE
 70
     0
  9
$REGENMODE
 70
     1
  9
$FILLMODE
 70
     1
  9
$QTEXTMODE
 70
     0
  9
$MIRRTEXT
 70
     1
  9
$DRAGMODE
 70
     2
  9
$LTSCALE
 40
1.0
  9
$OSMODE
 70
    37
  9
$ATTMODE
 70
     1
  9
$TEXTSIZE
 40
0.0
  9
$TRACEWID
 40
0.05
  9
$TEXTSTYLE
  7
STANDARD
  9
$CLAYER
  8
0
  9
$CELTYPE
  6
CONTINUOUS
  9
$CECOLOR
 62
   256
  9
$DIMSCALE
 40
1.0
  9
$DIMASZ
 40
0.18
  9
$DIMEXO
 40
0.0625
  9
$DIMDLI
 40
0.38
  9
$DIMRND
 40
0.0
  9
$DIMDLE
 40
0.0
  9
$DIMEXE
 40
0.18
  9
$DIMTP
 40
0.0
  9
$DIMTM
 40
0.0
  9
$DIMTXT
 40
0.18
  9
$DIMCEN
 40
0.09
  9
$DIMTSZ
 40
0.0
  9
$DIMTOL
 70
     0
  9
$DIMLIM
 70
     0
  9
$DIMTIH
 70
     1
  9
$DIMTOH
 70
     1
  9
$DIMSE1
 70
     0
  9
$DIMSE2
 70
     0
  9
$DIMTAD
 70
     0
  9
$DIMZIN
 70
     0
  9
$DIMBLK
  1

  9
$DIMASO
 70
     1
  9
$DIMSHO
 70
     1
  9
$DIMPOST
  1

  9
$DIMAPOST
  1

  9
$DIMALT
 70
     0
  9
$DIMALTD
 70
     2
  9
$DIMALTF
 40
25.399999999999999
  9
$DIMLFAC
 40
1.0
  9
$DIMTOFL
 70
     0
  9
$DIMTVP
 40
0.0
  9
$DIMTIX
 70
     0
  9
$DIMSOXD
 70
     0
  9
$DIMSAH
 70
     0
  9
$DIMBLK1
  1

  9
$DIMBLK2
  1

  9
$DIMSTYLE
  2
STANDARD
  9
$DIMCLRD
 70
     0
  9
$DIMCLRE
 70
     0
  9
$DIMCLRT
 70
     0
  9
$DIMTFAC
 40
1.0
  9
$DIMGAP
 40
0.09
  9
$LUNITS
 70
     2
  9
$LUPREC
 70
     4
  9
$SKETCHINC
 40
0.1
  9
$FILLETRAD
 40
0.0
  9
$AUNITS
 70
     0
  9
$AUPREC
 70
     0
  9
$MENU
  1
.
  9
$ELEVATION
 40
0.0
  9
$PELEVATION
 40
0.0
  9
$THICKNESS
 40
0.0
  9
$LIMCHECK
 70
     0
  9
$BLIPMODE
 70
     0
  9
$CHAMFERA
 40
0.0
  9
$CHAMFERB
 40
0.0
  9
$SKPOLY
 70
     0
  9
$TDCREATE
 40
2444972.375
  9
$TDUPDATE
 40
2455387.3917659489
  9
$TDINDWG
 40
0.006667037
  9
$TDUSRTIMER
 40
0.006667037
  9
$USRTIMER
 70
     1
  9
$ANGBASE
 50
0.0
  9
$ANGDIR
 70
     0
  9
$PDMODE
 70
     0
  9
$PDSIZE
 40
0.0
  9
$PLINEWID
 40
0.0
  9
$COORDS
 70
     1
  9
$SPLFRAME
 70
     0
  9
$SPLINETYPE
 70
     6
  9
$SPLINESEGS
 70
     8
  9
$ATTDIA
 70
     0
  9
$ATTREQ
 70
     1
  9
$HANDLING
 70
     1
  9
$HANDSEED
  5
4FB
  9
$SURFTAB1
 70
     6
  9
$SURFTAB2
 70
     6
  9
$SURFTYPE
 70
     6
  9
$SURFU
 70
     6
  9
$SURFV
 70
     6
  9
$UCSNAME
  2

  9
$UCSORG
 10
0.0
 20
0.0
 30
0.0
  9
$UCSXDIR
 10
1.0
 20
0.0
 30
0.0
  9
$UCSYDIR
 10
0.0
 20
1.0
 30
0.0
  9
$PUCSNAME
  2

  9
$PUCSORG
 10
0.0
 20
0.0
 30
0.0
  9
$PUCSXDIR
 10
1.0
 20
0.0
 30
0.0
  9
$PUCSYDIR
 10
0.0
 20
1.0
 30
0.0
  9
$USERI1
 70
     0
  9
$USERI2
 70
     0
  9
$USERI3
 70
     0
  9
$USERI4
 70
     0
  9
$USERI5
 70
     0
  9
$USERR1
 40
0.0
  9
$USERR2
 40
0.0
  9
$USERR3
 40
0.0
  9
$USERR4
 40
0.0
  9
$USERR5
 40
0.0
  9
$WORLDVIEW
 70
     1
  9
$SHADEDGE
 70
     3
  9
$SHADEDIF
 70
    70
  9
$TILEMODE
 70
     1
  9
$MAXACTVP
 70
    48
  9
$PLIMCHECK
 70
     0
  9
$PEXTMIN
 10
1.0000000000000000E+020
 20
1.0000000000000000E+020
 30
1.0000000000000000E+020
  9
$PEXTMAX
 10
-1.0000000000000000E+020
 20
-1.0000000000000000E+020
 30
-1.0000000000000000E+020
  9
$PLIMMIN
 10
0.0
 20
0.0
  9
$PLIMMAX
 10
12.0
 20
9.0
  9
$UNITMODE
 70
     0
  9
$VISRETAIN
 70
     1
  9
$PLINEGEN
 70
     0
  9
$PSLTSCALE
 70
     1
  0
ENDSEC
  0
SECTION
  2
TABLES
  0
TABLE
  2
VPORT
 70
     2
  0
VPORT
  2
*ACTIVE
 70
     0
 10
0.0
 20
0.0
 11
1.0
 21
1.0
 12
162.94986861225141
 22
127.430150691511
 13
0.0
 23
0.0
 14
1.0
 24
1.0
 15
0.0
 25
0.0
 16
0.0
 26
0.0
 36
1.0
 17
0.0
 27
0.0
 37
0.0
 40
298.798389386775
 41
2.2894736842105261
 42
50.0
 43
0.0
 44
0.0
 50
0.0
 51
0.0
 71
     0
 72
   100
 73
     1
 74
     1
 75
     0
 76
     0
 77
     0
 78
     0
  0
ENDTAB
  0
TABLE
  2
LTYPE
 70
     4
  0
LTYPE
  2
CONTINUOUS
 70
     0
  3
Solid line
 72
    65
 73
     0
 40
0.0
  0
LTYPE
  2
AIGENLINE001
 70
     0
  3
generate AI->DXF Converter
 72
    65
 73
     4
 40
5.8561449999999988
 49
3.5278
 49
-0.776115
 49
0.776115
 49
-0.776115
  0
LTYPE
  2
AIGENLINE002
 70
     0
  3
generate AI->DXF Converter
 72
    65
 73
     2
 40
1.5522299999999991
 49
0.776115
 49
-0.776115
  0
LTYPE
  2
AIGENLINE003
 70
     0
  3
generate AI->DXF Converter
 72
    65
 73
     6
 40
7.4083750000000004
 49
3.5278
 49
-0.776115
 49
0.776115
 49
-0.776115
 49
0.776115
 49
-0.776115
  0
ENDTAB
  0
TABLE
  2
LAYER
 70
     3
  0
LAYER
  2
0
 70
     0
 62
     7
  6
CONTINUOUS
  0
LAYER
  2
_________2
 70
     0
 62
     7
  6
CONTINUOUS
  0
ENDTAB
  0
TABLE
  2
STYLE
 70
     1
  0
STYLE
  2
STANDARD
 70
     0
 40
0.0
 41
0.0
 50
0.0
 71
     0
 42
0.0
  3
TXT
  4
EXTFONT.SHX
  0
ENDTAB
  0
TABLE
  2
VIEW
 70
     0
  0
ENDTAB
  0
TABLE
  2
UCS
 70
     0
  0
ENDTAB
  0
TABLE
  2
APPID
 70
     1
  0
APPID
  2
ACAD
 70
     0
  0
ENDTAB
  0
TABLE
  2
DIMSTYLE
 70
     1
  0
DIMSTYLE
  2
STANDARD
 70
     0
  3

  4

  5

  6

  7

 40
1.0
 41
0.18
 42
0.0625
 43
0.38
 44
0.18
 45
0.0
 46
0.0
 47
0.0
 48
0.0
140
0.18
141
0.09
142
0.0
143
25.399999999999999
144
1.0
145
0.0
146
1.0
147
0.09
 71
     0
 72
     0
 73
     1
 74
     1
 75
     0
 76
     0
 77
     0
 78
     0
170
     0
171
     2
172
     0
173
     0
174
     0
175
     0
176
     0
177
     0
178
     0
  0
ENDTAB
  0
ENDSEC
  0
SECTION
  2
BLOCKS
  0
BLOCK
  8
0
  2
$MODEL_SPACE
 70
     0
 10
0.0
 20
0.0
 30
0.0
  3
$MODEL_SPACE
  1

  0
ENDBLK
  5
1A
  8
0
  0
BLOCK
 67
     1
  8
0
  2
$PAPER_SPACE
 70
     0
 10
0.0
 20
0.0
 30
0.0
  3
$PAPER_SPACE
  1

  0
ENDBLK
  5
17
 67
     1
  8
0
  0
ENDSEC
  0
SECTION
  2
ENTITIES
  0
TEXT
  5
24
  8
0
 62
     7
 10
129.93700000000001
 20
194.61099999999999
 30
0.0
 40
3.0923400000000001
  1
排水口位置
 41
0.5
  0
TEXT
  5
25
  8
0
 62
     7
 10
48.976172499999997
 20
166.154
 30
0.0
 40
3.0923400000000001
  1
50
 41
0.5
 72
     1
 11
50.13580000000001
 21
166.154
 31
0.0
  0
TEXT
  5
26
  8
0
 62
     7
 10
79.681624999999997
 20
165.89400000000001
 30
0.0
 40
3.0923400000000001
  1
95
 41
0.5
 72
     1
 11
80.970100000000002
 21
165.89400000000001
 31
0.0
  0
TEXT
  5
27
  8
0
 62
     7
 10
149.16798249999999
 20
96.838100000000011
 30
0.0
 40
3.0923400000000001
  1
140
 41
0.5
 72
     1
 11
150.8429999999999
 21
96.838100000000011
 31
0.0
  0
TEXT
  5
28
  8
0
 62
     7
 10
143.6262874999999
 20
218.0749999999999
 30
0.0
 40
3.0923400000000001
  1
340
 41
0.5
 72
     1
 11
145.55899999999991
 21
218.0749999999999
 31
0.0
  0
TEXT
  5
29
  8
0
 62
     7
 10
151.6689825
 20
211.81999999999991
 30
0.0
 40
3.0923400000000001
  1
190
 41
0.5
 72
     1
 11
153.34399999999991
 21
211.81999999999991
 31
0.0
  0
TEXT
  5
2A
  8
0
 62
     7
 10
134.66798249999999
 20
211.81999999999991
 30
0.0
 40
3.0923400000000001
  1
150
 41
0.5
 72
     1
 11
136.3429999999999
 21
211.81999999999991
 31
0.0
  0
TEXT
  5
2B
  8
0
 62
     7
 10
64.693087500000004
 20
216.17099999999991
 30
0.0
 40
3.0923400000000001
  1
380
 41
0.5
 72
     1
 11
66.625799999999998
 21
216.17099999999991
 31
0.0
  0
TEXT
  5
2C
  8
0
 62
     7
 10
53.166055
 20
209.11500000000001
 30
0.0
 40
3.0923400000000001
  1
167.5
 41
0.5
 72
     1
 11
56.000700000000002
 21
209.11500000000001
 31
0.0
  0
TEXT
  5
2D
  8
0
 62
     7
 10
81.688724999999991
 20
209.18499999999989
 30
0.0
 40
3.0923400000000001
  1
55
 41
0.5
 72
     1
 11
82.977199999999996
 21
209.18499999999989
 31
0.0
  0
TEXT
  5
2E
  8
0
 62
     7
 10
69.416055
 20
209.11500000000001
 30
0.0
 40
3.0923400000000001
  1
157.5
 41
0.5
 72
     1
 11
72.250699999999995
 21
209.11500000000001
 31
0.0
  0
TEXT
  5
2F
  8
0
 62
     7
 10
62.264340000000011
 20
165.89400000000001
 30
0.0
 40
3.0923400000000001
  1
235
 41
0.5
 72
     1
 11
64.325900000000004
 21
165.89400000000001
 31
0.0
  0
TEXT
  5
30
  8
0
 62
     7
 10
64.661387500000004
 20
126.81999999999989
 30
0.0
 40
3.0923400000000001
  1
280
 41
0.5
 72
     1
 11
66.594099999999997
 21
126.81999999999989
 31
0.0
  0
TEXT
  5
31
  8
0
 62
     7
 10
115.892
 20
109.2521349999999
 30
0.0
 40
3.0923400000000001
  1
135
 50
90.0
 41
0.5
 72
     1
 11
115.892
 21
111.0559999999999
 31
0.0
  0
TEXT
  5
32
  8
0
 62
     7
 10
121.801
 20
110.8809825
 30
0.0
 40
3.0923400000000001
  1
105
 50
90.0
 41
0.5
 72
     1
 11
121.801
 21
112.5559999999999
 31
0.0
  0
TEXT
  5
33
  8
0
 62
     7
 10
158.75445400000001
 20
206.0629999999999
 30
0.0
 40
3.0923400000000001
  1
壁
 41
0.5
 72
     1
 11
159.47599999999991
 21
206.0629999999999
 31
0.0
  0
TEXT
  5
34
  8
0
 62
     7
 10
92.913799999999995
 20
113.85952499999991
 30
0.0
 40
3.0923400000000001
  1
55
 50
90.0
 41
0.5
 72
     1
 11
92.913799999999995
 21
115.148
 31
0.0
  0
TEXT
  5
35
  8
0
 62
     7
 10
37.777799999999992
 20
168.48099999999991
 30
0.0
 40
3.0923400000000001
  1
30
 50
90.0
 41
0.5
  0
TEXT
  5
36
  8
0
 62
     7
 10
37.777799999999992
 20
185.9952874999999
 30
0.0
 40
3.0923400000000001
  1
220
 50
90.0
 41
0.5
 72
     1
 11
37.777799999999992
 21
187.92799999999991
 31
0.0
  0
TEXT
  5
37
  8
0
 62
     7
 10
37.777799999999992
 20
205.210745
 30
0.0
 40
3.0923400000000001
  1
30
 50
90.0
 41
0.5
 72
     2
 11
37.777799999999992
 21
207.52999999999989
 31
0.0
  0
TEXT
  5
38
  8
0
 62
     7
 10
152.435
 20
193.25598249999999
 30
0.0
 40
3.0923400000000001
  1
140
 50
90.0
 41
0.5
 72
     1
 11
152.435
 21
194.9309999999999
 31
0.0
  0
TEXT
  5
39
  8
0
 62
     7
 10
168.08799999999991
 20
187.49828749999989
 30
0.0
 40
3.0923400000000001
  1
250
 50
90.0
 41
0.5
 72
     1
 11
168.08799999999991
 21
189.4309999999999
 31
0.0
  0
TEXT
  5
3A
  8
0
 62
     7
 10
102.55500000000001
 20
185.99828749999989
 30
0.0
 40
3.0923400000000001
  1
280
 50
90.0
 41
0.5
 72
     1
 11
102.55500000000001
 21
187.9309999999999
 31
0.0
  0
TEXT
  5
3B
  8
0
 62
     7
 10
94.206000000000003
 20
193.25598249999999
 30
0.0
 40
3.0923400000000001
  1
140
 50
90.0
 41
0.5
 72
     1
 11
94.206000000000003
 21
194.9309999999999
 31
0.0
  0
TEXT
  5
3C
  8
0
 62
     7
 10
33.316499999999991
 20
109.2521349999999
 30
0.0
 40
3.0923400000000001
  1
135
 50
90.0
 41
0.5
 72
     1
 11
33.316499999999991
 21
111.0559999999999
 31
0.0
  0
TEXT
  5
3D
  8
0
 62
     7
 10
40.195700000000002
 20
112.1463724999999
 30
0.0
 40
3.0923400000000001
  1
90
 50
90.0
 41
0.5
 72
     1
 11
40.195700000000002
 21
113.3059999999999
 31
0.0
  0
TEXT
  5
3E
  8
0
 62
     7
 10
130.23500000000001
 20
160.61899999999989
 30
0.0
 40
3.0923400000000001
  1
※カウンターを設ける場合も
 41
0.5
  0
TEXT
  5
3F
  8
0
 62
     7
 10
130.23500000000001
 20
156.7529999999999
 30
0.0
 40
3.0923400000000001
  1
　洗面器の壁固定が必要です。
 41
0.5
  0
TEXT
  5
40
  8
0
 62
     7
 10
31.5015
 20
38.925699999999999
 30
0.0
 40
3.9357000000000002
  1
※壁取付部には厚さ30mm以上の補強材を入れてください。
 41
0.5
  0
TEXT
  5
41
  8
0
 62
     7
 10
130.23500000000001
 20
166.6159999999999
 30
0.0
 40
3.0923400000000001
  1
カウンター切込寸法
 41
0.5
  0
TEXT
  5
42
  8
0
 62
     7
 10
153.82699999999991
 20
181.136
 30
0.0
 40
3.0923400000000001
  1
R10
 41
0.5
  0
TEXT
  5
43
  8
0
 62
     7
 10
134.302965
 20
181.136
 30
0.0
 40
3.0923400000000001
  1
R10
 41
0.5
 72
     2
 11
137.65299999999999
 21
181.136
 31
0.0
  0
TEXT
  5
44
  8
0
 62
     7
 10
88.768479999999997
 20
181.12200000000001
 30
0.0
 40
3.0923400000000001
  1
%%c35
 41
0.5
 72
     2
 11
92.891599999999997
 21
181.12200000000001
 31
0.0
  0
TEXT
  5
45
  8
0
 62
     7
 10
55.189399999999999
 20
192.7299999999999
 30
0.0
 40
3.0923400000000001
  1
%%c46
 41
0.5
  0
LINE
  5
46
  8
0
 62
     7
 10
141.2289999999999
 20
191.6999999999999
 30
0.0
 11
142.58199999999991
 21
189.85400000000001
 31
0.0
  0
LINE
  5
47
  8
0
 62
     7
 10
142.58199999999991
 20
189.85400000000001
 30
0.0
 11
142.33299999999991
 21
192.13
 31
0.0
  0
LINE
  5
48
  8
0
 62
     7
 10
142.33299999999991
 20
192.13
 30
0.0
 11
141.2289999999999
 21
191.6999999999999
 31
0.0
  0
LINE
  5
49
  8
0
 62
     7
 10
142.5689999999999
 20
189.84899999999999
 30
0.0
 11
141.1339999999999
 21
193.56099999999989
 31
0.0
  0
LINE
  5
4A
  8
0
 62
     7
 10
141.1339999999999
 20
193.56099999999989
 30
0.0
 11
129.93700000000001
 21
193.56099999999989
 31
0.0
  0
LINE
  5
4B
  8
0
 62
     7
 10
153.82699999999991
 20
180.43599999999989
 30
0.0
 11
159.13200000000001
 21
180.43599999999989
 31
0.0
  0
LINE
  5
4C
  8
0
 62
     7
 10
161.19799999999989
 20
179.20699999999999
 30
0.0
 11
162.34399999999991
 21
177.22399999999999
 31
0.0
  0
LINE
  5
4D
  8
0
 62
     7
 10
162.34399999999991
 20
177.22399999999999
 30
0.0
 11
160.3609999999999
 21
178.369
 31
0.0
  0
LINE
  5
4E
  8
0
 62
     7
 10
160.3609999999999
 20
178.369
 30
0.0
 11
161.19799999999989
 21
179.20699999999999
 31
0.0
  0
LINE
  5
4F
  8
0
 62
     7
 10
162.34399999999991
 20
177.22399999999999
 30
0.0
 11
159.13200000000001
 21
180.43599999999989
 31
0.0
  0
LINE
  5
50
  8
0
 62
     7
 10
137.65299999999999
 20
180.43599999999989
 30
0.0
 11
132.3479999999999
 21
180.43599999999989
 31
0.0
  0
LINE
  5
51
  8
0
 62
     7
 10
130.28100000000001
 20
179.20699999999999
 30
0.0
 11
129.136
 21
177.22399999999999
 31
0.0
  0
LINE
  5
52
  8
0
 62
     7
 10
129.136
 20
177.22399999999999
 30
0.0
 11
131.119
 21
178.369
 31
0.0
  0
LINE
  5
53
  8
0
 62
     7
 10
131.119
 20
178.369
 30
0.0
 11
130.28100000000001
 21
179.20699999999999
 31
0.0
  0
LINE
  5
54
  8
0
 62
     7
 10
129.136
 20
177.22399999999999
 30
0.0
 11
132.3479999999999
 21
180.43599999999989
 31
0.0
  0
LINE
  5
55
  8
0
 62
     7
 10
152.55699999999999
 20
190.14299999999989
 30
0.0
 11
153.15000000000001
 21
187.93199999999999
 31
0.0
  0
LINE
  5
56
  8
0
 62
     7
 10
153.15000000000001
 20
187.93199999999999
 30
0.0
 11
153.74199999999999
 21
190.14299999999989
 31
0.0
  0
LINE
  5
57
  8
0
 62
     7
 10
153.74199999999999
 20
190.14299999999989
 30
0.0
 11
152.55699999999999
 21
190.14299999999989
 31
0.0
  0
LINE
  5
58
  8
0
 62
     7
 10
153.72799999999989
 20
199.71899999999999
 30
0.0
 11
153.13499999999991
 21
201.9309999999999
 31
0.0
  0
LINE
  5
59
  8
0
 62
     7
 10
153.13499999999991
 20
201.9309999999999
 30
0.0
 11
152.54300000000001
 21
199.71899999999999
 31
0.0
  0
LINE
  5
5A
  8
0
 62
     7
 10
152.54300000000001
 20
199.71899999999999
 30
0.0
 11
153.72799999999989
 21
199.71899999999999
 31
0.0
  0
LINE
  5
5B
  8
0
 62
     7
 10
153.13499999999991
 20
187.93199999999999
 30
0.0
 11
153.13499999999991
 21
201.9309999999999
 31
0.0
  0
LINE
  5
5C
  8
0
 62
     7
 10
153.83600000000001
 20
187.93199999999999
 30
0.0
 11
148.816
 21
187.93199999999999
 31
0.0
  0
LINE
  5
5D
  8
0
 62
     7
 10
131.05500000000001
 20
217.9679999999999
 30
0.0
 11
128.8429999999999
 21
217.375
 31
0.0
  0
LINE
  5
5E
  8
0
 62
     7
 10
128.8429999999999
 20
217.375
 30
0.0
 11
131.05500000000001
 21
216.7829999999999
 31
0.0
  0
LINE
  5
5F
  8
0
 62
     7
 10
131.05500000000001
 20
216.7829999999999
 30
0.0
 11
131.05500000000001
 21
217.9679999999999
 31
0.0
  0
LINE
  5
60
  8
0
 62
     7
 10
160.63200000000001
 20
216.79699999999991
 30
0.0
 11
162.8429999999999
 21
217.3899999999999
 31
0.0
  0
LINE
  5
61
  8
0
 62
     7
 10
162.8429999999999
 20
217.3899999999999
 30
0.0
 11
160.63200000000001
 21
217.98199999999991
 31
0.0
  0
LINE
  5
62
  8
0
 62
     7
 10
160.63200000000001
 20
217.98199999999991
 30
0.0
 11
160.63200000000001
 21
216.79699999999991
 31
0.0
  0
LINE
  5
63
  8
0
 62
     7
 10
128.8429999999999
 20
217.375
 30
0.0
 11
162.8429999999999
 21
217.375
 31
0.0
  0
LINE
  5
64
  8
0
 62
     7
 10
146.05500000000001
 20
211.71299999999991
 30
0.0
 11
143.8429999999999
 21
211.12
 31
0.0
  0
LINE
  5
65
  8
0
 62
     7
 10
143.8429999999999
 20
211.12
 30
0.0
 11
146.05500000000001
 21
210.52799999999999
 31
0.0
  0
LINE
  5
66
  8
0
 62
     7
 10
146.05500000000001
 20
210.52799999999999
 30
0.0
 11
146.05500000000001
 21
211.71299999999991
 31
0.0
  0
LINE
  5
67
  8
0
 62
     7
 10
131.05500000000001
 20
211.71299999999991
 30
0.0
 11
128.8429999999999
 21
211.12
 31
0.0
  0
LINE
  5
68
  8
0
 62
     7
 10
128.8429999999999
 20
211.12
 30
0.0
 11
131.05500000000001
 21
210.52799999999999
 31
0.0
  0
LINE
  5
69
  8
0
 62
     7
 10
131.05500000000001
 20
210.52799999999999
 30
0.0
 11
131.05500000000001
 21
211.71299999999991
 31
0.0
  0
LINE
  5
6A
  8
0
 62
     7
 10
141.63199999999989
 20
210.52799999999999
 30
0.0
 11
143.8429999999999
 21
211.12
 31
0.0
  0
LINE
  5
6B
  8
0
 62
     7
 10
143.8429999999999
 20
211.12
 30
0.0
 11
141.63199999999989
 21
211.71299999999991
 31
0.0
  0
LINE
  5
6C
  8
0
 62
     7
 10
141.63199999999989
 20
211.71299999999991
 30
0.0
 11
141.63199999999989
 21
210.52799999999999
 31
0.0
  0
LINE
  5
6D
  8
0
 62
     7
 10
160.63200000000001
 20
210.542
 30
0.0
 11
162.8429999999999
 21
211.13499999999991
 31
0.0
  0
LINE
  5
6E
  8
0
 62
     7
 10
162.8429999999999
 20
211.13499999999991
 30
0.0
 11
160.63200000000001
 21
211.72699999999989
 31
0.0
  0
LINE
  5
6F
  8
0
 62
     7
 10
160.63200000000001
 20
211.72699999999989
 30
0.0
 11
160.63200000000001
 21
210.542
 31
0.0
  0
LINE
  5
70
  8
0
 62
     7
 10
128.8429999999999
 20
211.12
 30
0.0
 11
162.8429999999999
 21
211.12
 31
0.0
  0
LINE
  5
71
  8
0
 62
     7
 10
162.8429999999999
 20
202.63099999999989
 30
0.0
 11
162.8429999999999
 21
218.0749999999999
 31
0.0
  0
LINE
  5
72
  8
0
 62
     7
 10
128.8429999999999
 20
202.63099999999989
 30
0.0
 11
128.8429999999999
 21
218.0749999999999
 31
0.0
  0
LINE
  5
73
  8
0
 62
     7
 10
143.8429999999999
 20
192.518
 30
0.0
 11
143.8429999999999
 21
211.81999999999991
 31
0.0
  0
LINE
  5
74
  8
0
  6
AIGENLINE001
 62
     7
 10
143.8429999999999
 20
192.518
 30
0.0
 11
143.8429999999999
 21
183.459
 31
0.0
  0
LINE
  5
75
  8
0
  6
AIGENLINE001
 62
     7
 10
139.30199999999999
 20
187.93199999999999
 30
0.0
 11
148.11600000000001
 21
187.93199999999999
 31
0.0
  0
ARC
  5
76
  8
0
  6
AIGENLINE002
 62
     7
 10
143.75551999999999
 20
187.8438919999999
 30
0.0
 40
2.3893450000000001
 50
2.1052140000000001
 51
87.894776000000007
  0
ARC
  5
77
  8
0
  6
AIGENLINE002
 62
     7
 10
143.931838
 20
187.84311799999989
 30
0.0
 40
2.3901469999999998
 50
92.123069000000015
 51
177.87690099999989
  0
ARC
  5
78
  8
0
  6
AIGENLINE002
 62
     7
 10
143.843636
 20
187.93131899999989
 30
0.0
 40
2.3003040000000001
 50
179.991389
 51
269.9914389999999
  0
ARC
  5
79
  8
0
  6
AIGENLINE002
 62
     7
 10
143.84294700000001
 20
187.93131899999989
 30
0.0
 40
2.3003049999999989
 50
270.008601
 51
0.008571
  0
LINE
  5
7A
  8
0
 62
     7
 10
168.21000000000001
 20
179.142
 30
0.0
 11
168.80299999999991
 21
176.9309999999999
 31
0.0
  0
LINE
  5
7B
  8
0
 62
     7
 10
168.80299999999991
 20
176.9309999999999
 30
0.0
 11
169.39500000000001
 21
179.142
 31
0.0
  0
LINE
  5
7C
  8
0
 62
     7
 10
169.39500000000001
 20
179.142
 30
0.0
 11
168.21000000000001
 21
179.142
 31
0.0
  0
LINE
  5
7D
  8
0
 62
     7
 10
169.38099999999989
 20
199.71899999999999
 30
0.0
 11
168.7879999999999
 21
201.9309999999999
 31
0.0
  0
LINE
  5
7E
  8
0
 62
     7
 10
168.7879999999999
 20
201.9309999999999
 30
0.0
 11
168.196
 21
199.71899999999999
 31
0.0
  0
LINE
  5
7F
  8
0
 62
     7
 10
168.196
 20
199.71899999999999
 30
0.0
 11
169.38099999999989
 21
199.71899999999999
 31
0.0
  0
LINE
  5
80
  8
0
 62
     7
 10
168.7879999999999
 20
176.9309999999999
 30
0.0
 11
168.7879999999999
 21
201.9309999999999
 31
0.0
  0
LINE
  5
81
  8
0
 62
     7
 10
169.48799999999989
 20
176.9309999999999
 30
0.0
 11
162.89299999999989
 21
176.9309999999999
 31
0.0
  0
LINE
  5
82
  8
0
 62
     7
 10
128.8429999999999
 20
201.9309999999999
 30
0.0
 11
119.086
 21
201.9309999999999
 31
0.0
  0
LINE
  5
83
  8
0
 62
     7
 10
172.601
 20
201.9309999999999
 30
0.0
 11
162.8429999999999
 21
201.9309999999999
 31
0.0
  0
LINE
  5
84
  8
0
 62
     7
 10
162.8429999999999
 20
201.9309999999999
 30
0.0
 11
162.8429999999999
 21
177.9309999999999
 31
0.0
  0
LINE
  5
85
  8
0
 62
     7
 10
129.8429999999999
 20
176.9309999999999
 30
0.0
 11
161.84299999999999
 21
176.9309999999999
 31
0.0
  0
ARC
  5
86
  8
0
 62
     7
 10
161.80473000000001
 20
177.970146
 30
0.0
 40
1.039458999999999
 50
272.12874399999993
 51
357.85152499999992
  0
LINE
  5
87
  8
0
 62
     7
 10
128.8429999999999
 20
201.9309999999999
 30
0.0
 11
128.8429999999999
 21
177.9309999999999
 31
0.0
  0
ARC
  5
88
  8
0
 62
     7
 10
129.881665
 20
177.969831
 30
0.0
 40
1.0391330000000001
 50
182.1318259999999
 51
267.887944
  0
LINE
  5
89
  8
0
  6
AIGENLINE003
 62
     7
 10
128.8429999999999
 20
201.9309999999999
 30
0.0
 11
162.8429999999999
 21
201.9309999999999
 31
0.0
  0
ARC
  5
8A
  8
0
  6
AIGENLINE002
 62
     7
 10
147.7142659999999
 20
106.49368200000001
 30
0.0
 40
0.8139939999999999
 50
86.848759000000015
 51
129.72739899999991
  0
ARC
  5
8B
  8
0
  6
AIGENLINE002
 62
     7
 10
146.98762999999991
 20
105.888727
 30
0.0
 40
0.810945
 50
130.37863100000001
 51
178.36522600000001
  0
LINE
  5
8C
  8
0
  6
AIGENLINE002
 62
     7
 10
146.17699999999999
 20
105.91200000000001
 30
0.0
 11
146.1399999999999
 21
104.306
 31
0.0
  0
LINE
  5
8D
  8
0
  6
AIGENLINE002
 62
     7
 10
146.46199999999999
 20
106.506
 30
0.0
 11
147.1939999999999
 21
107.12
 31
0.0
  0
ARC
  5
8E
  8
0
  6
AIGENLINE002
 62
     7
 10
139.9723919999999
 20
106.493904
 30
0.0
 40
0.8137770000000001
 50
50.266573999999999
 51
93.157228000000003
  0
ARC
  5
8F
  8
0
  6
AIGENLINE002
 62
     7
 10
140.69915299999991
 20
105.8888229999999
 30
0.0
 40
0.8107439999999998
 50
1.6284309999999991
 51
49.627671999999997
  0
LINE
  5
90
  8
0
  6
AIGENLINE002
 62
     7
 10
141.50999999999991
 20
105.91200000000001
 30
0.0
 11
141.54599999999991
 21
104.306
 31
0.0
  0
LINE
  5
91
  8
0
  6
AIGENLINE002
 62
     7
 10
141.2239999999999
 20
106.506
 30
0.0
 11
140.49299999999999
 21
107.12
 31
0.0
  0
LINE
  5
92
  8
0
 62
     7
 10
155.63200000000001
 20
95.545500000000004
 30
0.0
 11
157.8429999999999
 21
96.138099999999994
 31
0.0
  0
LINE
  5
93
  8
0
 62
     7
 10
157.8429999999999
 20
96.138099999999994
 30
0.0
 11
155.63200000000001
 21
96.729900000000001
 31
0.0
  0
LINE
  5
94
  8
0
 62
     7
 10
155.63200000000001
 20
96.729900000000001
 30
0.0
 11
155.63200000000001
 21
95.545500000000004
 31
0.0
  0
LINE
  5
95
  8
0
 62
     7
 10
146.05399999999989
 20
96.729900000000001
 30
0.0
 11
143.8429999999999
 21
96.138099999999994
 31
0.0
  0
LINE
  5
96
  8
0
 62
     7
 10
143.8429999999999
 20
96.138099999999994
 30
0.0
 11
146.05399999999989
 21
95.545500000000004
 31
0.0
  0
LINE
  5
97
  8
0
 62
     7
 10
146.05399999999989
 20
95.545500000000004
 30
0.0
 11
146.05399999999989
 21
96.729900000000001
 31
0.0
  0
LINE
  5
98
  8
0
 62
     7
 10
157.8429999999999
 20
96.138099999999994
 30
0.0
 11
143.8429999999999
 21
96.138099999999994
 31
0.0
  0
LINE
  5
99
  8
0
 62
     7
 10
157.8429999999999
 20
95.437999999999988
 30
0.0
 11
157.8429999999999
 21
107.982
 31
0.0
  0
LINE
  5
9A
  8
0
 62
     7
 10
143.8429999999999
 20
95.437999999999988
 30
0.0
 11
143.8429999999999
 21
101.441
 31
0.0
  0
ARC
  5
9B
  8
0
 62
     7
 10
151.9452159999999
 20
109.55295
 30
0.0
 40
1.5845089999999991
 50
323.23690599999998
 51
331.89272599999993
  0
ARC
  5
9C
  8
0
 62
     7
 10
149.888678
 20
111.0021149999999
 30
0.0
 40
4.0999689999999998
 50
309.87298700000002
 51
324.21382399999999
  0
ARC
  5
9D
  8
0
 62
     7
 10
148.505382
 20
112.5517719999999
 30
0.0
 40
6.1764710000000003
 50
294.19428199999987
 51
310.50535599999989
  0
ARC
  5
9E
  8
0
 62
     7
 10
135.74882700000001
 20
109.5641889999999
 30
0.0
 40
1.5970019999999989
 50
208.32527899999991
 51
216.93179599999999
  0
ARC
  5
9F
  8
0
 62
     7
 10
137.846743
 20
111.05524799999991
 30
0.0
 40
4.1704629999999989
 50
215.98818199999991
 51
230.52321000000001
  0
ARC
  5
A0
  8
0
 62
     7
 10
139.21820099999991
 20
112.6106489999999
 30
0.0
 40
6.2433639999999988
 50
229.88324399999991
 51
245.75783100000001
  0
LINE
  5
A1
  8
0
 62
     7
 10
37.885300000000001
 20
204.143
 30
0.0
 11
38.477800000000002
 21
201.9309999999999
 31
0.0
  0
LINE
  5
A2
  8
0
 62
     7
 10
38.477800000000002
 20
201.9309999999999
 30
0.0
 11
39.070399999999999
 21
204.143
 31
0.0
  0
LINE
  5
A3
  8
0
 62
     7
 10
39.070399999999999
 20
204.143
 30
0.0
 11
37.885300000000001
 21
204.143
 31
0.0
  0
LINE
  5
A4
  8
0
 62
     7
 10
37.885300000000001
 20
179.142
 30
0.0
 11
38.477800000000002
 21
176.9309999999999
 31
0.0
  0
LINE
  5
A5
  8
0
 62
     7
 10
38.477800000000002
 20
176.9309999999999
 30
0.0
 11
39.070399999999999
 21
179.142
 31
0.0
  0
LINE
  5
A6
  8
0
 62
     7
 10
39.070399999999999
 20
179.142
 30
0.0
 11
37.885300000000001
 21
179.142
 31
0.0
  0
LINE
  5
A7
  8
0
 62
     7
 10
39.070399999999999
 20
171.72
 30
0.0
 11
38.477800000000002
 21
173.9309999999999
 31
0.0
  0
LINE
  5
A8
  8
0
 62
     7
 10
38.477800000000002
 20
173.9309999999999
 30
0.0
 11
37.885300000000001
 21
171.72
 31
0.0
  0
LINE
  5
A9
  8
0
 62
     7
 10
37.885300000000001
 20
171.72
 30
0.0
 11
39.070399999999999
 21
171.72
 31
0.0
  0
LINE
  5
AA
  8
0
 62
     7
 10
39.070399999999999
 20
196.72
 30
0.0
 11
38.477800000000002
 21
198.9309999999999
 31
0.0
  0
LINE
  5
AB
  8
0
 62
     7
 10
38.477800000000002
 20
198.9309999999999
 30
0.0
 11
37.885300000000001
 21
196.72
 31
0.0
  0
LINE
  5
AC
  8
0
 62
     7
 10
37.885300000000001
 20
196.72
 30
0.0
 11
39.070399999999999
 21
196.72
 31
0.0
  0
LINE
  5
AD
  8
0
 62
     7
 10
38.477800000000002
 20
168.48099999999991
 30
0.0
 11
38.477800000000002
 21
207.52999999999989
 31
0.0
  0
LINE
  5
AE
  8
0
 62
     7
 10
102.67700000000001
 20
176.143
 30
0.0
 11
103.26899999999991
 21
173.9309999999999
 31
0.0
  0
LINE
  5
AF
  8
0
 62
     7
 10
103.26899999999991
 20
173.9309999999999
 30
0.0
 11
103.86199999999999
 21
176.143
 31
0.0
  0
LINE
  5
B0
  8
0
 62
     7
 10
103.86199999999999
 20
176.143
 30
0.0
 11
102.67700000000001
 21
176.143
 31
0.0
  0
LINE
  5
B1
  8
0
 62
     7
 10
103.848
 20
199.72
 30
0.0
 11
103.255
 21
201.9309999999999
 31
0.0
  0
LINE
  5
B2
  8
0
 62
     7
 10
103.255
 20
201.9309999999999
 30
0.0
 11
102.66200000000001
 21
199.72
 31
0.0
  0
LINE
  5
B3
  8
0
 62
     7
 10
102.66200000000001
 20
199.72
 30
0.0
 11
103.848
 21
199.72
 31
0.0
  0
LINE
  5
B4
  8
0
 62
     7
 10
103.255
 20
173.9309999999999
 30
0.0
 11
103.255
 21
201.9309999999999
 31
0.0
  0
LINE
  5
B5
  8
0
 62
     7
 10
49.837200000000003
 20
209.0079999999999
 30
0.0
 11
47.625599999999991
 21
208.41499999999999
 31
0.0
  0
LINE
  5
B6
  8
0
 62
     7
 10
47.625599999999991
 20
208.41499999999999
 30
0.0
 11
49.837200000000003
 21
207.82300000000001
 31
0.0
  0
LINE
  5
B7
  8
0
 62
     7
 10
49.837200000000003
 20
207.82300000000001
 30
0.0
 11
49.837200000000003
 21
209.0079999999999
 31
0.0
  0
LINE
  5
B8
  8
0
 62
     7
 10
66.587400000000002
 20
209.0079999999999
 30
0.0
 11
64.375799999999998
 21
208.41499999999999
 31
0.0
  0
LINE
  5
B9
  8
0
 62
     7
 10
64.375799999999998
 20
208.41499999999999
 30
0.0
 11
66.587400000000002
 21
207.82300000000001
 31
0.0
  0
LINE
  5
BA
  8
0
 62
     7
 10
66.587400000000002
 20
207.82300000000001
 30
0.0
 11
66.587400000000002
 21
209.0079999999999
 31
0.0
  0
LINE
  5
BB
  8
0
 62
     7
 10
62.164400000000001
 20
207.82300000000001
 30
0.0
 11
64.375799999999998
 21
208.41499999999999
 31
0.0
  0
LINE
  5
BC
  8
0
 62
     7
 10
64.375799999999998
 20
208.41499999999999
 30
0.0
 11
62.164400000000001
 21
209.0079999999999
 31
0.0
  0
LINE
  5
BD
  8
0
 62
     7
 10
62.164400000000001
 20
209.0079999999999
 30
0.0
 11
62.164400000000001
 21
207.82300000000001
 31
0.0
  0
LINE
  5
BE
  8
0
 62
     7
 10
83.414400000000001
 20
207.82300000000001
 30
0.0
 11
85.625799999999998
 21
208.41499999999999
 31
0.0
  0
LINE
  5
BF
  8
0
 62
     7
 10
85.625799999999998
 20
208.41499999999999
 30
0.0
 11
83.414400000000001
 21
209.0079999999999
 31
0.0
  0
LINE
  5
C0
  8
0
 62
     7
 10
83.414400000000001
 20
209.0079999999999
 30
0.0
 11
83.414400000000001
 21
207.82300000000001
 31
0.0
  0
LINE
  5
C1
  8
0
 62
     7
 10
77.914299999999997
 20
207.83699999999999
 30
0.0
 11
80.125699999999995
 21
208.43000000000001
 31
0.0
  0
LINE
  5
C2
  8
0
 62
     7
 10
80.125699999999995
 20
208.43000000000001
 30
0.0
 11
77.914299999999997
 21
209.02199999999999
 31
0.0
  0
LINE
  5
C3
  8
0
 62
     7
 10
77.914299999999997
 20
209.02199999999999
 30
0.0
 11
77.914299999999997
 21
207.83699999999999
 31
0.0
  0
LINE
  5
C4
  8
0
 62
     7
 10
47.625599999999991
 20
208.41499999999999
 30
0.0
 11
85.625799999999998
 21
208.41499999999999
 31
0.0
  0
LINE
  5
C5
  8
0
 62
     7
 10
83.414400000000001
 20
214.893
 30
0.0
 11
85.625799999999998
 21
215.48500000000001
 31
0.0
  0
LINE
  5
C6
  8
0
 62
     7
 10
85.625799999999998
 20
215.48500000000001
 30
0.0
 11
83.414400000000001
 21
216.07799999999989
 31
0.0
  0
LINE
  5
C7
  8
0
 62
     7
 10
83.414400000000001
 20
216.07799999999989
 30
0.0
 11
83.414400000000001
 21
214.893
 31
0.0
  0
LINE
  5
C8
  8
0
 62
     7
 10
82.337299999999985
 20
209.02199999999999
 30
0.0
 11
80.125699999999995
 21
208.43000000000001
 31
0.0
  0
LINE
  5
C9
  8
0
 62
     7
 10
80.125699999999995
 20
208.43000000000001
 30
0.0
 11
82.337299999999985
 21
207.83699999999999
 31
0.0
  0
LINE
  5
CA
  8
0
 62
     7
 10
82.337299999999985
 20
207.83699999999999
 30
0.0
 11
82.337299999999985
 21
209.02199999999999
 31
0.0
  0
LINE
  5
CB
  8
0
 62
     7
 10
49.837200000000003
 20
216.0629999999999
 30
0.0
 11
47.625599999999991
 21
215.47099999999989
 31
0.0
  0
LINE
  5
CC
  8
0
 62
     7
 10
47.625599999999991
 20
215.47099999999989
 30
0.0
 11
49.837200000000003
 21
214.8779999999999
 31
0.0
  0
LINE
  5
CD
  8
0
 62
     7
 10
49.837200000000003
 20
214.8779999999999
 30
0.0
 11
49.837200000000003
 21
216.0629999999999
 31
0.0
  0
LINE
  5
CE
  8
0
 62
     7
 10
85.625799999999998
 20
215.47099999999989
 30
0.0
 11
47.625599999999991
 21
215.47099999999989
 31
0.0
  0
LINE
  5
CF
  8
0
  6
AIGENLINE001
 62
     7
 10
88.791200000000003
 20
187.93199999999999
 30
0.0
 11
45.3992
 21
187.93199999999999
 31
0.0
  0
LINE
  5
D0
  8
0
 62
     7
 10
157.8429999999999
 20
117.206
 30
0.0
 11
157.84
 21
116.23099999999999
 31
0.0
  0
LINE
  5
D1
  8
0
 62
     7
 10
157.80799999999991
 20
113.324
 30
0.0
 11
157.7949999999999
 21
112.334
 31
0.0
  0
LINE
  5
D2
  8
0
 62
     7
 10
157.82199999999989
 20
114.29899999999989
 30
0.0
 11
157.80799999999991
 21
113.324
 31
0.0
  0
LINE
  5
D3
  8
0
 62
     7
 10
157.833
 20
115.2649999999999
 30
0.0
 11
157.82199999999989
 21
114.29899999999989
 31
0.0
  0
LINE
  5
D4
  8
0
 62
     7
 10
157.84
 20
116.23099999999999
 30
0.0
 11
157.833
 21
115.2649999999999
 31
0.0
  0
LINE
  5
D5
  8
0
 62
     7
 10
157.8429999999999
 20
117.256
 30
0.0
 11
157.8429999999999
 21
117.206
 31
0.0
  0
LINE
  5
D6
  8
0
 62
     7
 10
157.50399999999991
 20
117.764
 30
0.0
 11
157.536
 21
117.7489999999999
 31
0.0
  0
ARC
  5
D7
  8
0
 62
     7
 10
157.15984199999991
 20
117.122756
 30
0.0
 40
0.730908
 50
30.99710399999999
 51
59.00288599999999
  0
LINE
  5
D8
  8
0
 62
     7
 10
157.786
 20
117.4989999999999
 30
0.0
 11
157.80199999999999
 21
117.467
 31
0.0
  0
LINE
  5
D9
  8
0
 62
     7
 10
157.46999999999991
 20
117.7769999999999
 30
0.0
 11
157.50399999999991
 21
117.764
 31
0.0
  0
LINE
  5
DA
  8
0
 62
     7
 10
157.43600000000001
 20
117.78700000000001
 30
0.0
 11
157.46999999999991
 21
117.7769999999999
 31
0.0
  0
LINE
  5
DB
  8
0
 62
     7
 10
157.40100000000001
 20
117.795
 30
0.0
 11
157.43600000000001
 21
117.78700000000001
 31
0.0
  0
LINE
  5
DC
  8
0
 62
     7
 10
157.36500000000001
 20
117.80200000000001
 30
0.0
 11
157.40100000000001
 21
117.795
 31
0.0
  0
LINE
  5
DD
  8
0
 62
     7
 10
157.33000000000001
 20
117.80500000000001
 30
0.0
 11
157.36500000000001
 21
117.80200000000001
 31
0.0
  0
LINE
  5
DE
  8
0
 62
     7
 10
157.29300000000001
 20
117.806
 30
0.0
 11
157.33000000000001
 21
117.80500000000001
 31
0.0
  0
LINE
  5
DF
  8
0
 62
     7
 10
157.84200000000001
 20
117.2919999999999
 30
0.0
 11
157.8429999999999
 21
117.256
 31
0.0
  0
LINE
  5
E0
  8
0
 62
     7
 10
157.83899999999991
 20
117.3279999999999
 30
0.0
 11
157.84200000000001
 21
117.2919999999999
 31
0.0
  0
LINE
  5
E1
  8
0
 62
     7
 10
157.833
 20
117.3629999999999
 30
0.0
 11
157.83899999999991
 21
117.3279999999999
 31
0.0
  0
LINE
  5
E2
  8
0
 62
     7
 10
157.8239999999999
 20
117.399
 30
0.0
 11
157.833
 21
117.3629999999999
 31
0.0
  0
LINE
  5
E3
  8
0
 62
     7
 10
157.81399999999991
 20
117.43299999999989
 30
0.0
 11
157.8239999999999
 21
117.399
 31
0.0
  0
LINE
  5
E4
  8
0
 62
     7
 10
157.80199999999999
 20
117.467
 30
0.0
 11
157.81399999999991
 21
117.43299999999989
 31
0.0
  0
LINE
  5
E5
  8
0
 62
     7
 10
157.78200000000001
 20
111.3369999999999
 30
0.0
 11
157.76799999999989
 21
110.33799999999999
 31
0.0
  0
LINE
  5
E6
  8
0
 62
     7
 10
157.155
 20
108.806
 30
0.0
 11
156.8609999999999
 21
108.806
 31
0.0
  0
LINE
  5
E7
  8
0
 62
     7
 10
157.709
 20
109.1399999999999
 30
0.0
 11
157.69499999999999
 21
109.1079999999999
 31
0.0
  0
ARC
  5
E8
  8
0
 62
     7
 10
157.1021749999999
 20
109.4599169999999
 30
0.0
 40
0.6894070000000001
 50
299.783006
 51
329.26209699999998
  0
LINE
  5
E9
  8
0
 62
     7
 10
157.44499999999991
 20
108.86199999999999
 30
0.0
 11
157.41200000000001
 21
108.84699999999999
 31
0.0
  0
LINE
  5
EA
  8
0
 62
     7
 10
157.72200000000001
 20
109.1729999999999
 30
0.0
 11
157.709
 21
109.1399999999999
 31
0.0
  0
LINE
  5
EB
  8
0
 62
     7
 10
157.733
 20
109.20699999999999
 30
0.0
 11
157.72200000000001
 21
109.1729999999999
 31
0.0
  0
LINE
  5
EC
  8
0
 62
     7
 10
157.74199999999999
 20
109.241
 30
0.0
 11
157.733
 21
109.20699999999999
 31
0.0
  0
LINE
  5
ED
  8
0
 62
     7
 10
157.74799999999991
 20
109.276
 30
0.0
 11
157.74199999999999
 21
109.241
 31
0.0
  0
LINE
  5
EE
  8
0
 62
     7
 10
157.7519999999999
 20
109.312
 30
0.0
 11
157.74799999999991
 21
109.276
 31
0.0
  0
LINE
  5
EF
  8
0
 62
     7
 10
157.75399999999991
 20
109.34699999999999
 30
0.0
 11
157.7519999999999
 21
109.312
 31
0.0
  0
LINE
  5
F0
  8
0
 62
     7
 10
157.76799999999989
 20
110.33799999999999
 30
0.0
 11
157.75399999999991
 21
109.34699999999999
 31
0.0
  0
LINE
  5
F1
  8
0
 62
     7
 10
157.239
 20
108.807
 30
0.0
 11
157.20400000000001
 21
108.806
 31
0.0
  0
LINE
  5
F2
  8
0
 62
     7
 10
157.27500000000001
 20
108.81100000000001
 30
0.0
 11
157.239
 21
108.807
 31
0.0
  0
LINE
  5
F3
  8
0
 62
     7
 10
157.31
 20
108.81699999999999
 30
0.0
 11
157.27500000000001
 21
108.81100000000001
 31
0.0
  0
LINE
  5
F4
  8
0
 62
     7
 10
157.345
 20
108.824
 30
0.0
 11
157.31
 21
108.81699999999999
 31
0.0
  0
LINE
  5
F5
  8
0
 62
     7
 10
157.37899999999991
 20
108.83499999999989
 30
0.0
 11
157.345
 21
108.824
 31
0.0
  0
LINE
  5
F6
  8
0
 62
     7
 10
157.41200000000001
 20
108.84699999999999
 30
0.0
 11
157.37899999999991
 21
108.83499999999989
 31
0.0
  0
LINE
  5
F7
  8
0
 62
     7
 10
157.7949999999999
 20
112.334
 30
0.0
 11
157.78200000000001
 21
111.3369999999999
 31
0.0
  0
ARC
  5
F8
  8
0
 62
     7
 10
148.21048099999999
 20
105.3990159999999
 30
0.0
 40
0.8272379999999998
 50
97.862176000000019
 51
176.40366399999999
  0
LINE
  5
F9
  8
0
 62
     7
 10
147.36899999999989
 20
104.4989999999999
 30
0.0
 11
147.38499999999991
 21
105.45099999999999
 31
0.0
  0
LINE
  5
FA
  8
0
 62
     7
 10
148.33199999999991
 20
106.245
 30
0.0
 11
148.56399999999991
 21
106.274
 31
0.0
  0
LINE
  5
FB
  8
0
 62
     7
 10
148.09899999999999
 20
106.2179999999999
 30
0.0
 11
148.33199999999991
 21
106.245
 31
0.0
  0
LINE
  5
FF
  8
0
 62
     7
 10
150.70699999999991
 20
106.78399999999991
 30
0.0
 11
150.87299999999991
 21
106.84999999999999
 31
0.0
  0
LINE
  5
100
  8
0
 62
     7
 10
150.54099999999991
 20
106.723
 30
0.0
 11
150.70699999999991
 21
106.78399999999991
 31
0.0
  0
LINE
  5
101
  8
0
 62
     7
 10
150.364
 20
106.664
 30
0.0
 11
150.54099999999991
 21
106.723
 31
0.0
  0
LINE
  5
102
  8
0
 62
     7
 10
150.18600000000001
 20
106.6079999999999
 30
0.0
 11
150.364
 21
106.664
 31
0.0
  0
LINE
  5
103
  8
0
 62
     7
 10
150.00700000000001
 20
106.557
 30
0.0
 11
150.18600000000001
 21
106.6079999999999
 31
0.0
  0
LINE
  5
104
  8
0
 62
     7
 10
149.82599999999991
 20
106.51000000000001
 30
0.0
 11
150.00700000000001
 21
106.557
 31
0.0
  0
LINE
  5
105
  8
0
 62
     7
 10
149.6279999999999
 20
106.462
 30
0.0
 11
149.82599999999991
 21
106.51000000000001
 31
0.0
  0
LINE
  5
106
  8
0
 62
     7
 10
149.429
 20
106.42
 30
0.0
 11
149.6279999999999
 21
106.462
 31
0.0
  0
LINE
  5
107
  8
0
 62
     7
 10
149.2289999999999
 20
106.38
 30
0.0
 11
149.429
 21
106.42
 31
0.0
  0
LINE
  5
108
  8
0
 62
     7
 10
149.02899999999991
 20
106.345
 30
0.0
 11
149.2289999999999
 21
106.38
 31
0.0
  0
LINE
  5
109
  8
0
 62
     7
 10
148.79699999999991
 20
106.3069999999999
 30
0.0
 11
149.02899999999991
 21
106.345
 31
0.0
  0
LINE
  5
10A
  8
0
 62
     7
 10
148.56399999999991
 20
106.274
 30
0.0
 11
148.79699999999991
 21
106.3069999999999
 31
0.0
  0
ARC
  5
10C
  8
0
 62
     7
 10
139.476054
 20
105.39897000000001
 30
0.0
 40
0.8272890000000001
 50
3.5992410000000001
 51
82.134878999999998
  0
LINE
  5
10D
  8
0
 62
     7
 10
140.517
 20
104.306
 30
0.0
 11
143.8429999999999
 21
104.306
 31
0.0
  0
LINE
  5
10E
  8
0
 62
     7
 10
140.30199999999999
 20
105.45099999999999
 30
0.0
 11
140.3179999999999
 21
104.4989999999999
 31
0.0
  0
LINE
  5
10F
  8
0
 62
     7
 10
139.35699999999991
 20
106.245
 30
0.0
 11
139.589
 21
106.2179999999999
 31
0.0
  0
LINE
  5
110
  8
0
 62
     7
 10
139.126
 20
106.274
 30
0.0
 11
139.35699999999991
 21
106.245
 31
0.0
  0
LINE
  5
111
  8
0
 62
     7
 10
138.89500000000001
 20
106.3069999999999
 30
0.0
 11
139.126
 21
106.274
 31
0.0
  0
LINE
  5
112
  8
0
 62
     7
 10
138.66499999999991
 20
106.3429999999999
 30
0.0
 11
138.89500000000001
 21
106.3069999999999
 31
0.0
  0
LINE
  5
11B
  8
0
 62
     7
 10
147.1689999999999
 20
104.306
 30
0.0
 11
143.8429999999999
 21
104.306
 31
0.0
  0
LINE
  5
11D
  8
0
 62
     7
 10
129.846
 20
116.23099999999999
 30
0.0
 11
129.8429999999999
 21
117.206
 31
0.0
  0
LINE
  5
11E
  8
0
 62
     7
 10
129.8539999999999
 20
115.2649999999999
 30
0.0
 11
129.846
 21
116.23099999999999
 31
0.0
  0
LINE
  5
11F
  8
0
 62
     7
 10
129.86500000000001
 20
114.3
 30
0.0
 11
129.8539999999999
 21
115.2649999999999
 31
0.0
  0
LINE
  5
120
  8
0
 62
     7
 10
129.87700000000001
 20
113.32599999999999
 30
0.0
 11
129.86500000000001
 21
114.3
 31
0.0
  0
LINE
  5
121
  8
0
 62
     7
 10
129.89099999999999
 20
112.3359999999999
 30
0.0
 11
129.87700000000001
 21
113.32599999999999
 31
0.0
  0
LINE
  5
122
  8
0
 62
     7
 10
129.8429999999999
 20
117.206
 30
0.0
 11
129.8429999999999
 21
117.256
 31
0.0
  0
LINE
  5
123
  8
0
 62
     7
 10
130.286
 20
117.795
 30
0.0
 11
130.32099999999991
 21
117.80200000000001
 31
0.0
  0
LINE
  5
124
  8
0
 62
     7
 10
130.21600000000001
 20
117.7769999999999
 30
0.0
 11
130.251
 21
117.78700000000001
 31
0.0
  0
LINE
  5
125
  8
0
 62
     7
 10
130.18299999999999
 20
117.764
 30
0.0
 11
130.21600000000001
 21
117.7769999999999
 31
0.0
  0
LINE
  5
126
  8
0
 62
     7
 10
130.18299999999999
 20
117.764
 30
0.0
 11
130.15000000000001
 21
117.7489999999999
 31
0.0
  0
ARC
  5
127
  8
0
 62
     7
 10
130.285684
 20
117.4264689999999
 30
0.0
 40
0.350311
 50
112.85201099999991
 51
132.21322599999991
  0
ARC
  5
128
  8
0
 62
     7
 10
130.48638299999999
 20
117.1795909999999
 30
0.0
 40
0.6682310000000001
 50
130.73588599999999
 51
151.42914099999999
  0
LINE
  5
129
  8
0
 62
     7
 10
129.90000000000001
 20
117.4989999999999
 30
0.0
 11
129.88499999999991
 21
117.467
 31
0.0
  0
LINE
  5
12A
  8
0
 62
     7
 10
129.87200000000001
 20
117.43299999999989
 30
0.0
 11
129.88499999999991
 21
117.467
 31
0.0
  0
LINE
  5
12B
  8
0
 62
     7
 10
129.86199999999991
 20
117.399
 30
0.0
 11
129.87200000000001
 21
117.43299999999989
 31
0.0
  0
LINE
  5
12C
  8
0
 62
     7
 10
129.85299999999989
 20
117.3629999999999
 30
0.0
 11
129.86199999999991
 21
117.399
 31
0.0
  0
LINE
  5
12D
  8
0
 62
     7
 10
129.8479999999999
 20
117.3279999999999
 30
0.0
 11
129.85299999999989
 21
117.3629999999999
 31
0.0
  0
LINE
  5
12E
  8
0
 62
     7
 10
129.84399999999999
 20
117.2919999999999
 30
0.0
 11
129.8479999999999
 21
117.3279999999999
 31
0.0
  0
LINE
  5
12F
  8
0
 62
     7
 10
129.8429999999999
 20
117.256
 30
0.0
 11
129.84399999999999
 21
117.2919999999999
 31
0.0
  0
LINE
  5
130
  8
0
 62
     7
 10
130.357
 20
117.80500000000001
 30
0.0
 11
130.393
 21
117.806
 31
0.0
  0
LINE
  5
131
  8
0
 62
     7
 10
130.32099999999991
 20
117.80200000000001
 30
0.0
 11
130.357
 21
117.80500000000001
 31
0.0
  0
LINE
  5
132
  8
0
 62
     7
 10
130.251
 20
117.78700000000001
 30
0.0
 11
130.286
 21
117.795
 31
0.0
  0
LINE
  5
133
  8
0
 62
     7
 10
138.26199999999989
 20
106.41799999999991
 30
0.0
 11
138.46299999999999
 21
106.379
 31
0.0
  0
LINE
  5
134
  8
0
 62
     7
 10
138.06100000000001
 20
106.462
 30
0.0
 11
138.26199999999989
 21
106.41799999999991
 31
0.0
  0
LINE
  5
135
  8
0
 62
     7
 10
137.8609999999999
 20
106.509
 30
0.0
 11
138.06100000000001
 21
106.462
 31
0.0
  0
LINE
  5
136
  8
0
 62
     7
 10
137.68199999999999
 20
106.556
 30
0.0
 11
137.8609999999999
 21
106.509
 31
0.0
  0
LINE
  5
137
  8
0
 62
     7
 10
137.50399999999999
 20
106.607
 30
0.0
 11
137.68199999999999
 21
106.556
 31
0.0
  0
LINE
  5
138
  8
0
 62
     7
 10
137.32699999999991
 20
106.66200000000001
 30
0.0
 11
137.50399999999999
 21
106.607
 31
0.0
  0
LINE
  5
139
  8
0
 62
     7
 10
137.15100000000001
 20
106.7209999999999
 30
0.0
 11
137.32699999999991
 21
106.66200000000001
 31
0.0
  0
LINE
  5
13A
  8
0
 62
     7
 10
136.98400000000001
 20
106.7829999999999
 30
0.0
 11
137.15100000000001
 21
106.7209999999999
 31
0.0
  0
LINE
  5
13B
  8
0
 62
     7
 10
136.81899999999999
 20
106.848
 30
0.0
 11
136.98400000000001
 21
106.7829999999999
 31
0.0
  0
LINE
  5
13C
  8
0
 62
     7
 10
136.65499999999989
 20
106.91800000000001
 30
0.0
 11
136.81899999999999
 21
106.848
 31
0.0
  0
LINE
  5
13D
  8
0
 62
     7
 10
129.91699999999989
 20
110.33799999999999
 30
0.0
 11
129.90399999999991
 21
111.3369999999999
 31
0.0
  0
LINE
  5
13E
  8
0
 62
     7
 10
130.77500000000001
 20
108.806
 30
0.0
 11
130.482
 21
108.806
 31
0.0
  0
LINE
  5
13F
  8
0
 62
     7
 10
130.30699999999999
 20
108.83499999999989
 30
0.0
 11
130.274
 21
108.84699999999999
 31
0.0
  0
LINE
  5
140
  8
0
 62
     7
 10
130.34100000000001
 20
108.824
 30
0.0
 11
130.30699999999999
 21
108.83499999999989
 31
0.0
  0
LINE
  5
141
  8
0
 62
     7
 10
130.376
 20
108.81699999999999
 30
0.0
 11
130.34100000000001
 21
108.824
 31
0.0
  0
LINE
  5
142
  8
0
 62
     7
 10
130.411
 20
108.81100000000001
 30
0.0
 11
130.376
 21
108.81699999999999
 31
0.0
  0
LINE
  5
143
  8
0
 62
     7
 10
130.447
 20
108.807
 30
0.0
 11
130.411
 21
108.81100000000001
 31
0.0
  0
LINE
  5
144
  8
0
 62
     7
 10
130.482
 20
108.806
 30
0.0
 11
130.447
 21
108.807
 31
0.0
  0
LINE
  5
145
  8
0
 62
     7
 10
129.93299999999991
 20
109.34699999999999
 30
0.0
 11
129.91699999999989
 21
110.33799999999999
 31
0.0
  0
LINE
  5
146
  8
0
 62
     7
 10
129.93399999999991
 20
109.312
 30
0.0
 11
129.93299999999991
 21
109.34699999999999
 31
0.0
  0
LINE
  5
147
  8
0
 62
     7
 10
129.9379999999999
 20
109.276
 30
0.0
 11
129.93399999999991
 21
109.312
 31
0.0
  0
LINE
  5
148
  8
0
 62
     7
 10
129.9439999999999
 20
109.241
 30
0.0
 11
129.9379999999999
 21
109.276
 31
0.0
  0
LINE
  5
149
  8
0
 62
     7
 10
129.953
 20
109.20699999999999
 30
0.0
 11
129.9439999999999
 21
109.241
 31
0.0
  0
LINE
  5
14A
  8
0
 62
     7
 10
129.96399999999991
 20
109.1729999999999
 30
0.0
 11
129.953
 21
109.20699999999999
 31
0.0
  0
LINE
  5
14B
  8
0
 62
     7
 10
129.977
 20
109.1399999999999
 30
0.0
 11
129.96399999999991
 21
109.1729999999999
 31
0.0
  0
LINE
  5
14C
  8
0
 62
     7
 10
129.977
 20
109.1399999999999
 30
0.0
 11
129.99199999999999
 21
109.1079999999999
 31
0.0
  0
ARC
  5
14D
  8
0
 62
     7
 10
130.623358
 20
109.4984509999999
 30
0.0
 40
0.7426970000000001
 50
211.75733899999989
 51
239.03955999999999
  0
LINE
  5
14E
  8
0
 62
     7
 10
130.24100000000001
 20
108.86199999999999
 30
0.0
 11
130.274
 21
108.84699999999999
 31
0.0
  0
LINE
  5
14F
  8
0
 62
     7
 10
129.90399999999991
 20
111.3369999999999
 30
0.0
 11
129.89099999999999
 21
112.3359999999999
 31
0.0
  0
LINE
  5
150
  8
0
 62
     7
 10
130.73699999999991
 20
108.806
 30
0.0
 11
156.8609999999999
 21
108.806
 31
0.0
  0
LINE
  5
151
  8
0
 62
     7
 10
138.46299999999999
 20
106.379
 30
0.0
 11
138.66499999999991
 21
106.3429999999999
 31
0.0
  0
LINE
  5
152
  8
0
 62
     7
 10
130.393
 20
117.806
 30
0.0
 11
151.143
 21
117.806
 31
0.0
  0
ARC
  5
153
  8
0
 62
     7
 10
140.52569099999999
 20
104.514246
 30
0.0
 40
0.208663
 50
184.08975799999999
 51
267.716294
  0
ARC
  5
154
  8
0
 62
     7
 10
147.16142999999991
 20
104.5136309999999
 30
0.0
 40
0.208084
 50
272.52188799999988
 51
356.06845499999991
  0
LINE
  5
155
  8
0
 62
     7
 10
150.87299999999991
 20
106.84999999999999
 30
0.0
 11
151.03699999999989
 21
106.92
 31
0.0
  0
LINE
  5
156
  8
0
 62
     7
 10
151.143
 20
117.806
 30
0.0
 11
157.29300000000001
 21
117.806
 31
0.0
  0
LINE
  5
157
  8
0
  6
AIGENLINE001
 62
     7
 10
143.8429999999999
 20
121.1658691707236
 30
0.0
 11
143.8429999999999
 21
102.30799999999989
 31
0.0
  0
ARC
  5
158
  8
0
  6
AIGENLINE002
 62
     7
 10
157.11341899999991
 20
120.161354
 30
0.0
 40
25.088746
 50
186.4251889999999
 51
195.79417699999991
  0
LINE
  5
159
  8
0
  6
AIGENLINE002
 62
     7
 10
132.97200000000001
 20
113.3329999999999
 30
0.0
 11
132.96899999999999
 21
113.33199999999999
 31
0.0
  0
ARC
  5
15A
  8
0
  6
AIGENLINE002
 62
     7
 10
142.87057300000001
 20
116.09149499999999
 30
0.0
 40
10.278800999999991
 50
195.57320100000001
 51
218.688582
  0
LINE
  5
15B
  8
0
  6
AIGENLINE002
 62
     7
 10
134.84700000000001
 20
109.6659999999999
 30
0.0
 11
134.8479999999999
 21
109.6659999999999
 31
0.0
  0
ARC
  5
15C
  8
0
  6
AIGENLINE002
 62
     7
 10
139.53324499999991
 20
113.52211
 30
0.0
 40
6.0677459999999988
 50
219.45349799999991
 51
229.436081
  0
ARC
  5
15D
  8
0
  6
AIGENLINE002
 62
     7
 10
140.87710799999999
 20
115.27377799999999
 30
0.0
 40
8.2732080000000003
 50
230.254672
 51
235.31356500000001
  0
ARC
  5
15E
  8
0
  6
AIGENLINE002
 62
     7
 10
146.31657399999989
 20
125.99832600000001
 30
0.0
 40
20.253026999999999
 50
239.93102699999989
 51
242.2786429999999
  0
ARC
  5
15F
  8
0
  6
AIGENLINE002
 62
     7
 10
139.26213799999999
 20
112.77294599999991
 30
0.0
 40
5.2649419999999987
 50
243.28695099999999
 51
256.912667
  0
LINE
  5
160
  8
0
  6
AIGENLINE002
 62
     7
 10
138.06999999999999
 20
107.6449999999999
 30
0.0
 11
139.27899999999991
 21
107.40600000000001
 31
0.0
  0
LINE
  5
161
  8
0
  6
AIGENLINE002
 62
     7
 10
139.27899999999991
 20
107.40600000000001
 30
0.0
 11
139.786
 21
107.3059999999999
 31
0.0
  0
LINE
  5
162
  8
0
  6
AIGENLINE002
 62
     7
 10
139.786
 20
107.3059999999999
 30
0.0
 11
147.90000000000001
 21
107.3059999999999
 31
0.0
  0
LINE
  5
163
  8
0
  6
AIGENLINE002
 62
     7
 10
147.90000000000001
 20
107.3059999999999
 30
0.0
 11
148.4079999999999
 21
107.40600000000001
 31
0.0
  0
LINE
  5
164
  8
0
  6
AIGENLINE002
 62
     7
 10
148.4079999999999
 20
107.40600000000001
 30
0.0
 11
149.61699999999999
 21
107.6449999999999
 31
0.0
  0
ARC
  5
165
  8
0
  6
AIGENLINE002
 62
     7
 10
147.868675
 20
114.03811
 30
0.0
 40
6.6279929999999991
 50
285.29101200000002
 51
295.4837609999999
  0
ARC
  5
166
  8
0
  6
AIGENLINE002
 62
     7
 10
146.57933799999989
 20
116.96450900000001
 30
0.0
 40
9.8248789999999993
 50
294.92855099999991
 51
300.17428299999989
  0
ARC
  5
167
  8
0
  6
AIGENLINE002
 62
     7
 10
150.44464699999989
 20
110.1910639999999
 30
0.0
 40
2.0273840000000001
 50
301.95464800000002
 51
310.045254
  0
ARC
  5
168
  8
0
  6
AIGENLINE002
 62
     7
 10
144.08233100000001
 20
118.813284
 30
0.0
 40
12.73946999999999
 50
306.99952999999988
 51
308.9978779999999
  0
ARC
  5
169
  8
0
  6
AIGENLINE002
 62
     7
 10
148.085916
 20
113.5882379999999
 30
0.0
 40
6.1618339999999989
 50
310.64034199999992
 51
320.47011900000001
  0
ARC
  5
16A
  8
0
  6
AIGENLINE002
 62
     7
 10
144.82227800000001
 20
116.08979099999991
 30
0.0
 40
10.272307
 50
321.29460599999999
 51
344.42659199999991
  0
LINE
  5
16B
  8
0
  6
AIGENLINE002
 62
     7
 10
154.71700000000001
 20
113.33199999999999
 30
0.0
 11
154.715
 21
113.3329999999999
 31
0.0
  0
ARC
  5
16C
  8
0
  6
AIGENLINE002
 62
     7
 10
130.65858499999999
 20
120.14458
 30
0.0
 40
25.001987
 50
344.18955
 51
353.59112299999993
  0
LINE
  5
16D
  8
0
 62
     7
 10
116.0139999999999
 20
106.5179999999999
 30
0.0
 11
116.60599999999999
 21
104.306
 31
0.0
  0
LINE
  5
16E
  8
0
 62
     7
 10
116.60599999999999
 20
104.306
 30
0.0
 11
117.199
 21
106.5179999999999
 31
0.0
  0
LINE
  5
16F
  8
0
 62
     7
 10
117.199
 20
106.5179999999999
 30
0.0
 11
116.0139999999999
 21
106.5179999999999
 31
0.0
  0
LINE
  5
170
  8
0
 62
     7
 10
117.1839999999999
 20
115.595
 30
0.0
 11
116.592
 21
117.806
 31
0.0
  0
LINE
  5
171
  8
0
 62
     7
 10
116.592
 20
117.806
 30
0.0
 11
115.999
 21
115.595
 31
0.0
  0
LINE
  5
172
  8
0
 62
     7
 10
115.999
 20
115.595
 30
0.0
 11
117.1839999999999
 21
115.595
 31
0.0
  0
LINE
  5
173
  8
0
 62
     7
 10
116.592
 20
104.306
 30
0.0
 11
116.592
 21
117.806
 31
0.0
  0
LINE
  5
174
  8
0
 62
     7
 10
121.9229999999999
 20
109.5179999999999
 30
0.0
 11
122.5149999999999
 21
107.3059999999999
 31
0.0
  0
LINE
  5
175
  8
0
 62
     7
 10
122.5149999999999
 20
107.3059999999999
 30
0.0
 11
123.1079999999999
 21
109.5179999999999
 31
0.0
  0
LINE
  5
176
  8
0
 62
     7
 10
123.1079999999999
 20
109.5179999999999
 30
0.0
 11
121.9229999999999
 21
109.5179999999999
 31
0.0
  0
LINE
  5
177
  8
0
 62
     7
 10
123.0929999999999
 20
115.595
 30
0.0
 11
122.501
 21
117.806
 31
0.0
  0
LINE
  5
178
  8
0
 62
     7
 10
122.501
 20
117.806
 30
0.0
 11
121.9079999999999
 21
115.595
 31
0.0
  0
LINE
  5
179
  8
0
 62
     7
 10
121.9079999999999
 20
115.595
 30
0.0
 11
123.0929999999999
 21
115.595
 31
0.0
  0
LINE
  5
17A
  8
0
 62
     7
 10
122.501
 20
107.3059999999999
 30
0.0
 11
122.501
 21
117.806
 31
0.0
  0
LINE
  5
17B
  8
0
 62
     7
 10
138.04199999999989
 20
107.3059999999999
 30
0.0
 11
121.801
 21
107.3059999999999
 31
0.0
  0
LINE
  5
17C
  8
0
 62
     7
 10
129.01299999999989
 20
117.806
 30
0.0
 11
115.892
 21
117.806
 31
0.0
  0
LINE
  5
17D
  8
0
 62
     7
 10
139.55699999999999
 20
104.306
 30
0.0
 11
115.892
 21
104.306
 31
0.0
  0
LINE
  5
17E
  8
0
 62
     7
 10
54.805799999999991
 20
126.712
 30
0.0
 11
52.594200000000001
 21
126.12
 31
0.0
  0
LINE
  5
17F
  8
0
 62
     7
 10
52.594200000000001
 20
126.12
 30
0.0
 11
54.805799999999991
 21
125.527
 31
0.0
  0
LINE
  5
180
  8
0
 62
     7
 10
54.805799999999991
 20
125.527
 30
0.0
 11
54.805799999999991
 21
126.712
 31
0.0
  0
LINE
  5
181
  8
0
 62
     7
 10
78.382800000000003
 20
125.5409999999999
 30
0.0
 11
80.594200000000015
 21
126.134
 31
0.0
  0
LINE
  5
182
  8
0
 62
     7
 10
80.594200000000015
 20
126.134
 30
0.0
 11
78.382800000000003
 21
126.727
 31
0.0
  0
LINE
  5
183
  8
0
 62
     7
 10
78.382800000000003
 20
126.727
 30
0.0
 11
78.382800000000003
 21
125.5409999999999
 31
0.0
  0
LINE
  5
184
  8
0
 62
     7
 10
52.594200000000001
 20
126.12
 30
0.0
 11
80.594200000000015
 21
126.12
 31
0.0
  0
LINE
  5
185
  8
0
 62
     7
 10
93.407799999999995
 20
114.5179999999999
 30
0.0
 11
94.000399999999999
 21
112.307
 31
0.0
  0
LINE
  5
186
  8
0
 62
     7
 10
94.000399999999999
 20
112.307
 30
0.0
 11
94.592200000000005
 21
114.5179999999999
 31
0.0
  0
LINE
  5
187
  8
0
 62
     7
 10
94.592200000000005
 20
114.5179999999999
 30
0.0
 11
93.407799999999995
 21
114.5179999999999
 31
0.0
  0
LINE
  5
188
  8
0
 62
     7
 10
94.577799999999996
 20
115.595
 30
0.0
 11
93.985900000000001
 21
117.80500000000001
 31
0.0
  0
LINE
  5
189
  8
0
 62
     7
 10
93.985900000000001
 20
117.80500000000001
 30
0.0
 11
93.393299999999996
 21
115.595
 31
0.0
  0
LINE
  5
18A
  8
0
 62
     7
 10
93.393299999999996
 20
115.595
 30
0.0
 11
94.577799999999996
 21
115.595
 31
0.0
  0
LINE
  5
18B
  8
0
 62
     7
 10
93.985900000000001
 20
112.3059999999999
 30
0.0
 11
93.985900000000001
 21
117.806
 31
0.0
  0
LINE
  5
18C
  8
0
 62
     7
 10
94.685900000000004
 20
117.806
 30
0.0
 11
86.308300000000017
 21
117.806
 31
0.0
  0
LINE
  5
18D
  8
0
 62
     7
 10
94.685900000000004
 20
112.3059999999999
 30
0.0
 11
84.061400000000006
 21
112.3059999999999
 31
0.0
  0
ARC
  5
18E
  8
0
 62
     7
 10
64.376063000000002
 20
187.9314049999999
 30
0.0
 40
3.6598349999999988
 50
0.004055
 51
90.004024999999984
  0
ARC
  5
18F
  8
0
 62
     7
 10
64.375547999999995
 20
187.9314049999999
 30
0.0
 40
3.6598349999999988
 50
89.995955000000009
 51
179.995925
  0
ARC
  5
190
  8
0
 62
     7
 10
64.375805
 20
187.9316629999999
 30
0.0
 40
3.6600919999999988
 50
179.99996999999991
 51
270.00002000000001
  0
ARC
  5
191
  8
0
 62
     7
 10
64.375805
 20
187.9316639999999
 30
0.0
 40
3.6600929999999989
 50
270.00002000000001
 51
359.99998999999991
  0
LINE
  5
192
  8
0
  6
AIGENLINE001
 62
     7
 10
64.375799999999998
 20
193.0259999999999
 30
0.0
 11
64.375799999999998
 21
182.81200000000001
 31
0.0
  0
ARC
  5
193
  8
0
 62
     7
 10
64.37589100000001
 20
187.931577
 30
0.0
 40
2.2998750000000001
 50
0.002156
 51
90.002126000000004
  0
ARC
  5
194
  8
0
 62
     7
 10
64.375720000000001
 20
187.931577
 30
0.0
 40
2.2998750000000001
 50
89.997854000000004
 51
179.99782500000001
  0
ARC
  5
195
  8
0
 62
     7
 10
64.463949
 20
188.01980699999999
 30
0.0
 40
2.3897289999999991
 50
182.11380299999999
 51
267.88622700000002
  0
ARC
  5
196
  8
0
 62
     7
 10
64.287260000000003
 20
188.02020999999999
 30
0.0
 40
2.3901469999999998
 50
272.12308899999999
 51
357.87692099999992
  0
LINE
  5
197
  8
0
  6
AIGENLINE001
 62
     7
 10
80.125699999999995
 20
191.43100000000001
 30
0.0
 11
80.125699999999995
 21
184.22399999999999
 31
0.0
  0
ARC
  5
198
  8
0
 62
     7
 10
80.109954000000002
 20
187.864417
 30
0.0
 40
1.8180730000000001
 50
2.119723
 51
87.897188000000014
  0
ARC
  5
199
  8
0
 62
     7
 10
80.176406
 20
187.9314049999999
 30
0.0
 40
1.7498619999999989
 50
89.991540000000015
 51
179.99150999999989
  0
ARC
  5
19A
  8
0
 62
     7
 10
80.176663000000005
 20
187.9316629999999
 30
0.0
 40
1.7501189999999991
 50
179.99996999999991
 51
270.00002000000001
  0
ARC
  5
19B
  8
0
 62
     7
 10
80.109038999999996
 20
187.99928899999989
 30
0.0
 40
1.819002
 50
272.13059299999998
 51
357.86941699999988
  0
LINE
  5
19C
  8
0
 62
     7
 10
84.688699999999997
 20
108.806
 30
0.0
 11
57.927900000000001
 21
108.806
 31
0.0
  0
LINE
  5
19D
  8
0
  6
AIGENLINE001
 62
     7
 10
154.88900000000001
 20
112.3059999999999
 30
0.0
 11
160.488
 21
112.3059999999999
 31
0.0
  0
LINE
  5
19E
  8
0
  6
AIGENLINE001
 62
     7
 10
77.762299999999996
 20
112.3059999999999
 30
0.0
 11
83.3613
 21
112.3059999999999
 31
0.0
  0
LINE
  5
19F
  8
0
 62
     7
 10
85.620999999999995
 20
117.206
 30
0.0
 11
85.618200000000002
 21
116.23099999999999
 31
0.0
  0
LINE
  5
1A0
  8
0
 62
     7
 10
85.586500000000001
 20
113.324
 30
0.0
 11
85.573400000000007
 21
112.334
 31
0.0
  0
LINE
  5
1A1
  8
0
 62
     7
 10
85.599599999999995
 20
114.29899999999989
 30
0.0
 11
85.586500000000001
 21
113.324
 31
0.0
  0
LINE
  5
1A2
  8
0
 62
     7
 10
85.610600000000005
 20
115.2649999999999
 30
0.0
 11
85.599599999999995
 21
114.29899999999989
 31
0.0
  0
LINE
  5
1A3
  8
0
 62
     7
 10
85.618200000000002
 20
116.23099999999999
 30
0.0
 11
85.610600000000005
 21
115.2649999999999
 31
0.0
  0
LINE
  5
1A4
  8
0
 62
     7
 10
85.620999999999995
 20
117.256
 30
0.0
 11
85.620999999999995
 21
117.206
 31
0.0
  0
LINE
  5
1A5
  8
0
 62
     7
 10
85.282000000000011
 20
117.764
 30
0.0
 11
85.314400000000006
 21
117.7489999999999
 31
0.0
  0
ARC
  5
1A6
  8
0
 62
     7
 10
84.937954000000005
 20
117.122756
 30
0.0
 40
0.730908
 50
30.99710399999999
 51
59.00288599999999
  0
LINE
  5
1A7
  8
0
 62
     7
 10
85.564499999999995
 20
117.4989999999999
 30
0.0
 11
85.579599999999985
 21
117.467
 31
0.0
  0
LINE
  5
1A8
  8
0
 62
     7
 10
85.248199999999997
 20
117.7769999999999
 30
0.0
 11
85.282000000000011
 21
117.764
 31
0.0
  0
LINE
  5
1A9
  8
0
 62
     7
 10
85.213800000000006
 20
117.78700000000001
 30
0.0
 11
85.248199999999997
 21
117.7769999999999
 31
0.0
  0
LINE
  5
1AA
  8
0
 62
     7
 10
85.178600000000003
 20
117.795
 30
0.0
 11
85.213800000000006
 21
117.78700000000001
 31
0.0
  0
LINE
  5
1AB
  8
0
 62
     7
 10
85.142799999999994
 20
117.80200000000001
 30
0.0
 11
85.178600000000003
 21
117.795
 31
0.0
  0
LINE
  5
1AC
  8
0
 62
     7
 10
85.107699999999994
 20
117.80500000000001
 30
0.0
 11
85.142799999999994
 21
117.80200000000001
 31
0.0
  0
LINE
  5
1AD
  8
0
 62
     7
 10
85.071100000000001
 20
117.806
 30
0.0
 11
85.107699999999994
 21
117.80500000000001
 31
0.0
  0
LINE
  5
1AE
  8
0
 62
     7
 10
85.6203
 20
117.2919999999999
 30
0.0
 11
85.620999999999995
 21
117.256
 31
0.0
  0
LINE
  5
1AF
  8
0
 62
     7
 10
85.616799999999998
 20
117.3279999999999
 30
0.0
 11
85.6203
 21
117.2919999999999
 31
0.0
  0
LINE
  5
1B0
  8
0
 62
     7
 10
85.610600000000005
 20
117.3629999999999
 30
0.0
 11
85.616799999999998
 21
117.3279999999999
 31
0.0
  0
LINE
  5
1B1
  8
0
 62
     7
 10
85.602400000000003
 20
117.399
 30
0.0
 11
85.610600000000005
 21
117.3629999999999
 31
0.0
  0
LINE
  5
1B2
  8
0
 62
     7
 10
85.592000000000013
 20
117.43299999999989
 30
0.0
 11
85.602400000000003
 21
117.399
 31
0.0
  0
LINE
  5
1B3
  8
0
 62
     7
 10
85.579599999999985
 20
117.467
 30
0.0
 11
85.592000000000013
 21
117.43299999999989
 31
0.0
  0
LINE
  5
1B4
  8
0
 62
     7
 10
85.560299999999984
 20
111.3369999999999
 30
0.0
 11
85.546599999999998
 21
110.33799999999999
 31
0.0
  0
LINE
  5
1B5
  8
0
 62
     7
 10
84.932299999999998
 20
108.806
 30
0.0
 11
84.638800000000003
 21
108.806
 31
0.0
  0
LINE
  5
1B6
  8
0
 62
     7
 10
85.487300000000005
 20
109.1399999999999
 30
0.0
 11
85.472800000000007
 21
109.1079999999999
 31
0.0
  0
ARC
  5
1B7
  8
0
 62
     7
 10
84.879763999999994
 20
109.460449
 30
0.0
 40
0.690129
 50
299.79875699999991
 51
329.24634500000002
  0
LINE
  5
1B8
  8
0
 62
     7
 10
85.222700000000003
 20
108.86199999999999
 30
0.0
 11
85.190299999999979
 21
108.84699999999999
 31
0.0
  0
LINE
  5
1B9
  8
0
 62
     7
 10
85.500399999999999
 20
109.1729999999999
 30
0.0
 11
85.487300000000005
 21
109.1399999999999
 31
0.0
  0
LINE
  5
1BA
  8
0
 62
     7
 10
85.511399999999995
 20
109.20699999999999
 30
0.0
 11
85.500399999999999
 21
109.1729999999999
 31
0.0
  0
LINE
  5
1BB
  8
0
 62
     7
 10
85.5197
 20
109.241
 30
0.0
 11
85.511399999999995
 21
109.20699999999999
 31
0.0
  0
LINE
  5
1BC
  8
0
 62
     7
 10
85.525899999999993
 20
109.276
 30
0.0
 11
85.5197
 21
109.241
 31
0.0
  0
LINE
  5
1BD
  8
0
 62
     7
 10
85.530000000000001
 20
109.312
 30
0.0
 11
85.525899999999993
 21
109.276
 31
0.0
  0
LINE
  5
1BE
  8
0
 62
     7
 10
85.532099999999986
 20
109.34699999999999
 30
0.0
 11
85.530000000000001
 21
109.312
 31
0.0
  0
LINE
  5
1BF
  8
0
 62
     7
 10
85.546599999999998
 20
110.33799999999999
 30
0.0
 11
85.532099999999986
 21
109.34699999999999
 31
0.0
  0
LINE
  5
1C0
  8
0
 62
     7
 10
85.017399999999995
 20
108.807
 30
0.0
 11
84.982299999999995
 21
108.806
 31
0.0
  0
LINE
  5
1C1
  8
0
 62
     7
 10
85.053200000000004
 20
108.81100000000001
 30
0.0
 11
85.017399999999995
 21
108.807
 31
0.0
  0
LINE
  5
1C2
  8
0
 62
     7
 10
85.088399999999993
 20
108.81699999999999
 30
0.0
 11
85.053200000000004
 21
108.81100000000001
 31
0.0
  0
LINE
  5
1C3
  8
0
 62
     7
 10
85.122799999999998
 20
108.824
 30
0.0
 11
85.088399999999993
 21
108.81699999999999
 31
0.0
  0
LINE
  5
1C4
  8
0
 62
     7
 10
85.157300000000006
 20
108.83499999999989
 30
0.0
 11
85.122799999999998
 21
108.824
 31
0.0
  0
LINE
  5
1C5
  8
0
 62
     7
 10
85.190299999999979
 20
108.84699999999999
 30
0.0
 11
85.157300000000006
 21
108.83499999999989
 31
0.0
  0
LINE
  5
1C6
  8
0
 62
     7
 10
85.573400000000007
 20
112.334
 30
0.0
 11
85.560299999999984
 21
111.3369999999999
 31
0.0
  0
LINE
  5
1C7
  8
0
 62
     7
 10
72.949200000000005
 20
107.76299999999991
 30
0.0
 11
73.098699999999994
 21
107.8799999999999
 31
0.0
  0
LINE
  5
1C8
  8
0
 62
     7
 10
72.798900000000003
 20
107.652
 30
0.0
 11
72.949200000000005
 21
107.76299999999991
 31
0.0
  0
LINE
  5
1C9
  8
0
 62
     7
 10
72.646000000000001
 20
107.54600000000001
 30
0.0
 11
72.798900000000003
 21
107.652
 31
0.0
  0
LINE
  5
1CA
  8
0
 62
     7
 10
72.490300000000005
 20
107.4429999999999
 30
0.0
 11
72.646000000000001
 21
107.54600000000001
 31
0.0
  0
LINE
  5
1CB
  8
0
 62
     7
 10
72.332499999999996
 20
107.34399999999989
 30
0.0
 11
72.490300000000005
 21
107.4429999999999
 31
0.0
  0
LINE
  5
1CC
  8
0
 62
     7
 10
72.173299999999998
 20
107.25
 30
0.0
 11
72.332499999999996
 21
107.34399999999989
 31
0.0
  0
LINE
  5
1CD
  8
0
 62
     7
 10
72.011399999999995
 20
107.1599999999999
 30
0.0
 11
72.173299999999998
 21
107.25
 31
0.0
  0
LINE
  5
1CE
  8
0
 62
     7
 10
71.847399999999993
 20
107.075
 30
0.0
 11
72.011399999999995
 21
107.1599999999999
 31
0.0
  0
LINE
  5
1CF
  8
0
 62
     7
 10
71.681299999999993
 20
106.994
 30
0.0
 11
71.847399999999993
 21
107.075
 31
0.0
  0
LINE
  5
1D0
  8
0
 62
     7
 10
71.519400000000005
 20
106.92
 30
0.0
 11
71.681299999999993
 21
106.994
 31
0.0
  0
ARC
  5
1D1
  8
0
 62
     7
 10
68.692981000000003
 20
105.39907099999991
 30
0.0
 40
0.827175
 50
97.858610999999996
 51
176.407229
  0
LINE
  5
1D2
  8
0
 62
     7
 10
67.851600000000005
 20
104.4989999999999
 30
0.0
 11
67.867400000000004
 21
105.45099999999999
 31
0.0
  0
LINE
  5
1D3
  8
0
 62
     7
 10
68.8142
 20
106.245
 30
0.0
 11
69.046999999999997
 21
106.274
 31
0.0
  0
LINE
  5
1D4
  8
0
 62
     7
 10
68.5809
 20
106.2179999999999
 30
0.0
 11
68.8142
 21
106.245
 31
0.0
  0
LINE
  5
1D8
  8
0
 62
     7
 10
71.190100000000001
 20
106.78399999999991
 30
0.0
 11
71.355400000000003
 21
106.84999999999999
 31
0.0
  0
LINE
  5
1D9
  8
0
 62
     7
 10
71.023300000000006
 20
106.723
 30
0.0
 11
71.190100000000001
 21
106.78399999999991
 31
0.0
  0
LINE
  5
1DA
  8
0
 62
     7
 10
70.846900000000005
 20
106.664
 30
0.0
 11
71.023300000000006
 21
106.723
 31
0.0
  0
LINE
  5
1DB
  8
0
 62
     7
 10
70.668499999999995
 20
106.6079999999999
 30
0.0
 11
70.846900000000005
 21
106.664
 31
0.0
  0
LINE
  5
1DC
  8
0
 62
     7
 10
70.4893
 20
106.557
 30
0.0
 11
70.668499999999995
 21
106.6079999999999
 31
0.0
  0
LINE
  5
1DD
  8
0
 62
     7
 10
70.308800000000005
 20
106.51000000000001
 30
0.0
 11
70.4893
 21
106.557
 31
0.0
  0
LINE
  5
1DE
  8
0
 62
     7
 10
70.111099999999993
 20
106.462
 30
0.0
 11
70.308800000000005
 21
106.51000000000001
 31
0.0
  0
LINE
  5
1DF
  8
0
 62
     7
 10
69.911900000000003
 20
106.42
 30
0.0
 11
70.111099999999993
 21
106.462
 31
0.0
  0
LINE
  5
1E0
  8
0
 62
     7
 10
69.711899999999986
 20
106.38
 30
0.0
 11
69.911900000000003
 21
106.42
 31
0.0
  0
LINE
  5
1E1
  8
0
 62
     7
 10
69.511399999999995
 20
106.345
 30
0.0
 11
69.711899999999986
 21
106.38
 31
0.0
  0
LINE
  5
1E2
  8
0
 62
     7
 10
69.279600000000002
 20
106.3069999999999
 30
0.0
 11
69.511399999999995
 21
106.345
 31
0.0
  0
LINE
  5
1E3
  8
0
 62
     7
 10
69.046999999999997
 20
106.274
 30
0.0
 11
69.279600000000002
 21
106.3069999999999
 31
0.0
  0
ARC
  5
1E5
  8
0
 62
     7
 10
59.958645999999987
 20
105.3989499999999
 30
0.0
 40
0.8272579999999999
 50
3.6007839999999991
 51
82.160958999999991
  0
LINE
  5
1E6
  8
0
 62
     7
 10
60.999899999999997
 20
104.306
 30
0.0
 11
64.325900000000004
 21
104.306
 31
0.0
  0
LINE
  5
1E7
  8
0
 62
     7
 10
60.784300000000002
 20
105.45099999999999
 30
0.0
 11
60.8001
 21
104.4989999999999
 31
0.0
  0
LINE
  5
1E8
  8
0
 62
     7
 10
59.839300000000001
 20
106.245
 30
0.0
 11
60.070799999999998
 21
106.2179999999999
 31
0.0
  0
LINE
  5
1E9
  8
0
 62
     7
 10
59.6081
 20
106.274
 30
0.0
 11
59.839300000000001
 21
106.245
 31
0.0
  0
LINE
  5
1EA
  8
0
 62
     7
 10
59.377600000000001
 20
106.3069999999999
 30
0.0
 11
59.6081
 21
106.274
 31
0.0
  0
LINE
  5
1EB
  8
0
 62
     7
 10
59.147500000000001
 20
106.3429999999999
 30
0.0
 11
59.377600000000001
 21
106.3069999999999
 31
0.0
  0
LINE
  5
1F4
  8
0
 62
     7
 10
67.651799999999994
 20
104.306
 30
0.0
 11
64.325900000000004
 21
104.306
 31
0.0
  0
LINE
  5
1F6
  8
0
 62
     7
 10
47.623899999999992
 20
116.23099999999999
 30
0.0
 11
47.621200000000002
 21
117.206
 31
0.0
  0
LINE
  5
1F7
  8
0
 62
     7
 10
47.631799999999998
 20
115.2649999999999
 30
0.0
 11
47.623899999999992
 21
116.23099999999999
 31
0.0
  0
LINE
  5
1F8
  8
0
 62
     7
 10
47.64289999999999
 20
114.3
 30
0.0
 11
47.631799999999998
 21
115.2649999999999
 31
0.0
  0
LINE
  5
1F9
  8
0
 62
     7
 10
47.655599999999993
 20
113.32599999999999
 30
0.0
 11
47.64289999999999
 21
114.3
 31
0.0
  0
LINE
  5
1FA
  8
0
 62
     7
 10
47.668699999999987
 20
112.3359999999999
 30
0.0
 11
47.655599999999993
 21
113.32599999999999
 31
0.0
  0
LINE
  5
1FB
  8
0
 62
     7
 10
47.621200000000002
 20
117.206
 30
0.0
 11
47.621200000000002
 21
117.256
 31
0.0
  0
LINE
  5
1FC
  8
0
 62
     7
 10
48.063899999999997
 20
117.795
 30
0.0
 11
48.099299999999999
 21
117.80200000000001
 31
0.0
  0
LINE
  5
1FD
  8
0
 62
     7
 10
47.994300000000003
 20
117.7769999999999
 30
0.0
 11
48.028700000000001
 21
117.78700000000001
 31
0.0
  0
LINE
  5
1FE
  8
0
 62
     7
 10
47.960500000000003
 20
117.764
 30
0.0
 11
47.994300000000003
 21
117.7769999999999
 31
0.0
  0
LINE
  5
1FF
  8
0
 62
     7
 10
47.960500000000003
 20
117.764
 30
0.0
 11
47.927799999999991
 21
117.7489999999999
 31
0.0
  0
ARC
  5
200
  8
0
 62
     7
 10
48.063549999999992
 20
117.426624
 30
0.0
 40
0.350062
 50
112.8200639999999
 51
132.20577399999991
  0
ARC
  5
201
  8
0
 62
     7
 10
48.263278
 20
117.180773
 30
0.0
 40
0.6665710000000001
 50
130.72590099999991
 51
151.46712400000001
  0
LINE
  5
202
  8
0
 62
     7
 10
47.677700000000002
 20
117.4989999999999
 30
0.0
 11
47.6629
 21
117.467
 31
0.0
  0
LINE
  5
203
  8
0
 62
     7
 10
47.650100000000002
 20
117.43299999999989
 30
0.0
 11
47.6629
 21
117.467
 31
0.0
  0
LINE
  5
204
  8
0
 62
     7
 10
47.639800000000001
 20
117.399
 30
0.0
 11
47.650100000000002
 21
117.43299999999989
 31
0.0
  0
LINE
  5
205
  8
0
 62
     7
 10
47.631500000000003
 20
117.3629999999999
 30
0.0
 11
47.639800000000001
 21
117.399
 31
0.0
  0
LINE
  5
206
  8
0
 62
     7
 10
47.625599999999991
 20
117.3279999999999
 30
0.0
 11
47.631500000000003
 21
117.3629999999999
 31
0.0
  0
LINE
  5
207
  8
0
 62
     7
 10
47.622199999999999
 20
117.2919999999999
 30
0.0
 11
47.625599999999991
 21
117.3279999999999
 31
0.0
  0
LINE
  5
208
  8
0
 62
     7
 10
47.621200000000002
 20
117.256
 30
0.0
 11
47.622199999999999
 21
117.2919999999999
 31
0.0
  0
LINE
  5
209
  8
0
 62
     7
 10
48.135199999999998
 20
117.80500000000001
 30
0.0
 11
48.170999999999999
 21
117.806
 31
0.0
  0
LINE
  5
20A
  8
0
 62
     7
 10
48.099299999999999
 20
117.80200000000001
 30
0.0
 11
48.135199999999998
 21
117.80500000000001
 31
0.0
  0
LINE
  5
20B
  8
0
 62
     7
 10
48.028700000000001
 20
117.78700000000001
 30
0.0
 11
48.063899999999997
 21
117.795
 31
0.0
  0
LINE
  5
20C
  8
0
 62
     7
 10
56.160899999999991
 20
107.4429999999999
 30
0.0
 11
56.319099999999999
 21
107.34399999999989
 31
0.0
  0
LINE
  5
20D
  8
0
 62
     7
 10
56.005200000000002
 20
107.54600000000001
 30
0.0
 11
56.160899999999991
 21
107.4429999999999
 31
0.0
  0
LINE
  5
20E
  8
0
 62
     7
 10
55.852600000000002
 20
107.65299999999991
 30
0.0
 11
56.005200000000002
 21
107.54600000000001
 31
0.0
  0
LINE
  5
20F
  8
0
 62
     7
 10
55.702399999999997
 20
107.76299999999991
 30
0.0
 11
55.852600000000002
 21
107.65299999999991
 31
0.0
  0
LINE
  5
210
  8
0
 62
     7
 10
55.552900000000001
 20
107.8799999999999
 30
0.0
 11
55.702399999999997
 21
107.76299999999991
 31
0.0
  0
LINE
  5
211
  8
0
 62
     7
 10
58.74369999999999
 20
106.41799999999991
 30
0.0
 11
58.945300000000003
 21
106.379
 31
0.0
  0
LINE
  5
212
  8
0
 62
     7
 10
58.543199999999999
 20
106.462
 30
0.0
 11
58.74369999999999
 21
106.41799999999991
 31
0.0
  0
LINE
  5
213
  8
0
 62
     7
 10
58.343400000000003
 20
106.509
 30
0.0
 11
58.543199999999999
 21
106.462
 31
0.0
  0
LINE
  5
214
  8
0
 62
     7
 10
58.164299999999997
 20
106.556
 30
0.0
 11
58.343400000000003
 21
106.509
 31
0.0
  0
LINE
  5
215
  8
0
 62
     7
 10
57.9861
 20
106.607
 30
0.0
 11
58.164299999999997
 21
106.556
 31
0.0
  0
LINE
  5
216
  8
0
 62
     7
 10
57.809399999999997
 20
106.66200000000001
 30
0.0
 11
57.9861
 21
106.607
 31
0.0
  0
LINE
  5
217
  8
0
 62
     7
 10
57.634099999999997
 20
106.7209999999999
 30
0.0
 11
57.809399999999997
 21
106.66200000000001
 31
0.0
  0
LINE
  5
218
  8
0
 62
     7
 10
57.4666
 20
106.7829999999999
 30
0.0
 11
57.634099999999997
 21
106.7209999999999
 31
0.0
  0
LINE
  5
219
  8
0
 62
     7
 10
57.300899999999999
 20
106.848
 30
0.0
 11
57.4666
 21
106.7829999999999
 31
0.0
  0
LINE
  5
21A
  8
0
 62
     7
 10
57.13689999999999
 20
106.91800000000001
 30
0.0
 11
57.300899999999999
 21
106.848
 31
0.0
  0
LINE
  5
21B
  8
0
 62
     7
 10
56.974699999999999
 20
106.9919999999999
 30
0.0
 11
57.13689999999999
 21
106.91800000000001
 31
0.0
  0
LINE
  5
21C
  8
0
 62
     7
 10
56.807200000000002
 20
107.07299999999989
 30
0.0
 11
56.974699999999999
 21
106.9919999999999
 31
0.0
  0
LINE
  5
21D
  8
0
 62
     7
 10
56.642200000000003
 20
107.15900000000001
 30
0.0
 11
56.807200000000002
 21
107.07299999999989
 31
0.0
  0
LINE
  5
21E
  8
0
 62
     7
 10
56.479300000000002
 20
107.2489999999999
 30
0.0
 11
56.642200000000003
 21
107.15900000000001
 31
0.0
  0
LINE
  5
21F
  8
0
 62
     7
 10
56.319099999999999
 20
107.34399999999989
 30
0.0
 11
56.479300000000002
 21
107.2489999999999
 31
0.0
  0
LINE
  5
220
  8
0
 62
     7
 10
47.695599999999999
 20
110.33799999999999
 30
0.0
 11
47.681800000000003
 21
111.3369999999999
 31
0.0
  0
LINE
  5
221
  8
0
 62
     7
 10
48.553400000000003
 20
108.806
 30
0.0
 11
48.26019999999999
 21
108.806
 31
0.0
  0
LINE
  5
222
  8
0
 62
     7
 10
48.0852
 20
108.83499999999989
 30
0.0
 11
48.0518
 21
108.84699999999999
 31
0.0
  0
LINE
  5
223
  8
0
 62
     7
 10
48.119300000000003
 20
108.824
 30
0.0
 11
48.0852
 21
108.83499999999989
 31
0.0
  0
LINE
  5
224
  8
0
 62
     7
 10
48.154099999999993
 20
108.81699999999999
 30
0.0
 11
48.119300000000003
 21
108.824
 31
0.0
  0
LINE
  5
225
  8
0
 62
     7
 10
48.189300000000003
 20
108.81100000000001
 30
0.0
 11
48.154099999999993
 21
108.81699999999999
 31
0.0
  0
LINE
  5
226
  8
0
 62
     7
 10
48.224800000000002
 20
108.807
 30
0.0
 11
48.189300000000003
 21
108.81100000000001
 31
0.0
  0
LINE
  5
227
  8
0
 62
     7
 10
48.26019999999999
 20
108.806
 30
0.0
 11
48.224800000000002
 21
108.807
 31
0.0
  0
LINE
  5
228
  8
0
 62
     7
 10
47.7104
 20
109.34699999999999
 30
0.0
 11
47.695599999999999
 21
110.33799999999999
 31
0.0
  0
LINE
  5
229
  8
0
 62
     7
 10
47.712099999999992
 20
109.312
 30
0.0
 11
47.7104
 21
109.34699999999999
 31
0.0
  0
LINE
  5
22A
  8
0
 62
     7
 10
47.716299999999997
 20
109.276
 30
0.0
 11
47.712099999999992
 21
109.312
 31
0.0
  0
LINE
  5
22B
  8
0
 62
     7
 10
47.722499999999989
 20
109.241
 30
0.0
 11
47.716299999999997
 21
109.276
 31
0.0
  0
LINE
  5
22C
  8
0
 62
     7
 10
47.731099999999991
 20
109.20699999999999
 30
0.0
 11
47.722499999999989
 21
109.241
 31
0.0
  0
LINE
  5
22D
  8
0
 62
     7
 10
47.741700000000002
 20
109.1729999999999
 30
0.0
 11
47.731099999999991
 21
109.20699999999999
 31
0.0
  0
LINE
  5
22E
  8
0
 62
     7
 10
47.754800000000003
 20
109.1399999999999
 30
0.0
 11
47.741700000000002
 21
109.1729999999999
 31
0.0
  0
LINE
  5
22F
  8
0
 62
     7
 10
47.754800000000003
 20
109.1399999999999
 30
0.0
 11
47.7697
 21
109.1079999999999
 31
0.0
  0
ARC
  5
230
  8
0
 62
     7
 10
48.402127
 20
109.499972
 30
0.0
 40
0.744324
 50
211.817544
 51
239.05842899999999
  0
LINE
  5
231
  8
0
 62
     7
 10
48.019399999999997
 20
108.86199999999999
 30
0.0
 11
48.0518
 21
108.84699999999999
 31
0.0
  0
LINE
  5
232
  8
0
 62
     7
 10
47.681800000000003
 20
111.3369999999999
 30
0.0
 11
47.668699999999987
 21
112.3359999999999
 31
0.0
  0
LINE
  5
233
  8
0
 62
     7
 10
48.514499999999991
 20
108.806
 30
0.0
 11
64.325900000000004
 21
108.806
 31
0.0
  0
LINE
  5
234
  8
0
 62
     7
 10
58.945300000000003
 20
106.379
 30
0.0
 11
59.147500000000001
 21
106.3429999999999
 31
0.0
  0
LINE
  5
235
  8
0
 62
     7
 10
48.170999999999999
 20
117.806
 30
0.0
 11
68.921300000000002
 21
117.806
 31
0.0
  0
ARC
  5
236
  8
0
 62
     7
 10
61.007646999999999
 20
104.5136229999999
 30
0.0
 40
0.208017
 50
183.93051199999999
 51
267.87554
  0
ARC
  5
237
  8
0
 62
     7
 10
67.643743999999998
 20
104.51388299999989
 30
0.0
 40
0.208347
 50
272.58647200000001
 51
356.003871
  0
LINE
  5
238
  8
0
 62
     7
 10
71.355400000000003
 20
106.84999999999999
 30
0.0
 11
71.519400000000005
 21
106.92
 31
0.0
  0
LINE
  5
239
  8
0
 62
     7
 10
68.921300000000002
 20
117.806
 30
0.0
 11
85.071100000000001
 21
117.806
 31
0.0
  0
ARC
  5
23A
  8
0
 62
     7
 10
84.795253000000002
 20
174.76194799999999
 30
0.0
 40
0.8311159999999999
 50
272.10973699999988
 51
357.89027299999992
  0
LINE
  5
23B
  8
0
 62
     7
 10
85.625799999999998
 20
201.9309999999999
 30
0.0
 11
85.046300000000002
 21
201.9309999999999
 31
0.0
  0
LINE
  5
23C
  8
0
 62
     7
 10
85.625799999999998
 20
174.73099999999991
 30
0.0
 11
85.625799999999998
 21
201.9309999999999
 31
0.0
  0
LINE
  5
23D
  8
0
 62
     7
 10
75.262200000000007
 20
196.39299999999989
 30
0.0
 11
75.307699999999997
 21
196.303
 31
0.0
  0
LINE
  5
23E
  8
0
 62
     7
 10
75.307699999999997
 20
196.303
 30
0.0
 11
75.350399999999993
 21
196.21299999999991
 31
0.0
  0
LINE
  5
23F
  8
0
 62
     7
 10
75.350399999999993
 20
196.21299999999991
 30
0.0
 11
75.3917
 21
196.1209999999999
 31
0.0
  0
LINE
  5
240
  8
0
 62
     7
 10
75.3917
 20
196.1209999999999
 30
0.0
 11
75.430999999999983
 21
196.029
 31
0.0
  0
LINE
  5
241
  8
0
 62
     7
 10
75.430999999999983
 20
196.029
 30
0.0
 11
75.468900000000005
 21
195.935
 31
0.0
  0
LINE
  5
242
  8
0
 62
     7
 10
75.468900000000005
 20
195.935
 30
0.0
 11
75.504099999999994
 21
195.84099999999989
 31
0.0
  0
LINE
  5
243
  8
0
 62
     7
 10
75.504099999999994
 20
195.84099999999989
 30
0.0
 11
75.538499999999999
 21
195.745
 31
0.0
  0
LINE
  5
244
  8
0
 62
     7
 10
75.538499999999999
 20
195.745
 30
0.0
 11
75.570899999999995
 21
195.649
 31
0.0
  0
LINE
  5
245
  8
0
 62
     7
 10
75.570899999999995
 20
195.649
 30
0.0
 11
75.603999999999999
 21
195.5449999999999
 31
0.0
  0
LINE
  5
246
  8
0
 62
     7
 10
75.603999999999999
 20
195.5449999999999
 30
0.0
 11
75.635000000000005
 21
195.43999999999991
 31
0.0
  0
LINE
  5
247
  8
0
 62
     7
 10
75.635000000000005
 20
195.43999999999991
 30
0.0
 11
75.663899999999998
 21
195.33500000000001
 31
0.0
  0
LINE
  5
248
  8
0
 62
     7
 10
75.663899999999998
 20
195.33500000000001
 30
0.0
 11
75.690799999999996
 21
195.2289999999999
 31
0.0
  0
LINE
  5
249
  8
0
 62
     7
 10
75.690799999999996
 20
195.2289999999999
 30
0.0
 11
75.716999999999985
 21
195.119
 31
0.0
  0
LINE
  5
24A
  8
0
 62
     7
 10
75.716999999999985
 20
195.119
 30
0.0
 11
75.741100000000003
 21
195.00899999999999
 31
0.0
  0
LINE
  5
24B
  8
0
 62
     7
 10
75.741100000000003
 20
195.00899999999999
 30
0.0
 11
75.763099999999994
 21
194.899
 31
0.0
  0
LINE
  5
24C
  8
0
 62
     7
 10
75.763099999999994
 20
194.899
 30
0.0
 11
75.783799999999999
 21
194.7879999999999
 31
0.0
  0
LINE
  5
24D
  8
0
 62
     7
 10
75.783799999999999
 20
194.7879999999999
 30
0.0
 11
75.810699999999997
 21
194.62899999999999
 31
0.0
  0
LINE
  5
24E
  8
0
 62
     7
 10
75.810699999999997
 20
194.62899999999999
 30
0.0
 11
75.834100000000007
 21
194.47
 31
0.0
  0
LINE
  5
24F
  8
0
 62
     7
 10
75.834100000000007
 20
194.47
 30
0.0
 11
75.854100000000003
 21
194.31
 31
0.0
  0
LINE
  5
250
  8
0
 62
     7
 10
75.854100000000003
 20
194.31
 30
0.0
 11
75.871300000000005
 21
194.14999999999989
 31
0.0
  0
LINE
  5
251
  8
0
 62
     7
 10
75.871300000000005
 20
194.14999999999989
 30
0.0
 11
75.886499999999998
 21
193.98099999999991
 31
0.0
  0
LINE
  5
252
  8
0
 62
     7
 10
75.886499999999998
 20
193.98099999999991
 30
0.0
 11
75.898899999999998
 21
193.81099999999989
 31
0.0
  0
LINE
  5
253
  8
0
 62
     7
 10
73.668499999999995
 20
198.08699999999999
 30
0.0
 11
73.747699999999995
 21
198.03899999999999
 31
0.0
  0
LINE
  5
254
  8
0
 62
     7
 10
73.747699999999995
 20
198.03899999999999
 30
0.0
 11
73.823499999999996
 21
197.9909999999999
 31
0.0
  0
LINE
  5
255
  8
0
 62
     7
 10
73.823499999999996
 20
197.9909999999999
 30
0.0
 11
73.898600000000002
 21
197.94099999999989
 31
0.0
  0
LINE
  5
256
  8
0
 62
     7
 10
73.898600000000002
 20
197.94099999999989
 30
0.0
 11
73.972999999999999
 21
197.88800000000001
 31
0.0
  0
LINE
  5
257
  8
0
 62
     7
 10
73.972999999999999
 20
197.88800000000001
 30
0.0
 11
74.045400000000001
 21
197.83500000000001
 31
0.0
  0
LINE
  5
258
  8
0
 62
     7
 10
74.045400000000001
 20
197.83500000000001
 30
0.0
 11
74.114999999999995
 21
197.78099999999989
 31
0.0
  0
LINE
  5
259
  8
0
 62
     7
 10
74.114999999999995
 20
197.78099999999989
 30
0.0
 11
74.183199999999999
 21
197.726
 31
0.0
  0
LINE
  5
25A
  8
0
 62
     7
 10
74.183199999999999
 20
197.726
 30
0.0
 11
74.252099999999984
 21
197.66800000000001
 31
0.0
  0
LINE
  5
25B
  8
0
 62
     7
 10
74.252099999999984
 20
197.66800000000001
 30
0.0
 11
74.318899999999999
 21
197.61000000000001
 31
0.0
  0
LINE
  5
25C
  8
0
 62
     7
 10
74.318899999999999
 20
197.61000000000001
 30
0.0
 11
74.389899999999997
 21
197.54499999999999
 31
0.0
  0
LINE
  5
25D
  8
0
 62
     7
 10
74.389899999999997
 20
197.54499999999999
 30
0.0
 11
74.458799999999997
 21
197.47900000000001
 31
0.0
  0
LINE
  5
25E
  8
0
 62
     7
 10
74.458799999999997
 20
197.47900000000001
 30
0.0
 11
74.526300000000006
 21
197.41099999999989
 31
0.0
  0
LINE
  5
25F
  8
0
 62
     7
 10
74.526300000000006
 20
197.41099999999989
 30
0.0
 11
74.592500000000001
 21
197.34299999999999
 31
0.0
  0
LINE
  5
260
  8
0
 62
     7
 10
74.592500000000001
 20
197.34299999999999
 30
0.0
 11
74.658600000000007
 21
197.26900000000001
 31
0.0
  0
LINE
  5
261
  8
0
 62
     7
 10
74.658600000000007
 20
197.26900000000001
 30
0.0
 11
74.724100000000007
 21
197.19499999999991
 31
0.0
  0
LINE
  5
262
  8
0
 62
     7
 10
74.724100000000007
 20
197.19499999999991
 30
0.0
 11
74.787499999999994
 21
197.119
 31
0.0
  0
LINE
  5
263
  8
0
 62
     7
 10
74.787499999999994
 20
197.119
 30
0.0
 11
74.848799999999997
 21
197.042
 31
0.0
  0
LINE
  5
264
  8
0
 62
     7
 10
74.848799999999997
 20
197.042
 30
0.0
 11
74.907399999999996
 21
196.964
 31
0.0
  0
LINE
  5
265
  8
0
 62
     7
 10
74.907399999999996
 20
196.964
 30
0.0
 11
74.964500000000001
 21
196.88499999999991
 31
0.0
  0
LINE
  5
266
  8
0
 62
     7
 10
74.964500000000001
 20
196.88499999999991
 30
0.0
 11
75.0197
 21
196.804
 31
0.0
  0
LINE
  5
267
  8
0
 62
     7
 10
75.0197
 20
196.804
 30
0.0
 11
75.072699999999998
 21
196.72200000000001
 31
0.0
  0
LINE
  5
268
  8
0
 62
     7
 10
75.072699999999998
 20
196.72200000000001
 30
0.0
 11
75.1203
 21
196.6459999999999
 31
0.0
  0
LINE
  5
269
  8
0
 62
     7
 10
75.1203
 20
196.6459999999999
 30
0.0
 11
75.165700000000001
 21
196.56899999999999
 31
0.0
  0
LINE
  5
26A
  8
0
 62
     7
 10
75.165700000000001
 20
196.56899999999999
 30
0.0
 11
75.215400000000002
 21
196.48099999999991
 31
0.0
  0
LINE
  5
26B
  8
0
 62
     7
 10
75.215400000000002
 20
196.48099999999991
 30
0.0
 11
75.262200000000007
 21
196.39299999999989
 31
0.0
  0
LINE
  5
26C
  8
0
 62
     7
 10
73.588599999999985
 20
198.13399999999999
 30
0.0
 11
73.668499999999995
 21
198.08699999999999
 31
0.0
  0
LINE
  5
26D
  8
0
 62
     7
 10
70.871700000000004
 20
198.82799999999989
 30
0.0
 11
71.071600000000004
 21
198.8129999999999
 31
0.0
  0
LINE
  5
26E
  8
0
 62
     7
 10
71.071600000000004
 20
198.8129999999999
 30
0.0
 11
71.2714
 21
198.79400000000001
 31
0.0
  0
LINE
  5
26F
  8
0
 62
     7
 10
71.2714
 20
198.79400000000001
 30
0.0
 11
71.470500000000001
 21
198.7709999999999
 31
0.0
  0
LINE
  5
270
  8
0
 62
     7
 10
71.470500000000001
 20
198.7709999999999
 30
0.0
 11
71.693799999999996
 21
198.74000000000001
 31
0.0
  0
LINE
  5
271
  8
0
 62
     7
 10
71.693799999999996
 20
198.74000000000001
 30
0.0
 11
71.804699999999997
 21
198.72200000000001
 31
0.0
  0
LINE
  5
272
  8
0
 62
     7
 10
71.804699999999997
 20
198.72200000000001
 30
0.0
 11
71.915599999999984
 21
198.703
 31
0.0
  0
LINE
  5
273
  8
0
 62
     7
 10
71.915599999999984
 20
198.703
 30
0.0
 11
72.021699999999996
 21
198.68299999999991
 31
0.0
  0
LINE
  5
274
  8
0
 62
     7
 10
72.021699999999996
 20
198.68299999999991
 30
0.0
 11
72.127799999999993
 21
198.66099999999989
 31
0.0
  0
LINE
  5
275
  8
0
 62
     7
 10
72.127799999999993
 20
198.66099999999989
 30
0.0
 11
72.2333
 21
198.63800000000001
 31
0.0
  0
LINE
  5
276
  8
0
 62
     7
 10
72.2333
 20
198.63800000000001
 30
0.0
 11
72.338700000000003
 21
198.61299999999989
 31
0.0
  0
LINE
  5
277
  8
0
 62
     7
 10
72.338700000000003
 20
198.61299999999989
 30
0.0
 11
72.435100000000006
 21
198.589
 31
0.0
  0
LINE
  5
278
  8
0
 62
     7
 10
72.435100000000006
 20
198.589
 30
0.0
 11
72.530900000000003
 21
198.56299999999999
 31
0.0
  0
LINE
  5
279
  8
0
 62
     7
 10
72.530900000000003
 20
198.56299999999999
 30
0.0
 11
72.626699999999985
 21
198.535
 31
0.0
  0
LINE
  5
27A
  8
0
 62
     7
 10
72.626699999999985
 20
198.535
 30
0.0
 11
72.721800000000002
 21
198.50599999999989
 31
0.0
  0
LINE
  5
27B
  8
0
 62
     7
 10
72.721800000000002
 20
198.50599999999989
 30
0.0
 11
72.814800000000005
 21
198.47499999999999
 31
0.0
  0
LINE
  5
27C
  8
0
 62
     7
 10
72.814800000000005
 20
198.47499999999999
 30
0.0
 11
72.907799999999995
 21
198.4429999999999
 31
0.0
  0
LINE
  5
27D
  8
0
 62
     7
 10
72.907799999999995
 20
198.4429999999999
 30
0.0
 11
72.999499999999983
 21
198.40899999999999
 31
0.0
  0
LINE
  5
27E
  8
0
 62
     7
 10
72.999499999999983
 20
198.40899999999999
 30
0.0
 11
73.091099999999997
 21
198.37299999999991
 31
0.0
  0
LINE
  5
27F
  8
0
 62
     7
 10
73.091099999999997
 20
198.37299999999991
 30
0.0
 11
73.175799999999995
 21
198.33699999999999
 31
0.0
  0
LINE
  5
280
  8
0
 62
     7
 10
73.175799999999995
 20
198.33699999999999
 30
0.0
 11
73.259900000000002
 21
198.3009999999999
 31
0.0
  0
LINE
  5
281
  8
0
 62
     7
 10
73.259900000000002
 20
198.3009999999999
 30
0.0
 11
73.343299999999999
 21
198.262
 31
0.0
  0
LINE
  5
282
  8
0
 62
     7
 10
73.343299999999999
 20
198.262
 30
0.0
 11
73.426000000000002
 21
198.22099999999989
 31
0.0
  0
LINE
  5
283
  8
0
 62
     7
 10
73.426000000000002
 20
198.22099999999989
 30
0.0
 11
73.507999999999996
 21
198.178
 31
0.0
  0
LINE
  5
284
  8
0
 62
     7
 10
69.227900000000005
 20
198.87299999999991
 30
0.0
 11
69.601399999999984
 21
198.86699999999999
 31
0.0
  0
LINE
  5
285
  8
0
 62
     7
 10
69.601399999999984
 20
198.86699999999999
 30
0.0
 11
69.989099999999993
 21
198.85799999999989
 31
0.0
  0
LINE
  5
286
  8
0
 62
     7
 10
69.989099999999993
 20
198.85799999999989
 30
0.0
 11
70.282600000000002
 21
198.85099999999991
 31
0.0
  0
LINE
  5
287
  8
0
 62
     7
 10
70.282600000000002
 20
198.85099999999991
 30
0.0
 11
70.441800000000001
 21
198.84700000000001
 31
0.0
  0
LINE
  5
288
  8
0
 62
     7
 10
70.441800000000001
 20
198.84700000000001
 30
0.0
 11
70.671199999999999
 21
198.83799999999999
 31
0.0
  0
LINE
  5
289
  8
0
 62
     7
 10
70.671199999999999
 20
198.83799999999999
 30
0.0
 11
70.871700000000004
 21
198.82799999999989
 31
0.0
  0
LINE
  5
28A
  8
0
 62
     7
 10
65.081400000000002
 20
198.874
 30
0.0
 11
66.869
 21
198.88099999999989
 31
0.0
  0
LINE
  5
28B
  8
0
 62
     7
 10
66.869
 20
198.88099999999989
 30
0.0
 11
67.651099999999985
 21
198.8829999999999
 31
0.0
  0
LINE
  5
28C
  8
0
 62
     7
 10
67.651099999999985
 20
198.8829999999999
 30
0.0
 11
68.439700000000002
 21
198.88099999999989
 31
0.0
  0
LINE
  5
28D
  8
0
 62
     7
 10
68.439700000000002
 20
198.88099999999989
 30
0.0
 11
68.833799999999997
 21
198.87799999999999
 31
0.0
  0
LINE
  5
28E
  8
0
 62
     7
 10
68.833799999999997
 20
198.87799999999999
 30
0.0
 11
69.227900000000005
 21
198.87299999999991
 31
0.0
  0
LINE
  5
28F
  8
0
 62
     7
 10
73.507999999999996
 20
198.178
 30
0.0
 11
73.588599999999985
 21
198.13399999999999
 31
0.0
  0
LINE
  5
290
  8
0
 62
     7
 10
60.207599999999999
 20
198.88099999999989
 30
0.0
 11
60.994799999999991
 21
198.8829999999999
 31
0.0
  0
LINE
  5
291
  8
0
 62
     7
 10
60.994799999999991
 20
198.8829999999999
 30
0.0
 11
61.77579999999999
 21
198.88099999999989
 31
0.0
  0
LINE
  5
292
  8
0
 62
     7
 10
61.77579999999999
 20
198.88099999999989
 30
0.0
 11
63.578600000000002
 21
198.874
 31
0.0
  0
LINE
  5
293
  8
0
 62
     7
 10
63.578600000000002
 20
198.874
 30
0.0
 11
64.325900000000004
 21
198.87200000000001
 31
0.0
  0
LINE
  5
294
  8
0
 62
     7
 10
57.578600000000002
 20
198.8129999999999
 30
0.0
 11
57.778399999999998
 21
198.82699999999991
 31
0.0
  0
LINE
  5
295
  8
0
 62
     7
 10
57.778399999999998
 20
198.82699999999991
 30
0.0
 11
57.978900000000003
 21
198.83799999999999
 31
0.0
  0
LINE
  5
296
  8
0
 62
     7
 10
57.978900000000003
 20
198.83799999999999
 30
0.0
 11
58.207999999999998
 21
198.84700000000001
 31
0.0
  0
LINE
  5
297
  8
0
 62
     7
 10
58.207999999999998
 20
198.84700000000001
 30
0.0
 11
58.36719999999999
 21
198.85099999999991
 31
0.0
  0
LINE
  5
298
  8
0
 62
     7
 10
58.36719999999999
 20
198.85099999999991
 30
0.0
 11
58.660400000000003
 21
198.85799999999989
 31
0.0
  0
LINE
  5
299
  8
0
 62
     7
 10
58.660400000000003
 20
198.85799999999989
 30
0.0
 11
59.047899999999998
 21
198.86699999999999
 31
0.0
  0
LINE
  5
29A
  8
0
 62
     7
 10
59.047899999999998
 20
198.86699999999999
 30
0.0
 11
59.420699999999997
 21
198.87299999999991
 31
0.0
  0
LINE
  5
29B
  8
0
 62
     7
 10
59.420699999999997
 20
198.87299999999991
 30
0.0
 11
59.814100000000003
 21
198.87799999999999
 31
0.0
  0
LINE
  5
29C
  8
0
 62
     7
 10
55.3872
 20
198.29799999999989
 30
0.0
 11
55.471200000000003
 21
198.33500000000001
 31
0.0
  0
LINE
  5
29D
  8
0
 62
     7
 10
55.471200000000003
 20
198.33500000000001
 30
0.0
 11
55.555999999999997
 21
198.3709999999999
 31
0.0
  0
LINE
  5
29E
  8
0
 62
     7
 10
55.555999999999997
 20
198.3709999999999
 30
0.0
 11
55.647300000000001
 21
198.40700000000001
 31
0.0
  0
LINE
  5
29F
  8
0
 62
     7
 10
55.647300000000001
 20
198.40700000000001
 30
0.0
 11
55.739199999999997
 21
198.44200000000001
 31
0.0
  0
LINE
  5
2A0
  8
0
 62
     7
 10
55.739199999999997
 20
198.44200000000001
 30
0.0
 11
55.831899999999997
 21
198.47399999999999
 31
0.0
  0
LINE
  5
2A1
  8
0
 62
     7
 10
55.831899999999997
 20
198.47399999999999
 30
0.0
 11
55.9253
 21
198.50399999999999
 31
0.0
  0
LINE
  5
2A2
  8
0
 62
     7
 10
55.9253
 20
198.50399999999999
 30
0.0
 11
56.020400000000002
 21
198.53399999999999
 31
0.0
  0
LINE
  5
2A3
  8
0
 62
     7
 10
56.020400000000002
 20
198.53399999999999
 30
0.0
 11
56.116100000000003
 21
198.56099999999989
 31
0.0
  0
LINE
  5
2A4
  8
0
 62
     7
 10
56.116100000000003
 20
198.56099999999989
 30
0.0
 11
56.212600000000002
 21
198.58799999999999
 31
0.0
  0
LINE
  5
2A5
  8
0
 62
     7
 10
56.212600000000002
 20
198.58799999999999
 30
0.0
 11
56.309100000000001
 21
198.61199999999991
 31
0.0
  0
LINE
  5
2A6
  8
0
 62
     7
 10
56.309100000000001
 20
198.61199999999991
 30
0.0
 11
56.41449999999999
 21
198.63699999999989
 31
0.0
  0
LINE
  5
2A7
  8
0
 62
     7
 10
56.41449999999999
 20
198.63699999999989
 30
0.0
 11
56.520600000000002
 21
198.66099999999989
 31
0.0
  0
LINE
  5
2A8
  8
0
 62
     7
 10
56.520600000000002
 20
198.66099999999989
 30
0.0
 11
56.627000000000002
 21
198.68199999999999
 31
0.0
  0
LINE
  5
2A9
  8
0
 62
     7
 10
56.627000000000002
 20
198.68199999999999
 30
0.0
 11
56.733499999999999
 21
198.703
 31
0.0
  0
LINE
  5
2AA
  8
0
 62
     7
 10
56.733499999999999
 20
198.703
 30
0.0
 11
56.844799999999999
 21
198.72200000000001
 31
0.0
  0
LINE
  5
2AB
  8
0
 62
     7
 10
56.844799999999999
 20
198.72200000000001
 30
0.0
 11
56.956099999999999
 21
198.74000000000001
 31
0.0
  0
LINE
  5
2AC
  8
0
 62
     7
 10
56.956099999999999
 20
198.74000000000001
 30
0.0
 11
57.179299999999991
 21
198.7709999999999
 31
0.0
  0
LINE
  5
2AD
  8
0
 62
     7
 10
57.179299999999991
 20
198.7709999999999
 30
0.0
 11
57.378799999999998
 21
198.79400000000001
 31
0.0
  0
LINE
  5
2AE
  8
0
 62
     7
 10
57.378799999999998
 20
198.79400000000001
 30
0.0
 11
57.578600000000002
 21
198.8129999999999
 31
0.0
  0
LINE
  5
2AF
  8
0
 62
     7
 10
59.814100000000003
 20
198.87799999999999
 30
0.0
 11
60.207599999999999
 21
198.88099999999989
 31
0.0
  0
LINE
  5
2B0
  8
0
 62
     7
 10
48.205800000000004
 20
201.9309999999999
 30
0.0
 11
47.625599999999991
 21
201.9309999999999
 31
0.0
  0
LINE
  5
2B1
  8
0
 62
     7
 10
54.900399999999998
 20
198.03700000000001
 30
0.0
 11
54.979199999999999
 21
198.08500000000001
 31
0.0
  0
LINE
  5
2B2
  8
0
 62
     7
 10
54.979199999999999
 20
198.08500000000001
 30
0.0
 11
55.058799999999998
 21
198.13099999999989
 31
0.0
  0
LINE
  5
2B3
  8
0
 62
     7
 10
55.058799999999998
 20
198.13099999999989
 30
0.0
 11
55.139800000000001
 21
198.1759999999999
 31
0.0
  0
LINE
  5
2B4
  8
0
 62
     7
 10
55.139800000000001
 20
198.1759999999999
 30
0.0
 11
55.221400000000003
 21
198.21899999999999
 31
0.0
  0
LINE
  5
2B5
  8
0
 62
     7
 10
55.221400000000003
 20
198.21899999999999
 30
0.0
 11
55.304099999999991
 21
198.25999999999991
 31
0.0
  0
LINE
  5
2B6
  8
0
 62
     7
 10
53.342500000000001
 20
196.29899999999989
 30
0.0
 11
53.387599999999999
 21
196.38900000000001
 31
0.0
  0
LINE
  5
2B7
  8
0
 62
     7
 10
53.387599999999999
 20
196.38900000000001
 30
0.0
 11
53.431999999999988
 21
196.4729999999999
 31
0.0
  0
LINE
  5
2B8
  8
0
 62
     7
 10
53.431999999999988
 20
196.4729999999999
 30
0.0
 11
53.4786
 21
196.5559999999999
 31
0.0
  0
LINE
  5
2B9
  8
0
 62
     7
 10
53.4786
 20
196.5559999999999
 30
0.0
 11
53.526800000000001
 21
196.63800000000001
 31
0.0
  0
LINE
  5
2BA
  8
0
 62
     7
 10
53.526800000000001
 20
196.63800000000001
 30
0.0
 11
53.576700000000002
 21
196.71899999999999
 31
0.0
  0
LINE
  5
2BB
  8
0
 62
     7
 10
53.576700000000002
 20
196.71899999999999
 30
0.0
 11
53.629800000000003
 21
196.8009999999999
 31
0.0
  0
LINE
  5
2BC
  8
0
 62
     7
 10
53.629800000000003
 20
196.8009999999999
 30
0.0
 11
53.684899999999999
 21
196.88200000000001
 31
0.0
  0
LINE
  5
2BD
  8
0
 62
     7
 10
53.684899999999999
 20
196.88200000000001
 30
0.0
 11
53.741799999999991
 21
196.9609999999999
 31
0.0
  0
LINE
  5
2BE
  8
0
 62
     7
 10
53.741799999999991
 20
196.9609999999999
 30
0.0
 11
53.800699999999992
 21
197.03899999999999
 31
0.0
  0
LINE
  5
2BF
  8
0
 62
     7
 10
53.800699999999992
 20
197.03899999999999
 30
0.0
 11
53.858899999999991
 21
197.113
 31
0.0
  0
LINE
  5
2C0
  8
0
 62
     7
 10
53.858899999999991
 20
197.113
 30
0.0
 11
53.919199999999989
 21
197.185
 31
0.0
  0
LINE
  5
2C1
  8
0
 62
     7
 10
53.919199999999989
 20
197.185
 30
0.0
 11
53.980899999999991
 21
197.25599999999989
 31
0.0
  0
LINE
  5
2C2
  8
0
 62
     7
 10
53.980899999999991
 20
197.25599999999989
 30
0.0
 11
54.044199999999996
 21
197.32599999999991
 31
0.0
  0
LINE
  5
2C3
  8
0
 62
     7
 10
54.044199999999996
 20
197.32599999999991
 30
0.0
 11
54.113100000000003
 21
197.399
 31
0.0
  0
LINE
  5
2C4
  8
0
 62
     7
 10
54.113100000000003
 20
197.399
 30
0.0
 11
54.183399999999999
 21
197.47
 31
0.0
  0
LINE
  5
2C5
  8
0
 62
     7
 10
54.183399999999999
 20
197.47
 30
0.0
 11
54.255800000000001
 21
197.53899999999999
 31
0.0
  0
LINE
  5
2C6
  8
0
 62
     7
 10
54.255800000000001
 20
197.53899999999999
 30
0.0
 11
54.3292
 21
197.60699999999991
 31
0.0
  0
LINE
  5
2C7
  8
0
 62
     7
 10
54.3292
 20
197.60699999999991
 30
0.0
 11
54.396299999999997
 21
197.666
 31
0.0
  0
LINE
  5
2C8
  8
0
 62
     7
 10
54.396299999999997
 20
197.666
 30
0.0
 11
54.4649
 21
197.72399999999999
 31
0.0
  0
LINE
  5
2C9
  8
0
 62
     7
 10
54.4649
 20
197.72399999999999
 30
0.0
 11
54.533099999999997
 21
197.779
 31
0.0
  0
LINE
  5
2CA
  8
0
 62
     7
 10
54.533099999999997
 20
197.779
 30
0.0
 11
54.602699999999999
 21
197.83199999999999
 31
0.0
  0
LINE
  5
2CB
  8
0
 62
     7
 10
54.602699999999999
 20
197.83199999999999
 30
0.0
 11
54.671900000000001
 21
197.8829999999999
 31
0.0
  0
LINE
  5
2CC
  8
0
 62
     7
 10
54.671900000000001
 20
197.8829999999999
 30
0.0
 11
54.74260000000001
 21
197.93299999999999
 31
0.0
  0
LINE
  5
2CD
  8
0
 62
     7
 10
54.74260000000001
 20
197.93299999999999
 30
0.0
 11
54.820799999999991
 21
197.98599999999999
 31
0.0
  0
LINE
  5
2CE
  8
0
 62
     7
 10
54.820799999999991
 20
197.98599999999999
 30
0.0
 11
54.900399999999998
 21
198.03700000000001
 31
0.0
  0
LINE
  5
2CF
  8
0
 62
     7
 10
52.753
 20
193.81
 30
0.0
 11
52.765099999999997
 21
193.97900000000001
 31
0.0
  0
LINE
  5
2D0
  8
0
 62
     7
 10
52.765099999999997
 20
193.97900000000001
 30
0.0
 11
52.780200000000001
 21
194.148
 31
0.0
  0
LINE
  5
2D1
  8
0
 62
     7
 10
52.780200000000001
 20
194.148
 30
0.0
 11
52.797499999999992
 21
194.30799999999991
 31
0.0
  0
LINE
  5
2D2
  8
0
 62
     7
 10
52.797499999999992
 20
194.30799999999991
 30
0.0
 11
52.817399999999999
 21
194.4679999999999
 31
0.0
  0
LINE
  5
2D3
  8
0
 62
     7
 10
52.817399999999999
 20
194.4679999999999
 30
0.0
 11
52.840899999999991
 21
194.62700000000001
 31
0.0
  0
LINE
  5
2D4
  8
0
 62
     7
 10
52.840899999999991
 20
194.62700000000001
 30
0.0
 11
52.867400000000004
 21
194.78599999999989
 31
0.0
  0
LINE
  5
2D5
  8
0
 62
     7
 10
52.867400000000004
 20
194.78599999999989
 30
0.0
 11
52.887700000000002
 21
194.8959999999999
 31
0.0
  0
LINE
  5
2D6
  8
0
 62
     7
 10
52.887700000000002
 20
194.8959999999999
 30
0.0
 11
52.910099999999993
 21
195.00599999999989
 31
0.0
  0
LINE
  5
2D7
  8
0
 62
     7
 10
52.910099999999993
 20
195.00599999999989
 30
0.0
 11
52.934199999999997
 21
195.1159999999999
 31
0.0
  0
LINE
  5
2D8
  8
0
 62
     7
 10
52.934199999999997
 20
195.1159999999999
 30
0.0
 11
52.96009999999999
 21
195.22499999999999
 31
0.0
  0
LINE
  5
2D9
  8
0
 62
     7
 10
52.96009999999999
 20
195.22499999999999
 30
0.0
 11
52.986600000000003
 21
195.32900000000001
 31
0.0
  0
LINE
  5
2DA
  8
0
 62
     7
 10
52.986600000000003
 20
195.32900000000001
 30
0.0
 11
53.014800000000001
 21
195.43299999999991
 31
0.0
  0
LINE
  5
2DB
  8
0
 62
     7
 10
53.014800000000001
 20
195.43299999999991
 30
0.0
 11
53.046199999999992
 21
195.53899999999999
 31
0.0
  0
LINE
  5
2DC
  8
0
 62
     7
 10
53.046199999999992
 20
195.53899999999999
 30
0.0
 11
53.079599999999999
 21
195.64500000000001
 31
0.0
  0
LINE
  5
2DD
  8
0
 62
     7
 10
53.079599999999999
 20
195.64500000000001
 30
0.0
 11
53.111999999999988
 21
195.74199999999999
 31
0.0
  0
LINE
  5
2DE
  8
0
 62
     7
 10
53.111999999999988
 20
195.74199999999999
 30
0.0
 11
53.146099999999997
 21
195.83799999999999
 31
0.0
  0
LINE
  5
2DF
  8
0
 62
     7
 10
53.146099999999997
 20
195.83799999999999
 30
0.0
 11
53.181600000000003
 21
195.9309999999999
 31
0.0
  0
LINE
  5
2E0
  8
0
 62
     7
 10
53.181600000000003
 20
195.9309999999999
 30
0.0
 11
53.21909999999999
 21
196.02500000000001
 31
0.0
  0
LINE
  5
2E1
  8
0
 62
     7
 10
53.21909999999999
 20
196.02500000000001
 30
0.0
 11
53.258400000000002
 21
196.11699999999999
 31
0.0
  0
LINE
  5
2E2
  8
0
 62
     7
 10
53.258400000000002
 20
196.11699999999999
 30
0.0
 11
53.299399999999999
 21
196.209
 31
0.0
  0
LINE
  5
2E3
  8
0
 62
     7
 10
53.299399999999999
 20
196.209
 30
0.0
 11
53.342500000000001
 21
196.29899999999989
 31
0.0
  0
LINE
  5
2E4
  8
0
 62
     7
 10
48.205800000000004
 20
201.9309999999999
 30
0.0
 11
64.325900000000004
 21
201.9309999999999
 31
0.0
  0
LINE
  5
2E5
  8
0
 62
     7
 10
55.304099999999991
 20
198.25999999999991
 30
0.0
 11
55.3872
 21
198.29799999999989
 31
0.0
  0
LINE
  5
2E6
  8
0
 62
     7
 10
64.325900000000004
 20
198.87200000000001
 30
0.0
 11
65.081400000000002
 21
198.874
 31
0.0
  0
LINE
  5
2E7
  8
0
 62
     7
 10
75.918199999999999
 20
193.304
 30
0.0
 11
75.923699999999997
 21
193.04899999999989
 31
0.0
  0
LINE
  5
2E8
  8
0
 62
     7
 10
75.923699999999997
 20
193.04899999999989
 30
0.0
 11
75.929199999999994
 21
192.79599999999991
 31
0.0
  0
LINE
  5
2E9
  8
0
 62
     7
 10
75.929199999999994
 20
192.79599999999991
 30
0.0
 11
75.939499999999995
 21
192.249
 31
0.0
  0
LINE
  5
2EA
  8
0
 62
     7
 10
75.939499999999995
 20
192.249
 30
0.0
 11
75.949200000000005
 21
191.60400000000001
 31
0.0
  0
LINE
  5
2EB
  8
0
 62
     7
 10
75.949200000000005
 20
191.60400000000001
 30
0.0
 11
75.957400000000007
 21
190.959
 31
0.0
  0
LINE
  5
2EC
  8
0
 62
     7
 10
75.957400000000007
 20
190.959
 30
0.0
 11
75.964299999999994
 21
190.32099999999991
 31
0.0
  0
LINE
  5
2ED
  8
0
 62
     7
 10
75.964299999999994
 20
190.32099999999991
 30
0.0
 11
75.968500000000006
 21
189.68299999999991
 31
0.0
  0
LINE
  5
2EE
  8
0
 62
     7
 10
75.968500000000006
 20
189.68299999999991
 30
0.0
 11
75.971199999999996
 21
189.04400000000001
 31
0.0
  0
LINE
  5
2EF
  8
0
 62
     7
 10
75.971199999999996
 20
189.04400000000001
 30
0.0
 11
75.9726
 21
188.40599999999989
 31
0.0
  0
LINE
  5
2F0
  8
0
 62
     7
 10
75.907799999999995
 20
193.6329999999999
 30
0.0
 11
75.914699999999996
 21
193.45400000000001
 31
0.0
  0
LINE
  5
2F1
  8
0
 62
     7
 10
75.914699999999996
 20
193.45400000000001
 30
0.0
 11
75.918199999999999
 21
193.304
 31
0.0
  0
LINE
  5
2F2
  8
0
 62
     7
 10
75.971199999999996
 20
187.73699999999991
 30
0.0
 11
75.968500000000006
 21
187.0679999999999
 31
0.0
  0
LINE
  5
2F3
  8
0
 62
     7
 10
75.968500000000006
 20
187.0679999999999
 30
0.0
 11
75.9636
 21
186.35499999999999
 31
0.0
  0
LINE
  5
2F4
  8
0
 62
     7
 10
75.9636
 20
186.35499999999999
 30
0.0
 11
75.956699999999998
 21
185.64299999999989
 31
0.0
  0
LINE
  5
2F5
  8
0
 62
     7
 10
75.956699999999998
 20
185.64299999999989
 30
0.0
 11
75.945700000000002
 21
184.73699999999991
 31
0.0
  0
LINE
  5
2F6
  8
0
 62
     7
 10
75.945700000000002
 20
184.73699999999991
 30
0.0
 11
75.932599999999994
 21
183.8309999999999
 31
0.0
  0
LINE
  5
2F7
  8
0
 62
     7
 10
75.932599999999994
 20
183.8309999999999
 30
0.0
 11
75.927099999999996
 21
183.4859999999999
 31
0.0
  0
LINE
  5
2F8
  8
0
 62
     7
 10
75.927099999999996
 20
183.4859999999999
 30
0.0
 11
75.920900000000003
 21
183.15899999999999
 31
0.0
  0
LINE
  5
2F9
  8
0
 62
     7
 10
75.920900000000003
 20
183.15899999999999
 30
0.0
 11
75.915400000000005
 21
182.82900000000001
 31
0.0
  0
LINE
  5
2FA
  8
0
 62
     7
 10
75.915400000000005
 20
182.82900000000001
 30
0.0
 11
75.908500000000004
 21
182.482
 31
0.0
  0
LINE
  5
2FB
  8
0
 62
     7
 10
75.9726
 20
188.40599999999989
 30
0.0
 11
75.971199999999996
 21
187.73699999999991
 31
0.0
  0
LINE
  5
2FC
  8
0
 62
     7
 10
73.637500000000003
 20
177.80000000000001
 30
0.0
 11
73.551999999999992
 21
177.749
 31
0.0
  0
LINE
  5
2FD
  8
0
 62
     7
 10
75.264300000000006
 20
179.5029999999999
 30
0.0
 11
75.2209
 21
179.41999999999999
 31
0.0
  0
LINE
  5
2FE
  8
0
 62
     7
 10
75.2209
 20
179.41999999999999
 30
0.0
 11
75.174700000000001
 21
179.339
 31
0.0
  0
LINE
  5
2FF
  8
0
 62
     7
 10
75.174700000000001
 20
179.339
 30
0.0
 11
75.126499999999993
 21
179.2579999999999
 31
0.0
  0
LINE
  5
300
  8
0
 62
     7
 10
75.126499999999993
 20
179.2579999999999
 30
0.0
 11
75.076899999999995
 21
179.17899999999989
 31
0.0
  0
LINE
  5
301
  8
0
 62
     7
 10
75.076899999999995
 20
179.17899999999989
 30
0.0
 11
75.025899999999993
 21
179.09999999999991
 31
0.0
  0
LINE
  5
302
  8
0
 62
     7
 10
75.025899999999993
 20
179.09999999999991
 30
0.0
 11
74.972099999999983
 21
179.023
 31
0.0
  0
LINE
  5
303
  8
0
 62
     7
 10
74.972099999999983
 20
179.023
 30
0.0
 11
74.917000000000002
 21
178.947
 31
0.0
  0
LINE
  5
304
  8
0
 62
     7
 10
74.917000000000002
 20
178.947
 30
0.0
 11
74.859800000000007
 21
178.87200000000001
 31
0.0
  0
LINE
  5
305
  8
0
 62
     7
 10
74.859800000000007
 20
178.87200000000001
 30
0.0
 11
74.800600000000003
 21
178.79900000000001
 31
0.0
  0
LINE
  5
306
  8
0
 62
     7
 10
74.800600000000003
 20
178.79900000000001
 30
0.0
 11
74.739900000000006
 21
178.726
 31
0.0
  0
LINE
  5
307
  8
0
 62
     7
 10
74.739900000000006
 20
178.726
 30
0.0
 11
74.681399999999996
 21
178.65899999999999
 31
0.0
  0
LINE
  5
308
  8
0
 62
     7
 10
74.681399999999996
 20
178.65899999999999
 30
0.0
 11
74.621399999999994
 21
178.59399999999999
 31
0.0
  0
LINE
  5
309
  8
0
 62
     7
 10
74.621399999999994
 20
178.59399999999999
 30
0.0
 11
74.5518
 21
178.52199999999999
 31
0.0
  0
LINE
  5
30A
  8
0
 62
     7
 10
74.5518
 20
178.52199999999999
 30
0.0
 11
74.480900000000005
 21
178.45099999999999
 31
0.0
  0
LINE
  5
30B
  8
0
 62
     7
 10
74.480900000000005
 20
178.45099999999999
 30
0.0
 11
74.411299999999997
 21
178.38399999999999
 31
0.0
  0
LINE
  5
30C
  8
0
 62
     7
 10
74.411299999999997
 20
178.38399999999999
 30
0.0
 11
74.340299999999985
 21
178.31899999999999
 31
0.0
  0
LINE
  5
30D
  8
0
 62
     7
 10
74.340299999999985
 20
178.31899999999999
 30
0.0
 11
74.267899999999997
 21
178.25599999999989
 31
0.0
  0
LINE
  5
30E
  8
0
 62
     7
 10
74.267899999999997
 20
178.25599999999989
 30
0.0
 11
74.194199999999995
 21
178.19399999999999
 31
0.0
  0
LINE
  5
30F
  8
0
 62
     7
 10
74.194199999999995
 20
178.19399999999999
 30
0.0
 11
74.119799999999984
 21
178.1329999999999
 31
0.0
  0
LINE
  5
310
  8
0
 62
     7
 10
74.119799999999984
 20
178.1329999999999
 30
0.0
 11
74.043300000000002
 21
178.07400000000001
 31
0.0
  0
LINE
  5
311
  8
0
 62
     7
 10
74.043300000000002
 20
178.07400000000001
 30
0.0
 11
73.966200000000001
 21
178.017
 31
0.0
  0
LINE
  5
312
  8
0
 62
     7
 10
73.966200000000001
 20
178.017
 30
0.0
 11
73.887600000000006
 21
177.9609999999999
 31
0.0
  0
LINE
  5
313
  8
0
 62
     7
 10
73.887600000000006
 20
177.9609999999999
 30
0.0
 11
73.805599999999998
 21
177.90599999999989
 31
0.0
  0
LINE
  5
314
  8
0
 62
     7
 10
73.805599999999998
 20
177.90599999999989
 30
0.0
 11
73.722200000000001
 21
177.852
 31
0.0
  0
LINE
  5
315
  8
0
 62
     7
 10
73.722200000000001
 20
177.852
 30
0.0
 11
73.637500000000003
 21
177.80000000000001
 31
0.0
  0
LINE
  5
316
  8
0
 62
     7
 10
75.889200000000002
 20
182.00700000000001
 30
0.0
 11
75.885099999999994
 21
181.94499999999991
 31
0.0
  0
LINE
  5
317
  8
0
 62
     7
 10
75.885099999999994
 20
181.94499999999991
 30
0.0
 11
75.878900000000002
 21
181.86000000000001
 31
0.0
  0
LINE
  5
318
  8
0
 62
     7
 10
75.878900000000002
 20
181.86000000000001
 30
0.0
 11
75.873400000000004
 21
181.7949999999999
 31
0.0
  0
LINE
  5
319
  8
0
 62
     7
 10
75.873400000000004
 20
181.7949999999999
 30
0.0
 11
75.867199999999997
 21
181.72799999999989
 31
0.0
  0
LINE
  5
31A
  8
0
 62
     7
 10
75.867199999999997
 20
181.72799999999989
 30
0.0
 11
75.849900000000005
 21
181.56899999999999
 31
0.0
  0
LINE
  5
31B
  8
0
 62
     7
 10
75.849900000000005
 20
181.56899999999999
 30
0.0
 11
75.832700000000003
 21
181.42699999999999
 31
0.0
  0
LINE
  5
31C
  8
0
 62
     7
 10
75.832700000000003
 20
181.42699999999999
 30
0.0
 11
75.812700000000007
 21
181.2829999999999
 31
0.0
  0
LINE
  5
31D
  8
0
 62
     7
 10
75.812700000000007
 20
181.2829999999999
 30
0.0
 11
75.794799999999995
 21
181.172
 31
0.0
  0
LINE
  5
31E
  8
0
 62
     7
 10
75.794799999999995
 20
181.172
 30
0.0
 11
75.775499999999994
 21
181.06200000000001
 31
0.0
  0
LINE
  5
31F
  8
0
 62
     7
 10
75.775499999999994
 20
181.06200000000001
 30
0.0
 11
75.754900000000006
 21
180.95099999999991
 31
0.0
  0
LINE
  5
320
  8
0
 62
     7
 10
75.754900000000006
 20
180.95099999999991
 30
0.0
 11
75.732100000000003
 21
180.84099999999989
 31
0.0
  0
LINE
  5
321
  8
0
 62
     7
 10
75.732100000000003
 20
180.84099999999989
 30
0.0
 11
75.707999999999998
 21
180.733
 31
0.0
  0
LINE
  5
322
  8
0
 62
     7
 10
75.707999999999998
 20
180.733
 30
0.0
 11
75.681799999999996
 21
180.625
 31
0.0
  0
LINE
  5
323
  8
0
 62
     7
 10
75.681799999999996
 20
180.625
 30
0.0
 11
75.654899999999998
 21
180.52199999999999
 31
0.0
  0
LINE
  5
324
  8
0
 62
     7
 10
75.654899999999998
 20
180.52199999999999
 30
0.0
 11
75.626000000000005
 21
180.41900000000001
 31
0.0
  0
LINE
  5
325
  8
0
 62
     7
 10
75.626000000000005
 20
180.41900000000001
 30
0.0
 11
75.597099999999983
 21
180.32099999999991
 31
0.0
  0
LINE
  5
326
  8
0
 62
     7
 10
75.597099999999983
 20
180.32099999999991
 30
0.0
 11
75.565399999999997
 21
180.22200000000001
 31
0.0
  0
LINE
  5
327
  8
0
 62
     7
 10
75.565399999999997
 20
180.22200000000001
 30
0.0
 11
75.532300000000006
 21
180.124
 31
0.0
  0
LINE
  5
328
  8
0
 62
     7
 10
75.532300000000006
 20
180.124
 30
0.0
 11
75.497200000000007
 21
180.02699999999999
 31
0.0
  0
LINE
  5
329
  8
0
 62
     7
 10
75.497200000000007
 20
180.02699999999999
 30
0.0
 11
75.462000000000003
 21
179.93700000000001
 31
0.0
  0
LINE
  5
32A
  8
0
 62
     7
 10
75.462000000000003
 20
179.93700000000001
 30
0.0
 11
75.4255
 21
179.84700000000001
 31
0.0
  0
LINE
  5
32B
  8
0
 62
     7
 10
75.4255
 20
179.84700000000001
 30
0.0
 11
75.387600000000006
 21
179.7579999999999
 31
0.0
  0
LINE
  5
32C
  8
0
 62
     7
 10
75.387600000000006
 20
179.7579999999999
 30
0.0
 11
75.3476
 21
179.6699999999999
 31
0.0
  0
LINE
  5
32D
  8
0
 62
     7
 10
75.3476
 20
179.6699999999999
 30
0.0
 11
75.307000000000002
 21
179.5859999999999
 31
0.0
  0
LINE
  5
32E
  8
0
 62
     7
 10
75.307000000000002
 20
179.5859999999999
 30
0.0
 11
75.264300000000006
 21
179.5029999999999
 31
0.0
  0
LINE
  5
32F
  8
0
 62
     7
 10
75.906400000000005
 20
182.392
 30
0.0
 11
75.904399999999995
 21
182.31899999999999
 31
0.0
  0
LINE
  5
330
  8
0
 62
     7
 10
75.904399999999995
 20
182.31899999999999
 30
0.0
 11
75.901600000000002
 21
182.244
 31
0.0
  0
LINE
  5
331
  8
0
 62
     7
 10
75.901600000000002
 20
182.244
 30
0.0
 11
75.897499999999994
 21
182.14699999999999
 31
0.0
  0
LINE
  5
332
  8
0
 62
     7
 10
75.897499999999994
 20
182.14699999999999
 30
0.0
 11
75.892700000000005
 21
182.0679999999999
 31
0.0
  0
LINE
  5
333
  8
0
 62
     7
 10
75.892700000000005
 20
182.0679999999999
 30
0.0
 11
75.889200000000002
 21
182.00700000000001
 31
0.0
  0
LINE
  5
334
  8
0
 62
     7
 10
71.112899999999996
 20
177.054
 30
0.0
 11
70.976500000000001
 21
177.0449999999999
 31
0.0
  0
LINE
  5
335
  8
0
 62
     7
 10
70.976500000000001
 20
177.0449999999999
 30
0.0
 11
70.840100000000007
 21
177.0379999999999
 31
0.0
  0
LINE
  5
336
  8
0
 62
     7
 10
70.840100000000007
 20
177.0379999999999
 30
0.0
 11
70.705699999999993
 21
177.03399999999999
 31
0.0
  0
LINE
  5
337
  8
0
 62
     7
 10
70.705699999999993
 20
177.03399999999999
 30
0.0
 11
70.546499999999995
 21
177.03099999999989
 31
0.0
  0
LINE
  5
338
  8
0
 62
     7
 10
70.546499999999995
 20
177.03099999999989
 30
0.0
 11
70.316400000000002
 21
177.02799999999991
 31
0.0
  0
LINE
  5
339
  8
0
 62
     7
 10
70.316400000000002
 20
177.02799999999991
 30
0.0
 11
69.900899999999993
 21
177.0259999999999
 31
0.0
  0
LINE
  5
33A
  8
0
 62
     7
 10
69.900899999999993
 20
177.0259999999999
 30
0.0
 11
69.729200000000006
 21
177.02500000000001
 31
0.0
  0
LINE
  5
33B
  8
0
 62
     7
 10
69.729200000000006
 20
177.02500000000001
 30
0.0
 11
69.527600000000007
 21
177.02299999999991
 31
0.0
  0
LINE
  5
33C
  8
0
 62
     7
 10
69.527600000000007
 20
177.02299999999991
 30
0.0
 11
69.3185
 21
177.02199999999999
 31
0.0
  0
LINE
  5
33D
  8
0
 62
     7
 10
69.3185
 20
177.02199999999999
 30
0.0
 11
69.045299999999997
 21
177.02000000000001
 31
0.0
  0
LINE
  5
33E
  8
0
 62
     7
 10
73.465900000000005
 20
177.6999999999999
 30
0.0
 11
73.378399999999985
 21
177.654
 31
0.0
  0
LINE
  5
33F
  8
0
 62
     7
 10
73.378399999999985
 20
177.654
 30
0.0
 11
73.290199999999984
 21
177.608
 31
0.0
  0
LINE
  5
340
  8
0
 62
     7
 10
73.290199999999984
 20
177.608
 30
0.0
 11
73.200599999999994
 21
177.56499999999991
 31
0.0
  0
LINE
  5
341
  8
0
 62
     7
 10
73.200599999999994
 20
177.56499999999991
 30
0.0
 11
73.115200000000002
 21
177.52499999999989
 31
0.0
  0
LINE
  5
342
  8
0
 62
     7
 10
73.115200000000002
 20
177.52499999999989
 30
0.0
 11
73.028400000000005
 21
177.48699999999991
 31
0.0
  0
LINE
  5
343
  8
0
 62
     7
 10
73.028400000000005
 20
177.48699999999991
 30
0.0
 11
72.941599999999994
 21
177.452
 31
0.0
  0
LINE
  5
344
  8
0
 62
     7
 10
72.941599999999994
 20
177.452
 30
0.0
 11
72.854100000000003
 21
177.416
 31
0.0
  0
LINE
  5
345
  8
0
 62
     7
 10
72.854100000000003
 20
177.416
 30
0.0
 11
72.759
 21
177.38099999999989
 31
0.0
  0
LINE
  5
346
  8
0
 62
     7
 10
72.759
 20
177.38099999999989
 30
0.0
 11
72.662499999999994
 21
177.3479999999999
 31
0.0
  0
LINE
  5
347
  8
0
 62
     7
 10
72.662499999999994
 20
177.3479999999999
 30
0.0
 11
72.566699999999983
 21
177.31700000000001
 31
0.0
  0
LINE
  5
348
  8
0
 62
     7
 10
72.566699999999983
 20
177.31700000000001
 30
0.0
 11
72.4696
 21
177.2879999999999
 31
0.0
  0
LINE
  5
349
  8
0
 62
     7
 10
72.4696
 20
177.2879999999999
 30
0.0
 11
72.377300000000005
 21
177.261
 31
0.0
  0
LINE
  5
34A
  8
0
 62
     7
 10
72.377300000000005
 20
177.261
 30
0.0
 11
72.284899999999993
 21
177.23699999999999
 31
0.0
  0
LINE
  5
34B
  8
0
 62
     7
 10
72.284899999999993
 20
177.23699999999999
 30
0.0
 11
72.1768
 21
177.21000000000001
 31
0.0
  0
LINE
  5
34C
  8
0
 62
     7
 10
72.1768
 20
177.21000000000001
 30
0.0
 11
72.068600000000004
 21
177.18599999999989
 31
0.0
  0
LINE
  5
34D
  8
0
 62
     7
 10
72.068600000000004
 20
177.18599999999989
 30
0.0
 11
71.965199999999996
 21
177.16499999999991
 31
0.0
  0
LINE
  5
34E
  8
0
 62
     7
 10
71.965199999999996
 20
177.16499999999991
 30
0.0
 11
71.861199999999997
 21
177.1459999999999
 31
0.0
  0
LINE
  5
34F
  8
0
 62
     7
 10
71.861199999999997
 20
177.1459999999999
 30
0.0
 11
71.751599999999996
 21
177.12700000000001
 31
0.0
  0
LINE
  5
350
  8
0
 62
     7
 10
71.751599999999996
 20
177.12700000000001
 30
0.0
 11
71.642099999999999
 21
177.11099999999999
 31
0.0
  0
LINE
  5
351
  8
0
 62
     7
 10
71.642099999999999
 20
177.11099999999999
 30
0.0
 11
71.510499999999993
 21
177.0929999999999
 31
0.0
  0
LINE
  5
352
  8
0
 62
     7
 10
71.510499999999993
 20
177.0929999999999
 30
0.0
 11
71.378200000000007
 21
177.07699999999991
 31
0.0
  0
LINE
  5
353
  8
0
 62
     7
 10
71.378200000000007
 20
177.07699999999991
 30
0.0
 11
71.245900000000006
 21
177.06399999999999
 31
0.0
  0
LINE
  5
354
  8
0
 62
     7
 10
71.245900000000006
 20
177.06399999999999
 30
0.0
 11
71.112899999999996
 21
177.054
 31
0.0
  0
LINE
  5
355
  8
0
 62
     7
 10
68.759
 20
177.018
 30
0.0
 11
67.242800000000003
 21
177.00499999999991
 31
0.0
  0
LINE
  5
356
  8
0
 62
     7
 10
67.242800000000003
 20
177.00499999999991
 30
0.0
 11
66.264399999999995
 21
176.99799999999991
 31
0.0
  0
LINE
  5
357
  8
0
 62
     7
 10
66.264399999999995
 20
176.99799999999991
 30
0.0
 11
65.295000000000002
 21
176.99299999999999
 31
0.0
  0
LINE
  5
358
  8
0
 62
     7
 10
69.045299999999997
 20
177.02000000000001
 30
0.0
 11
68.759
 21
177.018
 31
0.0
  0
LINE
  5
359
  8
0
 62
     7
 10
73.551999999999992
 20
177.749
 30
0.0
 11
73.465900000000005
 21
177.6999999999999
 31
0.0
  0
LINE
  5
35A
  8
0
 62
     7
 10
75.908500000000004
 20
182.482
 30
0.0
 11
75.906400000000005
 21
182.392
 31
0.0
  0
LINE
  5
35B
  8
0
 62
     7
 10
52.728200000000001
 20
193.05799999999991
 30
0.0
 11
52.73340000000001
 21
193.303
 31
0.0
  0
LINE
  5
35C
  8
0
 62
     7
 10
52.73340000000001
 20
193.303
 30
0.0
 11
52.737200000000001
 21
193.453
 31
0.0
  0
LINE
  5
35D
  8
0
 62
     7
 10
52.737200000000001
 20
193.453
 30
0.0
 11
52.743699999999997
 21
193.63099999999989
 31
0.0
  0
LINE
  5
35E
  8
0
 62
     7
 10
52.679299999999991
 20
188.3899999999999
 30
0.0
 11
52.680300000000003
 21
189.113
 31
0.0
  0
LINE
  5
35F
  8
0
 62
     7
 10
52.680300000000003
 20
189.113
 30
0.0
 11
52.684100000000001
 21
189.8359999999999
 31
0.0
  0
LINE
  5
360
  8
0
 62
     7
 10
52.684100000000001
 20
189.8359999999999
 30
0.0
 11
52.694099999999999
 21
190.9609999999999
 31
0.0
  0
LINE
  5
361
  8
0
 62
     7
 10
52.694099999999999
 20
190.9609999999999
 30
0.0
 11
52.703099999999999
 21
191.64899999999989
 31
0.0
  0
LINE
  5
362
  8
0
 62
     7
 10
52.703099999999999
 20
191.64899999999989
 30
0.0
 11
52.712699999999998
 21
192.24799999999999
 31
0.0
  0
LINE
  5
363
  8
0
 62
     7
 10
52.712699999999998
 20
192.24799999999999
 30
0.0
 11
52.717500000000001
 21
192.53399999999999
 31
0.0
  0
LINE
  5
364
  8
0
 62
     7
 10
52.717500000000001
 20
192.53399999999999
 30
0.0
 11
52.722700000000003
 21
192.7949999999999
 31
0.0
  0
LINE
  5
365
  8
0
 62
     7
 10
52.722700000000003
 20
192.7949999999999
 30
0.0
 11
52.728200000000001
 21
193.05799999999991
 31
0.0
  0
LINE
  5
366
  8
0
 62
     7
 10
52.743000000000002
 20
182.48400000000001
 30
0.0
 11
52.736499999999992
 21
182.84700000000001
 31
0.0
  0
LINE
  5
367
  8
0
 62
     7
 10
52.736499999999992
 20
182.84700000000001
 30
0.0
 11
52.7303
 21
183.17500000000001
 31
0.0
  0
LINE
  5
368
  8
0
 62
     7
 10
52.7303
 20
183.17500000000001
 30
0.0
 11
52.724800000000002
 21
183.50399999999999
 31
0.0
  0
LINE
  5
369
  8
0
 62
     7
 10
52.724800000000002
 20
183.50399999999999
 30
0.0
 11
52.718899999999991
 21
183.84899999999999
 31
0.0
  0
LINE
  5
36A
  8
0
 62
     7
 10
52.718899999999991
 20
183.84899999999999
 30
0.0
 11
52.712699999999998
 21
184.24700000000001
 31
0.0
  0
LINE
  5
36B
  8
0
 62
     7
 10
52.712699999999998
 20
184.24700000000001
 30
0.0
 11
52.706800000000001
 21
184.66499999999991
 31
0.0
  0
LINE
  5
36C
  8
0
 62
     7
 10
52.706800000000001
 20
184.66499999999991
 30
0.0
 11
52.694800000000001
 21
185.637
 31
0.0
  0
LINE
  5
36D
  8
0
 62
     7
 10
52.694800000000001
 20
185.637
 30
0.0
 11
52.684100000000001
 21
186.88399999999999
 31
0.0
  0
LINE
  5
36E
  8
0
 62
     7
 10
52.684100000000001
 20
186.88399999999999
 30
0.0
 11
52.680700000000002
 21
187.637
 31
0.0
  0
LINE
  5
36F
  8
0
 62
     7
 10
52.680700000000002
 20
187.637
 30
0.0
 11
52.679299999999991
 21
188.3899999999999
 31
0.0
  0
LINE
  5
370
  8
0
 62
     7
 10
64.325900000000004
 20
176.9909999999999
 30
0.0
 11
63.3474
 21
176.99299999999999
 31
0.0
  0
LINE
  5
371
  8
0
 62
     7
 10
63.3474
 20
176.99299999999999
 30
0.0
 11
62.36869999999999
 21
176.99799999999991
 31
0.0
  0
LINE
  5
372
  8
0
 62
     7
 10
62.36869999999999
 20
176.99799999999991
 30
0.0
 11
61.419899999999991
 21
177.00499999999991
 31
0.0
  0
LINE
  5
373
  8
0
 62
     7
 10
61.419899999999991
 20
177.00499999999991
 30
0.0
 11
59.895099999999999
 21
177.018
 31
0.0
  0
LINE
  5
374
  8
0
 62
     7
 10
58.088099999999997
 20
177.03099999999989
 30
0.0
 11
57.943800000000003
 21
177.03399999999999
 31
0.0
  0
LINE
  5
375
  8
0
 62
     7
 10
57.943800000000003
 20
177.03399999999999
 30
0.0
 11
57.799399999999991
 21
177.03899999999999
 31
0.0
  0
LINE
  5
376
  8
0
 62
     7
 10
57.799399999999991
 20
177.03899999999999
 30
0.0
 11
57.664700000000003
 21
177.04599999999991
 31
0.0
  0
LINE
  5
377
  8
0
 62
     7
 10
57.664700000000003
 20
177.04599999999991
 30
0.0
 11
57.530000000000001
 21
177.05500000000001
 31
0.0
  0
LINE
  5
378
  8
0
 62
     7
 10
57.530000000000001
 20
177.05500000000001
 30
0.0
 11
57.398400000000002
 21
177.065
 31
0.0
  0
LINE
  5
379
  8
0
 62
     7
 10
57.398400000000002
 20
177.065
 30
0.0
 11
57.266800000000003
 21
177.078
 31
0.0
  0
LINE
  5
37A
  8
0
 62
     7
 10
57.266800000000003
 20
177.078
 30
0.0
 11
57.1355
 21
177.0929999999999
 31
0.0
  0
LINE
  5
37B
  8
0
 62
     7
 10
57.1355
 20
177.0929999999999
 30
0.0
 11
57.004600000000003
 21
177.11099999999999
 31
0.0
  0
LINE
  5
37C
  8
0
 62
     7
 10
57.004600000000003
 20
177.11099999999999
 30
0.0
 11
56.897500000000001
 21
177.1279999999999
 31
0.0
  0
LINE
  5
37D
  8
0
 62
     7
 10
56.897500000000001
 20
177.1279999999999
 30
0.0
 11
56.790999999999997
 21
177.1459999999999
 31
0.0
  0
LINE
  5
37E
  8
0
 62
     7
 10
56.790999999999997
 20
177.1459999999999
 30
0.0
 11
56.684600000000003
 21
177.16599999999991
 31
0.0
  0
LINE
  5
37F
  8
0
 62
     7
 10
56.684600000000003
 20
177.16599999999991
 30
0.0
 11
56.578499999999991
 21
177.18700000000001
 31
0.0
  0
LINE
  5
380
  8
0
 62
     7
 10
56.578499999999991
 20
177.18700000000001
 30
0.0
 11
56.480600000000003
 21
177.209
 31
0.0
  0
LINE
  5
381
  8
0
 62
     7
 10
56.480600000000003
 20
177.209
 30
0.0
 11
56.383099999999999
 21
177.233
 31
0.0
  0
LINE
  5
382
  8
0
 62
     7
 10
56.383099999999999
 20
177.233
 30
0.0
 11
56.280500000000004
 21
177.25899999999999
 31
0.0
  0
LINE
  5
383
  8
0
 62
     7
 10
56.280500000000004
 20
177.25899999999999
 30
0.0
 11
56.178100000000001
 21
177.2879999999999
 31
0.0
  0
LINE
  5
384
  8
0
 62
     7
 10
56.178100000000001
 20
177.2879999999999
 30
0.0
 11
56.085799999999992
 21
177.31700000000001
 31
0.0
  0
LINE
  5
385
  8
0
 62
     7
 10
56.085799999999992
 20
177.31700000000001
 30
0.0
 11
55.994199999999999
 21
177.34599999999989
 31
0.0
  0
LINE
  5
386
  8
0
 62
     7
 10
55.994199999999999
 20
177.34599999999989
 30
0.0
 11
55.903199999999998
 21
177.3779999999999
 31
0.0
  0
LINE
  5
387
  8
0
 62
     7
 10
55.903199999999998
 20
177.3779999999999
 30
0.0
 11
55.813000000000002
 21
177.41099999999989
 31
0.0
  0
LINE
  5
388
  8
0
 62
     7
 10
55.813000000000002
 20
177.41099999999989
 30
0.0
 11
55.720300000000002
 21
177.44699999999989
 31
0.0
  0
LINE
  5
389
  8
0
 62
     7
 10
55.720300000000002
 20
177.44699999999989
 30
0.0
 11
55.628700000000002
 21
177.48500000000001
 31
0.0
  0
LINE
  5
38A
  8
0
 62
     7
 10
55.628700000000002
 20
177.48500000000001
 30
0.0
 11
55.537700000000001
 21
177.52499999999989
 31
0.0
  0
LINE
  5
38B
  8
0
 62
     7
 10
55.537700000000001
 20
177.52499999999989
 30
0.0
 11
55.447400000000002
 21
177.56700000000001
 31
0.0
  0
LINE
  5
38C
  8
0
 62
     7
 10
55.447400000000002
 20
177.56700000000001
 30
0.0
 11
55.358199999999997
 21
177.61000000000001
 31
0.0
  0
LINE
  5
38D
  8
0
 62
     7
 10
59.6081
 20
177.02000000000001
 30
0.0
 11
59.308
 21
177.02199999999999
 31
0.0
  0
LINE
  5
38E
  8
0
 62
     7
 10
59.308
 20
177.02199999999999
 30
0.0
 11
59.125399999999992
 21
177.02299999999991
 31
0.0
  0
LINE
  5
38F
  8
0
 62
     7
 10
59.125399999999992
 20
177.02299999999991
 30
0.0
 11
58.9236
 21
177.02500000000001
 31
0.0
  0
LINE
  5
390
  8
0
 62
     7
 10
58.9236
 20
177.02500000000001
 30
0.0
 11
58.7517
 21
177.0259999999999
 31
0.0
  0
LINE
  5
391
  8
0
 62
     7
 10
58.7517
 20
177.0259999999999
 30
0.0
 11
58.314799999999991
 21
177.02799999999991
 31
0.0
  0
LINE
  5
392
  8
0
 62
     7
 10
58.314799999999991
 20
177.02799999999991
 30
0.0
 11
58.088099999999997
 21
177.03099999999989
 31
0.0
  0
LINE
  5
393
  8
0
 62
     7
 10
59.895099999999999
 20
177.018
 30
0.0
 11
59.6081
 21
177.02000000000001
 31
0.0
  0
LINE
  5
394
  8
0
 62
     7
 10
52.786799999999999
 20
181.70799999999991
 30
0.0
 11
52.773000000000003
 21
181.8609999999999
 31
0.0
  0
LINE
  5
395
  8
0
 62
     7
 10
52.773000000000003
 20
181.8609999999999
 30
0.0
 11
52.762300000000003
 21
182.00899999999999
 31
0.0
  0
LINE
  5
396
  8
0
 62
     7
 10
52.762300000000003
 20
182.00899999999999
 30
0.0
 11
52.75439999999999
 21
182.149
 31
0.0
  0
LINE
  5
397
  8
0
 62
     7
 10
52.75439999999999
 20
182.149
 30
0.0
 11
52.750300000000003
 21
182.245
 31
0.0
  0
LINE
  5
398
  8
0
 62
     7
 10
52.750300000000003
 20
182.245
 30
0.0
 11
52.747500000000002
 21
182.31999999999991
 31
0.0
  0
LINE
  5
399
  8
0
 62
     7
 10
52.747500000000002
 20
182.31999999999991
 30
0.0
 11
52.745100000000001
 21
182.393
 31
0.0
  0
LINE
  5
39A
  8
0
 62
     7
 10
53.57330000000001
 20
179.1809999999999
 30
0.0
 11
53.523699999999998
 21
179.25999999999999
 31
0.0
  0
LINE
  5
39B
  8
0
 62
     7
 10
53.523699999999998
 20
179.25999999999999
 30
0.0
 11
53.4758
 21
179.34099999999989
 31
0.0
  0
LINE
  5
39C
  8
0
 62
     7
 10
53.4758
 20
179.34099999999989
 30
0.0
 11
53.430300000000003
 21
179.42199999999991
 31
0.0
  0
LINE
  5
39D
  8
0
 62
     7
 10
53.430300000000003
 20
179.42199999999991
 30
0.0
 11
53.386200000000002
 21
179.50499999999991
 31
0.0
  0
LINE
  5
39E
  8
0
 62
     7
 10
53.386200000000002
 20
179.50499999999991
 30
0.0
 11
53.343899999999991
 21
179.58799999999991
 31
0.0
  0
LINE
  5
39F
  8
0
 62
     7
 10
53.343899999999991
 20
179.58799999999991
 30
0.0
 11
53.3035
 21
179.672
 31
0.0
  0
LINE
  5
3A0
  8
0
 62
     7
 10
53.3035
 20
179.672
 30
0.0
 11
53.263199999999991
 21
179.76099999999991
 31
0.0
  0
LINE
  5
3A1
  8
0
 62
     7
 10
53.263199999999991
 20
179.76099999999991
 30
0.0
 11
53.225000000000001
 21
179.84899999999999
 31
0.0
  0
LINE
  5
3A2
  8
0
 62
     7
 10
53.225000000000001
 20
179.84899999999999
 30
0.0
 11
53.188499999999998
 21
179.93899999999999
 31
0.0
  0
LINE
  5
3A3
  8
0
 62
     7
 10
53.188499999999998
 20
179.93899999999999
 30
0.0
 11
53.154000000000003
 21
180.029
 31
0.0
  0
LINE
  5
3A4
  8
0
 62
     7
 10
53.154000000000003
 20
180.029
 30
0.0
 11
53.118899999999996
 21
180.12599999999989
 31
0.0
  0
LINE
  5
3A5
  8
0
 62
     7
 10
53.118899999999996
 20
180.12599999999989
 30
0.0
 11
53.085500000000003
 21
180.22399999999999
 31
0.0
  0
LINE
  5
3A6
  8
0
 62
     7
 10
53.085500000000003
 20
180.22399999999999
 30
0.0
 11
53.054099999999998
 21
180.32299999999989
 31
0.0
  0
LINE
  5
3A7
  8
0
 62
     7
 10
53.054099999999998
 20
180.32299999999989
 30
0.0
 11
53.024799999999999
 21
180.42199999999991
 31
0.0
  0
LINE
  5
3A8
  8
0
 62
     7
 10
53.024799999999999
 20
180.42199999999991
 30
0.0
 11
52.995499999999993
 21
180.52699999999999
 31
0.0
  0
LINE
  5
3A9
  8
0
 62
     7
 10
52.995499999999993
 20
180.52699999999999
 30
0.0
 11
52.968299999999992
 21
180.63099999999989
 31
0.0
  0
LINE
  5
3AA
  8
0
 62
     7
 10
52.968299999999992
 20
180.63099999999989
 30
0.0
 11
52.942799999999998
 21
180.738
 31
0.0
  0
LINE
  5
3AB
  8
0
 62
     7
 10
52.942799999999998
 20
180.738
 30
0.0
 11
52.9191
 21
180.8429999999999
 31
0.0
  0
LINE
  5
3AC
  8
0
 62
     7
 10
52.9191
 20
180.8429999999999
 30
0.0
 11
52.896700000000003
 21
180.953
 31
0.0
  0
LINE
  5
3AD
  8
0
 62
     7
 10
52.896700000000003
 20
180.953
 30
0.0
 11
52.875700000000002
 21
181.0629999999999
 31
0.0
  0
LINE
  5
3AE
  8
0
 62
     7
 10
52.875700000000002
 20
181.0629999999999
 30
0.0
 11
52.856400000000001
 21
181.17400000000001
 31
0.0
  0
LINE
  5
3AF
  8
0
 62
     7
 10
52.856400000000001
 20
181.17400000000001
 30
0.0
 11
52.838799999999992
 21
181.285
 31
0.0
  0
LINE
  5
3B0
  8
0
 62
     7
 10
52.838799999999992
 20
181.285
 30
0.0
 11
52.81880000000001
 21
181.42699999999999
 31
0.0
  0
LINE
  5
3B1
  8
0
 62
     7
 10
52.81880000000001
 20
181.42699999999999
 30
0.0
 11
52.801200000000001
 21
181.57099999999991
 31
0.0
  0
LINE
  5
3B2
  8
0
 62
     7
 10
52.801200000000001
 20
181.57099999999991
 30
0.0
 11
52.786799999999999
 21
181.70799999999991
 31
0.0
  0
LINE
  5
3B3
  8
0
 62
     7
 10
55.27000000000001
 20
177.655
 30
0.0
 11
55.182499999999997
 21
177.702
 31
0.0
  0
LINE
  5
3B4
  8
0
 62
     7
 10
55.182499999999997
 20
177.702
 30
0.0
 11
55.096400000000003
 21
177.75099999999989
 31
0.0
  0
LINE
  5
3B5
  8
0
 62
     7
 10
55.096400000000003
 20
177.75099999999989
 30
0.0
 11
55.010899999999999
 21
177.80199999999999
 31
0.0
  0
LINE
  5
3B6
  8
0
 62
     7
 10
55.010899999999999
 20
177.80199999999999
 30
0.0
 11
54.926499999999997
 21
177.85400000000001
 31
0.0
  0
LINE
  5
3B7
  8
0
 62
     7
 10
54.926499999999997
 20
177.85400000000001
 30
0.0
 11
54.843499999999999
 21
177.9079999999999
 31
0.0
  0
LINE
  5
3B8
  8
0
 62
     7
 10
54.843499999999999
 20
177.9079999999999
 30
0.0
 11
54.761200000000002
 21
177.964
 31
0.0
  0
LINE
  5
3B9
  8
0
 62
     7
 10
54.761200000000002
 20
177.964
 30
0.0
 11
54.683
 21
178.01900000000001
 31
0.0
  0
LINE
  5
3BA
  8
0
 62
     7
 10
54.683
 20
178.01900000000001
 30
0.0
 11
54.605800000000002
 21
178.07699999999991
 31
0.0
  0
LINE
  5
3BB
  8
0
 62
     7
 10
54.605800000000002
 20
178.07699999999991
 30
0.0
 11
54.529699999999998
 21
178.13499999999991
 31
0.0
  0
LINE
  5
3BC
  8
0
 62
     7
 10
54.529699999999998
 20
178.13499999999991
 30
0.0
 11
54.454900000000002
 21
178.19599999999991
 31
0.0
  0
LINE
  5
3BD
  8
0
 62
     7
 10
54.454900000000002
 20
178.19599999999991
 30
0.0
 11
54.3812
 21
178.2579999999999
 31
0.0
  0
LINE
  5
3BE
  8
0
 62
     7
 10
54.3812
 20
178.2579999999999
 30
0.0
 11
54.308799999999998
 21
178.32099999999991
 31
0.0
  0
LINE
  5
3BF
  8
0
 62
     7
 10
54.308799999999998
 20
178.32099999999991
 30
0.0
 11
54.238199999999999
 21
178.38599999999991
 31
0.0
  0
LINE
  5
3C0
  8
0
 62
     7
 10
54.238199999999999
 20
178.38599999999991
 30
0.0
 11
54.168599999999991
 21
178.453
 31
0.0
  0
LINE
  5
3C1
  8
0
 62
     7
 10
54.168599999999991
 20
178.453
 30
0.0
 11
54.101799999999997
 21
178.51900000000001
 31
0.0
  0
LINE
  5
3C2
  8
0
 62
     7
 10
54.101799999999997
 20
178.51900000000001
 30
0.0
 11
54.03629999999999
 21
178.58699999999999
 31
0.0
  0
LINE
  5
3C3
  8
0
 62
     7
 10
54.03629999999999
 20
178.58699999999999
 30
0.0
 11
53.9726
 21
178.65700000000001
 31
0.0
  0
LINE
  5
3C4
  8
0
 62
     7
 10
53.9726
 20
178.65700000000001
 30
0.0
 11
53.91020000000001
 21
178.72799999999989
 31
0.0
  0
LINE
  5
3C5
  8
0
 62
     7
 10
53.91020000000001
 20
178.72799999999989
 30
0.0
 11
53.849600000000002
 21
178.80000000000001
 31
0.0
  0
LINE
  5
3C6
  8
0
 62
     7
 10
53.849600000000002
 20
178.80000000000001
 30
0.0
 11
53.790700000000001
 21
178.874
 31
0.0
  0
LINE
  5
3C7
  8
0
 62
     7
 10
53.790700000000001
 20
178.874
 30
0.0
 11
53.733499999999999
 21
178.94900000000001
 31
0.0
  0
LINE
  5
3C8
  8
0
 62
     7
 10
53.733499999999999
 20
178.94900000000001
 30
0.0
 11
53.677999999999997
 21
179.02500000000001
 31
0.0
  0
LINE
  5
3C9
  8
0
 62
     7
 10
53.677999999999997
 20
179.02500000000001
 30
0.0
 11
53.625
 21
179.10299999999989
 31
0.0
  0
LINE
  5
3CA
  8
0
 62
     7
 10
53.625
 20
179.10299999999989
 30
0.0
 11
53.57330000000001
 21
179.1809999999999
 31
0.0
  0
ARC
  5
3CB
  8
0
 62
     7
 10
48.456198000000001
 20
174.76194799999999
 30
0.0
 40
0.8311149999999999
 50
182.10972899999999
 51
267.89030000000002
  0
LINE
  5
3CC
  8
0
 62
     7
 10
48.425600000000003
 20
173.9309999999999
 30
0.0
 11
64.325900000000004
 21
173.9309999999999
 31
0.0
  0
LINE
  5
3CD
  8
0
 62
     7
 10
55.358199999999997
 20
177.61000000000001
 30
0.0
 11
55.27000000000001
 21
177.655
 31
0.0
  0
LINE
  5
3CE
  8
0
 62
     7
 10
52.745100000000001
 20
182.393
 30
0.0
 11
52.743000000000002
 21
182.48400000000001
 31
0.0
  0
LINE
  5
3CF
  8
0
 62
     7
 10
65.295000000000002
 20
176.99299999999999
 30
0.0
 11
64.325900000000004
 21
176.9909999999999
 31
0.0
  0
LINE
  5
3D0
  8
0
 62
     7
 10
47.625599999999991
 20
201.9309999999999
 30
0.0
 11
47.625599999999991
 21
174.73099999999991
 31
0.0
  0
LINE
  5
3D1
  8
0
 62
     7
 10
75.898899999999998
 20
193.81099999999989
 30
0.0
 11
75.907799999999995
 21
193.6329999999999
 31
0.0
  0
LINE
  5
3D2
  8
0
 62
     7
 10
52.743699999999997
 20
193.63099999999989
 30
0.0
 11
52.753
 21
193.81
 31
0.0
  0
LINE
  5
3D3
  8
0
 62
     7
 10
85.046300000000002
 20
201.9309999999999
 30
0.0
 11
64.325900000000004
 21
201.9309999999999
 31
0.0
  0
LINE
  5
3D4
  8
0
 62
     7
 10
64.325900000000004
 20
173.9309999999999
 30
0.0
 11
84.825800000000001
 21
173.9309999999999
 31
0.0
  0
LINE
  5
3D5
  8
0
  6
AIGENLINE001
 62
     7
 10
50.222900000000003
 20
112.3059999999999
 30
0.0
 11
55.426099999999991
 21
112.3059999999999
 31
0.0
  0
LINE
  5
3D6
  8
0
  6
AIGENLINE001
 62
     7
 10
64.375799999999998
 20
121.06028920608679
 30
0.0
 11
64.375799999999998
 21
100.87
 31
0.0
  0
LINE
  5
3D7
  8
0
  6
AIGENLINE001
 62
     7
 10
80.594200000000015
 20
199.92400000000001
 30
0.0
 11
80.594200000000015
 21
205.21700000000001
 31
0.0
  0
LINE
  5
3D8
  8
0
  6
AIGENLINE001
 62
     7
 10
52.594200000000001
 20
199.92400000000001
 30
0.0
 11
52.594200000000001
 21
205.37200000000001
 31
0.0
  0
LINE
  5
3D9
  8
0
  6
AIGENLINE001
 62
     7
 10
80.594200000000015
 20
109.4739999999999
 30
0.0
 11
80.594200000000015
 21
114.767
 31
0.0
  0
LINE
  5
3DA
  8
0
  6
AIGENLINE001
 62
     7
 10
52.594200000000001
 20
109.4739999999999
 30
0.0
 11
52.594200000000001
 21
114.922
 31
0.0
  0
ARC
  5
3DB
  8
0
  6
AIGENLINE002
 62
     7
 10
77.570813999999999
 20
120.1585459999999
 30
0.0
 40
25.063767999999989
 50
186.42516000000001
 51
195.80365900000001
  0
LINE
  5
3DC
  8
0
  6
AIGENLINE002
 62
     7
 10
53.454399999999993
 20
113.3329999999999
 30
0.0
 11
53.451700000000002
 21
113.33199999999999
 31
0.0
  0
ARC
  5
3DD
  8
0
  6
AIGENLINE002
 62
     7
 10
63.353132999999993
 20
116.09149499999999
 30
0.0
 40
10.278800999999991
 50
195.57320100000001
 51
218.688582
  0
LINE
  5
3DE
  8
0
  6
AIGENLINE002
 62
     7
 10
55.329999999999998
 20
109.6659999999999
 30
0.0
 11
55.330300000000001
 21
109.6659999999999
 31
0.0
  0
ARC
  5
3DF
  8
0
  6
AIGENLINE002
 62
     7
 10
60.04093499999999
 20
113.5470959999999
 30
0.0
 40
6.1032950000000001
 50
219.482643
 51
229.40693599999989
  0
ARC
  5
3E0
  8
0
  6
AIGENLINE002
 62
     7
 10
61.394731
 20
115.3240999999999
 30
0.0
 40
8.3345409999999998
 50
230.28869599999999
 51
235.3122259999999
  0
ARC
  5
3E1
  8
0
  6
AIGENLINE002
 62
     7
 10
66.790047000000001
 20
125.98262199999991
 30
0.0
 40
20.234884999999998
 50
239.9310119999999
 51
242.28081299999991
  0
ARC
  5
3E2
  8
0
  6
AIGENLINE002
 62
     7
 10
59.745592000000002
 20
112.774272
 30
0.0
 40
5.266513999999999
 50
243.2850509999999
 51
256.90279800000002
  0
LINE
  5
3E3
  8
0
  6
AIGENLINE002
 62
     7
 10
58.552199999999999
 20
107.6449999999999
 30
0.0
 11
59.761099999999999
 21
107.3809999999999
 31
0.0
  0
LINE
  5
3E4
  8
0
  6
AIGENLINE002
 62
     7
 10
59.761099999999999
 20
107.3809999999999
 30
0.0
 11
60.268900000000002
 21
107.3059999999999
 31
0.0
  0
LINE
  5
3E6
  8
0
  6
AIGENLINE002
 62
     7
 10
68.382800000000003
 20
107.3059999999999
 30
0.0
 11
68.890600000000006
 21
107.40600000000001
 31
0.0
  0
LINE
  5
3E7
  8
0
  6
AIGENLINE002
 62
     7
 10
68.890600000000006
 20
107.40600000000001
 30
0.0
 11
70.099400000000003
 21
107.6449999999999
 31
0.0
  0
ARC
  5
3E8
  8
0
  6
AIGENLINE002
 62
     7
 10
68.348253
 20
114.045733
 30
0.0
 40
6.6361769999999991
 50
285.299915
 51
295.4790549999999
  0
ARC
  5
3E9
  8
0
  6
AIGENLINE002
 62
     7
 10
67.061708999999993
 20
116.96643299999999
 30
0.0
 40
9.8267240000000005
 50
294.925074
 51
300.17046299999993
  0
ARC
  5
3EA
  8
0
  6
AIGENLINE002
 62
     7
 10
70.929417000000001
 20
110.1882169999999
 30
0.0
 40
2.0238900000000002
 50
301.94834800000001
 51
310.05282099999999
  0
ARC
  5
3EB
  8
0
  6
AIGENLINE002
 62
     7
 10
64.555925999999999
 20
118.8251289999999
 30
0.0
 40
12.754424999999999
 50
307.00026400000002
 51
308.99628899999988
  0
ARC
  5
3EC
  8
0
  6
AIGENLINE002
 62
     7
 10
68.568647999999996
 20
113.5882379999999
 30
0.0
 40
6.1618339999999989
 50
310.64034199999992
 51
320.47011900000001
  0
ARC
  5
3ED
  8
0
  6
AIGENLINE002
 62
     7
 10
65.305008999999984
 20
116.08979099999991
 30
0.0
 40
10.272307
 50
321.29460599999999
 51
344.42659199999991
  0
LINE
  5
3EE
  8
0
  6
AIGENLINE002
 62
     7
 10
75.200199999999995
 20
113.33199999999999
 30
0.0
 11
75.197400000000002
 21
113.3329999999999
 31
0.0
  0
ARC
  5
3EF
  8
0
  6
AIGENLINE002
 62
     7
 10
51.092562000000001
 20
120.15415400000001
 30
0.0
 40
25.051506
 50
344.19886300000002
 51
353.58181000000002
  0
ARC
  5
3F0
  8
0
  6
AIGENLINE002
 62
     7
 10
84.647900000000007
 20
109.21772
 30
0.0
 40
0.411372
 50
196.23217500000001
 51
268.729625
  0
LINE
  5
3F1
  8
0
  6
AIGENLINE002
 62
     7
 10
84.252899999999997
 20
109.10299999999989
 30
0.0
 11
84.223299999999995
 21
109.21299999999999
 31
0.0
  0
ARC
  5
3F2
  8
0
  6
AIGENLINE002
 62
     7
 10
80.575845000000001
 20
112.2818649999999
 30
0.0
 40
0.724532
 50
6.0609390000000003
 51
88.220306000000008
  0
ARC
  5
3F3
  8
0
  6
AIGENLINE002
 62
     7
 10
80.567768999999998
 20
112.2811479999999
 30
0.0
 40
0.72527
 50
91.830472
 51
173.8882429999999
  0
LINE
  5
3F4
  8
0
  6
AIGENLINE002
 62
     7
 10
83.450199999999995
 20
109.806
 30
0.0
 11
81.764899999999983
 21
109.806
 31
0.0
  0
ARC
  5
3F5
  8
0
  6
AIGENLINE002
 62
     7
 10
81.774322999999995
 20
110.117034
 30
0.0
 40
0.310956
 50
186.11705699999999
 51
268.25665800000002
  0
ARC
  5
3F6
  8
0
  6
AIGENLINE002
 62
     7
 10
79.368253999999993
 20
110.1166689999999
 30
0.0
 40
0.310602
 50
271.81398799999988
 51
353.94382899999999
  0
LINE
  5
3F7
  8
0
 62
     7
 10
73.529300000000006
 20
108.252
 30
0.0
 11
73.669200000000004
 21
108.38499999999991
 31
0.0
  0
LINE
  5
3F8
  8
0
 62
     7
 10
73.098699999999994
 20
107.8799999999999
 30
0.0
 11
73.245400000000004
 21
108.0
 31
0.0
  0
LINE
  5
3F9
  8
0
 62
     7
 10
73.3887
 20
108.1239999999999
 30
0.0
 11
73.529300000000006
 21
108.252
 31
0.0
  0
LINE
  5
3FA
  8
0
 62
     7
 10
73.245400000000004
 20
108.0
 30
0.0
 11
73.3887
 21
108.1239999999999
 31
0.0
  0
ARC
  5
3FB
  8
0
  6
AIGENLINE002
 62
     7
 10
76.470949000000005
 20
108.982727
 30
0.0
 40
0.823687
 50
91.236035999999999
 51
163.76773600000001
  0
LINE
  5
3FC
  8
0
  6
AIGENLINE002
 62
     7
 10
75.680099999999996
 20
109.21299999999999
 30
0.0
 11
75.650499999999994
 21
109.10299999999989
 31
0.0
  0
ARC
  5
3FD
  8
0
  6
AIGENLINE002
 62
     7
 10
75.255673999999985
 20
109.2174879999999
 30
0.0
 40
0.411136
 50
271.2462470000001
 51
343.79199199999999
  0
LINE
  5
3FE
  8
0
 62
     7
 10
73.939300000000003
 20
108.66200000000001
 30
0.0
 11
74.068799999999996
 21
108.806
 31
0.0
  0
LINE
  5
3FF
  8
0
 62
     7
 10
73.805599999999998
 20
108.5229999999999
 30
0.0
 11
73.939300000000003
 21
108.66200000000001
 31
0.0
  0
LINE
  5
400
  8
0
 62
     7
 10
73.669200000000004
 20
108.38499999999991
 30
0.0
 11
73.805599999999998
 21
108.5229999999999
 31
0.0
  0
LINE
  5
401
  8
0
  6
AIGENLINE002
 62
     7
 10
79.378100000000003
 20
109.806
 30
0.0
 11
76.453199999999995
 21
109.806
 31
0.0
  0
LINE
  5
402
  8
0
  6
AIGENLINE002
 62
     7
 10
81.465100000000007
 20
110.084
 30
0.0
 11
81.296300000000002
 21
112.358
 31
0.0
  0
LINE
  5
403
  8
0
  6
AIGENLINE002
 62
     7
 10
79.846599999999995
 20
112.358
 30
0.0
 11
79.677099999999996
 21
110.084
 31
0.0
  0
ARC
  5
404
  8
0
  6
AIGENLINE002
 62
     7
 10
83.432412999999997
 20
108.98268400000001
 30
0.0
 40
0.823731
 50
16.234475
 51
88.761713000000015
  0
ARC
  5
405
  8
0
  6
AIGENLINE002
 62
     7
 10
52.617330000000003
 20
112.281098
 30
0.0
 40
0.7253190000000001
 50
91.827951999999996
 51
173.82995099999999
  0
LINE
  5
406
  8
0
  6
AIGENLINE002
 62
     7
 10
52.6479
 20
113.006
 30
0.0
 11
52.594200000000001
 21
113.006
 31
0.0
  0
ARC
  5
407
  8
0
  6
AIGENLINE002
 62
     7
 10
52.625145999999987
 20
112.2814699999999
 30
0.0
 40
0.724936
 50
6.1436999999999991
 51
88.198357000000001
  0
LINE
  5
408
  8
0
  6
AIGENLINE002
 62
     7
 10
56.739400000000003
 20
109.806
 30
0.0
 11
53.818899999999999
 21
109.806
 31
0.0
  0
LINE
  5
409
  8
0
 62
     7
 10
55.263100000000001
 20
108.1239999999999
 30
0.0
 11
55.406399999999991
 21
108.0
 31
0.0
  0
ARC
  5
40A
  8
0
  6
AIGENLINE002
 62
     7
 10
53.828299000000001
 20
110.1162479999999
 30
0.0
 40
0.310167
 50
186.1145709999999
 51
268.26959799999992
  0
LINE
  5
40B
  8
0
 62
     7
 10
55.122900000000001
 20
108.252
 30
0.0
 11
55.263100000000001
 21
108.1239999999999
 31
0.0
  0
LINE
  5
40C
  8
0
 62
     7
 10
54.982999999999997
 20
108.38499999999991
 30
0.0
 11
55.122900000000001
 21
108.252
 31
0.0
  0
LINE
  5
40D
  8
0
 62
     7
 10
54.846299999999999
 20
108.5229999999999
 30
0.0
 11
54.982999999999997
 21
108.38499999999991
 31
0.0
  0
LINE
  5
40E
  8
0
 62
     7
 10
54.712600000000002
 20
108.66200000000001
 30
0.0
 11
54.846299999999999
 21
108.5229999999999
 31
0.0
  0
LINE
  5
40F
  8
0
 62
     7
 10
54.582700000000003
 20
108.806
 30
0.0
 11
54.712600000000002
 21
108.66200000000001
 31
0.0
  0
ARC
  5
410
  8
0
  6
AIGENLINE002
 62
     7
 10
57.936706999999991
 20
109.21773999999991
 30
0.0
 40
0.4113850000000001
 50
196.23456699999991
 51
268.77662900000001
  0
LINE
  5
411
  8
0
  6
AIGENLINE002
 62
     7
 10
57.541699999999999
 20
109.10299999999989
 30
0.0
 11
57.512099999999997
 21
109.21299999999999
 31
0.0
  0
ARC
  5
412
  8
0
  6
AIGENLINE002
 62
     7
 10
56.721220999999993
 20
108.982704
 30
0.0
 40
0.8237190000000001
 50
16.233280999999991
 51
88.738236999999998
  0
LINE
  5
413
  8
0
 62
     7
 10
55.406399999999991
 20
108.0
 30
0.0
 11
55.552900000000001
 21
107.8799999999999
 31
0.0
  0
LINE
  5
414
  8
0
  6
AIGENLINE002
 62
     7
 10
51.423200000000001
 20
109.806
 30
0.0
 11
49.74199999999999
 21
109.806
 31
0.0
  0
ARC
  5
415
  8
0
  6
AIGENLINE002
 62
     7
 10
49.759782999999999
 20
108.9831419999999
 30
0.0
 40
0.823273
 50
91.238996999999983
 51
163.789446
  0
LINE
  5
416
  8
0
  6
AIGENLINE002
 62
     7
 10
48.969599999999993
 20
109.21299999999999
 30
0.0
 11
48.939999999999998
 21
109.10299999999989
 31
0.0
  0
ARC
  5
417
  8
0
  6
AIGENLINE002
 62
     7
 10
48.544778000000001
 20
109.2175499999999
 30
0.0
 40
0.411191
 50
271.20362799999992
 51
343.78521599999988
  0
ARC
  5
418
  8
0
  6
AIGENLINE002
 62
     7
 10
51.413533000000001
 20
110.11657099999989
 30
0.0
 40
0.310499
 50
271.78379100000001
 51
353.83207999999991
  0
LINE
  5
419
  8
0
  6
AIGENLINE002
 62
     7
 10
53.5199
 20
110.0829999999999
 30
0.0
 11
53.3459
 21
112.3599999999999
 31
0.0
  0
LINE
  5
41A
  8
0
  6
AIGENLINE002
 62
     7
 10
51.8962
 20
112.3599999999999
 30
0.0
 11
51.722200000000001
 21
110.0829999999999
 31
0.0
  0
LINE
  5
41B
  8
0
 62
     7
 10
55.189399999999999
 20
192.029
 30
0.0
 11
60.277500000000011
 21
192.029
 31
0.0
  0
LINE
  5
41C
  8
0
 62
     7
 10
60.766500000000001
 20
190.70199999999991
 30
0.0
 11
62.749400000000001
 21
189.55799999999991
 31
0.0
  0
LINE
  5
41D
  8
0
 62
     7
 10
62.749400000000001
 20
189.55799999999991
 30
0.0
 11
61.604599999999998
 21
191.54099999999991
 31
0.0
  0
LINE
  5
41E
  8
0
 62
     7
 10
61.604599999999998
 20
191.54099999999991
 30
0.0
 11
60.766500000000001
 21
190.70199999999991
 31
0.0
  0
LINE
  5
41F
  8
0
 62
     7
 10
67.9846
 20
185.15999999999991
 30
0.0
 11
66.001900000000006
 21
186.30500000000001
 31
0.0
  0
LINE
  5
420
  8
0
 62
     7
 10
66.001900000000006
 20
186.30500000000001
 30
0.0
 11
67.1464
 21
184.322
 31
0.0
  0
LINE
  5
421
  8
0
 62
     7
 10
67.1464
 20
184.322
 30
0.0
 11
67.9846
 21
185.15999999999991
 31
0.0
  0
LINE
  5
422
  8
0
 62
     7
 10
69.491500000000002
 20
182.81599999999989
 30
0.0
 11
60.277500000000011
 21
192.029
 31
0.0
  0
LINE
  5
423
  8
0
 62
     7
 10
76.956500000000005
 20
190.3129999999999
 30
0.0
 11
78.9392
 21
189.16900000000001
 31
0.0
  0
LINE
  5
424
  8
0
 62
     7
 10
78.9392
 20
189.16900000000001
 30
0.0
 11
77.794700000000006
 21
191.15199999999999
 31
0.0
  0
LINE
  5
425
  8
0
 62
     7
 10
77.794700000000006
 20
191.15199999999999
 30
0.0
 11
76.956500000000005
 21
190.3129999999999
 31
0.0
  0
LINE
  5
426
  8
0
 62
     7
 10
83.396500000000003
 20
185.54899999999989
 30
0.0
 11
81.413799999999995
 21
186.69399999999999
 31
0.0
  0
LINE
  5
427
  8
0
 62
     7
 10
81.413799999999995
 20
186.69399999999999
 30
0.0
 11
82.558300000000017
 21
184.7109999999999
 31
0.0
  0
LINE
  5
428
  8
0
 62
     7
 10
82.558300000000017
 20
184.7109999999999
 30
0.0
 11
83.396500000000003
 21
185.54899999999989
 31
0.0
  0
LINE
  5
429
  8
0
 62
     7
 10
87.686000000000007
 20
180.42199999999991
 30
0.0
 11
75.079999999999998
 21
193.02799999999991
 31
0.0
  0
LINE
  5
42A
  8
0
 62
     7
 10
94.327799999999996
 20
190.14299999999989
 30
0.0
 11
94.920599999999993
 21
187.93199999999999
 31
0.0
  0
LINE
  5
42B
  8
0
 62
     7
 10
94.920599999999993
 20
187.93199999999999
 30
0.0
 11
95.513099999999994
 21
190.14299999999989
 31
0.0
  0
LINE
  5
42C
  8
0
 62
     7
 10
95.513099999999994
 20
190.14299999999989
 30
0.0
 11
94.327799999999996
 21
190.14299999999989
 31
0.0
  0
LINE
  5
42D
  8
0
 62
     7
 10
95.498699999999999
 20
199.72
 30
0.0
 11
94.906099999999995
 21
201.9309999999999
 31
0.0
  0
LINE
  5
42E
  8
0
 62
     7
 10
94.906099999999995
 20
201.9309999999999
 30
0.0
 11
94.313400000000001
 21
199.72
 31
0.0
  0
LINE
  5
42F
  8
0
 62
     7
 10
94.313400000000001
 20
199.72
 30
0.0
 11
95.498699999999999
 21
199.72
 31
0.0
  0
LINE
  5
430
  8
0
 62
     7
 10
94.906099999999995
 20
187.93199999999999
 30
0.0
 11
94.906099999999995
 21
201.9309999999999
 31
0.0
  0
LINE
  5
431
  8
0
 62
     7
 10
85.625799999999998
 20
203.23199999999991
 30
0.0
 11
85.625799999999998
 21
216.17099999999991
 31
0.0
  0
LINE
  5
432
  8
0
 62
     7
 10
47.625599999999991
 20
203.23199999999991
 30
0.0
 11
47.625599999999991
 21
216.17099999999991
 31
0.0
  0
LINE
  5
433
  8
0
 62
     7
 10
80.594200000000015
 20
115.467
 30
0.0
 11
80.594200000000015
 21
126.81999999999989
 31
0.0
  0
LINE
  5
434
  8
0
 62
     7
 10
33.438499999999991
 20
106.5179999999999
 30
0.0
 11
34.030999999999999
 21
104.306
 31
0.0
  0
LINE
  5
435
  8
0
 62
     7
 10
34.030999999999999
 20
104.306
 30
0.0
 11
34.623600000000003
 21
106.5179999999999
 31
0.0
  0
LINE
  5
436
  8
0
 62
     7
 10
34.623600000000003
 20
106.5179999999999
 30
0.0
 11
33.438499999999991
 21
106.5179999999999
 31
0.0
  0
LINE
  5
437
  8
0
 62
     7
 10
34.609099999999998
 20
115.595
 30
0.0
 11
34.01659999999999
 21
117.806
 31
0.0
  0
LINE
  5
438
  8
0
 62
     7
 10
34.01659999999999
 20
117.806
 30
0.0
 11
33.423999999999999
 21
115.595
 31
0.0
  0
LINE
  5
439
  8
0
 62
     7
 10
33.423999999999999
 20
115.595
 30
0.0
 11
34.609099999999998
 21
115.595
 31
0.0
  0
LINE
  5
43A
  8
0
 62
     7
 10
34.01659999999999
 20
104.306
 30
0.0
 11
34.01659999999999
 21
117.806
 31
0.0
  0
LINE
  5
43B
  8
0
 62
     7
 10
40.317700000000002
 20
111.0179999999999
 30
0.0
 11
40.910299999999992
 21
108.806
 31
0.0
  0
LINE
  5
43C
  8
0
 62
     7
 10
40.910299999999992
 20
108.806
 30
0.0
 11
41.502800000000001
 21
111.0179999999999
 31
0.0
  0
LINE
  5
43D
  8
0
 62
     7
 10
41.502800000000001
 20
111.0179999999999
 30
0.0
 11
40.317700000000002
 21
111.0179999999999
 31
0.0
  0
LINE
  5
43E
  8
0
 62
     7
 10
41.488300000000002
 20
115.595
 30
0.0
 11
40.895800000000001
 21
117.806
 31
0.0
  0
LINE
  5
43F
  8
0
 62
     7
 10
40.895800000000001
 20
117.806
 30
0.0
 11
40.30319999999999
 21
115.595
 31
0.0
  0
LINE
  5
440
  8
0
 62
     7
 10
40.30319999999999
 20
115.595
 30
0.0
 11
41.488300000000002
 21
115.595
 31
0.0
  0
LINE
  5
441
  8
0
 62
     7
 10
40.895800000000001
 20
108.806
 30
0.0
 11
40.895800000000001
 21
117.806
 31
0.0
  0
LINE
  5
442
  8
0
 62
     7
 10
52.594200000000001
 20
114.922
 30
0.0
 11
52.594200000000001
 21
126.81999999999989
 31
0.0
  0
LINE
  5
443
  8
0
 62
     7
 10
47.074899999999992
 20
108.806
 30
0.0
 11
40.195700000000002
 21
108.806
 31
0.0
  0
LINE
  5
444
  8
0
 62
     7
 10
46.790500000000002
 20
117.806
 30
0.0
 11
33.316499999999991
 21
117.806
 31
0.0
  0
LINE
  5
445
  8
0
 62
     7
 10
86.826099999999997
 20
173.9309999999999
 30
0.0
 11
103.9549999999999
 21
173.9309999999999
 31
0.0
  0
LINE
  5
446
  8
0
 62
     7
 10
86.926000000000002
 20
201.9309999999999
 30
0.0
 11
103.9549999999999
 21
201.9309999999999
 31
0.0
  0
LINE
  5
447
  8
0
 62
     7
 10
87.686000000000007
 20
180.42199999999991
 30
0.0
 11
92.891599999999997
 21
180.42199999999991
 31
0.0
  0
LINE
  5
448
  8
0
 62
     7
 10
89.491200000000006
 20
187.93199999999999
 30
0.0
 11
95.606099999999998
 21
187.93199999999999
 31
0.0
  0
LINE
  5
449
  8
0
 62
     7
 10
60.0396
 20
104.306
 30
0.0
 11
33.316499999999991
 21
104.306
 31
0.0
  0
LINE
  5
44A
  8
0
 62
     7
 10
55.100700000000003
 20
176.9309999999999
 30
0.0
 11
37.777799999999992
 21
176.9309999999999
 31
0.0
  0
LINE
  5
44B
  8
0
 62
     7
 10
50.414299999999997
 20
164.60099999999991
 30
0.0
 11
52.625700000000002
 21
165.19399999999999
 31
0.0
  0
LINE
  5
44C
  8
0
 62
     7
 10
52.625700000000002
 20
165.19399999999999
 30
0.0
 11
50.414299999999997
 21
165.78599999999989
 31
0.0
  0
LINE
  5
44D
  8
0
 62
     7
 10
50.414299999999997
 20
165.78599999999989
 30
0.0
 11
50.414299999999997
 21
164.60099999999991
 31
0.0
  0
LINE
  5
44E
  8
0
 62
     7
 10
73.914500000000004
 20
164.60099999999991
 30
0.0
 11
76.125900000000001
 21
165.19399999999999
 31
0.0
  0
LINE
  5
44F
  8
0
 62
     7
 10
76.125900000000001
 20
165.19399999999999
 30
0.0
 11
73.914500000000004
 21
165.78599999999989
 31
0.0
  0
LINE
  5
450
  8
0
 62
     7
 10
73.914500000000004
 20
165.78599999999989
 30
0.0
 11
73.914500000000004
 21
164.60099999999991
 31
0.0
  0
LINE
  5
451
  8
0
 62
     7
 10
83.414400000000001
 20
164.6159999999999
 30
0.0
 11
85.625799999999998
 21
165.20799999999991
 31
0.0
  0
LINE
  5
452
  8
0
 62
     7
 10
85.625799999999998
 20
165.20799999999991
 30
0.0
 11
83.414400000000001
 21
165.8009999999999
 31
0.0
  0
LINE
  5
453
  8
0
 62
     7
 10
83.414400000000001
 20
165.8009999999999
 30
0.0
 11
83.414400000000001
 21
164.6159999999999
 31
0.0
  0
LINE
  5
454
  8
0
 62
     7
 10
78.337299999999999
 20
165.78599999999989
 30
0.0
 11
76.125900000000001
 21
165.19399999999999
 31
0.0
  0
LINE
  5
455
  8
0
 62
     7
 10
76.125900000000001
 20
165.19399999999999
 30
0.0
 11
78.337299999999999
 21
164.60099999999991
 31
0.0
  0
LINE
  5
456
  8
0
 62
     7
 10
78.337299999999999
 20
164.60099999999991
 30
0.0
 11
78.337299999999999
 21
165.78599999999989
 31
0.0
  0
LINE
  5
457
  8
0
 62
     7
 10
54.837299999999999
 20
165.78599999999989
 30
0.0
 11
52.625700000000002
 21
165.19399999999999
 31
0.0
  0
LINE
  5
458
  8
0
 62
     7
 10
52.625700000000002
 20
165.19399999999999
 30
0.0
 11
54.837299999999999
 21
164.60099999999991
 31
0.0
  0
LINE
  5
459
  8
0
 62
     7
 10
54.837299999999999
 20
164.60099999999991
 30
0.0
 11
54.837299999999999
 21
165.78599999999989
 31
0.0
  0
LINE
  5
45A
  8
0
 62
     7
 10
49.837200000000003
 20
165.78599999999989
 30
0.0
 11
47.625599999999991
 21
165.19399999999999
 31
0.0
  0
LINE
  5
45B
  8
0
 62
     7
 10
47.625599999999991
 20
165.19399999999999
 30
0.0
 11
49.837200000000003
 21
164.60099999999991
 31
0.0
  0
LINE
  5
45C
  8
0
 62
     7
 10
49.837200000000003
 20
164.60099999999991
 30
0.0
 11
49.837200000000003
 21
165.78599999999989
 31
0.0
  0
LINE
  5
45D
  8
0
 62
     7
 10
85.625799999999998
 20
165.19399999999999
 30
0.0
 11
47.625599999999991
 21
165.19399999999999
 31
0.0
  0
LINE
  5
45E
  8
0
 62
     7
 10
55.100700000000003
 20
198.9309999999999
 30
0.0
 11
37.777799999999992
 21
198.9309999999999
 31
0.0
  0
LINE
  5
45F
  8
0
 62
     7
 10
46.925600000000003
 20
201.9309999999999
 30
0.0
 11
37.777799999999992
 21
201.9309999999999
 31
0.0
  0
LINE
  5
460
  8
0
 62
     7
 10
47.025500000000001
 20
173.9309999999999
 30
0.0
 11
37.777799999999992
 21
173.9309999999999
 31
0.0
  0
LINE
  5
461
  8
0
 62
     7
 10
76.125900000000001
 20
179.48699999999991
 30
0.0
 11
76.125900000000001
 21
164.494
 31
0.0
  0
LINE
  5
462
  8
0
 62
     7
 10
52.625700000000002
 20
179.48699999999991
 30
0.0
 11
52.625700000000002
 21
164.494
 31
0.0
  0
LINE
  5
463
  8
0
 62
     7
 10
47.625599999999991
 20
172.9609999999999
 30
0.0
 11
47.625599999999991
 21
164.494
 31
0.0
  0
LINE
  5
464
  8
0
 62
     7
 10
85.625799999999998
 20
172.73099999999991
 30
0.0
 11
85.625799999999998
 21
164.494
 31
0.0
  0
LINE
  5
465
  8
0
 62
     7
 10
80.125699999999995
 20
192.732
 30
0.0
 11
80.125699999999995
 21
209.11500000000001
 31
0.0
  0
LINE
  5
466
  8
0
 62
     7
 10
64.375799999999998
 20
193.726
 30
0.0
 11
64.375799999999998
 21
209.11500000000001
 31
0.0
  0
LINE
  5
467
  8
0
 62
     7
 10
161.20799999999991
 20
204.9309999999999
 30
0.0
 11
159.47599999999991
 21
201.9309999999999
 31
0.0
  0
LINE
  5
468
  8
0
 62
     7
 10
159.47599999999991
 20
201.9309999999999
 30
0.0
 11
157.74399999999989
 21
204.9309999999999
 31
0.0
  0
LINE
  5
469
  8
0
 62
     7
 10
157.74399999999989
 20
204.9309999999999
 30
0.0
 11
161.20799999999991
 21
204.9309999999999
 31
0.0
  0
TEXT
  5
46A
  8
_________2
 62
     7
 10
90.092336166666669
 20
13.218199999999991
 30
0.0
 40
3.6545800000000002
  1
1 ： 10
 41
0.5
 72
     1
 11
93.960099999999997
 21
13.218199999999991
 31
0.0
  0
LINE
  5
46B
  8
_________2
 62
     7
 10
205.30099999999999
 20
127.41200000000001
 30
0.0
 11
183.55000000000001
 21
127.41200000000001
 31
0.0
  0
LINE
  5
46C
  8
_________2
 62
     7
 10
100.2999999999999
 20
-4.0903900000000002
 30
0.0
 11
100.2999999999999
 21
-21.070699999999992
 31
0.0
  0
LINE
  5
46D
  8
_________2
 62
     7
 10
100.2999999999999
 20
275.93099999999993
 30
0.0
 11
100.2999999999999
 21
258.911
 31
0.0
  0
LINE
  5
46E
  8
_________2
 62
     7
 10
17.049499999999998
 20
127.41200000000001
 30
0.0
 11
-4.70052
 21
127.41200000000001
 31
0.0
  0
LINE
  5
46F
  8
_________2
 62
     7
 10
76.741399999999999
 20
29.805099999999999
 30
0.0
 11
74.554699999999997
 21
29.805099999999999
 31
0.0
  0
LINE
  5
470
  8
_________2
 62
     7
 10
77.233999999999995
 20
29.805099999999999
 30
0.0
 11
76.981800000000007
 21
29.805099999999999
 31
0.0
  0
LINE
  5
471
  8
_________2
 62
     7
 10
77.726299999999995
 20
29.805099999999999
 30
0.0
 11
80.651600000000002
 21
29.805099999999999
 31
0.0
  0
LINE
  5
472
  8
_________2
 62
     7
 10
77.233999999999995
 20
29.805099999999999
 30
0.0
 11
77.485900000000001
 21
29.805099999999999
 31
0.0
  0
LINE
  5
473
  8
_________2
 62
     7
 10
70.837500000000006
 20
29.805099999999999
 30
0.0
 11
68.650499999999994
 21
29.805099999999999
 31
0.0
  0
LINE
  5
474
  8
_________2
 62
     7
 10
71.329800000000006
 20
29.805099999999999
 30
0.0
 11
71.0779
 21
29.805099999999999
 31
0.0
  0
LINE
  5
475
  8
_________2
 62
     7
 10
71.329800000000006
 20
30.2974
 30
0.0
 11
71.329800000000006
 21
32.484400000000001
 31
0.0
  0
LINE
  5
476
  8
_________2
 62
     7
 10
71.329800000000006
 20
29.805099999999999
 30
0.0
 11
71.329800000000006
 21
30.057600000000001
 31
0.0
  0
LINE
  5
477
  8
_________2
 62
     7
 10
71.822400000000002
 20
29.805099999999999
 30
0.0
 11
74.009
 21
29.805099999999999
 31
0.0
  0
LINE
  5
478
  8
_________2
 62
     7
 10
71.329800000000006
 20
29.805099999999999
 30
0.0
 11
71.581999999999994
 21
29.805099999999999
 31
0.0
  0
LINE
  5
479
  8
_________2
 62
     7
 10
71.329800000000006
 20
29.312799999999999
 30
0.0
 11
71.329800000000006
 21
27.126200000000001
 31
0.0
  0
LINE
  5
47A
  8
_________2
 62
     7
 10
71.329800000000006
 20
29.805099999999999
 30
0.0
 11
71.329800000000006
 21
29.5532
 31
0.0
  0
LINE
  5
47B
  8
_________2
 62
     7
 10
75.040899999999993
 20
28.585899999999992
 30
0.0
 11
80.218500000000006
 21
27.720400000000001
 31
0.0
  0
LINE
  5
47C
  8
_________2
 62
     7
 10
75.040899999999993
 20
31.024699999999999
 30
0.0
 11
80.218500000000006
 21
31.8901
 31
0.0
  0
LINE
  5
47D
  8
_________2
 62
     7
 10
80.218500000000006
 20
27.720400000000001
 30
0.0
 11
80.218500000000006
 21
31.8901
 31
0.0
  0
LINE
  5
47E
  8
_________2
 62
     7
 10
75.040899999999993
 20
28.585899999999992
 30
0.0
 11
75.040899999999993
 21
31.024699999999999
 31
0.0
  0
ARC
  5
47F
  8
_________2
 62
     7
 10
71.283201000000005
 20
29.758156
 30
0.0
 40
1.2673589999999999
 50
2.122214
 51
87.893958999999995
  0
ARC
  5
480
  8
_________2
 62
     7
 10
71.376300000000001
 20
29.758562000000001
 30
0.0
 40
1.2669509999999991
 50
92.104485999999994
 51
177.89548500000001
  0
ARC
  5
481
  8
_________2
 62
     7
 10
71.376343999999989
 20
29.852014
 30
0.0
 40
1.2670099999999991
 50
182.1225849999999
 51
267.89363300000002
  0
ARC
  5
482
  8
_________2
 62
     7
 10
71.282900999999995
 20
29.852677
 30
0.0
 40
1.267684
 50
272.11907200000002
 51
357.848567
  0
ARC
  5
483
  8
_________2
 62
     7
 10
71.249426999999997
 20
29.725096999999991
 30
0.0
 40
2.1664659999999989
 50
2.1159629999999998
 51
87.874558999999991
  0
ARC
  5
484
  8
_________2
 62
     7
 10
71.409410999999992
 20
29.725809000000002
 30
0.0
 40
2.1657280000000001
 50
92.107296999999988
 51
177.902142
  0
ARC
  5
485
  8
_________2
 62
     7
 10
71.409789000000004
 20
29.885100999999999
 30
0.0
 40
2.1661329999999999
 50
182.116929
 51
267.88310000000001
  0
ARC
  5
486
  8
_________2
 62
     7
 10
71.249769999999998
 20
29.88509199999999
 30
0.0
 40
2.1661229999999989
 50
272.11667999999992
 51
357.88332999999989
  0
TEXT
  5
487
  8
_________2
 62
     7
 10
104.605
 20
1.6794899999999999
 30
0.0
 40
3.0923400000000001
  1
図番
 41
0.5
  0
LINE
  5
488
  8
_________2
 62
     7
 10
103.55
 20
5.9087199999999989
 30
0.0
 11
183.55099999999999
 21
5.9087199999999989
 31
0.0
  0
TEXT
  5
489
  8
_________2
 62
     7
 10
104.605
 20
11.679600000000001
 30
0.0
 40
3.0923400000000001
  1
品番
 41
0.5
  0
TEXT
  5
48A
  8
_________2
 62
     7
 10
104.605
 20
31.8184
 30
0.0
 40
3.0923400000000001
  1
名称
 41
0.5
  0
TEXT
  5
48B
  8
_________2
 62
     7
 10
91.84545833333334
 20
26.822299999999998
 30
0.0
 40
3.6545800000000002
  1
mm
 41
0.5
 72
     1
 11
93.368200000000016
 21
26.822299999999998
 31
0.0
  0
TEXT
  5
48C
  8
_________2
 62
     7
 10
85.643199999999993
 20
31.8184
 30
0.0
 40
3.0923400000000001
  1
単位
 41
0.5
  0
TEXT
  5
48D
  8
_________2
 62
     7
 10
85.643199999999993
 20
19.411200000000001
 30
0.0
 40
3.0923400000000001
  1
尺度
 41
0.5
  0
TEXT
  5
48E
  8
_________2
 62
     7
 10
136.33455000000001
 20
9.1082000000000001
 30
0.0
 40
3.9357000000000002
  1
KE124736
 41
0.5
 72
     1
 11
143.55000000000001
 21
9.1082000000000001
 31
0.0
  0
TEXT
  5
48F
  8
_________2
 62
     7
 10
136.33455000000001
 20
-0.8919409999999999
 30
0.0
 40
3.9357000000000002
  1
KE124736
 41
0.5
 72
     1
 11
143.55000000000001
 21
-0.8919409999999999
 31
0.0
  0
TEXT
  5
490
  8
_________2
 62
     7
 10
24.587099999999989
 20
0.707627
 30
0.0
 40
3.9357000000000002
  1
重量：6.5kg、オーバーフローなし
 41
0.5
  0
TEXT
  5
491
  8
_________2
 62
     7
 10
109.179
 20
24.226400000000002
 30
0.0
 40
3.9357000000000002
  1
手洗器
 41
0.5
  0
TEXT
  5
492
  8
_________2
 62
     7
 10
39.303480999999991
 20
13.603400000000001
 30
0.0
 40
3.6545800000000002
  1
田尻
 41
0.5
 72
     1
 11
41.313499999999998
 21
13.603400000000001
 31
0.0
  0
TEXT
  5
493
  8
_________2
 62
     7
 10
20.79039066666666
 20
13.603400000000001
 30
0.0
 40
3.6545800000000002
  1
石原
 41
0.5
 72
     1
 11
22.7395
 21
13.603400000000001
 31
0.0
  0
TEXT
  5
494
  8
_________2
 62
     7
 10
67.785799999999995
 20
13.218199999999991
 30
0.0
 40
3.6545800000000002
  1
10.06.11
 41
0.5
  0
TEXT
  5
495
  8
_________2
 62
     7
 10
66.593100000000007
 20
19.411200000000001
 30
0.0
 40
3.0923400000000001
  1
日付
 41
0.5
  0
TEXT
  5
496
  8
_________2
 62
     7
 10
29.639399999999998
 20
19.411200000000001
 30
0.0
 40
3.0923400000000001
  1
検図
 41
0.5
  0
TEXT
  5
497
  8
_________2
 62
     7
 10
18.021399999999989
 20
5.2117699999999987
 30
0.0
 40
3.0923400000000001
  1
備考
 41
0.5
  0
TEXT
  5
498
  8
_________2
 62
     7
 10
18.021399999999989
 20
19.411200000000001
 30
0.0
 40
3.0923400000000001
  1
製図
 41
0.5
  0
TEXT
  5
499
  8
_________2
 62
     7
 10
23.78886533333333
 20
27.936800000000002
 30
0.0
 40
4.4979399999999989
  1
セラトレーディング株式会社
 41
0.5
 72
     1
 11
41.180900000000001
 21
27.936800000000002
 31
0.0
  0
LINE
  5
49A
  8
_________2
 62
     7
 10
183.55099999999999
 20
-4.0910799999999998
 30
0.0
 11
17.049499999999998
 21
-4.0910799999999998
 31
0.0
  0
LINE
  5
49B
  8
_________2
 62
     7
 10
17.049499999999998
 20
-4.0910799999999998
 30
0.0
 11
17.049499999999998
 21
258.911
 31
0.0
  0
LINE
  5
49C
  8
_________2
 62
     7
 10
17.049499999999998
 20
258.911
 30
0.0
 11
183.55099999999999
 21
258.911
 31
0.0
  0
LINE
  5
49D
  8
_________2
 62
     7
 10
183.55099999999999
 20
258.911
 30
0.0
 11
183.55099999999999
 21
-4.0910799999999998
 31
0.0
  0
LINE
  5
49E
  8
_________2
 62
     7
 10
65.549899999999994
 20
9.4096499999999992
 30
0.0
 11
65.549899999999994
 21
35.909500000000001
 31
0.0
  0
LINE
  5
49F
  8
_________2
 62
     7
 10
84.550099999999986
 20
9.4096499999999992
 30
0.0
 11
84.550099999999986
 21
35.909500000000001
 31
0.0
  0
LINE
  5
4A0
  8
_________2
 62
     7
 10
103.55
 20
-4.0910799999999998
 30
0.0
 11
103.55
 21
35.909500000000001
 31
0.0
  0
LINE
  5
4A1
  8
_________2
 62
     7
 10
28.549700000000001
 20
9.4096499999999992
 30
0.0
 11
28.549700000000001
 21
23.409199999999998
 31
0.0
  0
LINE
  5
4A2
  8
_________2
 62
     7
 10
17.049499999999998
 20
9.4096499999999992
 30
0.0
 11
103.55
 21
9.4096499999999992
 31
0.0
  0
LINE
  5
4A3
  8
_________2
 62
     7
 10
17.049499999999998
 20
23.409199999999998
 30
0.0
 11
103.55
 21
23.409199999999998
 31
0.0
  0
LINE
  5
4A4
  8
_________2
 62
     7
 10
103.55
 20
15.9092
 30
0.0
 11
183.55099999999999
 21
15.9092
 31
0.0
  0
LINE
  5
4A5
  8
_________2
 62
     7
 10
17.049499999999998
 20
35.909500000000001
 30
0.0
 11
183.55099999999999
 21
35.909500000000001
 31
0.0
  0
LINE
  5
4B4
  8
0
  6
AIGENLINE001
 62
     7
 10
80.125799999999984
 20
115.65282809292781
 30
0.0
 11
80.125799999999984
 21
119.9706476747251
 31
0.0
  0
ARC
  5
4E6
  8
0
  6
AIGENLINE002
 62
     7
 10
60.334325332976363
 20
106.4986090615448
 30
0.0
 40
0.8137770000000001
 50
50.266574000000269
 51
93.157227999999805
  0
LINE
  5
4E7
  8
0
  6
AIGENLINE002
 62
     7
 10
61.585933332976367
 20
106.5107050615448
 30
0.0
 11
60.854933332976373
 21
107.1247050615449
 31
0.0
  0
ARC
  5
4E8
  8
0
  6
AIGENLINE002
 62
     7
 10
61.061086332976373
 20
105.8935280615448
 30
0.0
 40
0.8107439999999998
 50
1.6284310000000619
 51
49.627672000000281
  0
LINE
  5
4E9
  8
0
  6
AIGENLINE002
 62
     7
 10
61.871933332976369
 20
105.9167050615448
 30
0.0
 11
61.90793333297637
 21
104.31070506154479
 31
0.0
  0
LINE
  5
4EA
  8
0
  6
AIGENLINE002
 62
     7
 10
66.538933332976399
 20
105.9167050615448
 30
0.0
 11
66.501933332976364
 21
104.31070506154479
 31
0.0
  0
ARC
  5
4EB
  8
0
  6
AIGENLINE002
 62
     7
 10
67.349563332976373
 20
105.8934320615448
 30
0.0
 40
0.810945
 50
130.37863099999939
 51
178.36522599999969
  0
LINE
  5
4EC
  8
0
  6
AIGENLINE002
 62
     7
 10
66.823933332976395
 20
106.5107050615448
 30
0.0
 11
67.555933332976366
 21
107.1247050615449
 31
0.0
  0
ARC
  5
4ED
  8
0
  6
AIGENLINE002
 62
     7
 10
68.076199332976358
 20
106.4983870615448
 30
0.0
 40
0.8139939999999999
 50
86.848759000000584
 51
129.72739899999971
  0
ENDSEC
  0
EOF
