  0
SECTION
  2
HEADER
  9
$ACADVER
  1
AC1015
  9
$ACADMAINTVER
 70
     6
  9
$DWGCODEPAGE
  3
ANSI_932
  9
$INSBASE
 10
0.0
 20
0.0
 30
0.0
  9
$EXTMIN
 10
-4.70103
 20
-21.07099999999999
 30
0.0
  9
$EXTMAX
 10
205.301
 20
275.9309999999999
 30
0.0
  9
$LIMMIN
 10
0.0
 20
0.0
  9
$LIMMAX
 10
12.0
 20
9.0
  9
$ORTHOMODE
 70
     0
  9
$REGENMODE
 70
     1
  9
$FILLMODE
 70
     1
  9
$QTEXTMODE
 70
     0
  9
$MIRRTEXT
 70
     1
  9
$LTSCALE
 40
1.0
  9
$ATTMODE
 70
     1
  9
$TEXTSIZE
 40
0.0
  9
$TRACEWID
 40
0.05
  9
$TEXTSTYLE
  7
STANDARD
  9
$CLAYER
  8
0
  9
$CELTYPE
  6
CONTINUOUS
  9
$CECOLOR
 62
   256
  9
$CELTSCALE
 40
1.0
  9
$DISPSILH
 70
     0
  9
$DIMSCALE
 40
1.0
  9
$DIMASZ
 40
0.18
  9
$DIMEXO
 40
0.0625
  9
$DIMDLI
 40
0.38
  9
$DIMRND
 40
0.0
  9
$DIMDLE
 40
0.0
  9
$DIMEXE
 40
0.18
  9
$DIMTP
 40
0.0
  9
$DIMTM
 40
0.0
  9
$DIMTXT
 40
0.18
  9
$DIMCEN
 40
0.09
  9
$DIMTSZ
 40
0.0
  9
$DIMTOL
 70
     0
  9
$DIMLIM
 70
     0
  9
$DIMTIH
 70
     1
  9
$DIMTOH
 70
     1
  9
$DIMSE1
 70
     0
  9
$DIMSE2
 70
     0
  9
$DIMTAD
 70
     0
  9
$DIMZIN
 70
     0
  9
$DIMBLK
  1

  9
$DIMASO
 70
     1
  9
$DIMSHO
 70
     1
  9
$DIMPOST
  1

  9
$DIMAPOST
  1

  9
$DIMALT
 70
     0
  9
$DIMALTD
 70
     2
  9
$DIMALTF
 40
25.4
  9
$DIMLFAC
 40
1.0
  9
$DIMTOFL
 70
     0
  9
$DIMTVP
 40
0.0
  9
$DIMTIX
 70
     0
  9
$DIMSOXD
 70
     0
  9
$DIMSAH
 70
     0
  9
$DIMBLK1
  1

  9
$DIMBLK2
  1

  9
$DIMSTYLE
  2
STANDARD
  9
$DIMCLRD
 70
     0
  9
$DIMCLRE
 70
     0
  9
$DIMCLRT
 70
     0
  9
$DIMTFAC
 40
1.0
  9
$DIMGAP
 40
0.09
  9
$DIMJUST
 70
     0
  9
$DIMSD1
 70
     0
  9
$DIMSD2
 70
     0
  9
$DIMTOLJ
 70
     1
  9
$DIMTZIN
 70
     0
  9
$DIMALTZ
 70
     0
  9
$DIMALTTZ
 70
     0
  9
$DIMUPT
 70
     0
  9
$DIMDEC
 70
     4
  9
$DIMTDEC
 70
     4
  9
$DIMALTU
 70
     2
  9
$DIMALTTD
 70
     2
  9
$DIMTXSTY
  7
STANDARD
  9
$DIMAUNIT
 70
     0
  9
$DIMADEC
 70
     0
  9
$DIMALTRND
 40
0.0
  9
$DIMAZIN
 70
     0
  9
$DIMDSEP
 70
    46
  9
$DIMATFIT
 70
     3
  9
$DIMFRAC
 70
     0
  9
$DIMLDRBLK
  1

  9
$DIMLUNIT
 70
     2
  9
$DIMLWD
 70
    -2
  9
$DIMLWE
 70
    -2
  9
$DIMTMOVE
 70
     0
  9
$LUNITS
 70
     2
  9
$LUPREC
 70
     4
  9
$SKETCHINC
 40
0.1
  9
$FILLETRAD
 40
7.0
  9
$AUNITS
 70
     0
  9
$AUPREC
 70
     0
  9
$MENU
  1
.
  9
$ELEVATION
 40
0.0
  9
$PELEVATION
 40
0.0
  9
$THICKNESS
 40
0.0
  9
$LIMCHECK
 70
     0
  9
$CHAMFERA
 40
0.0
  9
$CHAMFERB
 40
0.0
  9
$CHAMFERC
 40
0.0
  9
$CHAMFERD
 40
0.0
  9
$SKPOLY
 70
     0
  9
$TDCREATE
 40
2444972.375000000
  9
$TDUCREATE
 40
2444972.000000000
  9
$TDUPDATE
 40
2455216.799870683
  9
$TDUUPDATE
 40
2455216.424870683
  9
$TDINDWG
 40
0.0130661690
  9
$TDUSRTIMER
 40
0.0130656250
  9
$USRTIMER
 70
     1
  9
$ANGBASE
 50
0.0
  9
$ANGDIR
 70
     0
  9
$PDMODE
 70
     0
  9
$PDSIZE
 40
0.0
  9
$PLINEWID
 40
0.0
  9
$SPLFRAME
 70
     0
  9
$SPLINETYPE
 70
     6
  9
$SPLINESEGS
 70
     8
  9
$HANDSEED
  5
392
  9
$SURFTAB1
 70
     6
  9
$SURFTAB2
 70
     6
  9
$SURFTYPE
 70
     6
  9
$SURFU
 70
     6
  9
$SURFV
 70
     6
  9
$UCSBASE
  2

  9
$UCSNAME
  2

  9
$UCSORG
 10
0.0
 20
0.0
 30
0.0
  9
$UCSXDIR
 10
1.0
 20
0.0
 30
0.0
  9
$UCSYDIR
 10
0.0
 20
1.0
 30
0.0
  9
$UCSORTHOREF
  2

  9
$UCSORTHOVIEW
 70
     0
  9
$UCSORGTOP
 10
0.0
 20
0.0
 30
0.0
  9
$UCSORGBOTTOM
 10
0.0
 20
0.0
 30
0.0
  9
$UCSORGLEFT
 10
0.0
 20
0.0
 30
0.0
  9
$UCSORGRIGHT
 10
0.0
 20
0.0
 30
0.0
  9
$UCSORGFRONT
 10
0.0
 20
0.0
 30
0.0
  9
$UCSORGBACK
 10
0.0
 20
0.0
 30
0.0
  9
$PUCSBASE
  2

  9
$PUCSNAME
  2

  9
$PUCSORG
 10
0.0
 20
0.0
 30
0.0
  9
$PUCSXDIR
 10
1.0
 20
0.0
 30
0.0
  9
$PUCSYDIR
 10
0.0
 20
1.0
 30
0.0
  9
$PUCSORTHOREF
  2

  9
$PUCSORTHOVIEW
 70
     0
  9
$PUCSORGTOP
 10
0.0
 20
0.0
 30
0.0
  9
$PUCSORGBOTTOM
 10
0.0
 20
0.0
 30
0.0
  9
$PUCSORGLEFT
 10
0.0
 20
0.0
 30
0.0
  9
$PUCSORGRIGHT
 10
0.0
 20
0.0
 30
0.0
  9
$PUCSORGFRONT
 10
0.0
 20
0.0
 30
0.0
  9
$PUCSORGBACK
 10
0.0
 20
0.0
 30
0.0
  9
$USERI1
 70
     0
  9
$USERI2
 70
     0
  9
$USERI3
 70
     0
  9
$USERI4
 70
     0
  9
$USERI5
 70
     0
  9
$USERR1
 40
0.0
  9
$USERR2
 40
0.0
  9
$USERR3
 40
0.0
  9
$USERR4
 40
0.0
  9
$USERR5
 40
0.0
  9
$WORLDVIEW
 70
     1
  9
$SHADEDGE
 70
     3
  9
$SHADEDIF
 70
    70
  9
$TILEMODE
 70
     1
  9
$MAXACTVP
 70
    48
  9
$PINSBASE
 10
0.0
 20
0.0
 30
0.0
  9
$PLIMCHECK
 70
     0
  9
$PEXTMIN
 10
1.000000000000000E+20
 20
1.000000000000000E+20
 30
1.000000000000000E+20
  9
$PEXTMAX
 10
-1.000000000000000E+20
 20
-1.000000000000000E+20
 30
-1.000000000000000E+20
  9
$PLIMMIN
 10
0.0
 20
0.0
  9
$PLIMMAX
 10
12.0
 20
9.0
  9
$UNITMODE
 70
     0
  9
$VISRETAIN
 70
     1
  9
$PLINEGEN
 70
     0
  9
$PSLTSCALE
 70
     1
  9
$TREEDEPTH
 70
  3020
  9
$CMLSTYLE
  2
STANDARD
  9
$CMLJUST
 70
     0
  9
$CMLSCALE
 40
1.0
  9
$PROXYGRAPHICS
 70
     1
  9
$MEASUREMENT
 70
     0
  9
$CELWEIGHT
370
    -1
  9
$ENDCAPS
280
     0
  9
$JOINSTYLE
280
     0
  9
$LWDISPLAY
290
     0
  9
$INSUNITS
 70
     0
  9
$HYPERLINKBASE
  1

  9
$STYLESHEET
  1

  9
$XEDIT
290
     1
  9
$CEPSNTYPE
380
     0
  9
$PSTYLEMODE
290
     1
  9
$FINGERPRINTGUID
  2
{8F4A29CC-3AD8-48E0-BA2D-26CF93143A8D}
  9
$VERSIONGUID
  2
{30ED9101-513C-4082-BAD1-DB51EF567E5A}
  9
$EXTNAMES
290
     1
  9
$PSVPSCALE
 40
0.0
  9
$OLESTARTUP
290
     0
  0
ENDSEC
  0
SECTION
  2
CLASSES
  0
CLASS
  1
ACDBDICTIONARYWDFLT
  2
AcDbDictionaryWithDefault
  3
AutoCAD 2000
 90
        0
280
     0
281
     0
  0
CLASS
  1
TABLESTYLE
  2
AcDbTableStyle
  3
ObjectDBX Classes
 90
     2047
280
     0
281
     0
  0
CLASS
  1
DICTIONARYVAR
  2
AcDbDictionaryVar
  3
AutoCAD 2000
 90
        0
280
     0
281
     0
  0
CLASS
  1
ACDBPLACEHOLDER
  2
AcDbPlaceHolder
  3
AutoCAD 2000
 90
        0
280
     0
281
     0
  0
CLASS
  1
LAYOUT
  2
AcDbLayout
  3
AutoCAD 2000
 90
        0
280
     0
281
     0
  0
CLASS
  1
SORTENTSTABLE
  2
AcDbSortentsTable
  3
AutoCAD 2000
 90
        0
280
     0
281
     0
  0
ENDSEC
  0
SECTION
  2
TABLES
  0
TABLE
  2
VPORT
  5
8
330
0
100
AcDbSymbolTable
 70
     2
  0
VPORT
  5
391
330
8
100
AcDbSymbolTableRecord
100
AcDbViewportTableRecord
  2
*Active
 70
     0
 10
0.0
 20
0.0
 11
1.0
 21
1.0
 12
124.502853723487
 22
127.4292745692188
 13
0.0
 23
0.0
 14
1.0
 24
1.0
 15
0.0
 25
0.0
 16
0.0
 26
0.0
 36
1.0
 17
0.0
 27
0.0
 37
0.0
 40
300.3996876452966
 41
1.912109374999999
 42
50.0
 43
0.0
 44
0.0
 50
0.0
 51
0.0
 71
     0
 72
   100
 73
     1
 74
     1
 75
     0
 76
     0
 77
     0
 78
     0
281
     0
 65
     1
110
0.0
120
0.0
130
0.0
111
1.0
121
0.0
131
0.0
112
0.0
122
1.0
132
0.0
 79
     0
146
0.0
  0
ENDTAB
  0
TABLE
  2
LTYPE
  5
5
330
0
100
AcDbSymbolTable
 70
     5
  0
LTYPE
  5
12
330
5
100
AcDbSymbolTableRecord
100
AcDbLinetypeTableRecord
  2
BYBLOCK
 70
     0
  3

 72
    65
 73
     0
 40
0.0
  0
LTYPE
  5
13
330
5
100
AcDbSymbolTableRecord
100
AcDbLinetypeTableRecord
  2
BYLAYER
 70
     0
  3

 72
    65
 73
     0
 40
0.0
  0
LTYPE
  5
14
330
5
100
AcDbSymbolTableRecord
100
AcDbLinetypeTableRecord
  2
CONTINUOUS
 70
     0
  3
Solid line
 72
    65
 73
     0
 40
0.0
  0
LTYPE
  5
1F
330
5
100
AcDbSymbolTableRecord
100
AcDbLinetypeTableRecord
  2
AIGENLINE001
 70
     0
  3
generate AI->DXF Converter
 72
    65
 73
     4
 40
5.856144999999998
 49
3.5278
 74
     0
 49
-0.776115
 74
     0
 49
0.776115
 74
     0
 49
-0.776115
 74
     0
  0
LTYPE
  5
20
330
5
100
AcDbSymbolTableRecord
100
AcDbLinetypeTableRecord
  2
AIGENLINE002
 70
     0
  3
generate AI->DXF Converter
 72
    65
 73
     6
 40
7.408375
 49
3.5278
 74
     0
 49
-0.776115
 74
     0
 49
0.776115
 74
     0
 49
-0.776115
 74
     0
 49
0.776115
 74
     0
 49
-0.776115
 74
     0
  0
LTYPE
  5
21
330
5
100
AcDbSymbolTableRecord
100
AcDbLinetypeTableRecord
  2
AIGENLINE003
 70
     0
  3
generate AI->DXF Converter
 72
    65
 73
     2
 40
1.552229999999999
 49
0.776115
 74
     0
 49
-0.776115
 74
     0
  0
LTYPE
  5
2D0
330
5
100
AcDbSymbolTableRecord
100
AcDbLinetypeTableRecord
  2
CENTER
 70
     0
  3
Center ____ _ ____ _ ____ _ ____ _ ____ _ ____
 72
    65
 73
     4
 40
50.8
 49
31.75
 74
     0
 49
-6.349999999999998
 74
     0
 49
6.349999999999998
 74
     0
 49
-6.349999999999998
 74
     0
  0
ENDTAB
  0
TABLE
  2
LAYER
  5
2
330
0
100
AcDbSymbolTable
 70
     3
  0
LAYER
  5
E
330
2
100
AcDbSymbolTableRecord
100
AcDbLayerTableRecord
  2
0
 70
     0
 62
     7
  6
CONTINUOUS
370
    -3
390
2BD
  0
LAYER
  5
22
330
2
100
AcDbSymbolTableRecord
100
AcDbLayerTableRecord
  2
_________2
 70
     0
 62
     7
  6
CONTINUOUS
370
    -3
390
2BD
  0
LAYER
  5
2C9
330
2
100
AcDbSymbolTableRecord
100
AcDbLayerTableRecord
  2
11
 70
     0
 62
     8
  6
CONTINUOUS
370
    -3
390
2BD
  0
ENDTAB
  0
TABLE
  2
STYLE
  5
3
330
0
100
AcDbSymbolTable
 70
     1
  0
STYLE
  5
F
330
3
100
AcDbSymbolTableRecord
100
AcDbTextStyleTableRecord
  2
STANDARD
 70
     0
 40
0.0
 41
0.0
 50
0.0
 71
     0
 42
0.0
  3
TXT
  4
BIGFONT
  0
ENDTAB
  0
TABLE
  2
VIEW
  5
6
330
0
100
AcDbSymbolTable
 70
     0
  0
ENDTAB
  0
TABLE
  2
UCS
  5
7
330
0
100
AcDbSymbolTable
 70
     0
  0
ENDTAB
  0
TABLE
  2
APPID
  5
9
330
0
100
AcDbSymbolTable
 70
     1
  0
APPID
  5
10
330
9
100
AcDbSymbolTableRecord
100
AcDbRegAppTableRecord
  2
ACAD
 70
     0
  0
ENDTAB
  0
TABLE
  2
DIMSTYLE
  5
A
330
0
100
AcDbSymbolTable
 70
     2
100
AcDbDimStyleTable
 71
     0
  0
DIMSTYLE
105
2B9
330
A
100
AcDbSymbolTableRecord
100
AcDbDimStyleTableRecord
  2
STANDARD
 70
     0
340
F
  0
DIMSTYLE
105
2D1
330
A
100
AcDbSymbolTableRecord
100
AcDbDimStyleTableRecord
  2
ISO-25
 70
     0
 41
10.0
 42
0.625
 43
3.75
 44
1.25
 73
     0
 74
     0
 77
     1
 78
     8
140
15.0
141
2.5
143
0.03937007874016
147
0.625
171
     3
172
     1
271
     2
272
     2
274
     3
283
     0
284
     8
340
F
341
2CA
342
2CA
  0
ENDTAB
  0
TABLE
  2
BLOCK_RECORD
  5
1
330
0
100
AcDbSymbolTable
 70
     1
  0
BLOCK_RECORD
  5
18
102
{ACAD_XDICTIONARY
360
348
102
}
330
1
100
AcDbSymbolTableRecord
100
AcDbBlockTableRecord
  2
*MODEL_SPACE
340
2C4
  0
BLOCK_RECORD
  5
15
330
1
100
AcDbSymbolTableRecord
100
AcDbBlockTableRecord
  2
*PAPER_SPACE
340
2C5
  0
BLOCK_RECORD
  5
2CA
330
1
100
AcDbSymbolTableRecord
100
AcDbBlockTableRecord
  2
_Open30
340
0
  0
ENDTAB
  0
ENDSEC
  0
SECTION
  2
BLOCKS
  0
BLOCK
  5
19
330
18
100
AcDbEntity
  8
0
100
AcDbBlockBegin
  2
*MODEL_SPACE
 70
     0
 10
0.0
 20
0.0
 30
0.0
  3
*MODEL_SPACE
  1

  0
ENDBLK
  5
1A
330
18
100
AcDbEntity
  8
0
100
AcDbBlockEnd
  0
BLOCK
  5
16
330
15
100
AcDbEntity
 67
     1
  8
0
100
AcDbBlockBegin
  2
*PAPER_SPACE
 70
     0
 10
0.0
 20
0.0
 30
0.0
  3
*PAPER_SPACE
  1

  0
ENDBLK
  5
17
330
15
100
AcDbEntity
 67
     1
  8
0
100
AcDbBlockEnd
  0
BLOCK
  5
2CB
330
2CA
100
AcDbEntity
  8
0
100
AcDbBlockBegin
  2
_Open30
 70
     0
 10
0.0
 20
0.0
 30
0.0
  3
_Open30
  1

  0
LINE
  5
2CC
330
2CA
100
AcDbEntity
  8
0
  6
ByBlock
 62
     0
370
    -2
100
AcDbLine
 10
-1.0
 20
0.26794919
 30
0.0
 11
0.0
 21
0.0
 31
0.0
  0
LINE
  5
2CD
330
2CA
100
AcDbEntity
  8
0
  6
ByBlock
 62
     0
370
    -2
100
AcDbLine
 10
0.0
 20
0.0
 30
0.0
 11
-1.0
 21
-0.26794919
 31
0.0
  0
LINE
  5
2CE
330
2CA
100
AcDbEntity
  8
0
  6
ByBlock
 62
     0
370
    -2
100
AcDbLine
 10
0.0
 20
0.0
 30
0.0
 11
-1.0
 21
0.0
 31
0.0
  0
ENDBLK
  5
2CF
330
2CA
100
AcDbEntity
  8
0
100
AcDbBlockEnd
  0
ENDSEC
  0
SECTION
  2
ENTITIES
  0
TEXT
  5
24
330
18
100
AcDbEntity
  8
0
100
AcDbText
 10
135.4808579272579
 20
202.8265402331995
 30
0.0
 40
3.09234
  1
R4000
 50
73.12350000000002
 41
0.5
 72
     1
 11
136.416
 21
205.909
 31
0.0
100
AcDbText
  0
TEXT
  5
25
330
18
100
AcDbEntity
  8
0
100
AcDbText
 10
115.0402354477713
 20
202.5688112605495
 30
0.0
 40
3.092449999999998
  1
R1500
 50
350.2480000000001
 41
0.5
 72
     1
 11
118.0879999999999
 21
202.0449999999999
 31
0.0
100
AcDbText
  0
TEXT
  5
26
330
18
100
AcDbEntity
  8
0
100
AcDbText
 10
115.1985749999999
 20
208.6509999999999
 30
0.0
 40
3.09234
  1
R50
 41
0.5
 72
     2
 11
119.0639999999999
 21
208.6509999999999
 31
0.0
100
AcDbText
  0
TEXT
  5
27
330
18
100
AcDbEntity
  8
0
100
AcDbText
 10
164.707676
 20
164.6209999999999
 30
0.0
 40
3.09234
  1
カウンター裏補強木
 41
0.5
 72
     2
 11
180.994
 21
164.6209999999999
 31
0.0
100
AcDbText
  0
TEXT
  5
28
330
18
100
AcDbEntity
  8
0
100
AcDbText
 10
167.59386
 20
160.756
 30
0.0
 40
3.09234
  1
（t＝30～40）
 41
0.5
 72
     2
 11
180.994
 21
160.756
 31
0.0
100
AcDbText
  0
TEXT
  5
29
330
18
100
AcDbEntity
  8
0
100
AcDbText
 10
170.376966
 20
169.66
 30
0.0
 40
3.09234
  1
洗面器固定用
 41
0.5
 72
     2
 11
180.994
 21
169.66
 31
0.0
100
AcDbText
  0
TEXT
  5
2A
330
18
100
AcDbEntity
  8
0
100
AcDbText
 10
115.1985749999999
 20
183.513
 30
0.0
 40
3.09234
  1
R50
 41
0.5
 72
     2
 11
119.0639999999999
 21
183.513
 31
0.0
100
AcDbText
  0
TEXT
  5
2B
330
18
100
AcDbEntity
  8
0
100
AcDbText
 10
172.439
 20
179.365887
 30
0.0
 40
3.09234
  1
100以上
 50
90.0
 41
0.5
 72
     1
 11
172.439
 21
182.819
 31
0.0
100
AcDbText
  0
TEXT
  5
2C
330
18
100
AcDbEntity
  8
0
100
AcDbText
 10
172.439
 20
204.3818869999999
 30
0.0
 40
3.09234
  1
100以上
 50
90.0
 41
0.5
 72
     1
 11
172.439
 21
207.8349999999999
 31
0.0
100
AcDbText
  0
TEXT
  5
2D
330
18
100
AcDbEntity
  8
0
100
AcDbText
 10
104.0479999999999
 20
193.4492875
 30
0.0
 40
3.09234
  1
360
 50
90.0
 41
0.5
 72
     1
 11
104.0479999999999
 21
195.382
 31
0.0
100
AcDbText
  0
TEXT
  5
2E
330
18
100
AcDbEntity
  8
0
100
AcDbText
 10
178.537
 20
193.4492875
 30
0.0
 40
3.09234
  1
350
 50
90.0
 41
0.5
 72
     1
 11
178.537
 21
195.382
 31
0.0
100
AcDbText
  0
TEXT
  5
2F
330
18
100
AcDbEntity
  8
0
100
AcDbText
 10
160.1794294999999
 20
227.714
 30
0.0
 40
3.09234
  1
50以上
 41
0.5
 72
     1
 11
163.246
 21
227.714
 31
0.0
100
AcDbText
  0
TEXT
  5
30
330
18
100
AcDbEntity
  8
0
100
AcDbText
 10
97.2034295
 20
227.714
 30
0.0
 40
3.09234
  1
50以上
 41
0.5
 72
     1
 11
100.2699999999999
 21
227.714
 31
0.0
100
AcDbText
  0
TEXT
  5
31
330
18
100
AcDbEntity
  8
0
100
AcDbText
 10
129.8252874999998
 20
227.4
 30
0.0
 40
3.09234
  1
580
 41
0.5
 72
     1
 11
131.7579999999999
 21
227.4
 31
0.0
100
AcDbText
  0
TEXT
  5
32
330
18
100
AcDbEntity
  8
0
100
AcDbText
 10
157.1083725
 20
221.2709999999999
 30
0.0
 40
3.09234
  1
50
 41
0.5
 72
     1
 11
158.268
 21
221.2709999999999
 31
0.0
100
AcDbText
  0
TEXT
  5
33
330
18
100
AcDbEntity
  8
0
100
AcDbText
 10
104.2123725
 20
221.2709999999999
 30
0.0
 40
3.09234
  1
50
 41
0.5
 72
     1
 11
105.372
 21
221.2709999999999
 31
0.0
100
AcDbText
  0
TEXT
  5
34
330
18
100
AcDbEntity
  8
0
100
AcDbText
 10
129.8252874999998
 20
221.0609999999999
 30
0.0
 40
3.09234
  1
480
 41
0.5
 72
     1
 11
131.7579999999999
 21
221.0609999999999
 31
0.0
100
AcDbText
  0
TEXT
  5
35
330
18
100
AcDbEntity
  8
0
100
AcDbText
 10
123.5632989999998
 20
168.3109999999999
 30
0.0
 40
3.09234
  1
カウンター切込寸法
 41
0.5
 72
     1
 11
131.7579999999999
 21
168.3109999999999
 31
0.0
100
AcDbText
  0
TEXT
  5
36
330
18
100
AcDbEntity
  8
0
100
AcDbText
 10
149.2059511177444
 20
96.2105883871154
 30
0.0
 40
3.09234
  1
〈付属品〉
 41
0.5
100
AcDbText
  0
TEXT
  5
37
330
18
100
AcDbEntity
  8
0
100
AcDbText
 10
149.2059511177444
 20
92.34518838711542
 30
0.0
 40
3.09234
  1
洗面器固定金具×4
 41
0.5
100
AcDbText
  0
TEXT
  5
38
330
18
100
AcDbEntity
  8
0
100
AcDbText
 10
149.2059511177444
 20
88.47968838711542
 30
0.0
 40
3.09234
  1
%%c5×20SUSねじ付
 41
0.5
100
AcDbText
  0
TEXT
  5
39
330
18
100
AcDbEntity
  8
0
100
AcDbText
 10
149.2059511177444
 20
84.6142883871154
 30
0.0
 40
3.09234
  1
（尺度 1：3）
 41
0.5
100
AcDbText
  0
TEXT
  5
3A
330
18
100
AcDbEntity
  8
0
100
AcDbText
 10
70.79247999999998
 20
190.0999999999999
 30
0.0
 40
3.09234
  1
%%c46
 41
0.5
 72
     2
 11
74.91559999999998
 21
190.0999999999999
 31
0.0
100
AcDbText
  0
TEXT
  5
3B
330
18
100
AcDbEntity
  8
0
100
AcDbText
 10
124.473
 20
81.65122049167342
 30
0.0
 40
3.09234
  1
12.5
 41
0.5
100
AcDbText
  0
TEXT
  5
3C
330
18
100
AcDbEntity
  8
0
100
AcDbText
 10
127.5448879999999
 20
66.22842049167342
 30
0.0
 40
3.09234
  1
両面テープ付
 41
0.5
 72
     2
 11
138.2649999999999
 21
66.22842049167342
 31
0.0
100
AcDbText
  0
TEXT
  5
3D
330
18
100
AcDbEntity
  8
0
100
AcDbText
 10
60.53658749999999
 20
234.904
 30
0.0
 40
3.09234
  1
560
 41
0.5
 72
     1
 11
62.46929999999998
 21
234.904
 31
0.0
100
AcDbText
  0
TEXT
  5
3E
330
18
100
AcDbEntity
  8
0
100
AcDbText
 10
60.66543499999998
 20
227.143
 30
0.0
 40
3.09234
  1
500
 41
0.5
 72
     1
 11
62.46929999999998
 21
227.143
 31
0.0
100
AcDbText
  0
TEXT
  5
3F
330
18
100
AcDbEntity
  8
0
100
AcDbText
 10
125.5143724999999
 20
76.80802049167342
 30
0.0
 40
3.09234
  1
50
 41
0.5
 72
     1
 11
126.6739999999999
 21
76.80802049167342
 31
0.0
100
AcDbText
  0
TEXT
  5
40
330
18
100
AcDbEntity
  8
0
100
AcDbText
 10
139.4889999999999
 20
59.40227049167342
 30
0.0
 40
3.09234
  1
1.5
 50
90.0
 41
0.5
 72
     2
 11
139.4889999999999
 21
61.97922049167342
 31
0.0
100
AcDbText
  0
TEXT
  5
41
330
18
100
AcDbEntity
  8
0
100
AcDbText
 10
113.4479999999999
 20
58.23054049167343
 30
0.0
 40
3.09234
  1
19
 50
90.0
 41
0.5
 72
     1
 11
113.4479999999999
 21
59.26132049167343
 31
0.0
100
AcDbText
  0
TEXT
  5
42
330
18
100
AcDbEntity
  8
0
100
AcDbText
 10
22.77769999999999
 20
193.4492875
 30
0.0
 40
3.09234
  1
440
 50
90.0
 41
0.5
 72
     1
 11
22.77769999999999
 21
195.382
 31
0.0
100
AcDbText
  0
TEXT
  5
43
330
18
100
AcDbEntity
  8
0
100
AcDbText
 10
29.0661
 20
193.4492875
 30
0.0
 40
3.09234
  1
380
 50
90.0
 41
0.5
 72
     1
 11
29.0661
 21
195.382
 31
0.0
100
AcDbText
  0
TEXT
  5
44
330
18
100
AcDbEntity
  8
0
100
AcDbText
 10
28.3103
 20
127.5378029793498
 30
0.0
 40
3.09234
  1
195
 50
90.0
 41
0.5
 72
     1
 11
28.3103
 21
129.3416679793498
 31
0.0
100
AcDbText
  0
TEXT
  5
45
330
18
100
AcDbEntity
  8
0
100
AcDbText
 10
129.007
 20
129.5938029793499
 30
0.0
 40
3.09234
  1
145
 50
90.0
 41
0.5
 72
     1
 11
129.007
 21
131.3976679793499
 31
0.0
100
AcDbText
  0
TEXT
  5
46
330
18
100
AcDbEntity
  8
0
100
AcDbText
 10
140.417
 20
89.87409299167341
 30
0.0
 40
3.09234
  1
30
 50
90.0
 41
0.5
 72
     1
 11
140.417
 21
91.0337204916734
 31
0.0
100
AcDbText
  0
LINE
  5
47
330
18
100
AcDbEntity
  8
0
100
AcDbLine
 10
111.287
 20
136.0486679793498
 30
0.0
 11
152.118
 21
136.0486679793498
 31
0.0
  0
LINE
  5
48
330
18
100
AcDbEntity
  8
0
100
AcDbLine
 10
104.17
 20
179.593
 30
0.0
 11
104.7629999999999
 21
177.382
 31
0.0
  0
LINE
  5
49
330
18
100
AcDbEntity
  8
0
100
AcDbLine
 10
104.7629999999999
 20
177.382
 30
0.0
 11
105.3549999999999
 21
179.593
 31
0.0
  0
LINE
  5
4A
330
18
100
AcDbEntity
  8
0
100
AcDbLine
 10
105.3549999999999
 20
179.593
 30
0.0
 11
104.17
 21
179.593
 31
0.0
  0
LINE
  5
4B
330
18
100
AcDbEntity
  8
0
100
AcDbLine
 10
105.341
 20
211.1709999999999
 30
0.0
 11
104.7479999999999
 21
213.382
 31
0.0
  0
LINE
  5
4C
330
18
100
AcDbEntity
  8
0
100
AcDbLine
 10
104.7479999999999
 20
213.382
 30
0.0
 11
104.156
 21
211.1709999999999
 31
0.0
  0
LINE
  5
4D
330
18
100
AcDbEntity
  8
0
100
AcDbLine
 10
104.156
 20
211.1709999999999
 30
0.0
 11
105.341
 21
211.1709999999999
 31
0.0
  0
LINE
  5
4E
330
18
100
AcDbEntity
  8
0
100
AcDbLine
 10
104.7479999999999
 20
177.382
 30
0.0
 11
104.7479999999999
 21
213.382
 31
0.0
  0
LINE
  5
4F
330
18
100
AcDbEntity
  8
0
100
AcDbLine
 10
172.775
 20
205.094
 30
0.0
 11
173.3679999999999
 21
202.882
 31
0.0
  0
LINE
  5
50
330
18
100
AcDbEntity
  8
0
100
AcDbLine
 10
173.3679999999999
 20
202.882
 30
0.0
 11
173.9609999999999
 21
205.094
 31
0.0
  0
LINE
  5
51
330
18
100
AcDbEntity
  8
0
100
AcDbLine
 10
173.9609999999999
 20
205.094
 30
0.0
 11
172.775
 21
205.094
 31
0.0
  0
LINE
  5
52
330
18
100
AcDbEntity
  8
0
100
AcDbLine
 10
173.946
 20
210.671
 30
0.0
 11
173.3529999999999
 21
212.882
 31
0.0
  0
LINE
  5
53
330
18
100
AcDbEntity
  8
0
100
AcDbLine
 10
173.3529999999999
 20
212.882
 30
0.0
 11
172.761
 21
210.671
 31
0.0
  0
LINE
  5
54
330
18
100
AcDbEntity
  8
0
100
AcDbLine
 10
172.761
 20
210.671
 30
0.0
 11
173.946
 21
210.671
 31
0.0
  0
LINE
  5
55
330
18
100
AcDbEntity
  8
0
100
AcDbLine
 10
173.3529999999999
 20
202.882
 30
0.0
 11
173.3529999999999
 21
212.882
 31
0.0
  0
LINE
  5
56
330
18
100
AcDbEntity
  8
0
100
AcDbLine
 10
172.775
 20
180.094
 30
0.0
 11
173.3679999999999
 21
177.8829999999999
 31
0.0
  0
LINE
  5
57
330
18
100
AcDbEntity
  8
0
100
AcDbLine
 10
173.3679999999999
 20
177.8829999999999
 30
0.0
 11
173.9609999999999
 21
180.094
 31
0.0
  0
LINE
  5
58
330
18
100
AcDbEntity
  8
0
100
AcDbLine
 10
173.9609999999999
 20
180.094
 30
0.0
 11
172.775
 21
180.094
 31
0.0
  0
LINE
  5
59
330
18
100
AcDbEntity
  8
0
100
AcDbLine
 10
173.946
 20
185.6709999999999
 30
0.0
 11
173.3529999999999
 21
187.882
 31
0.0
  0
LINE
  5
5A
330
18
100
AcDbEntity
  8
0
100
AcDbLine
 10
173.3529999999999
 20
187.882
 30
0.0
 11
172.761
 21
185.6709999999999
 31
0.0
  0
LINE
  5
5B
330
18
100
AcDbEntity
  8
0
100
AcDbLine
 10
172.761
 20
185.6709999999999
 30
0.0
 11
173.946
 21
185.6709999999999
 31
0.0
  0
LINE
  5
5C
330
18
100
AcDbEntity
  8
0
100
AcDbLine
 10
173.3529999999999
 20
177.8829999999999
 30
0.0
 11
173.3529999999999
 21
187.882
 31
0.0
  0
LINE
  5
5D
330
18
100
AcDbEntity
  8
0
100
AcDbLine
 10
178.733
 20
180.094
 30
0.0
 11
179.325
 21
177.8829999999999
 31
0.0
  0
LINE
  5
5E
330
18
100
AcDbEntity
  8
0
100
AcDbLine
 10
179.325
 20
177.8829999999999
 30
0.0
 11
179.9179999999999
 21
180.094
 31
0.0
  0
LINE
  5
5F
330
18
100
AcDbEntity
  8
0
100
AcDbLine
 10
179.9179999999999
 20
180.094
 30
0.0
 11
178.733
 21
180.094
 31
0.0
  0
LINE
  5
60
330
18
100
AcDbEntity
  8
0
100
AcDbLine
 10
179.9029999999999
 20
210.671
 30
0.0
 11
179.3109999999999
 21
212.8829999999999
 31
0.0
  0
LINE
  5
61
330
18
100
AcDbEntity
  8
0
100
AcDbLine
 10
179.3109999999999
 20
212.8829999999999
 30
0.0
 11
178.718
 21
210.671
 31
0.0
  0
LINE
  5
62
330
18
100
AcDbEntity
  8
0
100
AcDbLine
 10
178.718
 20
210.671
 30
0.0
 11
179.9029999999999
 21
210.671
 31
0.0
  0
LINE
  5
63
330
18
100
AcDbEntity
  8
0
100
AcDbLine
 10
179.3109999999999
 20
177.8829999999999
 30
0.0
 11
179.3109999999999
 21
212.8829999999999
 31
0.0
  0
LINE
  5
64
330
18
100
AcDbEntity
  8
0
100
AcDbLine
 10
105.546
 20
219.769
 30
0.0
 11
107.757
 21
220.3609999999999
 31
0.0
  0
LINE
  5
65
330
18
100
AcDbEntity
  8
0
100
AcDbLine
 10
107.757
 20
220.3609999999999
 30
0.0
 11
105.546
 21
220.954
 31
0.0
  0
LINE
  5
66
330
18
100
AcDbEntity
  8
0
100
AcDbLine
 10
105.546
 20
220.954
 30
0.0
 11
105.546
 21
219.769
 31
0.0
  0
LINE
  5
67
330
18
100
AcDbEntity
  8
0
100
AcDbLine
 10
104.969
 20
220.954
 30
0.0
 11
102.757
 21
220.3609999999999
 31
0.0
  0
LINE
  5
68
330
18
100
AcDbEntity
  8
0
100
AcDbLine
 10
102.757
 20
220.3609999999999
 30
0.0
 11
104.969
 21
219.769
 31
0.0
  0
LINE
  5
69
330
18
100
AcDbEntity
  8
0
100
AcDbLine
 10
104.969
 20
219.769
 30
0.0
 11
104.969
 21
220.954
 31
0.0
  0
LINE
  5
6A
330
18
100
AcDbEntity
  8
0
100
AcDbLine
 10
158.5469999999999
 20
219.769
 30
0.0
 11
160.7579999999999
 21
220.3609999999999
 31
0.0
  0
LINE
  5
6B
330
18
100
AcDbEntity
  8
0
100
AcDbLine
 10
160.7579999999999
 20
220.3609999999999
 30
0.0
 11
158.5469999999999
 21
220.954
 31
0.0
  0
LINE
  5
6C
330
18
100
AcDbEntity
  8
0
100
AcDbLine
 10
158.5469999999999
 20
220.954
 30
0.0
 11
158.5469999999999
 21
219.769
 31
0.0
  0
LINE
  5
6D
330
18
100
AcDbEntity
  8
0
100
AcDbLine
 10
163.5469999999999
 20
226.107
 30
0.0
 11
165.7579999999999
 21
226.6999999999999
 31
0.0
  0
LINE
  5
6E
330
18
100
AcDbEntity
  8
0
100
AcDbLine
 10
165.7579999999999
 20
226.6999999999999
 30
0.0
 11
163.5469999999999
 21
227.292
 31
0.0
  0
LINE
  5
6F
330
18
100
AcDbEntity
  8
0
100
AcDbLine
 10
163.5469999999999
 20
227.292
 30
0.0
 11
163.5469999999999
 21
226.107
 31
0.0
  0
LINE
  5
70
330
18
100
AcDbEntity
  8
0
100
AcDbLine
 10
100.546
 20
226.107
 30
0.0
 11
102.7579999999999
 21
226.6999999999999
 31
0.0
  0
LINE
  5
71
330
18
100
AcDbEntity
  8
0
100
AcDbLine
 10
102.7579999999999
 20
226.6999999999999
 30
0.0
 11
100.546
 21
227.292
 31
0.0
  0
LINE
  5
72
330
18
100
AcDbEntity
  8
0
100
AcDbLine
 10
100.546
 20
227.292
 30
0.0
 11
100.546
 21
226.107
 31
0.0
  0
LINE
  5
73
330
18
100
AcDbEntity
  8
0
100
AcDbLine
 10
99.969
 20
227.292
 30
0.0
 11
97.7576
 21
226.6999999999999
 31
0.0
  0
LINE
  5
74
330
18
100
AcDbEntity
  8
0
100
AcDbLine
 10
97.7576
 20
226.6999999999999
 30
0.0
 11
99.969
 21
226.107
 31
0.0
  0
LINE
  5
75
330
18
100
AcDbEntity
  8
0
100
AcDbLine
 10
99.969
 20
226.107
 30
0.0
 11
99.969
 21
227.292
 31
0.0
  0
LINE
  5
76
330
18
100
AcDbEntity
  8
0
100
AcDbLine
 10
104.969
 20
227.292
 30
0.0
 11
102.7579999999999
 21
226.6999999999999
 31
0.0
  0
LINE
  5
77
330
18
100
AcDbEntity
  8
0
100
AcDbLine
 10
102.7579999999999
 20
226.6999999999999
 30
0.0
 11
104.969
 21
226.107
 31
0.0
  0
LINE
  5
78
330
18
100
AcDbEntity
  8
0
100
AcDbLine
 10
104.969
 20
226.107
 30
0.0
 11
104.969
 21
227.292
 31
0.0
  0
LINE
  5
79
330
18
100
AcDbEntity
  8
0
100
AcDbLine
 10
158.5469999999999
 20
226.107
 30
0.0
 11
160.7579999999999
 21
226.6999999999999
 31
0.0
  0
LINE
  5
7A
330
18
100
AcDbEntity
  8
0
100
AcDbLine
 10
160.7579999999999
 20
226.6999999999999
 30
0.0
 11
158.5469999999999
 21
227.292
 31
0.0
  0
LINE
  5
7B
330
18
100
AcDbEntity
  8
0
100
AcDbLine
 10
158.5469999999999
 20
227.292
 30
0.0
 11
158.5469999999999
 21
226.107
 31
0.0
  0
LINE
  5
7C
330
18
100
AcDbEntity
  8
0
100
AcDbLine
 10
162.9699999999999
 20
227.292
 30
0.0
 11
160.7579999999999
 21
226.6999999999999
 31
0.0
  0
LINE
  5
7D
330
18
100
AcDbEntity
  8
0
100
AcDbLine
 10
160.7579999999999
 20
226.6999999999999
 30
0.0
 11
162.9699999999999
 21
226.107
 31
0.0
  0
LINE
  5
7E
330
18
100
AcDbEntity
  8
0
100
AcDbLine
 10
162.9699999999999
 20
226.107
 30
0.0
 11
162.9699999999999
 21
227.292
 31
0.0
  0
LINE
  5
7F
330
18
100
AcDbEntity
  8
0
100
AcDbLine
 10
153.546
 20
219.769
 30
0.0
 11
155.7579999999999
 21
220.3609999999999
 31
0.0
  0
LINE
  5
80
330
18
100
AcDbEntity
  8
0
100
AcDbLine
 10
155.7579999999999
 20
220.3609999999999
 30
0.0
 11
153.546
 21
220.954
 31
0.0
  0
LINE
  5
81
330
18
100
AcDbEntity
  8
0
100
AcDbLine
 10
153.546
 20
220.954
 30
0.0
 11
153.546
 21
219.769
 31
0.0
  0
LINE
  5
82
330
18
100
AcDbEntity
  8
0
100
AcDbLine
 10
157.969
 20
220.954
 30
0.0
 11
155.7579999999999
 21
220.3609999999999
 31
0.0
  0
LINE
  5
83
330
18
100
AcDbEntity
  8
0
100
AcDbLine
 10
155.7579999999999
 20
220.3609999999999
 30
0.0
 11
157.969
 21
219.769
 31
0.0
  0
LINE
  5
84
330
18
100
AcDbEntity
  8
0
100
AcDbLine
 10
157.969
 20
219.769
 30
0.0
 11
157.969
 21
220.954
 31
0.0
  0
LINE
  5
85
330
18
100
AcDbEntity
  8
0
100
AcDbLine
 10
160.7579999999999
 20
220.3609999999999
 30
0.0
 11
102.757
 21
220.3609999999999
 31
0.0
  0
LINE
  5
86
330
18
100
AcDbEntity
  8
0
100
AcDbLine
 10
165.7579999999999
 20
226.6999999999999
 30
0.0
 11
97.7576
 21
226.6999999999999
 31
0.0
  0
LINE
  5
87
330
18
100
AcDbEntity
  8
0
100
AcDbLine
 10
113.3029999999999
 20
207.9509999999999
 30
0.0
 11
119.0639999999999
 21
207.9509999999999
 31
0.0
  0
LINE
  5
88
330
18
100
AcDbEntity
  8
0
100
AcDbLine
 10
113.3029999999999
 20
182.814
 30
0.0
 11
119.0639999999999
 21
182.8129999999999
 31
0.0
  0
LINE
  5
89
330
18
100
AcDbEntity
  8
0
  6
AIGENLINE002
100
AcDbLine
 10
165.7579999999999
 20
212.882
 30
0.0
 11
160.7579999999999
 21
202.882
 31
0.0
  0
LINE
  5
8A
330
18
100
AcDbEntity
  8
0
  6
AIGENLINE002
100
AcDbLine
 10
165.7579999999999
 20
202.882
 30
0.0
 11
160.7579999999999
 21
212.882
 31
0.0
  0
LINE
  5
8B
330
18
100
AcDbEntity
  8
0
  6
AIGENLINE002
100
AcDbLine
 10
160.7579999999999
 20
212.882
 30
0.0
 11
165.7579999999999
 21
212.882
 31
0.0
  0
LINE
  5
8C
330
18
100
AcDbEntity
  8
0
  6
AIGENLINE002
100
AcDbLine
 10
160.7579999999999
 20
202.882
 30
0.0
 11
165.7579999999999
 21
202.882
 31
0.0
  0
LINE
  5
8D
330
18
100
AcDbEntity
  8
0
  6
AIGENLINE002
100
AcDbLine
 10
160.7579999999999
 20
202.882
 30
0.0
 11
160.7579999999999
 21
212.882
 31
0.0
  0
LINE
  5
8E
330
18
100
AcDbEntity
  8
0
  6
AIGENLINE002
100
AcDbLine
 10
165.7579999999999
 20
202.882
 30
0.0
 11
165.7579999999999
 21
212.882
 31
0.0
  0
LINE
  5
8F
330
18
100
AcDbEntity
  8
0
  6
AIGENLINE002
100
AcDbLine
 10
165.7579999999999
 20
187.882
 30
0.0
 11
160.7579999999999
 21
177.8829999999999
 31
0.0
  0
LINE
  5
90
330
18
100
AcDbEntity
  8
0
  6
AIGENLINE002
100
AcDbLine
 10
165.7579999999999
 20
177.8829999999999
 30
0.0
 11
160.7579999999999
 21
187.882
 31
0.0
  0
LINE
  5
91
330
18
100
AcDbEntity
  8
0
  6
AIGENLINE002
100
AcDbLine
 10
160.7579999999999
 20
187.882
 30
0.0
 11
165.7579999999999
 21
187.882
 31
0.0
  0
LINE
  5
92
330
18
100
AcDbEntity
  8
0
  6
AIGENLINE002
100
AcDbLine
 10
160.7579999999999
 20
177.8829999999999
 30
0.0
 11
165.7579999999999
 21
177.8829999999999
 31
0.0
  0
LINE
  5
93
330
18
100
AcDbEntity
  8
0
  6
AIGENLINE002
100
AcDbLine
 10
160.7579999999999
 20
177.8829999999999
 30
0.0
 11
160.7579999999999
 21
187.882
 31
0.0
  0
LINE
  5
94
330
18
100
AcDbEntity
  8
0
  6
AIGENLINE002
100
AcDbLine
 10
165.7579999999999
 20
177.8829999999999
 30
0.0
 11
165.7579999999999
 21
187.882
 31
0.0
  0
LINE
  5
95
330
18
100
AcDbEntity
  8
0
  6
AIGENLINE002
100
AcDbLine
 10
102.7579999999999
 20
212.8829999999999
 30
0.0
 11
97.7576
 21
202.8829999999999
 31
0.0
  0
LINE
  5
96
330
18
100
AcDbEntity
  8
0
  6
AIGENLINE002
100
AcDbLine
 10
102.7579999999999
 20
202.8829999999999
 30
0.0
 11
97.7576
 21
212.8829999999999
 31
0.0
  0
LINE
  5
97
330
18
100
AcDbEntity
  8
0
  6
AIGENLINE002
100
AcDbLine
 10
97.7576
 20
212.8829999999999
 30
0.0
 11
102.7579999999999
 21
212.8829999999999
 31
0.0
  0
LINE
  5
98
330
18
100
AcDbEntity
  8
0
  6
AIGENLINE002
100
AcDbLine
 10
97.7576
 20
202.8829999999999
 30
0.0
 11
102.7579999999999
 21
202.8829999999999
 31
0.0
  0
LINE
  5
99
330
18
100
AcDbEntity
  8
0
  6
AIGENLINE002
100
AcDbLine
 10
97.7576
 20
202.8829999999999
 30
0.0
 11
97.7576
 21
212.8829999999999
 31
0.0
  0
LINE
  5
9A
330
18
100
AcDbEntity
  8
0
  6
AIGENLINE002
100
AcDbLine
 10
102.7579999999999
 20
202.8829999999999
 30
0.0
 11
102.7579999999999
 21
212.8829999999999
 31
0.0
  0
LINE
  5
9B
330
18
100
AcDbEntity
  8
0
100
AcDbLine
 10
135.3529999999999
 20
200.269
 30
0.0
 11
138.407
 21
203.62
 31
0.0
  0
LINE
  5
9C
330
18
100
AcDbEntity
  8
0
100
AcDbLine
 10
139.2839999999999
 20
211.023
 30
0.0
 11
139.37
 21
213.31
 31
0.0
  0
LINE
  5
9D
330
18
100
AcDbEntity
  8
0
100
AcDbLine
 10
139.37
 20
213.31
 30
0.0
 11
138.1529999999999
 21
211.372
 31
0.0
  0
LINE
  5
9E
330
18
100
AcDbEntity
  8
0
100
AcDbLine
 10
138.1529999999999
 20
211.372
 30
0.0
 11
139.2839999999999
 21
211.023
 31
0.0
  0
LINE
  5
9F
330
18
100
AcDbEntity
  8
0
100
AcDbLine
 10
131.7579999999999
 20
182.0309999999999
 30
0.0
 11
138.407
 21
203.62
 31
0.0
  0
LINE
  5
A0
330
18
100
AcDbEntity
  8
0
100
AcDbLine
 10
135.3529999999999
 20
200.269
 30
0.0
 11
139.37
 21
213.31
 31
0.0
  0
LINE
  5
A1
330
18
100
AcDbEntity
  8
0
100
AcDbLine
 10
125.7149999999999
 20
200.132
 30
0.0
 11
121.709
 21
199.0779999999999
 31
0.0
  0
LINE
  5
A2
330
18
100
AcDbEntity
  8
0
100
AcDbLine
 10
110.2249999999999
 20
203.1919999999999
 30
0.0
 11
107.949
 21
202.9549999999999
 31
0.0
  0
LINE
  5
A3
330
18
100
AcDbEntity
  8
0
100
AcDbLine
 10
107.949
 20
202.9549999999999
 30
0.0
 11
110.04
 21
202.022
 31
0.0
  0
LINE
  5
A4
330
18
100
AcDbEntity
  8
0
100
AcDbLine
 10
110.04
 20
202.022
 30
0.0
 11
110.2249999999999
 21
203.1919999999999
 31
0.0
  0
LINE
  5
A5
330
18
100
AcDbEntity
  8
0
100
AcDbLine
 10
144.972
 20
195.382
 30
0.0
 11
121.709
 21
199.0779999999999
 31
0.0
  0
LINE
  5
A6
330
18
100
AcDbEntity
  8
0
100
AcDbLine
 10
125.7149999999999
 20
200.132
 30
0.0
 11
107.949
 21
202.9549999999999
 31
0.0
  0
LINE
  5
A7
330
18
100
AcDbEntity
  8
0
100
AcDbLine
 10
111.006
 20
181.1259999999999
 30
0.0
 11
109.977
 21
179.081
 31
0.0
  0
LINE
  5
A8
330
18
100
AcDbEntity
  8
0
100
AcDbLine
 10
109.977
 20
179.081
 30
0.0
 11
111.891
 21
180.3379999999999
 31
0.0
  0
LINE
  5
A9
330
18
100
AcDbEntity
  8
0
100
AcDbLine
 10
111.891
 20
180.3379999999999
 30
0.0
 11
111.006
 21
181.1259999999999
 31
0.0
  0
LINE
  5
AA
330
18
100
AcDbEntity
  8
0
100
AcDbLine
 10
113.3029999999999
 20
182.814
 30
0.0
 11
109.977
 21
179.081
 31
0.0
  0
LINE
  5
AB
330
18
100
AcDbEntity
  8
0
100
AcDbLine
 10
112.027
 20
210.4999999999999
 30
0.0
 11
110.1839999999999
 21
211.859
 31
0.0
  0
LINE
  5
AC
330
18
100
AcDbEntity
  8
0
100
AcDbLine
 10
110.1839999999999
 20
211.859
 30
0.0
 11
111.101
 21
209.7609999999999
 31
0.0
  0
LINE
  5
AD
330
18
100
AcDbEntity
  8
0
100
AcDbLine
 10
111.101
 20
209.7609999999999
 30
0.0
 11
112.027
 21
210.4999999999999
 31
0.0
  0
LINE
  5
AE
330
18
100
AcDbEntity
  8
0
100
AcDbLine
 10
113.3029999999999
 20
207.9509999999999
 30
0.0
 11
110.1839999999999
 21
211.859
 31
0.0
  0
LINE
  5
AF
330
18
100
AcDbEntity
  8
0
  6
AIGENLINE002
100
AcDbLine
 10
102.7579999999999
 20
187.882
 30
0.0
 11
97.7576
 21
177.8829999999999
 31
0.0
  0
LINE
  5
B0
330
18
100
AcDbEntity
  8
0
  6
AIGENLINE002
100
AcDbLine
 10
102.7579999999999
 20
177.8829999999999
 30
0.0
 11
97.7576
 21
187.882
 31
0.0
  0
LINE
  5
B1
330
18
100
AcDbEntity
  8
0
  6
AIGENLINE002
100
AcDbLine
 10
97.7576
 20
187.882
 30
0.0
 11
102.7579999999999
 21
187.882
 31
0.0
  0
LINE
  5
B2
330
18
100
AcDbEntity
  8
0
  6
AIGENLINE002
100
AcDbLine
 10
97.7576
 20
177.8829999999999
 30
0.0
 11
102.7579999999999
 21
177.8829999999999
 31
0.0
  0
LINE
  5
B3
330
18
100
AcDbEntity
  8
0
  6
AIGENLINE002
100
AcDbLine
 10
97.7576
 20
177.8829999999999
 30
0.0
 11
97.7576
 21
187.882
 31
0.0
  0
LINE
  5
B4
330
18
100
AcDbEntity
  8
0
  6
AIGENLINE002
100
AcDbLine
 10
102.7579999999999
 20
177.8829999999999
 30
0.0
 11
102.7579999999999
 21
187.882
 31
0.0
  0
LINE
  5
B5
330
18
100
AcDbEntity
  8
0
100
AcDbLine
 10
158.465
 20
168.497
 30
0.0
 11
180.9109999999999
 21
168.497
 31
0.0
  0
LINE
  5
B6
330
18
100
AcDbEntity
  8
0
100
AcDbLine
 10
162.637
 20
175.6359999999999
 30
0.0
 11
163.0819999999999
 21
177.8829999999999
 31
0.0
  0
LINE
  5
B7
330
18
100
AcDbEntity
  8
0
100
AcDbLine
 10
163.0819999999999
 20
177.8829999999999
 30
0.0
 11
161.5739999999999
 21
176.159
 31
0.0
  0
LINE
  5
B8
330
18
100
AcDbEntity
  8
0
100
AcDbLine
 10
161.5739999999999
 20
176.159
 30
0.0
 11
162.637
 21
175.6359999999999
 31
0.0
  0
LINE
  5
B9
330
18
100
AcDbEntity
  8
0
100
AcDbLine
 10
163.0819999999999
 20
177.8829999999999
 30
0.0
 11
158.465
 21
168.497
 31
0.0
  0
LINE
  5
BA
330
18
100
AcDbEntity
  8
0
100
AcDbLine
 10
102.7579999999999
 20
213.6449999999999
 30
0.0
 11
102.7579999999999
 21
227.4
 31
0.0
  0
LINE
  5
BB
330
18
100
AcDbEntity
  8
0
100
AcDbLine
 10
160.7579999999999
 20
213.6449999999999
 30
0.0
 11
160.7579999999999
 21
227.4
 31
0.0
  0
LINE
  5
BC
330
18
100
AcDbEntity
  8
0
100
AcDbLine
 10
165.7579999999999
 20
213.6449999999999
 30
0.0
 11
165.7579999999999
 21
227.4
 31
0.0
  0
LINE
  5
BD
330
18
100
AcDbEntity
  8
0
100
AcDbLine
 10
97.7576
 20
213.6449999999999
 30
0.0
 11
97.7576
 21
227.4
 31
0.0
  0
LINE
  5
BE
330
18
100
AcDbEntity
  8
0
100
AcDbLine
 10
112.759
 20
177.382
 30
0.0
 11
104.0479999999999
 21
177.382
 31
0.0
  0
LINE
  5
BF
330
18
100
AcDbEntity
  8
0
100
AcDbLine
 10
112.759
 20
213.382
 30
0.0
 11
104.0479999999999
 21
213.382
 31
0.0
  0
LINE
  5
C0
330
18
100
AcDbEntity
  8
0
100
AcDbLine
 10
166.52
 20
177.8829999999999
 30
0.0
 11
180.011
 21
177.8829999999999
 31
0.0
  0
LINE
  5
C1
330
18
100
AcDbEntity
  8
0
100
AcDbLine
 10
166.52
 20
212.8829999999999
 30
0.0
 11
180.011
 21
212.8829999999999
 31
0.0
  0
LINE
  5
C2
330
18
100
AcDbEntity
  8
0
100
AcDbLine
 10
166.52
 20
187.882
 30
0.0
 11
174.054
 21
187.882
 31
0.0
  0
LINE
  5
C3
330
18
100
AcDbEntity
  8
0
100
AcDbLine
 10
166.5829999999999
 20
202.882
 30
0.0
 11
174.054
 21
202.882
 31
0.0
  0
LINE
  5
C4
330
18
100
AcDbEntity
  8
0
100
AcDbLine
 10
155.7579999999999
 20
208.985
 30
0.0
 11
155.7579999999999
 21
221.0609999999999
 31
0.0
  0
LINE
  5
C5
330
18
100
AcDbEntity
  8
0
100
AcDbLine
 10
107.757
 20
209.0479999999999
 30
0.0
 11
107.757
 21
221.0609999999999
 31
0.0
  0
LINE
  5
CE
330
18
100
AcDbEntity
  8
0
  6
AIGENLINE001
100
AcDbLine
 10
158.997
 20
195.382
 30
0.0
 11
106.0189999999999
 21
195.382
 31
0.0
  0
LINE
  5
CF
330
18
100
AcDbEntity
  8
0
  6
AIGENLINE001
100
AcDbLine
 10
131.7579999999999
 20
175.137
 30
0.0
 11
131.7579999999999
 21
215.586
 31
0.0
  0
ARC
  5
D0
330
18
100
AcDbEntity
  8
0
100
AcDbCircle
 10
117.376109
 20
124.1095999793498
 30
0.0
 40
3.062145
100
AcDbArc
 50
202.177435
 51
259.9191719999999
  0
LINE
  5
D1
330
18
100
AcDbEntity
  8
0
  6
AIGENLINE003
100
AcDbLine
 10
112.81
 20
134.0476679793499
 30
0.0
 11
111.9889999999999
 21
137.6206679793498
 31
0.0
  0
LINE
  5
D2
330
18
100
AcDbEntity
  8
0
  6
AIGENLINE003
100
AcDbLine
 10
113.0929999999999
 20
137.2756679793498
 30
0.0
 11
112.119
 21
137.0526679793499
 31
0.0
  0
LINE
  5
D3
330
18
100
AcDbEntity
  8
0
  6
AIGENLINE003
100
AcDbLine
 10
113.653
 20
134.8396679793499
 30
0.0
 11
112.6789999999999
 21
134.6156679793498
 31
0.0
  0
LINE
  5
D4
330
18
100
AcDbEntity
  8
0
  6
AIGENLINE001
100
AcDbLine
 10
114.326
 20
136.2766679793498
 30
0.0
 11
111.357
 21
135.5946679793499
 31
0.0
  0
ARC
  5
D5
330
18
100
AcDbEntity
  8
0
  6
AIGENLINE003
100
AcDbCircle
 10
130.221411
 20
221.85796397935
 30
0.0
 40
97.33518700000001
100
AcDbArc
 50
263.213581
 51
268.5493999999999
  0
ARC
  5
D6
330
18
100
AcDbEntity
  8
0
100
AcDbCircle
 10
122.3346199999999
 20
158.1594469793498
 30
0.0
 40
37.469809
100
AcDbArc
 50
261.567329
 51
263.4181319999999
  0
ARC
  5
D7
330
18
100
AcDbEntity
  8
0
100
AcDbCircle
 10
130.752904
 20
228.9338459793499
 30
0.0
 40
108.742957
100
AcDbArc
 50
263.2861829999999
 51
264.6035439999999
  0
ARC
  5
D8
330
18
100
AcDbEntity
  8
0
100
AcDbCircle
 10
142.914428
 20
355.7417179793499
 30
0.0
 40
236.1326099999999
100
AcDbArc
 50
264.5594479999999
 51
266.407011
  0
ARC
  5
D9
330
18
100
AcDbEntity
  8
0
100
AcDbCircle
 10
123.105328
 20
158.8854389793498
 30
0.0
 40
34.960327
100
AcDbArc
 50
261.558592
 51
263.392943
  0
ARC
  5
DA
330
18
100
AcDbEntity
  8
0
100
AcDbCircle
 10
126.9533899999999
 20
191.6520839793498
 30
0.0
 40
67.95213100000001
100
AcDbArc
 50
263.348772
 51
265.0817539999999
  0
ARC
  5
DB
330
18
100
AcDbEntity
  8
0
100
AcDbCircle
 10
133.2156459999999
 20
263.8547409793499
 30
0.0
 40
140.4258399999999
100
AcDbArc
 50
265.0617829999999
 51
266.2730390000001
  0
ARC
  5
DC
330
18
100
AcDbEntity
  8
0
100
AcDbCircle
 10
161.5990629999999
 20
703.5918439793498
 30
0.0
 40
581.0779949999998
100
AcDbArc
 50
266.298718
 51
266.623606
  0
ARC
  5
DD
330
18
100
AcDbEntity
  8
0
  6
AIGENLINE003
100
AcDbCircle
 10
119.1449259999999
 20
128.2427289793498
 30
0.0
 40
3.067626999999998
100
AcDbArc
 50
200.560906
 51
262.0270839999999
  0
ARC
  5
DE
330
18
100
AcDbEntity
  8
0
100
AcDbCircle
 10
118.398713
 20
127.3418309793499
 30
0.0
 40
3.067626999999998
100
AcDbArc
 50
200.560906
 51
262.0270839999999
  0
ARC
  5
DF
330
18
100
AcDbEntity
  8
0
100
AcDbCircle
 10
138.504377
 20
141.2287139793498
 30
0.0
 40
26.761282
100
AcDbArc
 50
195.184371
 51
197.2898049999999
  0
ARC
  5
E0
330
18
100
AcDbEntity
  8
0
100
AcDbCircle
 10
192.335513
 20
158.3102069793499
 30
0.0
 40
83.23727299999999
100
AcDbArc
 50
197.5037289999999
 51
199.1291089999999
  0
ARC
  5
E1
330
18
100
AcDbEntity
  8
0
100
AcDbCircle
 10
147.3345679999999
 20
142.3892169793498
 30
0.0
 40
35.50511699999999
100
AcDbArc
 50
198.6527759999999
 51
200.469672
  0
ARC
  5
E2
330
18
100
AcDbEntity
  8
0
100
AcDbCircle
 10
218.997643
 20
169.0079479793499
 30
0.0
 40
111.952147
100
AcDbArc
 50
200.406505
 51
202.445322
  0
ARC
  5
E3
330
18
100
AcDbEntity
  8
0
  6
AIGENLINE003
100
AcDbCircle
 10
167.609815
 20
148.4723669793498
 30
0.0
 40
55.65519399999999
100
AcDbArc
 50
189.742771
 51
194.1853899999999
  0
ARC
  5
E4
330
18
100
AcDbEntity
  8
0
  6
AIGENLINE003
100
AcDbCircle
 10
164.126068
 20
148.1527049793498
 30
0.0
 40
52.20217
100
AcDbArc
 50
194.782275
 51
198.6505879999999
  0
ARC
  5
E5
330
18
100
AcDbEntity
  8
0
  6
AIGENLINE003
100
AcDbCircle
 10
178.433533
 20
152.8871059793499
 30
0.0
 40
67.272401
100
AcDbArc
 50
198.574204
 51
202.4794639999999
  0
ARC
  5
E6
330
18
100
AcDbEntity
  8
0
  6
AIGENLINE003
100
AcDbCircle
 10
133.289024
 20
221.9328729793498
 30
0.0
 40
97.410186
100
AcDbArc
 50
271.4521599999999
 51
276.7842729999999
  0
ARC
  5
E7
330
18
100
AcDbEntity
  8
0
100
AcDbCircle
 10
140.411434
 20
158.8778449793499
 30
0.0
 40
34.95264999999999
100
AcDbArc
 50
276.606633
 51
278.441439
  0
ARC
  5
E8
330
18
100
AcDbEntity
  8
0
100
AcDbCircle
 10
136.563232
 20
191.6469269793499
 30
0.0
 40
67.946892
100
AcDbArc
 50
274.9176419999999
 51
276.6509029999999
  0
ARC
  5
E9
330
18
100
AcDbEntity
  8
0
100
AcDbCircle
 10
130.299761
 20
263.8669739793499
 30
0.0
 40
140.4380299999999
100
AcDbArc
 50
273.7265509999999
 51
274.9378200000001
  0
ARC
  5
EA
330
18
100
AcDbEntity
  8
0
100
AcDbCircle
 10
101.879498
 20
704.21605797935
 30
0.0
 40
581.7032679999998
100
AcDbArc
 50
273.376371
 51
273.700929
  0
ARC
  5
EB
330
18
100
AcDbEntity
  8
0
  6
AIGENLINE003
100
AcDbCircle
 10
144.371257
 20
128.2410439793499
 30
0.0
 40
3.065884
100
AcDbArc
 50
277.967282
 51
339.460518
  0
ARC
  5
EC
330
18
100
AcDbEntity
  8
0
100
AcDbCircle
 10
145.1174699999999
 20
127.3401459793499
 30
0.0
 40
3.065884
100
AcDbArc
 50
277.967282
 51
339.460518
  0
ARC
  5
ED
330
18
100
AcDbEntity
  8
0
100
AcDbCircle
 10
164.7220569999999
 20
145.8714239793499
 30
0.0
 40
54.887287
100
AcDbArc
 50
192.6036719999999
 51
196.2116639999999
  0
ARC
  5
EE
330
18
100
AcDbEntity
  8
0
100
AcDbCircle
 10
200.131355
 20
155.6092799793499
 30
0.0
 40
91.60884199999999
100
AcDbArc
 50
195.8769639999999
 51
200.8834219999999
  0
ARC
  5
EF
330
18
100
AcDbEntity
  8
0
100
AcDbCircle
 10
128.058826
 20
119.8223589793498
 30
0.0
 40
0.257399
100
AcDbArc
 50
1.400255999999999
 51
77.09060500000003
  0
LINE
  5
F0
330
18
100
AcDbEntity
  8
0
  6
AIGENLINE003
100
AcDbLine
 10
129.458
 20
119.5536679793498
 30
0.0
 11
129.458
 21
121.0536679793498
 31
0.0
  0
LINE
  5
F1
330
18
100
AcDbEntity
  8
0
  6
AIGENLINE003
100
AcDbLine
 10
129.458
 20
122.0546679793498
 30
0.0
 11
129.458
 21
123.0536679793498
 31
0.0
  0
LINE
  5
F2
330
18
100
AcDbEntity
  8
0
  6
AIGENLINE003
100
AcDbLine
 10
127.757
 20
124.5536679793499
 30
0.0
 11
129.458
 21
123.0536679793498
 31
0.0
  0
LINE
  5
F3
330
18
100
AcDbEntity
  8
0
  6
AIGENLINE003
100
AcDbLine
 10
131.7579999999999
 20
123.0536679793498
 30
0.0
 11
129.458
 21
123.0536679793498
 31
0.0
  0
LINE
  5
F4
330
18
100
AcDbEntity
  8
0
  6
AIGENLINE003
100
AcDbLine
 10
131.7579999999999
 20
124.5536679793499
 30
0.0
 11
127.757
 21
124.5536679793499
 31
0.0
  0
LINE
  5
F5
330
18
100
AcDbEntity
  8
0
  6
AIGENLINE003
100
AcDbLine
 10
134.0579999999999
 20
119.5536679793498
 30
0.0
 11
134.0579999999999
 21
123.0536679793498
 31
0.0
  0
LINE
  5
F6
330
18
100
AcDbEntity
  8
0
  6
AIGENLINE003
100
AcDbLine
 10
135.7579999999999
 20
124.5536679793499
 30
0.0
 11
134.0579999999999
 21
123.0536679793498
 31
0.0
  0
LINE
  5
F7
330
18
100
AcDbEntity
  8
0
  6
AIGENLINE003
100
AcDbLine
 10
131.7579999999999
 20
123.0536679793498
 30
0.0
 11
134.0579999999999
 21
123.0536679793498
 31
0.0
  0
LINE
  5
F8
330
18
100
AcDbEntity
  8
0
  6
AIGENLINE003
100
AcDbLine
 10
131.7579999999999
 20
124.5536679793499
 30
0.0
 11
135.7579999999999
 21
124.5536679793499
 31
0.0
  0
ARC
  5
F9
330
18
100
AcDbEntity
  8
0
100
AcDbCircle
 10
110.9346429999999
 20
135.4646299793498
 30
0.0
 40
0.4106310000000001
100
AcDbArc
 50
251.742312
 51
269.8356569999999
  0
ARC
  5
FA
330
18
100
AcDbEntity
  8
0
100
AcDbCircle
 10
110.943984
 20
135.4699299793499
 30
0.0
 40
0.418654
100
AcDbArc
 50
231.977497
 51
250.7554779999999
  0
ARC
  5
FB
330
18
100
AcDbEntity
  8
0
100
AcDbCircle
 10
110.933976
 20
135.4541839793498
 30
0.0
 40
0.4000880000000002
100
AcDbArc
 50
212.127567
 51
231.717552
  0
ARC
  5
FC
330
18
100
AcDbEntity
  8
0
100
AcDbCircle
 10
110.92748
 20
135.4518569793499
 30
0.0
 40
0.393352
100
AcDbArc
 50
193.4124149999999
 51
212.343735
  0
ARC
  5
FD
330
18
100
AcDbEntity
  8
0
100
AcDbCircle
 10
127.325886
 20
122.6229649793499
 30
0.0
 40
0.900952
100
AcDbArc
 50
69.159323
 51
86.79092800000002
  0
ARC
  5
FE
330
18
100
AcDbEntity
  8
0
100
AcDbCircle
 10
127.315149
 20
122.6118269793498
 30
0.0
 40
0.9152000000000001
100
AcDbArc
 50
52.706975
 51
68.779206
  0
ARC
  5
FF
330
18
100
AcDbEntity
  8
0
100
AcDbCircle
 10
127.32919
 20
122.6361219793498
 30
0.0
 40
0.887373
100
AcDbArc
 50
35.88685
 51
52.477787
  0
ARC
  5
100
330
18
100
AcDbEntity
  8
0
100
AcDbCircle
 10
127.308855
 20
122.6249889793499
 30
0.0
 40
0.910378
100
AcDbArc
 50
19.180315
 51
35.704285
  0
ARC
  5
101
330
18
100
AcDbEntity
  8
0
100
AcDbCircle
 10
127.354636
 20
122.6407329793498
 30
0.0
 40
0.8619659999999999
100
AcDbArc
 50
1.659970999999999
 51
19.191643
  0
ARC
  5
102
330
18
100
AcDbEntity
  8
0
100
AcDbCircle
 10
128.518796
 20
119.7559539793499
 30
0.0
 40
0.201883
100
AcDbArc
 50
248.977491
 51
269.7832209999999
  0
ARC
  5
103
330
18
100
AcDbEntity
  8
0
100
AcDbCircle
 10
128.5266959999999
 20
119.7680909793499
 30
0.0
 40
0.216066
100
AcDbArc
 50
227.072345
 51
248.176602
  0
ARC
  5
104
330
18
100
AcDbEntity
  8
0
100
AcDbCircle
 10
128.5255519999999
 20
119.7598499793498
 30
0.0
 40
0.209308
100
AcDbArc
 50
203.8131389999999
 51
225.765158
  0
ARC
  5
105
330
18
100
AcDbEntity
  8
0
100
AcDbCircle
 10
128.5374459999999
 20
119.7557969793499
 30
0.0
 40
0.218719
100
AcDbArc
 50
182.305225
 51
201.5831669999999
  0
LINE
  5
106
330
18
100
AcDbEntity
  8
0
  6
AIGENLINE003
100
AcDbLine
 10
128.5179999999999
 20
122.0546679793498
 30
0.0
 11
129.458
 21
122.0546679793498
 31
0.0
  0
LINE
  5
107
330
18
100
AcDbEntity
  8
0
  6
AIGENLINE003
100
AcDbLine
 10
128.5179999999999
 20
121.0536679793498
 30
0.0
 11
129.458
 21
121.0536679793498
 31
0.0
  0
LINE
  5
108
330
18
100
AcDbEntity
  8
0
100
AcDbLine
 10
128.5179999999999
 20
119.5536679793498
 30
0.0
 11
131.7579999999999
 21
119.5536679793498
 31
0.0
  0
LINE
  5
109
330
18
100
AcDbEntity
  8
0
100
AcDbLine
 10
128.216
 20
122.6656679793499
 30
0.0
 11
128.3189999999999
 21
119.7466679793498
 31
0.0
  0
LINE
  5
10A
330
18
100
AcDbEntity
  8
0
100
AcDbLine
 10
110.9329999999999
 20
135.0536679793499
 30
0.0
 11
111.61
 21
135.0536679793499
 31
0.0
  0
LINE
  5
10B
330
18
100
AcDbEntity
  8
0
100
AcDbLine
 10
110.9099999999999
 20
135.0556679793498
 30
0.0
 11
111.157
 21
133.8946679793499
 31
0.0
  0
LINE
  5
10C
330
18
100
AcDbEntity
  8
0
100
AcDbLine
 10
109.757
 20
139.0536679793499
 30
0.0
 11
110.545
 21
135.3606679793498
 31
0.0
  0
ARC
  5
10D
330
18
100
AcDbEntity
  8
0
100
AcDbCircle
 10
111.6076879999999
 20
133.9395299793499
 30
0.0
 40
1.114471999999999
100
AcDbArc
 50
71.67731300000001
 51
89.87671400000001
  0
ARC
  5
10E
330
18
100
AcDbEntity
  8
0
100
AcDbCircle
 10
111.6155959999999
 20
133.9624099793498
 30
0.0
 40
1.090265999999998
100
AcDbArc
 50
51.96229399999999
 51
71.693818
  0
ARC
  5
10F
330
18
100
AcDbEntity
  8
0
100
AcDbCircle
 10
111.59653
 20
133.9435069793499
 30
0.0
 40
1.116908
100
AcDbArc
 50
32.530484
 51
51.789464
  0
ARC
  5
110
330
18
100
AcDbEntity
  8
0
100
AcDbCircle
 10
111.6029259999999
 20
133.9511809793498
 30
0.0
 40
1.107391999999999
100
AcDbArc
 50
14.00878099999999
 51
32.373728
  0
LINE
  5
111
330
18
100
AcDbEntity
  8
0
100
AcDbLine
 10
131.7579999999999
 20
139.0536679793499
 30
0.0
 11
109.757
 21
139.0536679793499
 31
0.0
  0
ARC
  5
112
330
18
100
AcDbEntity
  8
0
100
AcDbCircle
 10
152.7881409999999
 20
136.4908889793499
 30
0.0
 40
0.441984
100
AcDbArc
 50
270.810919
 51
287.611152
  0
ARC
  5
113
330
18
100
AcDbEntity
  8
0
100
AcDbCircle
 10
152.785054
 20
136.4627229793499
 30
0.0
 40
0.4162290000000002
100
AcDbArc
 50
289.189351
 51
308.077714
  0
ARC
  5
114
330
18
100
AcDbEntity
  8
0
100
AcDbCircle
 10
152.793976
 20
136.4490519793498
 30
0.0
 40
0.399968
100
AcDbArc
 50
308.2794819999999
 51
327.8754379999999
  0
ARC
  5
115
330
18
100
AcDbEntity
  8
0
100
AcDbCircle
 10
152.800381
 20
136.4468069793498
 30
0.0
 40
0.393352
100
AcDbArc
 50
327.6562839999999
 51
346.5876049999999
  0
ARC
  5
116
330
18
100
AcDbEntity
  8
0
100
AcDbCircle
 10
136.1856239999999
 20
122.6391269793498
 30
0.0
 40
0.884626
100
AcDbArc
 50
93.04502300000001
 51
111.004686
  0
ARC
  5
117
330
18
100
AcDbEntity
  8
0
100
AcDbCircle
 10
136.1992199999999
 20
122.6128679793498
 30
0.0
 40
0.914019
100
AcDbArc
 50
111.210319
 51
127.30346
  0
ARC
  5
118
330
18
100
AcDbEntity
  8
0
100
AcDbCircle
 10
136.1985459999999
 20
122.6264419793499
 30
0.0
 40
0.9028449999999999
100
AcDbArc
 50
127.791486
 51
144.065382
  0
ARC
  5
119
330
18
100
AcDbEntity
  8
0
100
AcDbCircle
 10
136.1875389999999
 20
122.6324889793499
 30
0.0
 40
0.8903859999999998
100
AcDbArc
 50
143.9647479999999
 51
160.8831219999999
  0
ARC
  5
11A
330
18
100
AcDbEntity
  8
0
100
AcDbCircle
 10
136.202657
 20
122.6329429793499
 30
0.0
 40
0.9045379999999999
100
AcDbArc
 50
161.223922
 51
177.9244239999999
  0
LINE
  5
11B
330
18
100
AcDbEntity
  8
0
100
AcDbLine
 10
134.997
 20
119.5536679793498
 30
0.0
 11
135.0689999999999
 21
119.5676679793499
 31
0.0
  0
ARC
  5
11C
330
18
100
AcDbEntity
  8
0
100
AcDbCircle
 10
134.997804
 20
119.7530319793498
 30
0.0
 40
0.198565
100
AcDbArc
 50
290.881206
 51
313.869887
  0
ARC
  5
11D
330
18
100
AcDbEntity
  8
0
100
AcDbCircle
 10
134.98836
 20
119.7605729793498
 30
0.0
 40
0.210552
100
AcDbArc
 50
314.300499
 51
336.121244
  0
ARC
  5
11E
330
18
100
AcDbEntity
  8
0
100
AcDbCircle
 10
134.971196
 20
119.7592969793499
 30
0.0
 40
0.225876
100
AcDbArc
 50
338.1800339999999
 51
356.879045
  0
LINE
  5
11F
330
18
100
AcDbEntity
  8
0
100
AcDbLine
 10
134.997
 20
119.5536679793498
 30
0.0
 11
131.7579999999999
 21
119.5536679793498
 31
0.0
  0
LINE
  5
120
330
18
100
AcDbEntity
  8
0
100
AcDbLine
 10
135.299
 20
122.6656679793499
 30
0.0
 11
135.197
 21
119.7466679793498
 31
0.0
  0
ARC
  5
121
330
18
100
AcDbEntity
  8
0
100
AcDbCircle
 10
101.5045489999999
 20
147.5188939793499
 30
0.0
 40
51.051
100
AcDbArc
 50
341.160447
 51
346.052808
  0
ARC
  5
122
330
18
100
AcDbEntity
  8
0
100
AcDbCircle
 10
116.319364
 20
142.3310939793499
 30
0.0
 40
35.35484999999999
100
AcDbArc
 50
339.5399859999999
 51
341.3644529999999
  0
ARC
  5
123
330
18
100
AcDbEntity
  8
0
100
AcDbCircle
 10
45.09876199999999
 20
168.7876519793499
 30
0.0
 40
111.330634
100
AcDbArc
 50
337.5452330000001
 51
339.5954849999999
  0
LINE
  5
124
330
18
100
AcDbEntity
  8
0
100
AcDbLine
 10
152.7939999999999
 20
136.0486679793498
 30
0.0
 11
152.118
 21
136.0486679793498
 31
0.0
  0
LINE
  5
125
330
18
100
AcDbEntity
  8
0
100
AcDbLine
 10
153.7579999999999
 20
139.0536679793499
 30
0.0
 11
153.183
 21
136.3556679793499
 31
0.0
  0
ARC
  5
126
330
18
100
AcDbEntity
  8
0
100
AcDbCircle
 10
152.1185519999999
 20
134.9444579793498
 30
0.0
 40
1.104492
100
AcDbArc
 50
90.040332
 51
108.405601
  0
ARC
  5
127
330
18
100
AcDbEntity
  8
0
100
AcDbCircle
 10
152.111802
 20
134.9582249793499
 30
0.0
 40
1.089299999999999
100
AcDbArc
 50
108.2973179999999
 51
128.04653
  0
ARC
  5
128
330
18
100
AcDbEntity
  8
0
100
AcDbCircle
 10
152.1325229999999
 20
134.9373779793498
 30
0.0
 40
1.118492999999998
100
AcDbArc
 50
128.224296
 51
147.4557159999999
  0
ARC
  5
129
330
18
100
AcDbEntity
  8
0
100
AcDbCircle
 10
152.1249339999999
 20
134.9461309793499
 30
0.0
 40
1.107391999999999
100
AcDbArc
 50
147.6262519999999
 51
165.9911989999999
  0
LINE
  5
12A
330
18
100
AcDbEntity
  8
0
100
AcDbLine
 10
131.7579999999999
 20
139.0536679793499
 30
0.0
 11
153.7579999999999
 21
139.0536679793499
 31
0.0
  0
LINE
  5
12B
330
18
100
AcDbEntity
  8
0
100
AcDbLine
 10
130.3579999999999
 20
126.7656679793498
 30
0.0
 11
129.7649999999999
 21
124.5536679793499
 31
0.0
  0
LINE
  5
12C
330
18
100
AcDbEntity
  8
0
100
AcDbLine
 10
129.7649999999999
 20
124.5536679793499
 30
0.0
 11
129.173
 21
126.7656679793498
 31
0.0
  0
LINE
  5
12D
330
18
100
AcDbEntity
  8
0
100
AcDbLine
 10
129.173
 20
126.7656679793498
 30
0.0
 11
130.3579999999999
 21
126.7656679793498
 31
0.0
  0
LINE
  5
12E
330
18
100
AcDbEntity
  8
0
100
AcDbLine
 10
129.187
 20
136.8426679793498
 30
0.0
 11
129.78
 21
139.0536679793499
 31
0.0
  0
LINE
  5
12F
330
18
100
AcDbEntity
  8
0
100
AcDbLine
 10
129.78
 20
139.0536679793499
 30
0.0
 11
130.372
 21
136.8426679793498
 31
0.0
  0
LINE
  5
130
330
18
100
AcDbEntity
  8
0
100
AcDbLine
 10
130.372
 20
136.8426679793498
 30
0.0
 11
129.187
 21
136.8426679793498
 31
0.0
  0
LINE
  5
131
330
18
100
AcDbEntity
  8
0
100
AcDbLine
 10
129.78
 20
124.5536679793499
 30
0.0
 11
129.78
 21
139.0536679793499
 31
0.0
  0
LINE
  5
132
330
18
100
AcDbEntity
  8
0
  6
AIGENLINE001
100
AcDbLine
 10
131.7579999999999
 20
116.9186679793499
 30
0.0
 11
131.7579999999999
 21
141.8376679793499
 31
0.0
  0
ARC
  5
133
330
18
100
AcDbEntity
  8
0
  6
AIGENLINE003
100
AcDbCircle
 10
62.421375
 20
136.0065589793499
 30
0.0
 40
1.298675
100
AcDbArc
 50
2.113879
 51
87.886111
  0
ARC
  5
134
330
18
100
AcDbEntity
  8
0
  6
AIGENLINE003
100
AcDbCircle
 10
62.51755799999999
 20
136.0060029793498
 30
0.0
 40
1.299244999999998
100
AcDbArc
 50
92.12960200000001
 51
177.862472
  0
ARC
  5
135
330
18
100
AcDbEntity
  8
0
  6
AIGENLINE003
100
AcDbCircle
 10
62.469364
 20
136.0543759793499
 30
0.0
 40
1.250146999999999
100
AcDbArc
 50
179.996023
 51
269.996072
  0
ARC
  5
136
330
18
100
AcDbEntity
  8
0
  6
AIGENLINE003
100
AcDbCircle
 10
62.46910500000001
 20
136.0542899793498
 30
0.0
 40
1.250061
100
AcDbArc
 50
270.0079149999999
 51
0.007885
  0
LINE
  5
137
330
18
100
AcDbEntity
  8
0
100
AcDbLine
 10
64.43470000000001
 20
121.6766679793499
 30
0.0
 11
66.81529999999999
 21
134.2406679793499
 31
0.0
  0
ARC
  5
138
330
18
100
AcDbEntity
  8
0
100
AcDbCircle
 10
67.824566
 20
134.0216729793498
 30
0.0
 40
1.032672999999999
100
AcDbArc
 50
91.48297900000001
 51
167.779472
  0
ARC
  5
139
330
18
100
AcDbEntity
  8
0
100
AcDbCircle
 10
62.415924
 20
122.1136629793498
 30
0.0
 40
2.065561
100
AcDbArc
 50
271.480129
 51
347.784409
  0
ARC
  5
13A
330
18
100
AcDbEntity
  8
0
100
AcDbCircle
 10
87.343547
 20
135.5684299793499
 30
0.0
 40
0.514537
100
AcDbArc
 50
271.16953
 51
342.8976809999999
  0
ARC
  5
13B
330
18
100
AcDbEntity
  8
0
100
AcDbCircle
 10
89.500665
 20
136.4844099793498
 30
0.0
 40
0.435491
100
AcDbArc
 50
270.684749
 51
287.7373219999999
  0
ARC
  5
13C
330
18
100
AcDbEntity
  8
0
100
AcDbCircle
 10
89.495693
 20
136.4656089793498
 30
0.0
 40
0.419229
100
AcDbArc
 50
289.167493
 51
307.9613799999999
  0
ARC
  5
13D
330
18
100
AcDbEntity
  8
0
100
AcDbCircle
 10
89.50609300000001
 20
136.4487829793498
 30
0.0
 40
0.399572
100
AcDbArc
 50
308.2696819999999
 51
327.885238
  0
ARC
  5
13E
330
18
100
AcDbEntity
  8
0
100
AcDbCircle
 10
89.512876
 20
136.4465209793499
 30
0.0
 40
0.392627
100
AcDbArc
 50
327.638642
 51
346.605247
  0
ARC
  5
13F
330
18
100
AcDbEntity
  8
0
100
AcDbCircle
 10
66.89742599999999
 20
122.6391269793498
 30
0.0
 40
0.884626
100
AcDbArc
 50
93.04502300000001
 51
111.004686
  0
ARC
  5
140
330
18
100
AcDbEntity
  8
0
100
AcDbCircle
 10
66.911022
 20
122.6128679793498
 30
0.0
 40
0.914019
100
AcDbArc
 50
111.210319
 51
127.30346
  0
ARC
  5
141
330
18
100
AcDbEntity
  8
0
100
AcDbCircle
 10
66.903756
 20
122.6314639793498
 30
0.0
 40
0.8948409999999999
100
AcDbArc
 50
127.655003
 51
144.0909889999999
  0
ARC
  5
142
330
18
100
AcDbEntity
  8
0
100
AcDbCircle
 10
66.90943799999999
 20
122.6282989793499
 30
0.0
 40
0.9012999999999999
100
AcDbArc
 50
144.1398639999999
 51
160.84167
  0
ARC
  5
143
330
18
100
AcDbEntity
  8
0
100
AcDbCircle
 10
66.892753
 20
122.6369369793498
 30
0.0
 40
0.882708
100
AcDbArc
 50
161.01588
 51
178.1324649999999
  0
LINE
  5
144
330
18
100
AcDbEntity
  8
0
100
AcDbLine
 10
65.70869999999999
 20
119.5536679793498
 30
0.0
 11
65.7804
 21
119.5676679793499
 31
0.0
  0
ARC
  5
145
330
18
100
AcDbEntity
  8
0
100
AcDbCircle
 10
65.705939
 20
119.7588159793498
 30
0.0
 40
0.20528
100
AcDbArc
 50
291.2620659999999
 51
313.4890259999999
  0
ARC
  5
146
330
18
100
AcDbEntity
  8
0
100
AcDbCircle
 10
65.700161
 20
119.7605729793498
 30
0.0
 40
0.210552
100
AcDbArc
 50
314.300499
 51
336.121244
  0
ARC
  5
147
330
18
100
AcDbEntity
  8
0
100
AcDbCircle
 10
65.685692
 20
119.7576309793499
 30
0.0
 40
0.222756
100
AcDbArc
 50
338.320375
 51
357.264466
  0
LINE
  5
148
330
18
100
AcDbEntity
  8
0
100
AcDbLine
 10
65.70869999999999
 20
119.5536679793498
 30
0.0
 11
62.46929999999998
 21
119.5536679793498
 31
0.0
  0
LINE
  5
149
330
18
100
AcDbEntity
  8
0
100
AcDbLine
 10
66.01049999999999
 20
122.6656679793499
 30
0.0
 11
65.90819999999999
 21
119.7466679793498
 31
0.0
  0
ARC
  5
14A
330
18
100
AcDbEntity
  8
0
100
AcDbCircle
 10
82.09225100000002
 20
128.1201009793498
 30
0.0
 40
3.129202
100
AcDbArc
 50
278.3702319999999
 51
292.6044219999999
  0
ARC
  5
14B
330
18
100
AcDbEntity
  8
0
100
AcDbCircle
 10
82.088491
 20
128.1393089793498
 30
0.0
 40
3.148383
100
AcDbArc
 50
292.5332399999999
 51
307.94262
  0
ARC
  5
14C
330
18
100
AcDbEntity
  8
0
100
AcDbCircle
 10
82.078533
 20
128.1520779793499
 30
0.0
 40
3.164575999999998
100
AcDbArc
 50
307.942661
 51
323.249588
  0
ARC
  5
14D
330
18
100
AcDbEntity
  8
0
100
AcDbCircle
 10
82.06397800000003
 20
128.1554709793498
 30
0.0
 40
3.178272999999999
100
AcDbArc
 50
323.3575549999999
 51
337.778699
  0
ARC
  5
14E
330
18
100
AcDbEntity
  8
0
100
AcDbCircle
 10
62.035623
 20
263.24645797935
 30
0.0
 40
139.7359379999999
100
AcDbArc
 50
274.623337
 51
278.441083
  0
ARC
  5
14F
330
18
100
AcDbEntity
  8
0
100
AcDbCircle
 10
54.554717
 20
349.8165249793498
 30
0.0
 40
226.62782
100
AcDbArc
 50
273.110125
 51
274.7443379999999
  0
ARC
  5
150
330
18
100
AcDbEntity
  8
0
100
AcDbCircle
 10
37.858996
 20
147.6240289793499
 30
0.0
 40
51.423178
100
AcDbArc
 50
341.1781619999999
 51
346.035093
  0
ARC
  5
151
330
18
100
AcDbEntity
  8
0
100
AcDbCircle
 10
23.550388
 20
152.2619759793498
 30
0.0
 40
66.463362
100
AcDbArc
 50
337.617473
 51
341.373331
  0
LINE
  5
152
330
18
100
AcDbEntity
  8
0
100
AcDbLine
 10
89.5059
 20
136.0486679793498
 30
0.0
 11
88.8296
 21
136.0486679793498
 31
0.0
  0
LINE
  5
153
330
18
100
AcDbEntity
  8
0
100
AcDbLine
 10
90.4695
 20
139.0536679793499
 30
0.0
 11
89.8948
 21
136.3556679793499
 31
0.0
  0
ARC
  5
154
330
18
100
AcDbEntity
  8
0
100
AcDbCircle
 10
88.83034100000001
 20
134.9425099793498
 30
0.0
 40
1.106439999999998
100
AcDbArc
 50
90.03875200000003
 51
108.3892489999999
  0
ARC
  5
155
330
18
100
AcDbEntity
  8
0
100
AcDbCircle
 10
88.823731
 20
134.9586849793499
 30
0.0
 40
1.089007
100
AcDbArc
 50
108.327711
 51
128.0660649999999
  0
ARC
  5
156
330
18
100
AcDbEntity
  8
0
100
AcDbCircle
 10
88.844341
 20
134.9373779793498
 30
0.0
 40
1.118492999999998
100
AcDbArc
 50
128.224296
 51
147.4557159999999
  0
ARC
  5
157
330
18
100
AcDbEntity
  8
0
100
AcDbCircle
 10
88.83492199999997
 20
134.9469149793499
 30
0.0
 40
1.105426999999999
100
AcDbArc
 50
147.6097889999999
 51
166.0076629999999
  0
LINE
  5
158
330
18
100
AcDbEntity
  8
0
100
AcDbLine
 10
62.46929999999998
 20
135.0536679793499
 30
0.0
 11
87.354
 21
135.0536679793499
 31
0.0
  0
LINE
  5
159
330
18
100
AcDbEntity
  8
0
100
AcDbLine
 10
62.46929999999998
 20
139.0536679793499
 30
0.0
 11
90.4695
 21
139.0536679793499
 31
0.0
  0
LINE
  5
15A
330
18
100
AcDbEntity
  8
0
100
AcDbLine
 10
60.50399999999999
 20
121.6766679793499
 30
0.0
 11
58.12339999999998
 21
134.2406679793499
 31
0.0
  0
ARC
  5
15B
330
18
100
AcDbEntity
  8
0
100
AcDbCircle
 10
57.114153
 20
134.0216509793498
 30
0.0
 40
1.032685999999998
100
AcDbArc
 50
12.22156299999999
 51
88.53568100000002
  0
ARC
  5
15C
330
18
100
AcDbEntity
  8
0
100
AcDbCircle
 10
62.52279999999998
 20
122.1136529793499
 30
0.0
 40
2.065554
100
AcDbArc
 50
192.215348
 51
268.515221
  0
ARC
  5
15D
330
18
100
AcDbEntity
  8
0
  6
AIGENLINE003
100
AcDbCircle
 10
95.905137
 20
148.4723669793498
 30
0.0
 40
55.65519399999999
100
AcDbArc
 50
345.8146299999999
 51
350.2572490000001
  0
ARC
  5
15E
330
18
100
AcDbEntity
  8
0
  6
AIGENLINE003
100
AcDbCircle
 10
99.947002
 20
147.9850879793499
 30
0.0
 40
51.619761
100
AcDbArc
 50
341.3276009999999
 51
345.2395759999999
  0
ARC
  5
15F
330
18
100
AcDbEntity
  8
0
  6
AIGENLINE003
100
AcDbCircle
 10
85.08141999999997
 20
152.8871059793499
 30
0.0
 40
67.272401
100
AcDbArc
 50
337.5205559999999
 51
341.425816
  0
ARC
  5
160
330
18
100
AcDbEntity
  8
0
100
AcDbCircle
 10
37.595162
 20
135.5683989793498
 30
0.0
 40
0.5145100000000002
100
AcDbArc
 50
197.09971
 51
268.813396
  0
LINE
  5
161
330
18
100
AcDbEntity
  8
0
100
AcDbLine
 10
68.94110000000001
 20
188.9109999999999
 30
0.0
 11
74.91559999999998
 21
188.9109999999999
 31
0.0
  0
LINE
  5
162
330
18
100
AcDbEntity
  8
0
100
AcDbLine
 10
24.0703
 20
215.171
 30
0.0
 11
23.47779999999999
 21
217.3829999999999
 31
0.0
  0
LINE
  5
163
330
18
100
AcDbEntity
  8
0
100
AcDbLine
 10
23.47779999999999
 20
217.3829999999999
 30
0.0
 11
22.8852
 21
215.171
 31
0.0
  0
LINE
  5
164
330
18
100
AcDbEntity
  8
0
100
AcDbLine
 10
22.8852
 20
215.171
 30
0.0
 11
24.0703
 21
215.171
 31
0.0
  0
LINE
  5
165
330
18
100
AcDbEntity
  8
0
100
AcDbLine
 10
22.89969999999999
 20
175.594
 30
0.0
 11
23.49229999999999
 21
173.382
 31
0.0
  0
LINE
  5
166
330
18
100
AcDbEntity
  8
0
100
AcDbLine
 10
23.49229999999999
 20
173.382
 30
0.0
 11
24.0848
 21
175.594
 31
0.0
  0
LINE
  5
167
330
18
100
AcDbEntity
  8
0
100
AcDbLine
 10
24.0848
 20
175.594
 30
0.0
 11
22.89969999999999
 21
175.594
 31
0.0
  0
LINE
  5
168
330
18
100
AcDbEntity
  8
0
100
AcDbLine
 10
23.47779999999999
 20
217.3829999999999
 30
0.0
 11
23.47779999999999
 21
173.382
 31
0.0
  0
LINE
  5
169
330
18
100
AcDbEntity
  8
0
100
AcDbLine
 10
22.77769999999999
 20
173.382
 30
0.0
 11
42.1706
 21
173.382
 31
0.0
  0
LINE
  5
16A
330
18
100
AcDbEntity
  8
0
100
AcDbLine
 10
22.77769999999999
 20
217.3829999999999
 30
0.0
 11
42.1706
 21
217.3829999999999
 31
0.0
  0
LINE
  5
16B
330
18
100
AcDbEntity
  8
0
100
AcDbLine
 10
30.3587
 20
212.1709999999999
 30
0.0
 11
29.7662
 21
214.3829999999999
 31
0.0
  0
LINE
  5
16C
330
18
100
AcDbEntity
  8
0
100
AcDbLine
 10
29.7662
 20
214.3829999999999
 30
0.0
 11
29.1736
 21
212.1709999999999
 31
0.0
  0
LINE
  5
16D
330
18
100
AcDbEntity
  8
0
100
AcDbLine
 10
29.1736
 20
212.1709999999999
 30
0.0
 11
30.3587
 21
212.1709999999999
 31
0.0
  0
LINE
  5
16E
330
18
100
AcDbEntity
  8
0
100
AcDbLine
 10
29.1881
 20
178.594
 30
0.0
 11
29.7806
 21
176.382
 31
0.0
  0
LINE
  5
16F
330
18
100
AcDbEntity
  8
0
100
AcDbLine
 10
29.7806
 20
176.382
 30
0.0
 11
30.3732
 21
178.594
 31
0.0
  0
LINE
  5
170
330
18
100
AcDbEntity
  8
0
100
AcDbLine
 10
30.3732
 20
178.594
 30
0.0
 11
29.1881
 21
178.594
 31
0.0
  0
LINE
  5
171
330
18
100
AcDbEntity
  8
0
100
AcDbLine
 10
29.7662
 20
214.3829999999999
 30
0.0
 11
29.7662
 21
176.382
 31
0.0
  0
LINE
  5
172
330
18
100
AcDbEntity
  8
0
100
AcDbLine
 10
39.6807
 20
227.0359999999999
 30
0.0
 11
37.46909999999999
 21
226.4429999999999
 31
0.0
  0
LINE
  5
173
330
18
100
AcDbEntity
  8
0
100
AcDbLine
 10
37.46909999999999
 20
226.4429999999999
 30
0.0
 11
39.6807
 21
225.851
 31
0.0
  0
LINE
  5
174
330
18
100
AcDbEntity
  8
0
100
AcDbLine
 10
39.6807
 20
225.851
 30
0.0
 11
39.6807
 21
227.0359999999999
 31
0.0
  0
LINE
  5
175
330
18
100
AcDbEntity
  8
0
100
AcDbLine
 10
85.258
 20
225.851
 30
0.0
 11
87.4695
 21
226.4429999999999
 31
0.0
  0
LINE
  5
176
330
18
100
AcDbEntity
  8
0
100
AcDbLine
 10
87.4695
 20
226.4429999999999
 30
0.0
 11
85.258
 21
227.0359999999999
 31
0.0
  0
LINE
  5
177
330
18
100
AcDbEntity
  8
0
100
AcDbLine
 10
85.258
 20
227.0359999999999
 30
0.0
 11
85.258
 21
225.851
 31
0.0
  0
LINE
  5
178
330
18
100
AcDbEntity
  8
0
100
AcDbLine
 10
37.46909999999999
 20
226.4429999999999
 30
0.0
 11
87.4695
 21
226.4429999999999
 31
0.0
  0
LINE
  5
179
330
18
100
AcDbEntity
  8
0
100
AcDbLine
 10
87.4695
 20
211.3999999999999
 30
0.0
 11
87.4695
 21
227.143
 31
0.0
  0
LINE
  5
17A
330
18
100
AcDbEntity
  8
0
100
AcDbLine
 10
37.46909999999999
 20
211.3999999999999
 30
0.0
 11
37.46909999999999
 21
227.143
 31
0.0
  0
LINE
  5
17B
330
18
100
AcDbEntity
  8
0
100
AcDbLine
 10
36.6807
 20
234.797
 30
0.0
 11
34.46909999999999
 21
234.204
 31
0.0
  0
LINE
  5
17C
330
18
100
AcDbEntity
  8
0
100
AcDbLine
 10
34.46909999999999
 20
234.204
 30
0.0
 11
36.6807
 21
233.612
 31
0.0
  0
LINE
  5
17D
330
18
100
AcDbEntity
  8
0
100
AcDbLine
 10
36.6807
 20
233.612
 30
0.0
 11
36.6807
 21
234.797
 31
0.0
  0
LINE
  5
17E
330
18
100
AcDbEntity
  8
0
100
AcDbLine
 10
88.25799999999999
 20
233.6259999999999
 30
0.0
 11
90.4695
 21
234.219
 31
0.0
  0
LINE
  5
17F
330
18
100
AcDbEntity
  8
0
100
AcDbLine
 10
90.4695
 20
234.219
 30
0.0
 11
88.25799999999999
 21
234.8109999999999
 31
0.0
  0
LINE
  5
180
330
18
100
AcDbEntity
  8
0
100
AcDbLine
 10
88.25799999999999
 20
234.8109999999999
 30
0.0
 11
88.25799999999999
 21
233.6259999999999
 31
0.0
  0
LINE
  5
181
330
18
100
AcDbEntity
  8
0
100
AcDbLine
 10
34.46909999999999
 20
234.204
 30
0.0
 11
90.4695
 21
234.204
 31
0.0
  0
ARC
  5
182
330
18
100
AcDbEntity
  8
0
100
AcDbCircle
 10
35.43379799999999
 20
136.4591699793499
 30
0.0
 40
0.4102210000000002
100
AcDbArc
 50
251.7331959999999
 51
269.844772
  0
ARC
  5
183
330
18
100
AcDbEntity
  8
0
100
AcDbCircle
 10
35.444794
 20
136.4691559793498
 30
0.0
 40
0.4232140000000002
100
AcDbArc
 50
232.1279259999999
 51
250.74324
  0
ARC
  5
184
330
18
100
AcDbEntity
  8
0
100
AcDbCircle
 10
35.43509199999999
 20
136.4517249793498
 30
0.0
 40
0.40351
100
AcDbArc
 50
212.257037
 51
231.695881
  0
ARC
  5
185
330
18
100
AcDbEntity
  8
0
100
AcDbCircle
 10
35.436345
 20
136.4505269793498
 30
0.0
 40
0.4039340000000001
100
AcDbArc
 50
193.597045
 51
212.018466
  0
ARC
  5
186
330
18
100
AcDbEntity
  8
0
100
AcDbCircle
 10
58.037286
 20
122.6209259793499
 30
0.0
 40
0.9030000000000001
100
AcDbArc
 50
69.181511
 51
86.78362299999998
  0
ARC
  5
187
330
18
100
AcDbEntity
  8
0
100
AcDbCircle
 10
58.025998
 20
122.6101259793499
 30
0.0
 40
0.9171309999999998
100
AcDbArc
 50
52.724004
 51
68.76217700000001
  0
ARC
  5
188
330
18
100
AcDbEntity
  8
0
100
AcDbCircle
 10
58.03473100000001
 20
122.6313969793499
 30
0.0
 40
0.894935
100
AcDbArc
 50
35.90986799999999
 51
52.3441
  0
ARC
  5
189
330
18
100
AcDbEntity
  8
0
100
AcDbCircle
 10
58.04084399999999
 20
122.6350279793499
 30
0.0
 40
0.887854
100
AcDbArc
 50
19.000072
 51
35.951462
  0
ARC
  5
18A
330
18
100
AcDbEntity
  8
0
100
AcDbCircle
 10
58.04933399999999
 20
122.6364459793499
 30
0.0
 40
0.879367
100
AcDbArc
 50
1.906572
 51
19.092793
  0
ARC
  5
18B
330
18
100
AcDbEntity
  8
0
100
AcDbCircle
 10
59.230771
 20
119.7578219793498
 30
0.0
 40
0.20375
100
AcDbArc
 50
249.075154
 51
269.7848859999999
  0
ARC
  5
18C
330
18
100
AcDbEntity
  8
0
100
AcDbCircle
 10
59.23649399999999
 20
119.7652019793499
 30
0.0
 40
0.212705
100
AcDbArc
 50
226.9036059999999
 51
248.345341
  0
ARC
  5
18D
330
18
100
AcDbEntity
  8
0
100
AcDbCircle
 10
59.240399
 20
119.7610619793499
 30
0.0
 40
0.212425
100
AcDbArc
 50
203.7991959999999
 51
225.371318
  0
ARC
  5
18E
330
18
100
AcDbEntity
  8
0
100
AcDbCircle
 10
59.24175
 20
119.7556969793498
 30
0.0
 40
0.211567
100
AcDbArc
 50
182.3561179999999
 51
202.3220929999999
  0
LINE
  5
18F
330
18
100
AcDbEntity
  8
0
100
AcDbLine
 10
59.23
 20
119.5536679793498
 30
0.0
 11
62.46929999999998
 21
119.5536679793498
 31
0.0
  0
LINE
  5
190
330
18
100
AcDbEntity
  8
0
100
AcDbLine
 10
58.9282
 20
122.6656679793499
 30
0.0
 11
59.0304
 21
119.7466679793498
 31
0.0
  0
ARC
  5
191
330
18
100
AcDbEntity
  8
0
100
AcDbCircle
 10
42.847637
 20
128.1252879793498
 30
0.0
 40
3.134504
100
AcDbArc
 50
247.409565
 51
261.622616
  0
ARC
  5
192
330
18
100
AcDbEntity
  8
0
100
AcDbCircle
 10
42.850644
 20
128.1395189793498
 30
0.0
 40
3.148799
100
AcDbArc
 50
232.0539019999999
 51
247.4585009999999
  0
ARC
  5
193
330
18
100
AcDbEntity
  8
0
100
AcDbCircle
 10
42.848074
 20
128.1402059793498
 30
0.0
 40
3.147761999999998
100
AcDbArc
 50
216.7093029999999
 51
232.098488
  0
ARC
  5
194
330
18
100
AcDbEntity
  8
0
100
AcDbCircle
 10
42.861567
 20
128.1494859793498
 30
0.0
 40
3.164124999999998
100
AcDbArc
 50
202.208904
 51
216.6979669999999
  0
ARC
  5
195
330
18
100
AcDbEntity
  8
0
100
AcDbCircle
 10
62.89680500000001
 20
263.19477597935
 30
0.0
 40
139.6839159999999
100
AcDbArc
 50
261.558311
 51
265.3775490000001
  0
ARC
  5
196
330
18
100
AcDbEntity
  8
0
100
AcDbCircle
 10
70.379828
 20
349.7460389793499
 30
0.0
 40
226.5572299999999
100
AcDbArc
 50
265.255262
 51
266.889897
  0
ARC
  5
197
330
18
100
AcDbEntity
  8
0
100
AcDbCircle
 10
87.07956000000001
 20
147.6240289793499
 30
0.0
 40
51.423178
100
AcDbArc
 50
193.9649269999999
 51
198.821858
  0
ARC
  5
198
330
18
100
AcDbEntity
  8
0
100
AcDbCircle
 10
101.388168
 20
152.2619759793498
 30
0.0
 40
66.463362
100
AcDbArc
 50
198.626688
 51
202.3825469999999
  0
LINE
  5
199
330
18
100
AcDbEntity
  8
0
100
AcDbLine
 10
35.43269999999999
 20
136.0486679793498
 30
0.0
 11
36.1088
 21
136.0486679793498
 31
0.0
  0
LINE
  5
19A
330
18
100
AcDbEntity
  8
0
100
AcDbLine
 10
34.46909999999999
 20
139.0536679793499
 30
0.0
 11
35.0437
 21
136.3556679793499
 31
0.0
  0
ARC
  5
19B
330
18
100
AcDbEntity
  8
0
100
AcDbCircle
 10
36.106819
 20
134.9339019793499
 30
0.0
 40
1.11505
100
AcDbArc
 50
71.682237
 51
89.898676
  0
ARC
  5
19C
330
18
100
AcDbEntity
  8
0
100
AcDbCircle
 10
36.11329
 20
134.9558229793499
 30
0.0
 40
1.092206
100
AcDbArc
 50
51.963107
 51
71.643078
  0
ARC
  5
19D
330
18
100
AcDbEntity
  8
0
100
AcDbCircle
 10
36.093665
 20
134.9362929793499
 30
0.0
 40
1.119685999999998
100
AcDbArc
 50
32.571174
 51
51.78792100000001
  0
ARC
  5
19E
330
18
100
AcDbEntity
  8
0
100
AcDbCircle
 10
36.10486900000001
 20
134.9479379793498
 30
0.0
 40
1.103980999999998
100
AcDbArc
 50
13.95627
 51
32.374893
  0
LINE
  5
19F
330
18
100
AcDbEntity
  8
0
100
AcDbLine
 10
62.46929999999998
 20
135.0536679793499
 30
0.0
 11
37.58449999999999
 21
135.0536679793499
 31
0.0
  0
LINE
  5
1A0
330
18
100
AcDbEntity
  8
0
100
AcDbLine
 10
62.46929999999998
 20
139.0536679793499
 30
0.0
 11
34.46909999999999
 21
139.0536679793499
 31
0.0
  0
LINE
  5
1A1
330
18
100
AcDbEntity
  8
0
100
AcDbLine
 10
28.4322
 20
121.7656679793499
 30
0.0
 11
29.0248
 21
119.5536679793498
 31
0.0
  0
LINE
  5
1A2
330
18
100
AcDbEntity
  8
0
100
AcDbLine
 10
29.0248
 20
119.5536679793498
 30
0.0
 11
29.6173
 21
121.7656679793499
 31
0.0
  0
LINE
  5
1A3
330
18
100
AcDbEntity
  8
0
100
AcDbLine
 10
29.6173
 20
121.7656679793499
 30
0.0
 11
28.4322
 21
121.7656679793499
 31
0.0
  0
LINE
  5
1A4
330
18
100
AcDbEntity
  8
0
100
AcDbLine
 10
29.6029
 20
136.8426679793498
 30
0.0
 11
29.0103
 21
139.0536679793499
 31
0.0
  0
LINE
  5
1A5
330
18
100
AcDbEntity
  8
0
100
AcDbLine
 10
29.0103
 20
139.0536679793499
 30
0.0
 11
28.4177
 21
136.8426679793498
 31
0.0
  0
LINE
  5
1A6
330
18
100
AcDbEntity
  8
0
100
AcDbLine
 10
28.4177
 20
136.8426679793498
 30
0.0
 11
29.6029
 21
136.8426679793498
 31
0.0
  0
LINE
  5
1A7
330
18
100
AcDbEntity
  8
0
100
AcDbLine
 10
29.0103
 20
119.5536679793498
 30
0.0
 11
29.0103
 21
139.0536679793499
 31
0.0
  0
LINE
  5
1A8
330
18
100
AcDbEntity
  8
0
100
AcDbLine
 10
33.76900000000001
 20
139.0536679793499
 30
0.0
 11
28.3103
 21
139.0536679793499
 31
0.0
  0
LINE
  5
1A9
330
18
100
AcDbEntity
  8
0
  6
AIGENLINE001
100
AcDbLine
 10
64.854
 20
136.0546679793498
 30
0.0
 11
59.9027
 21
136.0546679793498
 31
0.0
  0
LINE
  5
1AA
330
18
100
AcDbEntity
  8
0
100
AcDbLine
 10
58.2401
 20
119.5536679793498
 30
0.0
 11
28.3103
 21
119.5536679793498
 31
0.0
  0
ARC
  5
1AB
330
18
100
AcDbEntity
  8
0
100
AcDbCircle
 10
63.631861
 20
177.1837149999999
 30
0.0
 40
0.087322
100
AcDbArc
 50
318.0509859999999
 51
358.898779
  0
ARC
  5
1AC
330
18
100
AcDbEntity
  8
0
100
AcDbCircle
 10
63.471113
 20
177.328992
 30
0.0
 40
0.30399
100
AcDbArc
 50
292.872675
 51
317.939094
  0
ARC
  5
1AD
330
18
100
AcDbEntity
  8
0
100
AcDbCircle
 10
63.077314
 20
178.1852629999999
 30
0.0
 40
1.246358
100
AcDbArc
 50
281.77544
 51
294.2526599999999
  0
ARC
  5
1AE
330
18
100
AcDbEntity
  8
0
100
AcDbCircle
 10
62.54350200000001
 20
180.640655
 30
0.0
 40
3.759076999999998
100
AcDbArc
 50
268.8686129999999
 51
282.102998
  0
ARC
  5
1AF
330
18
100
AcDbEntity
  8
0
100
AcDbCircle
 10
62.46750699999999
 20
181.333736
 30
0.0
 40
4.451425
100
AcDbArc
 50
258.432452
 51
270.022799
  0
ARC
  5
1B0
330
18
100
AcDbEntity
  8
0
100
AcDbCircle
 10
61.78085
 20
177.9422459999999
 30
0.0
 40
0.9911569999999999
100
AcDbArc
 50
241.378991
 51
258.006899
  0
ARC
  5
1B1
330
18
100
AcDbEntity
  8
0
100
AcDbCircle
 10
61.369945
 20
177.211734
 30
0.0
 40
0.153457
100
AcDbArc
 50
191.1584859999999
 51
245.403114
  0
ARC
  5
1B2
330
18
100
AcDbEntity
  8
0
100
AcDbCircle
 10
61.30721600000001
 20
177.180375
 30
0.0
 40
0.087843
100
AcDbArc
 50
138.181833
 51
178.915952
  0
ARC
  5
1B3
330
18
100
AcDbEntity
  8
0
100
AcDbCircle
 10
61.467562
 20
177.0359559999999
 30
0.0
 40
0.303637
100
AcDbArc
 50
112.925129
 51
138.0464939999999
  0
ARC
  5
1B4
330
18
100
AcDbEntity
  8
0
100
AcDbCircle
 10
61.86099599999999
 20
176.182509
 30
0.0
 40
1.243287999999999
100
AcDbArc
 50
101.7933589999999
 51
114.303987
  0
ARC
  5
1B5
330
18
100
AcDbEntity
  8
0
100
AcDbCircle
 10
62.394888
 20
173.7291759999999
 30
0.0
 40
3.754012
100
AcDbArc
 50
88.86453000000001
 51
102.1169629999999
  0
ARC
  5
1B6
330
18
100
AcDbEntity
  8
0
100
AcDbCircle
 10
62.47105300000001
 20
173.035224
 30
0.0
 40
4.447226999999998
100
AcDbArc
 50
78.421425
 51
90.02286300000001
  0
ARC
  5
1B7
330
18
100
AcDbEntity
  8
0
100
AcDbCircle
 10
63.157881
 20
176.424873
 30
0.0
 40
0.9887299999999999
100
AcDbArc
 50
61.313747
 51
77.987359
  0
ARC
  5
1B8
330
18
100
AcDbEntity
  8
0
100
AcDbCircle
 10
63.568215
 20
177.152506
 30
0.0
 40
0.153813
100
AcDbArc
 50
11.06897899999999
 51
65.30180099999999
  0
ARC
  5
1B9
330
18
100
AcDbEntity
  8
0
100
AcDbCircle
 10
62.469277
 20
195.3824189999999
 30
0.0
 40
2.299961
100
AcDbArc
 50
270.00002
 51
359.9999899999999
  0
ARC
  5
1BA
330
18
100
AcDbEntity
  8
0
100
AcDbCircle
 10
62.469277
 20
195.3824179999999
 30
0.0
 40
2.29996
100
AcDbArc
 50
179.9999699999999
 51
270.00002
  0
ARC
  5
1BB
330
18
100
AcDbEntity
  8
0
100
AcDbCircle
 10
62.469278
 20
195.3824179999999
 30
0.0
 40
2.299961
100
AcDbArc
 50
90.0
 51
179.9999699999999
  0
ARC
  5
1BC
330
18
100
AcDbEntity
  8
0
100
AcDbCircle
 10
62.469277
 20
195.3824179999999
 30
0.0
 40
2.299961
100
AcDbArc
 50
0.00001
 51
89.99998000000003
  0
ARC
  5
1BD
330
18
100
AcDbEntity
  8
0
100
AcDbCircle
 10
62.469277
 20
195.3824189999999
 30
0.0
 40
4.000125999999998
100
AcDbArc
 50
270.00002
 51
359.9999899999999
  0
ARC
  5
1BE
330
18
100
AcDbEntity
  8
0
100
AcDbCircle
 10
62.469277
 20
195.3824179999999
 30
0.0
 40
4.000124999999998
100
AcDbArc
 50
179.9999699999999
 51
270.00002
  0
ARC
  5
1BF
330
18
100
AcDbEntity
  8
0
100
AcDbCircle
 10
62.469279
 20
195.3824179999999
 30
0.0
 40
4.000125999999998
100
AcDbArc
 50
90.0
 51
179.9999699999999
  0
ARC
  5
1C0
330
18
100
AcDbEntity
  8
0
100
AcDbCircle
 10
62.469277
 20
195.3824179999999
 30
0.0
 40
4.000125999999998
100
AcDbArc
 50
0.00001
 51
89.99998000000003
  0
LINE
  5
1C1
330
18
100
AcDbEntity
  8
0
100
AcDbLine
 10
29.0661
 20
176.382
 30
0.0
 11
43.05259999999999
 21
176.382
 31
0.0
  0
LINE
  5
1C2
330
18
100
AcDbEntity
  8
0
100
AcDbLine
 10
29.0661
 20
214.3829999999999
 30
0.0
 11
43.05259999999999
 21
214.3829999999999
 31
0.0
  0
LINE
  5
1C3
330
18
100
AcDbEntity
  8
0
  6
AIGENLINE001
100
AcDbLine
 10
30.952
 20
195.382
 30
0.0
 11
93.92319999999999
 21
195.382
 31
0.0
  0
LINE
  5
1C4
330
18
100
AcDbEntity
  8
0
100
AcDbLine
 10
90.4695
 20
211.5439999999999
 30
0.0
 11
90.4695
 21
234.904
 31
0.0
  0
LINE
  5
1C5
330
18
100
AcDbEntity
  8
0
100
AcDbLine
 10
58.8603
 20
198.154
 30
0.0
 11
60.843
 21
197.009
 31
0.0
  0
LINE
  5
1C6
330
18
100
AcDbEntity
  8
0
100
AcDbLine
 10
60.843
 20
197.009
 30
0.0
 11
59.6985
 21
198.992
 31
0.0
  0
LINE
  5
1C7
330
18
100
AcDbEntity
  8
0
100
AcDbLine
 10
59.6985
 20
198.992
 30
0.0
 11
58.8603
 21
198.154
 31
0.0
  0
LINE
  5
1C8
330
18
100
AcDbEntity
  8
0
100
AcDbLine
 10
66.0784
 20
192.6109999999999
 30
0.0
 11
64.09569999999999
 21
193.7559999999999
 31
0.0
  0
LINE
  5
1C9
330
18
100
AcDbEntity
  8
0
100
AcDbLine
 10
64.09569999999999
 20
193.7559999999999
 30
0.0
 11
65.2402
 21
191.7729999999999
 31
0.0
  0
LINE
  5
1CA
330
18
100
AcDbEntity
  8
0
100
AcDbLine
 10
65.2402
 20
191.7729999999999
 30
0.0
 11
66.0784
 21
192.6109999999999
 31
0.0
  0
LINE
  5
1CB
330
18
100
AcDbEntity
  8
0
100
AcDbLine
 10
68.94110000000001
 20
188.9109999999999
 30
0.0
 11
56.8091
 21
201.0429999999999
 31
0.0
  0
LINE
  5
1CC
330
18
100
AcDbEntity
  8
0
100
AcDbLine
 10
34.46909999999999
 20
211.5439999999999
 30
0.0
 11
34.46909999999999
 21
234.904
 31
0.0
  0
LINE
  5
1CD
330
18
100
AcDbEntity
  8
0
  6
AIGENLINE001
100
AcDbLine
 10
62.46929999999998
 20
117.2686679793498
 30
0.0
 11
62.46929999999998
 21
142.1876679793498
 31
0.0
  0
LINE
  5
1CE
330
18
100
AcDbEntity
  8
0
  6
AIGENLINE001
100
AcDbLine
 10
62.46929999999998
 20
170.19
 30
0.0
 11
62.46929999999998
 21
220.637
 31
0.0
  0
ARC
  5
1E4
330
18
100
AcDbEntity
  8
0
100
AcDbCircle
 10
63.250735
 20
547.1155539999998
 30
0.0
 40
366.7338369999999
100
AcDbArc
 50
269.327939
 51
269.8778669999999
  0
ARC
  5
1E5
330
18
100
AcDbEntity
  8
0
100
AcDbCircle
 10
62.84393399999999
 20
596.4008650000002
 30
0.0
 40
416.0121509999998
100
AcDbArc
 50
267.743806
 51
269.463581
  0
ARC
  5
1E6
330
18
100
AcDbEntity
  8
0
100
AcDbCircle
 10
46.428988
 20
183.934524
 30
0.0
 40
3.223525999999998
100
AcDbArc
 50
264.585183
 51
270.664357
  0
ARC
  5
1E7
330
18
100
AcDbEntity
  8
0
100
AcDbCircle
 10
46.588104
 20
186.5203919999999
 30
0.0
 40
5.8135
100
AcDbArc
 50
236.1463999999999
 51
265.4289649999999
  0
ARC
  5
1E8
330
18
100
AcDbEntity
  8
0
100
AcDbCircle
 10
45.829557
 20
185.0873009999999
 30
0.0
 40
4.204177999999998
100
AcDbArc
 50
191.054906
 51
233.8509149999999
  0
ARC
  5
1E9
330
18
100
AcDbEntity
  8
0
100
AcDbCircle
 10
47.663237
 20
185.5758859999999
 30
0.0
 40
6.09886
100
AcDbArc
 50
181.52778
 51
192.256668
  0
ARC
  5
1EA
330
18
100
AcDbEntity
  8
0
100
AcDbCircle
 10
226.442547
 20
191.593407
 30
0.0
 40
184.9792689999999
100
AcDbArc
 50
180.049804
 51
181.9146179999999
  0
ARC
  5
1EB
330
18
100
AcDbEntity
  8
0
100
AcDbCircle
 10
-2096.697999999999
 20
196.493523
 30
0.0
 40
2138.167
100
AcDbArc
 50
359.864386
 51
359.9702259999999
  0
ARC
  5
1EC
330
18
100
AcDbEntity
  8
0
100
AcDbCircle
 10
68.810783
 20
665.102207
 30
0.0
 40
488.7612729999998
100
AcDbArc
 50
267.528224
 51
269.2565559999999
  0
ARC
  5
1ED
330
18
100
AcDbEntity
  8
0
100
AcDbCircle
 10
55.018085
 20
334.345681
 30
0.0
 40
157.71839
100
AcDbArc
 50
266.1461679999999
 51
267.3521009999999
  0
ARC
  5
1EE
330
18
100
AcDbEntity
  8
0
100
AcDbCircle
 10
48.715828
 20
242.029284
 30
0.0
 40
65.187213
100
AcDbArc
 50
264.47450401857
 51
266.219366
  0
ARC
  5
1F7
330
18
100
AcDbEntity
  8
0
100
AcDbCircle
 10
61.544001
 20
328.469299
 30
0.0
 40
155.0892959999999
100
AcDbArc
 50
269.5056609999999
 51
270.341716
  0
ARC
  5
1F8
330
18
100
AcDbEntity
  8
0
100
AcDbCircle
 10
62.120622
 20
485.2895269999998
 30
0.0
 40
311.9096279999999
100
AcDbArc
 50
267.149631
 51
269.648287
  0
ARC
  5
1F9
330
18
100
AcDbEntity
  8
0
100
AcDbCircle
 10
57.353085
 20
381.558466
 30
0.0
 40
208.0702019999999
100
AcDbArc
 50
265.6002781173977
 51
267.0403939999999
  0
ARC
  5
215
330
18
100
AcDbEntity
  8
0
100
AcDbCircle
 10
63.76091999999999
 20
-242.2700879999999
 30
0.0
 40
452.65439
100
AcDbArc
 50
90.16348300000002
 51
92.18962100000002
  0
ARC
  5
216
330
18
100
AcDbEntity
  8
0
100
AcDbCircle
 10
46.428988
 20
206.830485
 30
0.0
 40
3.223525999999998
100
AcDbArc
 50
89.335643
 51
95.414817
  0
ARC
  5
217
330
18
100
AcDbEntity
  8
0
100
AcDbCircle
 10
46.60087299999999
 20
204.087304
 30
0.0
 40
5.971331
100
AcDbArc
 50
94.57286100000002
 51
117.42392
  0
ARC
  5
218
330
18
100
AcDbEntity
  8
0
100
AcDbCircle
 10
45.913119
 20
205.616679
 30
0.0
 40
4.29809
100
AcDbArc
 50
118.676018
 51
168.361911
  0
ARC
  5
219
330
18
100
AcDbEntity
  8
0
100
AcDbCircle
 10
47.664204
 20
205.188884
 30
0.0
 40
6.099826999999998
100
AcDbArc
 50
167.7442429999999
 51
178.471828
  0
ARC
  5
21A
330
18
100
AcDbEntity
  8
0
100
AcDbCircle
 10
226.442547
 20
199.17143
 30
0.0
 40
184.9792689999999
100
AcDbArc
 50
178.085382
 51
179.950196
  0
ARC
  5
21B
330
18
100
AcDbEntity
  8
0
100
AcDbCircle
 10
-2096.697999999999
 20
194.271314
 30
0.0
 40
2138.167
100
AcDbArc
 50
0.029774
 51
0.135614
  0
ARC
  5
21C
330
18
100
AcDbEntity
  8
0
100
AcDbCircle
 10
66.61586899999999
 20
-131.9564269999999
 30
0.0
 40
346.363834
100
AcDbArc
 50
90.68593900000001
 51
91.284258
  0
ARC
  5
21D
330
18
100
AcDbEntity
  8
0
100
AcDbCircle
 10
67.970638
 20
-250.360605
 30
0.0
 40
464.770449
100
AcDbArc
 50
91.12407799999999
 51
92.495772
  0
ARC
  5
21E
330
18
100
AcDbEntity
  8
0
100
AcDbCircle
 10
55.03486999999999
 20
56.113266
 30
0.0
 40
158.0245549999999
100
AcDbArc
 50
92.64883799999999
 51
94.54025345594697
  0
ARC
  5
228
330
18
100
AcDbEntity
  8
0
100
AcDbCircle
 10
61.530499
 20
75.696348
 30
0.0
 40
141.6890099999999
100
AcDbArc
 50
89.620367
 51
90.53552200000002
  0
ARC
  5
229
330
18
100
AcDbEntity
  8
0
100
AcDbCircle
 10
62.13200699999998
 20
-94.72070700000001
 30
0.0
 40
312.1058179999999
100
AcDbArc
 50
90.35353200000001
 51
92.850665
  0
ARC
  5
22A
330
18
100
AcDbEntity
  8
0
100
AcDbCircle
 10
57.36853499999998
 20
8.971258
 30
0.0
 40
208.3056479999999
100
AcDbArc
 50
92.96050900000002
 51
94.39896375848906
  0
ARC
  5
231
330
18
100
AcDbEntity
  8
0
100
AcDbCircle
 10
131.669281
 20
91.0336124916734
 30
0.0
 40
1.000118
100
AcDbArc
 50
0.00001
 51
89.99998000000003
  0
ARC
  5
232
330
18
100
AcDbEntity
  8
0
100
AcDbCircle
 10
131.669281
 20
91.03361349167341
 30
0.0
 40
1.000118
100
AcDbArc
 50
270.00002
 51
359.9999899999999
  0
ARC
  5
233
330
18
100
AcDbEntity
  8
0
100
AcDbCircle
 10
130.041187
 20
91.07190949167341
 30
0.0
 40
1.039133
100
AcDbArc
 50
182.1120679999999
 51
267.868221
  0
ARC
  5
234
330
18
100
AcDbEntity
  8
0
100
AcDbCircle
 10
130.041512
 20
90.99499249167342
 30
0.0
 40
1.03947
100
AcDbArc
 50
92.149011
 51
177.870699
  0
LINE
  5
235
330
18
100
AcDbEntity
  8
0
  6
AIGENLINE001
100
AcDbLine
 10
128.425
 20
91.0337204916734
 30
0.0
 11
133.247
 21
91.0337204916734
 31
0.0
  0
LINE
  5
236
330
18
100
AcDbEntity
  8
0
  6
AIGENLINE001
100
AcDbLine
 10
130.836
 20
89.64872049167341
 30
0.0
 11
130.836
 21
92.43572049167344
 31
0.0
  0
LINE
  5
237
330
18
100
AcDbEntity
  8
0
  6
AIGENLINE001
100
AcDbLine
 10
131.6689999999999
 20
92.59272049167343
 30
0.0
 11
131.6689999999999
 21
89.40472049167341
 31
0.0
  0
LINE
  5
238
330
18
100
AcDbEntity
  8
0
  6
AIGENLINE001
100
AcDbLine
 10
130.0029999999999
 20
92.59272049167343
 30
0.0
 11
130.0029999999999
 21
89.40472049167341
 31
0.0
  0
LINE
  5
239
330
18
100
AcDbEntity
  8
0
100
AcDbLine
 10
131.6689999999999
 20
92.0337204916734
 30
0.0
 11
130.0029999999999
 21
92.0337204916734
 31
0.0
  0
LINE
  5
23A
330
18
100
AcDbEntity
  8
0
100
AcDbLine
 10
131.6689999999999
 20
90.03372049167341
 30
0.0
 11
130.0029999999999
 21
90.03372049167341
 31
0.0
  0
LINE
  5
23B
330
18
100
AcDbEntity
  8
0
  6
AIGENLINE001
100
AcDbLine
 10
130.836
 20
57.85992049167342
 30
0.0
 11
130.836
 21
54.97732049167343
 31
0.0
  0
LINE
  5
23C
330
18
100
AcDbEntity
  8
0
100
AcDbLine
 10
123.336
 20
86.0337204916734
 30
0.0
 11
123.336
 21
96.0337204916734
 31
0.0
  0
LINE
  5
23D
330
18
100
AcDbEntity
  8
0
100
AcDbLine
 10
120.002
 20
86.36672049167342
 30
0.0
 11
120.002
 21
95.70072049167341
 31
0.0
  0
LINE
  5
23E
330
18
100
AcDbEntity
  8
0
100
AcDbLine
 10
135.631
 20
56.1983204916734
 30
0.0
 11
140.677
 21
56.1983204916734
 31
0.0
  0
LINE
  5
23F
330
18
100
AcDbEntity
  8
0
100
AcDbLine
 10
135.631
 20
56.69822049167343
 30
0.0
 11
140.677
 21
56.69822049167343
 31
0.0
  0
LINE
  5
240
330
18
100
AcDbEntity
  8
0
100
AcDbLine
 10
135.0029999999999
 20
96.0337204916734
 30
0.0
 11
118.3359999999999
 21
96.0337204916734
 31
0.0
  0
LINE
  5
241
330
18
100
AcDbEntity
  8
0
100
AcDbLine
 10
118.3359999999999
 20
86.0337204916734
 30
0.0
 11
118.3359999999999
 21
96.0337204916734
 31
0.0
  0
LINE
  5
242
330
18
100
AcDbEntity
  8
0
100
AcDbLine
 10
135.0029999999999
 20
86.0337204916734
 30
0.0
 11
118.3359999999999
 21
86.0337204916734
 31
0.0
  0
LINE
  5
243
330
18
100
AcDbEntity
  8
0
100
AcDbLine
 10
135.0029999999999
 20
86.0337204916734
 30
0.0
 11
135.0029999999999
 21
96.0337204916734
 31
0.0
  0
LINE
  5
244
330
18
100
AcDbEntity
  8
0
100
AcDbLine
 10
135.0029999999999
 20
56.1983204916734
 30
0.0
 11
123.432
 21
56.1983204916734
 31
0.0
  0
LINE
  5
245
330
18
100
AcDbEntity
  8
0
100
AcDbLine
 10
122.855
 20
56.53142049167342
 30
0.0
 11
119.68
 21
62.03162049167342
 31
0.0
  0
ARC
  5
246
330
18
100
AcDbEntity
  8
0
100
AcDbCircle
 10
123.4392189999999
 20
56.87716049167342
 30
0.0
 40
0.6788850000000001
100
AcDbArc
 50
210.6124639999999
 51
269.420338
  0
LINE
  5
247
330
18
100
AcDbEntity
  8
0
100
AcDbLine
 10
123.37
 20
56.69822049167343
 30
0.0
 11
120.1949999999999
 21
62.1983204916734
 31
0.0
  0
LINE
  5
248
330
18
100
AcDbEntity
  8
0
100
AcDbLine
 10
119.618
 20
62.5314204916734
 30
0.0
 11
118.3359999999999
 21
62.5314204916734
 31
0.0
  0
ARC
  5
249
330
18
100
AcDbEntity
  8
0
100
AcDbCircle
 10
119.609976
 20
61.8513574916734
 30
0.0
 40
0.6801540000000001
100
AcDbArc
 50
30.67266899999999
 51
89.360093
  0
LINE
  5
24A
330
18
100
AcDbEntity
  8
0
100
AcDbLine
 10
119.68
 20
62.03162049167342
 30
0.0
 11
118.3359999999999
 21
62.03162049167342
 31
0.0
  0
LINE
  5
24B
330
18
100
AcDbEntity
  8
0
100
AcDbLine
 10
118.3359999999999
 20
62.03162049167342
 30
0.0
 11
118.3359999999999
 21
62.5314204916734
 31
0.0
  0
LINE
  5
24C
330
18
100
AcDbEntity
  8
0
100
AcDbLine
 10
135.0029999999999
 20
56.69822049167343
 30
0.0
 11
123.37
 21
56.69822049167343
 31
0.0
  0
LINE
  5
24D
330
18
100
AcDbEntity
  8
0
100
AcDbLine
 10
135.0029999999999
 20
56.1983204916734
 30
0.0
 11
135.0029999999999
 21
56.69822049167343
 31
0.0
  0
LINE
  5
24E
330
18
100
AcDbEntity
  8
0
100
AcDbLine
 10
130.836
 20
89.41372049167341
 30
0.0
 11
130.836
 21
80.43922049167342
 31
0.0
  0
LINE
  5
24F
330
18
100
AcDbEntity
  8
0
100
AcDbLine
 10
133.528
 20
80.4647204916734
 30
0.0
 11
135.0029999999999
 21
80.85982049167339
 31
0.0
  0
LINE
  5
250
330
18
100
AcDbEntity
  8
0
100
AcDbLine
 10
135.0029999999999
 20
80.85982049167339
 30
0.0
 11
133.528
 21
81.25502049167343
 31
0.0
  0
LINE
  5
251
330
18
100
AcDbEntity
  8
0
100
AcDbLine
 10
133.528
 20
81.25502049167343
 30
0.0
 11
133.528
 21
80.4647204916734
 31
0.0
  0
LINE
  5
252
330
18
100
AcDbEntity
  8
0
100
AcDbLine
 10
132.3099999999999
 20
81.24532049167342
 30
0.0
 11
130.836
 21
80.85022049167342
 31
0.0
  0
LINE
  5
253
330
18
100
AcDbEntity
  8
0
100
AcDbLine
 10
130.836
 20
80.85022049167342
 30
0.0
 11
132.3099999999999
 21
80.45502049167344
 31
0.0
  0
LINE
  5
254
330
18
100
AcDbEntity
  8
0
100
AcDbLine
 10
132.3099999999999
 20
80.45502049167344
 30
0.0
 11
132.3099999999999
 21
81.24532049167342
 31
0.0
  0
LINE
  5
255
330
18
100
AcDbEntity
  8
0
100
AcDbLine
 10
135.0029999999999
 20
80.85022049167342
 30
0.0
 11
124.3679999999999
 21
80.85022049167342
 31
0.0
  0
LINE
  5
256
330
18
100
AcDbEntity
  8
0
100
AcDbLine
 10
118.3359999999999
 20
85.39172049167342
 30
0.0
 11
118.3359999999999
 21
75.50922049167342
 31
0.0
  0
LINE
  5
257
330
18
100
AcDbEntity
  8
0
100
AcDbLine
 10
135.0029999999999
 20
85.39172049167342
 30
0.0
 11
135.0029999999999
 21
75.50922049167342
 31
0.0
  0
LINE
  5
258
330
18
100
AcDbEntity
  8
0
100
AcDbLine
 10
120.005
 20
63.83682049167342
 30
0.0
 11
119.242
 21
62.51492049167342
 31
0.0
  0
LINE
  5
259
330
18
100
AcDbEntity
  8
0
100
AcDbLine
 10
119.242
 20
62.51492049167342
 30
0.0
 11
120.564
 21
63.27802049167342
 31
0.0
  0
LINE
  5
25A
330
18
100
AcDbEntity
  8
0
100
AcDbLine
 10
120.564
 20
63.27802049167342
 30
0.0
 11
120.005
 21
63.83682049167342
 31
0.0
  0
LINE
  5
25B
330
18
100
AcDbEntity
  8
0
100
AcDbLine
 10
121.997
 20
65.27032049167342
 30
0.0
 11
119.242
 21
62.51492049167342
 31
0.0
  0
LINE
  5
25C
330
18
100
AcDbEntity
  8
0
100
AcDbLine
 10
138.27
 20
65.27032049167342
 30
0.0
 11
121.997
 21
65.27032049167342
 31
0.0
  0
LINE
  5
25D
330
18
100
AcDbEntity
  8
0
100
AcDbLine
 10
133.529
 20
75.53472049167339
 30
0.0
 11
135.0029999999999
 21
75.9299204916734
 31
0.0
  0
LINE
  5
25E
330
18
100
AcDbEntity
  8
0
100
AcDbLine
 10
135.0029999999999
 20
75.9299204916734
 30
0.0
 11
133.529
 21
76.3250204916734
 31
0.0
  0
LINE
  5
25F
330
18
100
AcDbEntity
  8
0
100
AcDbLine
 10
133.529
 20
76.3250204916734
 30
0.0
 11
133.529
 21
75.53472049167339
 31
0.0
  0
LINE
  5
260
330
18
100
AcDbEntity
  8
0
100
AcDbLine
 10
119.8099999999999
 20
76.31542049167342
 30
0.0
 11
118.3359999999999
 21
75.92022049167342
 31
0.0
  0
LINE
  5
261
330
18
100
AcDbEntity
  8
0
100
AcDbLine
 10
118.3359999999999
 20
75.92022049167342
 30
0.0
 11
119.8099999999999
 21
75.52512049167342
 31
0.0
  0
LINE
  5
262
330
18
100
AcDbEntity
  8
0
100
AcDbLine
 10
119.8099999999999
 20
75.52512049167342
 30
0.0
 11
119.8099999999999
 21
76.31542049167342
 31
0.0
  0
LINE
  5
263
330
18
100
AcDbEntity
  8
0
100
AcDbLine
 10
135.0029999999999
 20
75.92022049167342
 30
0.0
 11
118.3359999999999
 21
75.92022049167342
 31
0.0
  0
LINE
  5
264
330
18
100
AcDbEntity
  8
0
100
AcDbLine
 10
122.401
 20
56.1983204916734
 30
0.0
 11
114.1529999999999
 21
56.1983204916734
 31
0.0
  0
LINE
  5
265
330
18
100
AcDbEntity
  8
0
100
AcDbLine
 10
117.72
 20
62.5314204916734
 30
0.0
 11
114.1529999999999
 21
62.5314204916734
 31
0.0
  0
LINE
  5
266
330
18
100
AcDbEntity
  8
0
100
AcDbLine
 10
114.958
 20
61.05732049167342
 30
0.0
 11
114.5629999999999
 21
62.5318204916734
 31
0.0
  0
LINE
  5
267
330
18
100
AcDbEntity
  8
0
100
AcDbLine
 10
114.5629999999999
 20
62.5318204916734
 30
0.0
 11
114.168
 21
61.05732049167342
 31
0.0
  0
LINE
  5
268
330
18
100
AcDbEntity
  8
0
100
AcDbLine
 10
114.168
 20
61.05732049167342
 30
0.0
 11
114.958
 21
61.05732049167342
 31
0.0
  0
LINE
  5
269
330
18
100
AcDbEntity
  8
0
100
AcDbLine
 10
114.177
 20
57.67252049167343
 30
0.0
 11
114.5729999999999
 21
56.1979204916734
 31
0.0
  0
LINE
  5
26A
330
18
100
AcDbEntity
  8
0
100
AcDbLine
 10
114.5729999999999
 20
56.1979204916734
 30
0.0
 11
114.9679999999999
 21
57.67252049167343
 31
0.0
  0
LINE
  5
26B
330
18
100
AcDbEntity
  8
0
100
AcDbLine
 10
114.9679999999999
 20
57.67252049167343
 30
0.0
 11
114.177
 21
57.67252049167343
 31
0.0
  0
LINE
  5
26C
330
18
100
AcDbEntity
  8
0
100
AcDbLine
 10
114.5629999999999
 20
62.5314204916734
 30
0.0
 11
114.5629999999999
 21
56.1983204916734
 31
0.0
  0
LINE
  5
26D
330
18
100
AcDbEntity
  8
0
100
AcDbLine
 10
135.631
 20
86.0337204916734
 30
0.0
 11
141.816
 21
86.0337204916734
 31
0.0
  0
LINE
  5
26E
330
18
100
AcDbEntity
  8
0
100
AcDbLine
 10
135.631
 20
96.0337204916734
 30
0.0
 11
141.816
 21
96.0337204916734
 31
0.0
  0
LINE
  5
26F
330
18
100
AcDbEntity
  8
0
100
AcDbLine
 10
140.661
 20
54.72382049167342
 30
0.0
 11
140.266
 21
56.1983204916734
 31
0.0
  0
LINE
  5
270
330
18
100
AcDbEntity
  8
0
100
AcDbLine
 10
140.266
 20
56.1983204916734
 30
0.0
 11
139.87
 21
54.72382049167342
 31
0.0
  0
LINE
  5
271
330
18
100
AcDbEntity
  8
0
100
AcDbLine
 10
139.87
 20
54.72382049167342
 30
0.0
 11
140.661
 21
54.72382049167342
 31
0.0
  0
LINE
  5
272
330
18
100
AcDbEntity
  8
0
100
AcDbLine
 10
139.87
 20
58.17272049167343
 30
0.0
 11
140.266
 21
56.69822049167343
 31
0.0
  0
LINE
  5
273
330
18
100
AcDbEntity
  8
0
100
AcDbLine
 10
140.266
 20
56.69822049167343
 30
0.0
 11
140.661
 21
58.17272049167343
 31
0.0
  0
LINE
  5
274
330
18
100
AcDbEntity
  8
0
100
AcDbLine
 10
140.661
 20
58.17272049167343
 30
0.0
 11
139.87
 21
58.17272049167343
 31
0.0
  0
LINE
  5
275
330
18
100
AcDbEntity
  8
0
100
AcDbLine
 10
140.266
 20
62.03812049167343
 30
0.0
 11
140.266
 21
53.7450204916734
 31
0.0
  0
LINE
  5
276
330
18
100
AcDbEntity
  8
0
100
AcDbLine
 10
141.8
 20
94.55972049167341
 30
0.0
 11
141.405
 21
96.0337204916734
 31
0.0
  0
LINE
  5
277
330
18
100
AcDbEntity
  8
0
100
AcDbLine
 10
141.405
 20
96.0337204916734
 30
0.0
 11
141.0099999999999
 21
94.55972049167341
 31
0.0
  0
LINE
  5
278
330
18
100
AcDbEntity
  8
0
100
AcDbLine
 10
141.0099999999999
 20
94.55972049167341
 30
0.0
 11
141.8
 21
94.55972049167341
 31
0.0
  0
LINE
  5
279
330
18
100
AcDbEntity
  8
0
100
AcDbLine
 10
141.02
 20
87.50772049167343
 30
0.0
 11
141.4139999999999
 21
86.0337204916734
 31
0.0
  0
LINE
  5
27A
330
18
100
AcDbEntity
  8
0
100
AcDbLine
 10
141.4139999999999
 20
86.0337204916734
 30
0.0
 11
141.81
 21
87.50772049167343
 31
0.0
  0
LINE
  5
27B
330
18
100
AcDbEntity
  8
0
100
AcDbLine
 10
141.81
 20
87.50772049167343
 30
0.0
 11
141.02
 21
87.50772049167343
 31
0.0
  0
LINE
  5
27C
330
18
100
AcDbEntity
  8
0
100
AcDbLine
 10
141.405
 20
96.0337204916734
 30
0.0
 11
141.405
 21
86.0337204916734
 31
0.0
  0
TEXT
  5
27D
330
18
100
AcDbEntity
  8
_________2
100
AcDbText
 10
24.5866
 20
0.707627
 30
0.0
 40
3.9357
  1
実容量：15L、重量12.5kg、オーバーフロー付
 41
0.5
100
AcDbText
  0
LINE
  5
27E
330
18
100
AcDbEntity
  8
_________2
100
AcDbLine
 10
205.301
 20
127.411
 30
0.0
 11
183.551
 21
127.411
 31
0.0
  0
LINE
  5
27F
330
18
100
AcDbEntity
  8
_________2
100
AcDbLine
 10
100.2999999999999
 20
-4.09108
 30
0.0
 11
100.2999999999999
 21
-21.07099999999999
 31
0.0
  0
LINE
  5
280
330
18
100
AcDbEntity
  8
_________2
100
AcDbLine
 10
100.2999999999999
 20
275.9309999999999
 30
0.0
 11
100.2999999999999
 21
258.911
 31
0.0
  0
LINE
  5
281
330
18
100
AcDbEntity
  8
_________2
100
AcDbLine
 10
17.04939999999999
 20
127.411
 30
0.0
 11
-4.70103
 21
127.411
 31
0.0
  0
LINE
  5
282
330
18
100
AcDbEntity
  8
_________2
100
AcDbLine
 10
76.7408
 20
29.8047
 30
0.0
 11
74.55459999999998
 21
29.8047
 31
0.0
  0
LINE
  5
283
330
18
100
AcDbEntity
  8
_________2
100
AcDbLine
 10
77.2335
 20
29.8047
 30
0.0
 11
76.9813
 21
29.8047
 31
0.0
  0
LINE
  5
284
330
18
100
AcDbEntity
  8
_________2
100
AcDbLine
 10
77.7262
 20
29.8047
 30
0.0
 11
80.6511
 21
29.8047
 31
0.0
  0
LINE
  5
285
330
18
100
AcDbEntity
  8
_________2
100
AcDbLine
 10
77.2335
 20
29.8047
 30
0.0
 11
77.48569999999998
 21
29.8047
 31
0.0
  0
LINE
  5
286
330
18
100
AcDbEntity
  8
_________2
100
AcDbLine
 10
70.8373
 20
29.8047
 30
0.0
 11
68.6503
 21
29.8047
 31
0.0
  0
LINE
  5
287
330
18
100
AcDbEntity
  8
_________2
100
AcDbLine
 10
71.3293
 20
29.8047
 30
0.0
 11
71.07779999999998
 21
29.8047
 31
0.0
  0
LINE
  5
288
330
18
100
AcDbEntity
  8
_________2
100
AcDbLine
 10
71.3293
 20
30.2974
 30
0.0
 11
71.3293
 21
32.4844
 31
0.0
  0
LINE
  5
289
330
18
100
AcDbEntity
  8
_________2
100
AcDbLine
 10
71.3293
 20
29.8047
 30
0.0
 11
71.3293
 21
30.0573
 31
0.0
  0
LINE
  5
28A
330
18
100
AcDbEntity
  8
_________2
100
AcDbLine
 10
71.8219
 20
29.8047
 30
0.0
 11
74.0089
 21
29.8047
 31
0.0
  0
LINE
  5
28B
330
18
100
AcDbEntity
  8
_________2
100
AcDbLine
 10
71.3293
 20
29.8047
 30
0.0
 11
71.5814
 21
29.8047
 31
0.0
  0
LINE
  5
28C
330
18
100
AcDbEntity
  8
_________2
100
AcDbLine
 10
71.3293
 20
29.3128
 30
0.0
 11
71.3293
 21
27.1262
 31
0.0
  0
LINE
  5
28D
330
18
100
AcDbEntity
  8
_________2
100
AcDbLine
 10
71.3293
 20
29.8047
 30
0.0
 11
71.3293
 21
29.5532
 31
0.0
  0
LINE
  5
28E
330
18
100
AcDbEntity
  8
_________2
100
AcDbLine
 10
75.0403
 20
28.5852
 30
0.0
 11
80.21829999999999
 21
27.7204
 31
0.0
  0
LINE
  5
28F
330
18
100
AcDbEntity
  8
_________2
100
AcDbLine
 10
75.0403
 20
31.0247
 30
0.0
 11
80.21829999999999
 21
31.8901
 31
0.0
  0
LINE
  5
290
330
18
100
AcDbEntity
  8
_________2
100
AcDbLine
 10
80.21829999999999
 20
27.7204
 30
0.0
 11
80.21829999999999
 21
31.8901
 31
0.0
  0
LINE
  5
291
330
18
100
AcDbEntity
  8
_________2
100
AcDbLine
 10
75.0403
 20
28.5852
 30
0.0
 11
75.0403
 21
31.0247
 31
0.0
  0
ARC
  5
292
330
18
100
AcDbEntity
  8
_________2
100
AcDbCircle
 10
71.282674
 20
29.757801
 30
0.0
 40
1.267714
100
AcDbArc
 50
2.122084
 51
87.89408399999997
  0
ARC
  5
293
330
18
100
AcDbEntity
  8
_________2
100
AcDbCircle
 10
71.37581299999998
 20
29.758546
 30
0.0
 40
1.266968
100
AcDbArc
 50
92.10578299999999
 51
177.91037
  0
ARC
  5
294
330
18
100
AcDbEntity
  8
_________2
100
AcDbCircle
 10
71.376186
 20
29.851671
 30
0.0
 40
1.267368
100
AcDbArc
 50
182.122036
 51
267.877993
  0
ARC
  5
295
330
18
100
AcDbEntity
  8
_________2
100
AcDbCircle
 10
71.28236899999997
 20
29.852348
 30
0.0
 40
1.268043999999999
100
AcDbArc
 50
272.119164
 51
357.8484849999999
  0
ARC
  5
296
330
18
100
AcDbEntity
  8
_________2
100
AcDbCircle
 10
71.24889
 20
29.72473199999999
 30
0.0
 40
2.166831
100
AcDbArc
 50
2.116143999999998
 51
87.874379
  0
ARC
  5
297
330
18
100
AcDbEntity
  8
_________2
100
AcDbCircle
 10
71.408928
 20
29.726146
 30
0.0
 40
2.165392999999999
100
AcDbArc
 50
92.108509
 51
177.919865
  0
ARC
  5
298
330
18
100
AcDbEntity
  8
_________2
100
AcDbCircle
 10
71.409267
 20
29.884752
 30
0.0
 40
2.165783
100
AcDbArc
 50
182.117133
 51
267.882897
  0
ARC
  5
299
330
18
100
AcDbEntity
  8
_________2
100
AcDbCircle
 10
71.24928699999998
 20
29.88542999999999
 30
0.0
 40
2.166459
100
AcDbArc
 50
272.115468
 51
357.865604
  0
TEXT
  5
29A
330
18
100
AcDbEntity
  8
_________2
100
AcDbText
 10
104.605
 20
1.67949
 30
0.0
 40
3.09234
  1
図番
 41
0.5
100
AcDbText
  0
LINE
  5
29B
330
18
100
AcDbEntity
  8
_________2
100
AcDbLine
 10
103.55
 20
5.908719999999998
 30
0.0
 11
183.551
 21
5.908719999999998
 31
0.0
  0
TEXT
  5
29C
330
18
100
AcDbEntity
  8
_________2
100
AcDbText
 10
104.605
 20
11.67929999999999
 30
0.0
 40
3.09234
  1
品番
 41
0.5
100
AcDbText
  0
TEXT
  5
29D
330
18
100
AcDbEntity
  8
_________2
100
AcDbText
 10
104.605
 20
31.8184
 30
0.0
 40
3.09234
  1
名称
 41
0.5
100
AcDbText
  0
TEXT
  5
29E
330
18
100
AcDbEntity
  8
_________2
100
AcDbText
 10
91.84495833333334
 20
26.8223
 30
0.0
 40
3.65458
  1
mm
 41
0.5
 72
     1
 11
93.36769999999999
 21
26.8223
 31
0.0
100
AcDbText
  0
TEXT
  5
29F
330
18
100
AcDbEntity
  8
_________2
100
AcDbText
 10
85.64299999999999
 20
31.8184
 30
0.0
 40
3.09234
  1
単位
 41
0.5
100
AcDbText
  0
TEXT
  5
2A0
330
18
100
AcDbEntity
  8
_________2
100
AcDbText
 10
85.64299999999999
 20
19.41079999999999
 30
0.0
 40
3.09234
  1
尺度
 41
0.5
100
AcDbText
  0
TEXT
  5
2A1
330
18
100
AcDbEntity
  8
_________2
100
AcDbText
 10
90.09173616666668
 20
13.21819999999999
 30
0.0
 40
3.65458
  1
1 ： 10
 41
0.5
 72
     1
 11
93.9595
 21
13.21819999999999
 31
0.0
100
AcDbText
  0
TEXT
  5
2A2
330
18
100
AcDbEntity
  8
_________2
100
AcDbText
 10
136.4985375
 20
9.1082
 30
0.0
 40
3.9357
  1
KE242150
 41
0.5
 72
     1
 11
143.55
 21
9.1082
 31
0.0
100
AcDbText
  0
TEXT
  5
2A3
330
18
100
AcDbEntity
  8
_________2
100
AcDbText
 10
136.4985375
 20
-0.8926299999999999
 30
0.0
 40
3.9357
  1
KE242150
 41
0.5
 72
     1
 11
143.55
 21
-0.8926299999999999
 31
0.0
100
AcDbText
  0
TEXT
  5
2A4
330
18
100
AcDbEntity
  8
_________2
100
AcDbText
 10
109.179
 20
24.2261
 30
0.0
 40
3.9357
  1
レノヴァ　アンダーカウンター式洗面器
 41
0.5
100
AcDbText
  0
TEXT
  5
2A5
330
18
100
AcDbEntity
  8
_________2
100
AcDbText
 10
39.303281
 20
13.6034
 30
0.0
 40
3.65458
  1
田尻
 41
0.5
 72
     1
 11
41.3133
 21
13.6034
 31
0.0
100
AcDbText
  0
TEXT
  5
2A6
330
18
100
AcDbEntity
  8
_________2
100
AcDbText
 10
20.79019066666667
 20
13.6034
 30
0.0
 40
3.65458
  1
石原
 41
0.5
 72
     1
 11
22.7393
 21
13.6034
 31
0.0
100
AcDbText
  0
TEXT
  5
2A7
330
18
100
AcDbEntity
  8
_________2
100
AcDbText
 10
67.7856
 20
13.21819999999999
 30
0.0
 40
3.65458
  1
09.10.02
 41
0.5
100
AcDbText
  0
TEXT
  5
2A8
330
18
100
AcDbEntity
  8
_________2
100
AcDbText
 10
66.5929
 20
19.41079999999999
 30
0.0
 40
3.09234
  1
日付
 41
0.5
100
AcDbText
  0
TEXT
  5
2A9
330
18
100
AcDbEntity
  8
_________2
100
AcDbText
 10
29.63919999999999
 20
19.41079999999999
 30
0.0
 40
3.09234
  1
検図
 41
0.5
100
AcDbText
  0
TEXT
  5
2AA
330
18
100
AcDbEntity
  8
_________2
100
AcDbText
 10
18.0209
 20
5.21143
 30
0.0
 40
3.09234
  1
備考
 41
0.5
100
AcDbText
  0
TEXT
  5
2AB
330
18
100
AcDbEntity
  8
_________2
100
AcDbText
 10
18.0209
 20
19.41079999999999
 30
0.0
 40
3.09234
  1
製図
 41
0.5
100
AcDbText
  0
TEXT
  5
2AC
330
18
100
AcDbEntity
  8
_________2
100
AcDbText
 10
23.863231
 20
27.9368
 30
0.0
 40
4.497939999999998
  1
セラトレーディング株式会社
 41
0.5
 72
     1
 11
41.1803
 21
27.9368
 31
0.0
100
AcDbText
  0
LINE
  5
2AD
330
18
100
AcDbEntity
  8
_________2
100
AcDbLine
 10
183.551
 20
-4.09108
 30
0.0
 11
17.04939999999999
 21
-4.09108
 31
0.0
  0
LINE
  5
2AE
330
18
100
AcDbEntity
  8
_________2
100
AcDbLine
 10
17.04939999999999
 20
-4.09108
 30
0.0
 11
17.04939999999999
 21
258.911
 31
0.0
  0
LINE
  5
2AF
330
18
100
AcDbEntity
  8
_________2
100
AcDbLine
 10
17.04939999999999
 20
258.911
 30
0.0
 11
183.551
 21
258.911
 31
0.0
  0
LINE
  5
2B0
330
18
100
AcDbEntity
  8
_________2
100
AcDbLine
 10
183.551
 20
258.911
 30
0.0
 11
183.551
 21
-4.09108
 31
0.0
  0
LINE
  5
2B1
330
18
100
AcDbEntity
  8
_________2
100
AcDbLine
 10
65.5497
 20
9.409299999999999
 30
0.0
 11
65.5497
 21
35.9091
 31
0.0
  0
LINE
  5
2B2
330
18
100
AcDbEntity
  8
_________2
100
AcDbLine
 10
84.54959999999998
 20
9.409299999999999
 30
0.0
 11
84.54959999999998
 21
35.9091
 31
0.0
  0
LINE
  5
2B3
330
18
100
AcDbEntity
  8
_________2
100
AcDbLine
 10
103.55
 20
-4.09108
 30
0.0
 11
103.55
 21
35.9091
 31
0.0
  0
LINE
  5
2B4
330
18
100
AcDbEntity
  8
_________2
100
AcDbLine
 10
28.54919999999999
 20
9.409299999999999
 30
0.0
 11
28.54919999999999
 21
23.4092
 31
0.0
  0
LINE
  5
2B5
330
18
100
AcDbEntity
  8
_________2
100
AcDbLine
 10
17.04939999999999
 20
9.409299999999999
 30
0.0
 11
103.55
 21
9.409299999999999
 31
0.0
  0
LINE
  5
2B6
330
18
100
AcDbEntity
  8
_________2
100
AcDbLine
 10
17.04939999999999
 20
23.4092
 30
0.0
 11
103.55
 21
23.4092
 31
0.0
  0
LINE
  5
2B7
330
18
100
AcDbEntity
  8
_________2
100
AcDbLine
 10
103.55
 20
15.9085
 30
0.0
 11
183.551
 21
15.9085
 31
0.0
  0
LINE
  5
2B8
330
18
100
AcDbEntity
  8
_________2
100
AcDbLine
 10
17.04939999999999
 20
35.9091
 30
0.0
 11
183.551
 21
35.9091
 31
0.0
  0
ARC
  5
2E0
330
18
100
AcDbEntity
  8
0
100
AcDbCircle
 10
131.7579999999999
 20
-186.6385
 30
0.0
 40
400.0
100
AcDbArc
 50
87.32218918052645
 51
92.67781081947353
  0
ARC
  5
2E1
330
18
100
AcDbEntity
  8
0
100
AcDbCircle
 10
257.7579999999999
 20
195.3615
 30
0.0
 40
150.0
100
AcDbArc
 50
175.027331040708
 51
184.9726689592903
  0
ARC
  5
2E2
330
18
100
AcDbEntity
  8
0
100
AcDbCircle
 10
113.3037568738108
 20
207.9301770520938
 30
0.0
 40
5.0
100
AcDbArc
 50
92.67781081947353
 51
175.027331040708
  0
ARC
  5
2E3
330
18
100
AcDbEntity
  8
0
100
AcDbCircle
 10
131.7580000000001
 20
577.3615000000002
 30
0.0
 40
400.0
100
AcDbArc
 50
267.3221891805265
 51
272.6778108194736
  0
ARC
  5
2E4
330
18
100
AcDbEntity
  8
0
100
AcDbCircle
 10
5.757999999999981
 20
195.3615
 30
0.0
 40
150.0
100
AcDbArc
 50
355.027331040708
 51
4.972668959290391
  0
ARC
  5
2E5
330
18
100
AcDbEntity
  8
0
100
AcDbCircle
 10
113.3037568738108
 20
182.7928229479061
 30
0.0
 40
5.0
100
AcDbArc
 50
184.9726689592903
 51
267.3221891805265
  0
ARC
  5
2E6
330
18
100
AcDbEntity
  8
0
100
AcDbCircle
 10
150.2122431261891
 20
182.7928229479061
 30
0.0
 40
5.0
100
AcDbArc
 50
272.6778108194736
 51
355.027331040708
  0
ARC
  5
2E7
330
18
100
AcDbEntity
  8
0
100
AcDbCircle
 10
150.2122431261891
 20
207.9301770520938
 30
0.0
 40
5.0
100
AcDbArc
 50
4.972668959290391
 51
87.32218918052645
  0
ARC
  5
34E
330
18
100
AcDbEntity
  8
0
  6
Continuous
100
AcDbCircle
 10
237.4690999999999
 20
195.382
 30
0.0
 40
200.0
100
AcDbArc
 50
176.0962765339743
 51
183.899200237727
  0
ARC
  5
34F
330
18
100
AcDbEntity
  8
0
  6
Continuous
100
AcDbCircle
 10
264.4691
 20
195.382
 30
0.0
 40
230.0
100
AcDbArc
 50
176.3228672975448
 51
183.6769575021738
  0
ARC
  5
351
330
18
100
AcDbEntity
  8
0
  6
Continuous
100
AcDbCircle
 10
42.92048051488034
 20
182.1217339229513
 30
0.0
 40
5.0
100
AcDbArc
 50
183.8992002377269
 51
264.47450401857
  0
ARC
  5
352
330
18
100
AcDbEntity
  8
0
  6
Continuous
100
AcDbCircle
 10
42.92152795583731
 20
208.6576247205674
 30
0.0
 40
5.0
100
AcDbArc
 50
94.54025345594688
 51
176.0962765339743
  0
ARC
  5
353
330
18
100
AcDbEntity
  8
0
  6
Continuous
100
AcDbCircle
 10
41.9281913802137
 20
209.6838876614212
 30
0.0
 40
7.0
100
AcDbArc
 50
94.39896375848835
 51
176.3228672975448
  0
ARC
  5
354
330
18
100
AcDbEntity
  8
0
  6
Continuous
100
AcDbCircle
 10
41.92814764863089
 20
181.0807928290777
 30
0.0
 40
7.0
100
AcDbArc
 50
183.6769575021736
 51
265.6002781173979
  0
ARC
  5
355
330
18
100
AcDbEntity
  8
0
100
AcDbCircle
 10
61.68786499999999
 20
547.1155539999998
 30
0.0
 40
366.7338369999999
100
AcDbArc
 50
270.122133
 51
270.672061
  0
ARC
  5
356
330
18
100
AcDbEntity
  8
0
100
AcDbCircle
 10
62.09466599999998
 20
596.4008650000002
 30
0.0
 40
416.0121509999998
100
AcDbArc
 50
270.5364189999999
 51
272.2561939999999
  0
ARC
  5
357
330
18
100
AcDbEntity
  8
0
100
AcDbCircle
 10
78.50961199999997
 20
183.934524
 30
0.0
 40
3.223525999999998
100
AcDbArc
 50
269.335643
 51
275.4148169999999
  0
ARC
  5
358
330
18
100
AcDbEntity
  8
0
100
AcDbCircle
 10
78.35049599999997
 20
186.5203919999999
 30
0.0
 40
5.8135
100
AcDbArc
 50
274.5710349999999
 51
303.8536000000001
  0
ARC
  5
359
330
18
100
AcDbEntity
  8
0
100
AcDbCircle
 10
79.10904299999998
 20
185.0873009999999
 30
0.0
 40
4.204177999999998
100
AcDbArc
 50
306.149085
 51
348.9450940000001
  0
ARC
  5
35A
330
18
100
AcDbEntity
  8
0
100
AcDbCircle
 10
77.275363
 20
185.5758859999999
 30
0.0
 40
6.09886
100
AcDbArc
 50
347.7433320000002
 51
358.4722199999999
  0
ARC
  5
35B
330
18
100
AcDbEntity
  8
0
100
AcDbCircle
 10
-101.503947
 20
191.593407
 30
0.0
 40
184.9792689999999
100
AcDbArc
 50
358.0853820000001
 51
359.950196
  0
ARC
  5
35C
330
18
100
AcDbEntity
  8
0
100
AcDbCircle
 10
2221.636599999999
 20
196.493523
 30
0.0
 40
2138.167
100
AcDbArc
 50
180.0297739999999
 51
180.135614
  0
ARC
  5
35D
330
18
100
AcDbEntity
  8
0
100
AcDbCircle
 10
56.12781699999999
 20
665.102207
 30
0.0
 40
488.7612729999998
100
AcDbArc
 50
270.743444
 51
272.4717759999999
  0
ARC
  5
35E
330
18
100
AcDbEntity
  8
0
100
AcDbCircle
 10
69.92051499999999
 20
334.345681
 30
0.0
 40
157.71839
100
AcDbArc
 50
272.6478989999999
 51
273.8538319999999
  0
ARC
  5
35F
330
18
100
AcDbEntity
  8
0
100
AcDbCircle
 10
76.22277199999998
 20
242.029284
 30
0.0
 40
65.187213
100
AcDbArc
 50
273.7806339999999
 51
275.5254959814299
  0
ARC
  5
360
330
18
100
AcDbEntity
  8
0
  6
Continuous
100
AcDbCircle
 10
82.01811948511965
 20
182.1217339229513
 30
0.0
 40
5.0
100
AcDbArc
 50
275.52549598143
 51
356.1007997622731
  0
ARC
  5
361
330
18
100
AcDbEntity
  8
0
100
AcDbCircle
 10
63.39459899999999
 20
328.469299
 30
0.0
 40
155.0892959999999
100
AcDbArc
 50
269.658284
 51
270.494339
  0
ARC
  5
362
330
18
100
AcDbEntity
  8
0
100
AcDbCircle
 10
62.81797799999999
 20
485.2895269999998
 30
0.0
 40
311.9096279999999
100
AcDbArc
 50
270.3517129999999
 51
272.850369
  0
ARC
  5
363
330
18
100
AcDbEntity
  8
0
100
AcDbCircle
 10
67.58551499999999
 20
381.558466
 30
0.0
 40
208.0702019999999
100
AcDbArc
 50
272.959606
 51
274.3997218826021
  0
ARC
  5
364
330
18
100
AcDbEntity
  8
0
  6
Continuous
100
AcDbCircle
 10
83.01045235136909
 20
181.0807928290777
 30
0.0
 40
7.0
100
AcDbArc
 50
274.399721882602
 51
356.3230424978263
  0
ARC
  5
365
330
18
100
AcDbEntity
  8
0
100
AcDbCircle
 10
61.17767999999998
 20
-242.2700879999999
 30
0.0
 40
452.65439
100
AcDbArc
 50
87.81037899999999
 51
89.83651700000001
  0
ARC
  5
366
330
18
100
AcDbEntity
  8
0
100
AcDbCircle
 10
78.50961199999997
 20
206.830485
 30
0.0
 40
3.223525999999998
100
AcDbArc
 50
84.58518300000001
 51
90.66435699999999
  0
ARC
  5
367
330
18
100
AcDbEntity
  8
0
100
AcDbCircle
 10
78.337727
 20
204.087304
 30
0.0
 40
5.971331
100
AcDbArc
 50
62.57608000000001
 51
85.427139
  0
ARC
  5
368
330
18
100
AcDbEntity
  8
0
100
AcDbCircle
 10
79.02548099999998
 20
205.616679
 30
0.0
 40
4.29809
100
AcDbArc
 50
11.63808899999997
 51
61.32398199999999
  0
ARC
  5
369
330
18
100
AcDbEntity
  8
0
100
AcDbCircle
 10
77.274396
 20
205.188884
 30
0.0
 40
6.099826999999998
100
AcDbArc
 50
1.528171999999985
 51
12.25575700000002
  0
ARC
  5
36A
330
18
100
AcDbEntity
  8
0
100
AcDbCircle
 10
-101.503947
 20
199.17143
 30
0.0
 40
184.9792689999999
100
AcDbArc
 50
0.0498039999999923
 51
1.914618000000006
  0
ARC
  5
36B
330
18
100
AcDbEntity
  8
0
100
AcDbCircle
 10
2221.636599999999
 20
194.271314
 30
0.0
 40
2138.167
100
AcDbArc
 50
179.864386
 51
179.970226
  0
ARC
  5
36C
330
18
100
AcDbEntity
  8
0
100
AcDbCircle
 10
58.322731
 20
-131.9564269999999
 30
0.0
 40
346.363834
100
AcDbArc
 50
88.71574200000003
 51
89.31406100000003
  0
ARC
  5
36D
330
18
100
AcDbEntity
  8
0
100
AcDbCircle
 10
56.967962
 20
-250.360605
 30
0.0
 40
464.770449
100
AcDbArc
 50
87.504228
 51
88.875922
  0
ARC
  5
36E
330
18
100
AcDbEntity
  8
0
100
AcDbCircle
 10
69.90372999999999
 20
56.113266
 30
0.0
 40
158.0245549999999
100
AcDbArc
 50
85.45974654405304
 51
87.35116200000001
  0
ARC
  5
36F
330
18
100
AcDbEntity
  8
0
  6
Continuous
100
AcDbCircle
 10
82.01707204416267
 20
208.6576247205674
 30
0.0
 40
5.0
100
AcDbArc
 50
3.903723466025667
 51
85.45974654405313
  0
ARC
  5
370
330
18
100
AcDbEntity
  8
0
100
AcDbCircle
 10
63.40810099999998
 20
75.696348
 30
0.0
 40
141.6890099999999
100
AcDbArc
 50
89.46447799999999
 51
90.37963299999999
  0
ARC
  5
371
330
18
100
AcDbEntity
  8
0
100
AcDbCircle
 10
62.80659299999999
 20
-94.72070700000001
 30
0.0
 40
312.1058179999999
100
AcDbArc
 50
87.14933499999999
 51
89.646468
  0
ARC
  5
372
330
18
100
AcDbEntity
  8
0
100
AcDbCircle
 10
67.570065
 20
8.971258
 30
0.0
 40
208.3056479999999
100
AcDbArc
 50
85.60103624151098
 51
87.03949099999999
  0
ARC
  5
373
330
18
100
AcDbEntity
  8
0
  6
Continuous
100
AcDbCircle
 10
83.01040861978631
 20
209.6838876614212
 30
0.0
 40
7.0
100
AcDbArc
 50
3.67713270245521
 51
85.60103624151166
  0
ARC
  5
374
330
18
100
AcDbEntity
  8
0
  6
Continuous
100
AcDbCircle
 10
-112.5304999999999
 20
195.382
 30
0.0
 40
200.0
100
AcDbArc
 50
356.100799762273
 51
3.903723466025719
  0
ARC
  5
375
330
18
100
AcDbEntity
  8
0
  6
Continuous
100
AcDbCircle
 10
-139.5305
 20
195.382
 30
0.0
 40
230.0
100
AcDbArc
 50
356.3230424978261
 51
3.677132702455083
  0
ENDSEC
  0
SECTION
  2
OBJECTS
  0
DICTIONARY
  5
C
330
0
100
AcDbDictionary
281
     1
  3
ACAD_COLOR
350
2BF
  3
ACAD_GROUP
350
D
  3
ACAD_LAYOUT
350
2C2
  3
ACAD_MATERIAL
350
2BE
  3
ACAD_MLINESTYLE
350
1B
  3
ACAD_PLOTSETTINGS
350
2C3
  3
ACAD_PLOTSTYLENAME
350
2BC
  3
ACAD_TABLESTYLE
350
2C0
  3
AcDbVariableDictionary
350
2EE
  0
DICTIONARY
  5
348
330
18
100
AcDbDictionary
280
     1
281
     1
  3
ACAD_SORTENTS
360
349
  0
DICTIONARY
  5
2BF
102
{ACAD_REACTORS
330
C
102
}
330
C
100
AcDbDictionary
281
     1
  0
DICTIONARY
  5
D
102
{ACAD_REACTORS
330
C
102
}
330
C
100
AcDbDictionary
281
     1
  0
DICTIONARY
  5
2C2
102
{ACAD_REACTORS
330
C
102
}
330
C
100
AcDbDictionary
281
     1
  3
Model
350
2C4
  3
レイアウト1
350
2C5
  0
DICTIONARY
  5
2BE
102
{ACAD_REACTORS
330
C
102
}
330
C
100
AcDbDictionary
281
     1
  0
DICTIONARY
  5
1B
102
{ACAD_REACTORS
330
C
102
}
330
C
100
AcDbDictionary
281
     1
  3
STANDARD
350
1C
  0
DICTIONARY
  5
2C3
102
{ACAD_REACTORS
330
C
102
}
330
C
100
AcDbDictionary
281
     1
  0
ACDBDICTIONARYWDFLT
  5
2BC
102
{ACAD_REACTORS
330
C
102
}
330
C
100
AcDbDictionary
281
     1
  3
Normal
350
2BD
100
AcDbDictionaryWithDefault
340
2BD
  0
DICTIONARY
  5
2C0
102
{ACAD_REACTORS
330
C
102
}
330
C
100
AcDbDictionary
281
     1
  3
Standard
350
2C1
  0
DICTIONARY
  5
2EE
102
{ACAD_REACTORS
330
C
102
}
330
C
100
AcDbDictionary
281
     1
  3
CTABLESTYLE
350
2EF
  3
DIMASSOC
350
2F0
  3
PROJECTNAME
350
2F1
  0
SORTENTSTABLE
  5
349
102
{ACAD_REACTORS
330
348
102
}
330
348
100
AcDbSortentsTable
330
18
331
17D
  5
17D
331
265
  5
26D
331
121
  5
121
331
C5
  5
C5
331
69
  5
69
331
18E
  5
18E
331
276
  5
27E
331
132
  5
132
331
D6
  5
D6
331
27
  5
27
331
83
  5
83
331
21B
  5
228
331
19F
  5
19F
331
143
  5
143
331
E7
  5
E7
331
F0
  5
F0
331
290
  5
298
331
234
  5
23C
331
1B0
  5
1B0
331
154
  5
154
331
38
  5
38
331
94
  5
94
331
2A1
  5
2A9
331
49
  5
49
331
101
  5
101
331
245
  5
24D
331
1C1
  5
1C1
331
165
  5
165
331
A5
  5
A5
331
16E
  5
16E
331
2B2
  5
2E1
331
256
  5
25E
331
112
  5
112
331
B6
  5
B6
331
5A
  5
5A
331
17F
  5
17F
331
267
  5
26F
331
123
  5
123
331
6B
  5
6B
331
190
  5
190
331
278
  5
280
331
134
  5
134
331
D8
  5
D8
331
281
  5
289
331
29
  5
29
331
85
  5
85
331
21D
  5
231
331
1A1
  5
1A1
331
145
  5
145
331
E9
  5
E9
331
F2
  5
F2
331
34E
  5
353
331
292
  5
29A
331
236
  5
23E
331
1B2
  5
1B2
331
156
  5
156
331
3A
  5
3A
331
96
  5
96
331
2A3
  5
2AB
331
4B
  5
4B
331
103
  5
103
331
247
  5
24F
331
1C3
  5
1C3
331
167
  5
167
331
A7
  5
A7
331
170
  5
170
331
2B4
  5
2E3
331
258
  5
260
331
1E4
  5
1E4
331
114
  5
114
331
B8
  5
B8
331
5C
  5
5C
331
269
  5
271
331
6D
  5
6D
331
181
  5
181
331
125
  5
125
331
192
  5
192
331
27A
  5
282
331
136
  5
136
331
DA
  5
DA
331
283
  5
28B
331
2B
  5
2B
331
87
  5
87
331
EB
  5
EB
331
1A3
  5
1A3
331
147
  5
147
331
F4
  5
F4
331
294
  5
29C
331
238
  5
240
331
1B4
  5
1B4
331
158
  5
158
331
98
  5
98
331
3C
  5
3C
331
2A5
  5
2AD
331
249
  5
251
331
4D
  5
4D
331
105
  5
105
331
1C5
  5
1C5
331
A9
  5
A9
331
172
  5
172
331
2B6
  5
2E5
331
25A
  5
262
331
1E6
  5
1E6
331
116
  5
116
331
BA
  5
BA
331
5E
  5
5E
331
26B
  5
273
331
6F
  5
6F
331
183
  5
183
331
127
  5
127
331
78
  5
78
331
194
  5
194
331
2E0
  5
343
331
27C
  5
284
331
138
  5
138
331
DC
  5
DC
331
285
  5
28D
331
229
  5
236
331
2D
  5
2D
331
89
  5
89
331
1A5
  5
1A5
331
149
  5
149
331
ED
  5
ED
331
F6
  5
F6
331
15A
  5
15A
331
296
  5
29E
331
23A
  5
242
331
1B6
  5
1B6
331
9A
  5
9A
331
3E
  5
3E
331
2A7
  5
2AF
331
24B
  5
253
331
4F
  5
4F
331
107
  5
107
331
1C7
  5
1C7
331
AB
  5
AB
331
60
  5
60
331
174
  5
174
331
2B8
  5
2E7
331
25C
  5
264
331
1E8
  5
1E8
331
118
  5
118
331
BC
  5
BC
331
26D
  5
275
331
71
  5
71
331
185
  5
185
331
129
  5
129
331
DE
  5
DE
331
196
  5
196
331
2E2
  5
345
331
27E
  5
286
331
13A
  5
13A
331
7A
  5
7A
331
287
  5
28F
331
2F
  5
2F
331
14B
  5
14B
331
1A7
  5
1A7
331
EF
  5
EF
331
8B
  5
8B
331
40
  5
40
331
1B8
  5
1B8
331
298
  5
2A0
331
23C
  5
244
331
15C
  5
15C
331
F8
  5
F8
331
9C
  5
9C
331
1C9
  5
1C9
331
2A9
  5
2B1
331
24D
  5
255
331
51
  5
51
331
109
  5
109
331
AD
  5
AD
331
62
  5
62
331
1EA
  5
1EA
331
25E
  5
266
331
176
  5
176
331
11A
  5
11A
331
BE
  5
BE
331
26F
  5
277
331
CF
  5
CF
331
187
  5
187
331
12B
  5
12B
331
73
  5
73
331
13C
  5
13C
331
198
  5
198
331
2E4
  5
347
331
E0
  5
E0
331
7C
  5
7C
331
289
  5
291
331
1A9
  5
1A9
331
31
  5
31
331
14D
  5
14D
331
8D
  5
8D
331
9E
  5
9E
331
1BA
  5
1BA
331
29A
  5
2A2
331
23E
  5
246
331
15E
  5
15E
331
FA
  5
FA
331
42
  5
42
331
1CB
  5
1CB
331
2AB
  5
2B3
331
24F
  5
257
331
AF
  5
AF
331
10B
  5
10B
331
53
  5
53
331
C0
  5
C0
331
260
  5
268
331
1EC
  5
1EC
331
178
  5
178
331
11C
  5
11C
331
64
  5
64
331
271
  5
279
331
189
  5
189
331
D1
  5
D1
331
12D
  5
12D
331
75
  5
75
331
7E
  5
7E
331
13E
  5
13E
331
216
  5
21A
331
2E6
  5
34E
331
19A
  5
19A
331
E2
  5
E2
331
28B
  5
293
331
1AB
  5
1AB
331
8F
  5
8F
331
14F
  5
14F
331
33
  5
33
331
A0
  5
A0
331
1BC
  5
1BC
331
29C
  5
2A4
331
240
  5
248
331
160
  5
160
331
FC
  5
FC
331
44
  5
44
331
251
  5
259
331
2AD
  5
2B5
331
1CD
  5
1CD
331
169
  5
169
331
B1
  5
B1
331
10D
  5
10D
331
55
  5
55
331
C2
  5
C2
331
262
  5
26A
331
1EE
  5
1EE
331
17A
  5
17A
331
11E
  5
11E
331
66
  5
66
331
273
  5
27B
331
1F7
  5
1F9
331
18B
  5
18B
331
D3
  5
D3
331
12F
  5
12F
331
77
  5
77
331
80
  5
80
331
140
  5
140
331
218
  5
21C
331
19C
  5
19C
331
E4
  5
E4
331
24
  5
24
331
151
  5
151
331
28D
  5
295
331
231
  5
239
331
1AD
  5
1AD
331
352
  5
233
331
91
  5
91
331
35
  5
35
331
A2
  5
A2
331
1BE
  5
1BE
331
29E
  5
2A6
331
242
  5
24A
331
162
  5
162
331
FE
  5
FE
331
46
  5
46
331
253
  5
25B
331
2AF
  5
2B7
331
16B
  5
16B
331
B3
  5
B3
331
10F
  5
10F
331
57
  5
57
331
C4
  5
C4
331
264
  5
26C
331
17C
  5
17C
331
120
  5
120
331
68
  5
68
331
18D
  5
18D
331
275
  5
27D
331
1F9
  5
202
331
131
  5
131
331
D5
  5
D5
331
82
  5
82
331
142
  5
142
331
19E
  5
19E
331
21A
  5
21E
331
E6
  5
E6
331
26
  5
26
331
1AF
  5
1AF
331
28F
  5
297
331
233
  5
23B
331
153
  5
153
331
2A0
  5
2A8
331
354
  5
203
331
93
  5
93
331
37
  5
37
331
100
  5
100
331
244
  5
24C
331
1C0
  5
1C0
331
164
  5
164
331
A4
  5
A4
331
48
  5
48
331
16D
  5
16D
331
2B1
  5
2E0
331
255
  5
25D
331
111
  5
111
331
B5
  5
B5
331
59
  5
59
331
17E
  5
17E
331
266
  5
26E
331
122
  5
122
331
6A
  5
6A
331
18F
  5
18F
331
277
  5
27F
331
133
  5
133
331
280
  5
288
331
D7
  5
D7
331
84
  5
84
331
21C
  5
229
331
1A0
  5
1A0
331
144
  5
144
331
E8
  5
E8
331
28
  5
28
331
F1
  5
F1
331
291
  5
299
331
235
  5
23D
331
1B1
  5
1B1
331
155
  5
155
331
2A2
  5
2AA
331
95
  5
95
331
39
  5
39
331
102
  5
102
331
246
  5
24E
331
1C2
  5
1C2
331
166
  5
166
331
A6
  5
A6
331
4A
  5
4A
331
16F
  5
16F
331
2B3
  5
2E2
331
257
  5
25F
331
113
  5
113
331
268
  5
270
331
B7
  5
B7
331
5B
  5
5B
331
180
  5
180
331
124
  5
124
331
6C
  5
6C
331
191
  5
191
331
279
  5
281
331
135
  5
135
331
D9
  5
D9
331
282
  5
28A
331
86
  5
86
331
21E
  5
232
331
1A2
  5
1A2
331
146
  5
146
331
EA
  5
EA
331
2A
  5
2A
331
F3
  5
F3
331
293
  5
29B
331
34F
  5
354
331
237
  5
23F
331
1B3
  5
1B3
331
157
  5
157
331
2A4
  5
2AC
331
97
  5
97
331
3B
  5
3B
331
248
  5
250
331
104
  5
104
331
1C4
  5
1C4
331
A8
  5
A8
331
4C
  5
4C
331
171
  5
171
331
2B5
  5
2E4
331
259
  5
261
331
1E5
  5
1E5
331
115
  5
115
331
B9
  5
B9
331
26A
  5
272
331
5D
  5
5D
331
182
  5
182
331
126
  5
126
331
6E
  5
6E
331
193
  5
193
331
27B
  5
283
331
137
  5
137
331
DB
  5
DB
331
284
  5
28C
331
228
  5
235
331
88
  5
88
331
1A4
  5
1A4
331
148
  5
148
331
EC
  5
EC
331
2C
  5
2C
331
F5
  5
F5
331
295
  5
29D
331
239
  5
241
331
1B5
  5
1B5
331
159
  5
159
331
99
  5
99
331
2A6
  5
2AE
331
3D
  5
3D
331
24A
  5
252
331
106
  5
106
331
1C6
  5
1C6
331
AA
  5
AA
331
4E
  5
4E
331
173
  5
173
331
2B7
  5
2E6
331
25B
  5
263
331
1E7
  5
1E7
331
117
  5
117
331
BB
  5
BB
331
26C
  5
274
331
5F
  5
5F
331
184
  5
184
331
128
  5
128
331
70
  5
70
331
79
  5
79
331
195
  5
195
331
2E1
  5
344
331
27D
  5
285
331
139
  5
139
331
DD
  5
DD
331
286
  5
28E
331
22A
  5
237
331
8A
  5
8A
331
1A6
  5
1A6
331
14A
  5
14A
331
EE
  5
EE
331
2E
  5
2E
331
F7
  5
F7
331
297
  5
29F
331
23B
  5
243
331
1B7
  5
1B7
331
15B
  5
15B
331
9B
  5
9B
331
2A8
  5
2B0
331
3F
  5
3F
331
24C
  5
254
331
1C8
  5
1C8
331
108
  5
108
331
AC
  5
AC
331
50
  5
50
331
175
  5
175
331
25D
  5
265
331
1E9
  5
1E9
331
119
  5
119
331
BD
  5
BD
331
61
  5
61
331
26E
  5
276
331
186
  5
186
331
12A
  5
12A
331
CE
  5
CE
331
72
  5
72
331
7B
  5
7B
331
197
  5
197
331
2E3
  5
346
331
27F
  5
287
331
13B
  5
13B
331
DF
  5
DF
331
288
  5
290
331
1A8
  5
1A8
331
8C
  5
8C
331
14C
  5
14C
331
30
  5
30
331
F9
  5
F9
331
299
  5
2A1
331
23D
  5
245
331
1B9
  5
1B9
331
15D
  5
15D
331
9D
  5
9D
331
41
  5
41
331
2AA
  5
2B2
331
24E
  5
256
331
1CA
  5
1CA
331
10A
  5
10A
331
AE
  5
AE
331
52
  5
52
331
177
  5
177
331
25F
  5
267
331
1EB
  5
1EB
331
11B
  5
11B
331
BF
  5
BF
331
63
  5
63
331
188
  5
188
331
270
  5
278
331
12C
  5
12C
331
D0
  5
D0
331
74
  5
74
331
7D
  5
7D
331
215
  5
219
331
2E5
  5
34A
331
199
  5
199
331
13D
  5
13D
331
E1
  5
E1
331
28A
  5
292
331
1AA
  5
1AA
331
8E
  5
8E
331
14E
  5
14E
331
32
  5
32
331
FB
  5
FB
331
29B
  5
2A3
331
23F
  5
247
331
1BB
  5
1BB
331
15F
  5
15F
331
9F
  5
9F
331
43
  5
43
331
168
  5
168
331
2AC
  5
2B4
331
250
  5
258
331
1CC
  5
1CC
331
10C
  5
10C
331
B0
  5
B0
331
54
  5
54
331
179
  5
179
331
261
  5
269
331
1ED
  5
1ED
331
11D
  5
11D
331
C1
  5
C1
331
65
  5
65
331
18A
  5
18A
331
272
  5
27A
331
12E
  5
12E
331
D2
  5
D2
331
76
  5
76
331
7F
  5
7F
331
217
  5
21B
331
2E7
  5
34F
331
19B
  5
19B
331
13F
  5
13F
331
E3
  5
E3
331
28C
  5
294
331
1AC
  5
1AC
331
150
  5
150
331
34
  5
34
331
90
  5
90
331
351
  5
1F8
331
45
  5
45
331
FD
  5
FD
331
29D
  5
2A5
331
241
  5
249
331
1BD
  5
1BD
331
161
  5
161
331
A1
  5
A1
331
16A
  5
16A
331
2AE
  5
2B6
331
252
  5
25A
331
1CE
  5
1CE
331
10E
  5
10E
331
B2
  5
B2
331
56
  5
56
331
17B
  5
17B
331
263
  5
26B
331
11F
  5
11F
331
C3
  5
C3
331
67
  5
67
331
1F8
  5
200
331
274
  5
27C
331
18C
  5
18C
331
130
  5
130
331
D4
  5
D4
331
25
  5
25
331
81
  5
81
331
219
  5
21D
331
19D
  5
19D
331
141
  5
141
331
E5
  5
E5
331
28E
  5
296
331
232
  5
23A
331
1AE
  5
1AE
331
152
  5
152
331
36
  5
36
331
92
  5
92
331
353
  5
238
331
47
  5
47
331
FF
  5
FF
331
29F
  5
2A7
331
243
  5
24B
331
1BF
  5
1BF
331
163
  5
163
331
A3
  5
A3
331
16C
  5
16C
331
2B0
  5
2B8
331
254
  5
25C
331
110
  5
110
331
B4
  5
B4
331
58
  5
58
  0
LAYOUT
  5
2C4
102
{ACAD_XDICTIONARY
360
37E
102
}
102
{ACAD_REACTORS
330
2C2
102
}
330
2C2
100
AcDbPlotSettings
  1

  2
RICOH imagio Neo C325 RPCS
  4

  6

 40
0.0
 41
0.0
 42
0.0
 43
0.0
 44
0.0
 45
0.0
 46
0.0
 47
0.0
 48
0.0
 49
0.0
140
0.0
141
0.0
142
1.0
143
1.0
 70
  1712
 72
     0
 73
     0
 74
     0
  7

 75
     0
147
1.0
148
0.0
149
0.0
100
AcDbLayout
  1
Model
 70
     1
 71
     0
 10
0.0
 20
0.0
 11
12.0
 21
9.0
 12
0.0
 22
0.0
 32
0.0
 14
0.0
 24
0.0
 34
0.0
 15
0.0
 25
0.0
 35
0.0
146
0.0
 13
0.0
 23
0.0
 33
0.0
 16
1.0
 26
0.0
 36
0.0
 17
0.0
 27
1.0
 37
0.0
 76
     0
330
18
  0
LAYOUT
  5
2C5
102
{ACAD_XDICTIONARY
360
380
102
}
102
{ACAD_REACTORS
330
2C2
102
}
330
2C2
100
AcDbPlotSettings
  1

  2
RICOH imagio Neo C325 RPCS
  4

  6

 40
0.0
 41
0.0
 42
0.0
 43
0.0
 44
0.0
 45
0.0
 46
0.0
 47
0.0
 48
0.0
 49
0.0
140
0.0
141
0.0
142
1.0
143
1.0
 70
   688
 72
     0
 73
     0
 74
     5
  7

 75
    16
147
1.0
148
0.0
149
0.0
100
AcDbLayout
  1
レイアウト1
 70
     1
 71
     1
 10
0.0
 20
0.0
 11
12.0
 21
9.0
 12
0.0
 22
0.0
 32
0.0
 14
1.000000000000000E+20
 24
1.000000000000000E+20
 34
1.000000000000000E+20
 15
-1.000000000000000E+20
 25
-1.000000000000000E+20
 35
-1.000000000000000E+20
146
0.0
 13
0.0
 23
0.0
 33
0.0
 16
1.0
 26
0.0
 36
0.0
 17
0.0
 27
1.0
 37
0.0
 76
     0
330
15
  0
MLINESTYLE
  5
1C
102
{ACAD_REACTORS
330
1B
102
}
330
1B
100
AcDbMlineStyle
  2
STANDARD
 70
     0
  3

 62
   256
 51
90.0
 52
90.0
 71
     2
 49
0.5
 62
   256
  6
BYLAYER
 49
-0.5
 62
   256
  6
BYLAYER
  0
ACDBPLACEHOLDER
  5
2BD
102
{ACAD_REACTORS
330
2BC
102
}
330
2BC
  0
TABLESTYLE
  5
2C1
102
{ACAD_REACTORS
330
2C0
102
}
330
2C0
100
AcDbTableStyle
  3
Standard
 70
     0
 71
     0
 40
0.06
 41
0.06
280
     0
281
     0
  7
STANDARD
140
0.18
170
     2
 62
     0
 63
     7
283
     0
274
    -2
284
     1
 64
     0
275
    -2
285
     1
 65
     0
276
    -2
286
     1
 66
     0
277
    -2
287
     1
 67
     0
278
    -2
288
     1
 68
     0
279
    -2
289
     1
 69
     0
  7
STANDARD
140
0.25
170
     5
 62
     0
 63
     7
283
     0
274
    -2
284
     1
 64
     0
275
    -2
285
     1
 65
     0
276
    -2
286
     1
 66
     0
277
    -2
287
     1
 67
     0
278
    -2
288
     1
 68
     0
279
    -2
289
     1
 69
     0
  7
STANDARD
140
0.18
170
     5
 62
     0
 63
     7
283
     0
274
    -2
284
     1
 64
     0
275
    -2
285
     1
 65
     0
276
    -2
286
     1
 66
     0
277
    -2
287
     1
 67
     0
278
    -2
288
     1
 68
     0
279
    -2
289
     1
 69
     0
  0
DICTIONARYVAR
  5
2EF
102
{ACAD_REACTORS
330
2EE
102
}
330
2EE
100
DictionaryVariables
280
     0
  1
STANDARD
  0
DICTIONARYVAR
  5
2F0
102
{ACAD_REACTORS
330
2EE
102
}
330
2EE
100
DictionaryVariables
280
     0
  1
1
  0
DICTIONARYVAR
  5
2F1
102
{ACAD_REACTORS
330
2EE
102
}
330
2EE
100
DictionaryVariables
280
     0
  1

  0
DICTIONARY
  5
37E
330
2C4
100
AcDbDictionary
280
     1
281
     1
  3
ACAD_XREC_ROUNDTRIP
360
37F
  0
DICTIONARY
  5
380
330
2C5
100
AcDbDictionary
280
     1
281
     1
  3
ACAD_XREC_ROUNDTRIP
360
381
  0
XRECORD
  5
37F
102
{ACAD_REACTORS
330
37E
102
}
330
37E
100
AcDbXrecord
280
     1
102
SHADEPLOT
 70
     0
102
SHADEPLOTRESLEVEL
 70
     2
102
SHADEPLOTCUSTOMDPI
 70
   300
  0
XRECORD
  5
381
102
{ACAD_REACTORS
330
380
102
}
330
380
100
AcDbXrecord
280
     1
102
SHADEPLOT
 70
     0
102
SHADEPLOTRESLEVEL
 70
     2
102
SHADEPLOTCUSTOMDPI
 70
   300
  0
ENDSEC
  0
EOF
