  0
SECTION
  2
HEADER
  9
$ACADVER
  1
AC1009
  9
$INSBASE
 10
0.0
 20
0.0
 30
0.0
  9
$EXTMIN
 10
-10.1875
 20
-3.3738021850585929
 30
0.0
  9
$EXTMAX
 10
10.1875
 20
0.001
 30
0.0
  9
$LIMMIN
 10
0.0
 20
0.0
  9
$LIMMAX
 10
12.0
 20
9.0
  9
$ORTHOMODE
 70
     0
  9
$REGENMODE
 70
     1
  9
$FILLMODE
 70
     1
  9
$QTEXTMODE
 70
     0
  9
$MIRRTEXT
 70
     1
  9
$DRAGMODE
 70
     2
  9
$LTSCALE
 40
1.0
  9
$OSMODE
 70
    37
  9
$ATTMODE
 70
     1
  9
$TEXTSIZE
 40
0.001
  9
$TRACEWID
 40
0.05
  9
$TEXTSTYLE
  7
STANDARD
  9
$CLAYER
  8
0
  9
$CELTYPE
  6
BYLAYER
  9
$CECOLOR
 62
   256
  9
$DIMSCALE
 40
1.0
  9
$DIMASZ
 40
0.18
  9
$DIMEXO
 40
0.0625
  9
$DIMDLI
 40
0.38
  9
$DIMRND
 40
0.0
  9
$DIMDLE
 40
0.0
  9
$DIMEXE
 40
0.18
  9
$DIMTP
 40
0.0
  9
$DIMTM
 40
0.0
  9
$DIMTXT
 40
0.18
  9
$DIMCEN
 40
0.09
  9
$DIMTSZ
 40
0.0
  9
$DIMTOL
 70
     0
  9
$DIMLIM
 70
     0
  9
$DIMTIH
 70
     1
  9
$DIMTOH
 70
     1
  9
$DIMSE1
 70
     0
  9
$DIMSE2
 70
     0
  9
$DIMTAD
 70
     0
  9
$DIMZIN
 70
     0
  9
$DIMBLK
  1

  9
$DIMASO
 70
     1
  9
$DIMSHO
 70
     1
  9
$DIMPOST
  1

  9
$DIMAPOST
  1

  9
$DIMALT
 70
     0
  9
$DIMALTD
 70
     2
  9
$DIMALTF
 40
25.399999999999999
  9
$DIMLFAC
 40
1.0
  9
$DIMTOFL
 70
     0
  9
$DIMTVP
 40
0.0
  9
$DIMTIX
 70
     0
  9
$DIMSOXD
 70
     0
  9
$DIMSAH
 70
     0
  9
$DIMBLK1
  1

  9
$DIMBLK2
  1

  9
$DIMSTYLE
  2
STANDARD
  9
$DIMCLRD
 70
     0
  9
$DIMCLRE
 70
     0
  9
$DIMCLRT
 70
     0
  9
$DIMTFAC
 40
1.0
  9
$DIMGAP
 40
0.09
  9
$LUNITS
 70
     2
  9
$LUPREC
 70
     4
  9
$SKETCHINC
 40
0.1
  9
$FILLETRAD
 40
0.0
  9
$AUNITS
 70
     0
  9
$AUPREC
 70
     0
  9
$MENU
  1
.
  9
$ELEVATION
 40
0.0
  9
$PELEVATION
 40
0.0
  9
$THICKNESS
 40
0.0
  9
$LIMCHECK
 70
     0
  9
$BLIPMODE
 70
     0
  9
$CHAMFERA
 40
0.5
  9
$CHAMFERB
 40
0.5
  9
$SKPOLY
 70
     0
  9
$TDCREATE
 40
2451380.555432396
  9
$TDUPDATE
 40
2456700.4988841428
  9
$TDINDWG
 40
0.0747942477
  9
$TDUSRTIMER
 40
0.0747852083
  9
$USRTIMER
 70
     1
  9
$ANGBASE
 50
0.0
  9
$ANGDIR
 70
     0
  9
$PDMODE
 70
     0
  9
$PDSIZE
 40
0.0
  9
$PLINEWID
 40
0.0
  9
$COORDS
 70
     1
  9
$SPLFRAME
 70
     0
  9
$SPLINETYPE
 70
     6
  9
$SPLINESEGS
 70
     8
  9
$ATTDIA
 70
     0
  9
$ATTREQ
 70
     1
  9
$HANDLING
 70
     1
  9
$HANDSEED
  5
201
  9
$SURFTAB1
 70
     6
  9
$SURFTAB2
 70
     6
  9
$SURFTYPE
 70
     6
  9
$SURFU
 70
     6
  9
$SURFV
 70
     6
  9
$UCSNAME
  2

  9
$UCSORG
 10
0.0
 20
0.0
 30
0.0
  9
$UCSXDIR
 10
1.0
 20
0.0
 30
0.0
  9
$UCSYDIR
 10
0.0
 20
1.0
 30
0.0
  9
$PUCSNAME
  2

  9
$PUCSORG
 10
0.0
 20
0.0
 30
0.0
  9
$PUCSXDIR
 10
1.0
 20
0.0
 30
0.0
  9
$PUCSYDIR
 10
0.0
 20
1.0
 30
0.0
  9
$USERI1
 70
     0
  9
$USERI2
 70
     0
  9
$USERI3
 70
     0
  9
$USERI4
 70
     0
  9
$USERI5
 70
     0
  9
$USERR1
 40
0.0
  9
$USERR2
 40
0.0
  9
$USERR3
 40
0.0
  9
$USERR4
 40
0.0
  9
$USERR5
 40
0.0
  9
$WORLDVIEW
 70
     1
  9
$SHADEDGE
 70
     3
  9
$SHADEDIF
 70
    70
  9
$TILEMODE
 70
     1
  9
$MAXACTVP
 70
    64
  9
$PLIMCHECK
 70
     0
  9
$PEXTMIN
 10
1.0000000000000000E+020
 20
1.0000000000000000E+020
 30
1.0000000000000000E+020
  9
$PEXTMAX
 10
-1.0000000000000000E+020
 20
-1.0000000000000000E+020
 30
-1.0000000000000000E+020
  9
$PLIMMIN
 10
0.0
 20
0.0
  9
$PLIMMAX
 10
12.0
 20
9.0
  9
$UNITMODE
 70
     0
  9
$VISRETAIN
 70
     1
  9
$PLINEGEN
 70
     0
  9
$PSLTSCALE
 70
     1
  0
ENDSEC
  0
SECTION
  2
TABLES
  0
TABLE
  2
VPORT
 70
     1
  0
VPORT
  2
*ACTIVE
 70
     0
 10
0.0
 20
0.0
 11
1.0
 21
1.0
 12
0.0004153026458784
 22
0.6991954749547649
 13
0.0
 23
0.0
 14
0.5
 24
0.5
 15
0.5
 25
0.5
 16
0.0
 26
0.0
 36
1.0
 17
0.0
 27
0.0
 37
0.0
 40
17.310326804127001
 41
1.1829652996845419
 42
50.0
 43
0.0
 44
0.0
 50
0.0
 51
0.0
 71
     0
 72
   100
 73
     1
 74
     1
 75
     0
 76
     0
 77
     0
 78
     0
  0
ENDTAB
  0
TABLE
  2
LTYPE
 70
     2
  0
LTYPE
  2
CONTINUOUS
 70
     0
  3
Solid line
 72
    65
 73
     0
 40
0.0
  0
LTYPE
  2
PHANTOM2
 70
     0
  3
Phantom (.5x) ___ _ _ ___ _ _ ___ _ _ ___ _ _
 72
    65
 73
     6
 40
1.25
 49
0.625
 49
-0.125
 49
0.125
 49
-0.125
 49
0.125
 49
-0.125
  0
ENDTAB
  0
TABLE
  2
LAYER
 70
     2
  0
LAYER
  2
0
 70
     0
 62
     7
  6
CONTINUOUS
  0
LAYER
  2
DEFPOINTS
 70
     0
 62
     7
  6
CONTINUOUS
  0
ENDTAB
  0
TABLE
  2
STYLE
 70
     1
  0
STYLE
  2
STANDARD
 70
     0
 40
0.0
 41
1.0
 50
0.0
 71
     0
 42
0.001
  3
txt
  4

  0
ENDTAB
  0
TABLE
  2
VIEW
 70
     0
  0
ENDTAB
  0
TABLE
  2
UCS
 70
     0
  0
ENDTAB
  0
TABLE
  2
APPID
 70
     5
  0
APPID
  2
ACAD
 70
     0
  0
APPID
  2
ACAD_NAV_VCDISPLAY
 70
     0
  0
APPID
  2
ACAD_EXEMPT_FROM_CAD_STANDARDS
 70
     0
  0
APPID
  2
AcDbAttr
 70
     0
  0
APPID
  2
ACAD_MLEADERVER
 70
     0
  0
ENDTAB
  0
TABLE
  2
DIMSTYLE
 70
     1
  0
DIMSTYLE
  2
STANDARD
 70
     0
  3

  4

  5

  6

  7

 40
1.0
 41
0.18
 42
0.0625
 43
0.38
 44
0.18
 45
0.0
 46
0.0
 47
0.0
 48
0.0
140
0.18
141
0.09
142
0.0
143
25.399999999999999
144
1.0
145
0.0
146
1.0
147
0.09
 71
     0
 72
     0
 73
     1
 74
     1
 75
     0
 76
     0
 77
     0
 78
     0
170
     0
171
     2
172
     0
173
     0
174
     0
175
     0
176
     0
177
     0
178
     0
  0
ENDTAB
  0
ENDSEC
  0
SECTION
  2
BLOCKS
  0
BLOCK
  8
0
  2
$MODEL_SPACE
 70
     2
 10
0.0
 20
0.0
 30
0.0
  3
$MODEL_SPACE
  1

  0
ENDBLK
  5
14
  8
0
  0
BLOCK
 67
     1
  8
0
  2
$PAPER_SPACE
 70
     0
 10
0.0
 20
0.0
 30
0.0
  3
$PAPER_SPACE
  1

  0
ENDBLK
  5
19
 67
     1
  8
0
  0
ENDSEC
  0
SECTION
  2
ENTITIES
  0
POLYLINE
  5
6B
  8
0
 66
     1
 10
0.0
 20
0.0
 30
0.0
 70
     1
  0
VERTEX
  5
11B
  8
0
 10
9.0
 20
0.0
 30
0.0
  0
VERTEX
  5
11C
  8
0
 10
10.1875
 20
0.0
 30
0.0
  0
VERTEX
  5
11D
  8
0
 10
10.1875
 20
-0.0673332214355469
 30
0.0
  0
VERTEX
  5
11E
  8
0
 10
10.15999031066894
 20
-0.0909805297851563
 30
0.0
  0
VERTEX
  5
11F
  8
0
 10
10.095871925354
 20
-0.091552734375
 30
0.0
  0
VERTEX
  5
120
  8
0
 10
10.054612159729
 20
-0.1700057983398437
 30
0.0
  0
VERTEX
  5
121
  8
0
 10
9.9821739196777344
 20
-0.1701126098632812
 30
0.0
  0
VERTEX
  5
122
  8
0
 10
9.9409112930297852
 20
-0.2471694946289062
 30
0.0
  0
VERTEX
  5
123
  8
0
 10
9.8860940933227521
 20
-0.2471694946289062
 30
0.0
  0
VERTEX
  5
124
  8
0
 10
9.8491468429565412
 20
-0.2692413330078125
 30
0.0
  0
VERTEX
  5
125
  8
0
 10
9.4416484832763672
 20
-0.9780998229980468
 30
0.0
  0
VERTEX
  5
126
  8
0
 10
9.4033803939819336
 20
-1.3921661376953121
 30
0.0
  0
VERTEX
  5
127
  8
0
 10
9.4561710357666016
 20
-1.418621063232421
 30
0.0
  0
VERTEX
  5
128
  8
0
 10
9.4561710357666016
 20
-1.573551177978515
 30
0.0
  0
VERTEX
  5
129
  8
0
 10
9.4251794815063477
 20
-1.6005516052246089
 30
0.0
  0
VERTEX
  5
12A
  8
0
 10
9.4019956588745117
 20
-1.6005516052246089
 30
0.0
  0
VERTEX
  5
12B
  8
0
 10
9.4328126907348633
 20
-1.9252243041992181
 30
0.0
  0
VERTEX
  5
12C
  8
0
 10
9.5181264877319336
 20
-1.9551658630371089
 30
0.0
  0
VERTEX
  5
12D
  8
0
 10
9.5181264877319336
 20
-1.9943122863769529
 30
0.0
  0
VERTEX
  5
12E
  8
0
 10
9.5512037277221662
 20
-2.023967742919921
 30
0.0
  0
VERTEX
  5
12F
  8
0
 10
9.5887889862060547
 20
-2.023967742919921
 30
0.0
  0
VERTEX
  5
130
  8
0
 10
9.6218662261962891
 20
-2.053691864013671
 30
0.0
  0
VERTEX
  5
131
  8
0
 10
9.6218662261962891
 20
-2.1744346618652339
 30
0.0
  0
VERTEX
  5
132
  8
0
 10
9.5887889862060547
 20
-2.2045326232910152
 30
0.0
  0
VERTEX
  5
133
  8
0
 10
9.5512037277221662
 20
-2.2045326232910152
 30
0.0
  0
VERTEX
  5
134
  8
0
 10
9.5181255340576172
 20
-2.2347068786621089
 30
0.0
  0
VERTEX
  5
135
  8
0
 10
9.5181255340576172
 20
-2.2705841064453121
 30
0.0
  0
VERTEX
  5
136
  8
0
 10
9.4850482940673828
 20
-2.3009376525878902
 30
0.0
  0
VERTEX
  5
137
  8
0
 10
9.4362211227416992
 20
-2.3009376525878902
 30
0.0
  0
VERTEX
  5
138
  8
0
 10
9.4148454666137695
 20
-2.3302268981933589
 30
0.0
  0
VERTEX
  5
139
  8
0
 10
9.4148454666137695
 20
-2.3744049072265621
 30
0.0
  0
VERTEX
  5
13A
  8
0
 10
9.3806791305541992
 20
-2.406047821044921
 30
0.0
  0
VERTEX
  5
13B
  8
0
 10
9.355381965637207
 20
-2.4930763244628902
 30
0.0
  0
VERTEX
  5
13C
  8
0
 10
9.3007612228393555
 20
-2.59417724609375
 30
0.0
  0
VERTEX
  5
13D
  8
0
 10
9.2619905471801758
 20
-2.6873855590820308
 30
0.0
  0
VERTEX
  5
13E
  8
0
 10
9.2335700988769531
 20
-2.8197402954101558
 30
0.0
  0
VERTEX
  5
13F
  8
0
 10
9.1791572570800781
 20
-2.9708137512207031
 30
0.0
  0
VERTEX
  5
140
  8
0
 10
9.0789308547973633
 20
-3.0972023010253902
 30
0.0
  0
VERTEX
  5
141
  8
0
 10
8.9443950653076172
 20
-3.195201873779296
 30
0.0
  0
VERTEX
  5
142
  8
0
 10
8.7870502471923828
 20
-3.2611656188964839
 30
0.0
  0
VERTEX
  5
143
  8
0
 10
8.6449718475341797
 20
-3.3022346496582031
 30
0.0
  0
VERTEX
  5
144
  8
0
 10
8.5562295913696271
 20
-3.3259353637695308
 30
0.0
  0
VERTEX
  5
145
  8
0
 10
8.4941549301147461
 20
-3.3409080505371089
 30
0.0
 42
-0.1012087553281297
  0
VERTEX
  5
146
  8
0
 10
8.4409303665161186
 20
-3.3738021850585929
 30
0.0
  0
VERTEX
  5
147
  8
0
 10
8.4146480560302734
 20
-3.371440887451171
 30
0.0
  0
VERTEX
  5
148
  8
0
 10
8.3884544372558594
 20
-3.3539314270019531
 30
0.0
  0
VERTEX
  5
149
  8
0
 10
8.3884563446044922
 20
-2.71319580078125
 30
0.0
 42
-0.1447934726443223
  0
VERTEX
  5
14A
  8
0
 10
8.4409322738647461
 20
-2.700817108154296
 30
0.0
 42
-0.0984471124468459
  0
VERTEX
  5
14B
  8
0
 10
8.4941587448120117
 20
-2.7314682006835929
 30
0.0
  0
VERTEX
  5
14C
  8
0
 10
8.5527477264404297
 20
-2.7454566955566402
 30
0.0
  0
VERTEX
  5
14D
  8
0
 10
8.6036872863769531
 20
-2.7543296813964839
 30
0.0
  0
VERTEX
  5
14E
  8
0
 10
8.6393289566040021
 20
-2.7529487609863281
 30
0.0
  0
VERTEX
  5
14F
  8
0
 10
8.6658182144165021
 20
-2.743682861328125
 30
0.0
  0
VERTEX
  5
150
  8
0
 10
8.689300537109375
 20
-2.7289161682128902
 30
0.0
  0
VERTEX
  5
151
  8
0
 10
8.7086400985717773
 20
-2.7090682983398429
 30
0.0
  0
VERTEX
  5
152
  8
0
 10
8.7226924896240234
 20
-2.6845550537109371
 30
0.0
  0
VERTEX
  5
153
  8
0
 10
8.7264614105224592
 20
-2.6536712646484371
 30
0.0
  0
VERTEX
  5
154
  8
0
 10
8.6984214782714844
 20
-2.594005584716796
 30
0.0
  0
VERTEX
  5
155
  8
0
 10
8.643798828125
 20
-2.4930763244628902
 30
0.0
  0
VERTEX
  5
156
  8
0
 10
8.6189107894897461
 20
-2.406047821044921
 30
0.0
  0
VERTEX
  5
157
  8
0
 10
8.5851516723632812
 20
-2.3744049072265621
 30
0.0
  0
VERTEX
  5
158
  8
0
 10
8.5851516723632812
 20
-2.3302268981933589
 30
0.0
  0
VERTEX
  5
159
  8
0
 10
8.5637760162353516
 20
-2.3009376525878902
 30
0.0
  0
VERTEX
  5
15A
  8
0
 10
8.5149488449096662
 20
-2.3009376525878902
 30
0.0
  0
VERTEX
  5
15B
  8
0
 10
8.4818716049194336
 20
-2.2705841064453121
 30
0.0
  0
VERTEX
  5
15C
  8
0
 10
8.4818716049194336
 20
-2.234710693359375
 30
0.0
  0
VERTEX
  5
15D
  8
0
 10
8.4487934112548828
 20
-2.2045326232910152
 30
0.0
  0
VERTEX
  5
15E
  8
0
 10
8.4112081527709961
 20
-2.2045326232910152
 30
0.0
  0
VERTEX
  5
15F
  8
0
 10
8.3781309127807617
 20
-2.1744346618652339
 30
0.0
  0
VERTEX
  5
160
  8
0
 10
8.3781309127807617
 20
-2.053691864013671
 30
0.0
  0
VERTEX
  5
161
  8
0
 10
8.4112091064453125
 20
-2.023967742919921
 30
0.0
  0
VERTEX
  5
162
  8
0
 10
8.4487943649291992
 20
-2.023967742919921
 30
0.0
  0
VERTEX
  5
163
  8
0
 10
8.4818716049194336
 20
-1.9943122863769529
 30
0.0
  0
VERTEX
  5
164
  8
0
 10
8.4818716049194336
 20
-1.9551658630371089
 30
0.0
  0
VERTEX
  5
165
  8
0
 10
8.5671825408935547
 20
-1.9252243041992181
 30
0.0
  0
VERTEX
  5
166
  8
0
 10
8.5980014801025391
 20
-1.6005516052246089
 30
0.0
  0
VERTEX
  5
167
  8
0
 10
8.5748157501220703
 20
-1.6005516052246089
 30
0.0
  0
VERTEX
  5
168
  8
0
 10
8.5438261032104492
 20
-1.573551177978515
 30
0.0
  0
VERTEX
  5
169
  8
0
 10
8.5438261032104492
 20
-1.418621063232421
 30
0.0
  0
VERTEX
  5
16A
  8
0
 10
8.5966100692749023
 20
-1.3921661376953121
 30
0.0
  0
VERTEX
  5
16B
  8
0
 10
8.558349609375
 20
-0.9780998229980468
 30
0.0
  0
VERTEX
  5
16C
  8
0
 10
8.150853157043457
 20
-0.2692413330078125
 30
0.0
  0
VERTEX
  5
16D
  8
0
 10
8.1139030456542969
 20
-0.2471694946289062
 30
0.0
  0
VERTEX
  5
16E
  8
0
 10
8.0590858459472656
 20
-0.2471694946289062
 30
0.0
  0
VERTEX
  5
16F
  8
0
 10
8.0178260803222656
 20
-0.1701126098632812
 30
0.0
  0
VERTEX
  5
170
  8
0
 10
7.9453878402709961
 20
-0.1700057983398437
 30
0.0
  0
VERTEX
  5
171
  8
0
 10
7.9041233062744141
 20
-0.091552734375
 30
0.0
  0
VERTEX
  5
172
  8
0
 10
7.840007781982421
 20
-0.0909805297851563
 30
0.0
  0
VERTEX
  5
173
  8
0
 10
7.8125
 20
-0.0673332214355469
 30
0.0
  0
VERTEX
  5
174
  8
0
 10
7.8125
 20
0.0
 30
0.0
  0
SEQEND
  5
175
  8
0
  0
LINE
  5
6D
  8
0
 10
8.1139030456542969
 20
-0.2471694946289062
 30
0.0
 11
9.8860940933227521
 21
-0.2471694946289062
 31
0.0
  0
LINE
  5
6E
  8
0
 10
8.0178260803222656
 20
-0.1701126098632812
 30
0.0
 11
9.9821739196777344
 21
-0.1701126098632812
 31
0.0
  0
LINE
  5
6F
  8
0
 10
10.095871925354
 20
-0.091552734375
 30
0.0
 11
7.9041233062744141
 21
-0.091552734375
 31
0.0
  0
LINE
  5
70
  8
0
 10
8.5966100692749023
 20
-1.3921661376953121
 30
0.0
 11
9.4033803939819336
 21
-1.3921661376953121
 31
0.0
  0
LINE
  5
71
  8
0
 10
8.5980014801025391
 20
-1.6005516052246089
 30
0.0
 11
9.4089975357055664
 21
-1.6005516052246089
 31
0.0
  0
LINE
  5
72
  8
0
 10
8.5671825408935547
 20
-1.9252243041992181
 30
0.0
 11
9.4328126907348633
 21
-1.9252243041992181
 31
0.0
  0
LINE
  5
73
  8
0
 10
9.5512037277221662
 20
-2.023967742919921
 30
0.0
 11
8.4487943649291992
 21
-2.023967742919921
 31
0.0
  0
LINE
  5
74
  8
0
 10
8.4487934112548828
 20
-2.2045326232910152
 30
0.0
 11
9.5512037277221662
 21
-2.2045326232910152
 31
0.0
  0
LINE
  5
75
  8
0
 10
9.4362211227416992
 20
-2.3009376525878902
 30
0.0
 11
8.5637760162353516
 21
-2.3009376525878902
 31
0.0
  0
LINE
  5
76
  8
0
 10
8.6189107894897461
 20
-2.406047821044921
 30
0.0
 11
9.3806791305541992
 21
-2.406047821044921
 31
0.0
  0
LINE
  5
83
  8
0
 10
-8.3884763729098104
 20
-2.7131843566022802
 30
0.0
 11
8.3884563446044922
 21
-2.71319580078125
 31
0.0
  0
LINE
  5
84
  8
0
 10
8.3884544372558594
 20
-3.3539314270019531
 30
0.0
 11
-8.3884544372558594
 21
-3.3539314270019531
 31
0.0
  0
ATTDEF
  5
85
  8
DEFPOINTS
 10
0.0
 20
-0.005
 30
0.0
 40
0.001
  1
METAL
  3

  2
MATERIAL
 70
     8
1001
AcDbAttr
1070
     0
1070
     1
  0
ATTDEF
  5
86
  8
DEFPOINTS
 10
0.0
 20
-0.0033333333333333
 30
0.0
 40
0.001
  1
18" TOWEL BAR
  3

  2
PRODUCT
 70
     8
1001
AcDbAttr
1070
     0
1070
     1
  0
ATTDEF
  5
87
  8
DEFPOINTS
 10
0.0
 20
-0.0016666666666667
 30
0.0
 40
0.001
  1
DEVONSHIRE
  3

  2
TRADENAME
 70
     8
1001
AcDbAttr
1070
     0
1070
     1
  0
ATTDEF
  5
88
  8
DEFPOINTS
 10
0.0
 20
0.0
 30
0.0
 40
0.001
  1
K-10550
  3

  2
MODELNUMBER
 70
     8
1001
AcDbAttr
1070
     0
1070
     1
  0
POLYLINE
  5
C8
  8
0
 66
     1
 10
0.0
 20
0.0
 30
0.0
 70
     1
  0
VERTEX
  5
1A6
  8
0
 10
-9.0
 20
0.0
 30
0.0
  0
VERTEX
  5
1A7
  8
0
 10
-10.1875
 20
0.0
 30
0.0
  0
VERTEX
  5
1A8
  8
0
 10
-10.1875
 20
-0.0673332214355469
 30
0.0
  0
VERTEX
  5
1A9
  8
0
 10
-10.15999031066894
 20
-0.0909805297851563
 30
0.0
  0
VERTEX
  5
1AA
  8
0
 10
-10.095871925354
 20
-0.091552734375
 30
0.0
  0
VERTEX
  5
1AB
  8
0
 10
-10.054612159729
 20
-0.1700057983398437
 30
0.0
  0
VERTEX
  5
1AC
  8
0
 10
-9.9821739196777344
 20
-0.1701126098632812
 30
0.0
  0
VERTEX
  5
1AD
  8
0
 10
-9.9409112930297852
 20
-0.2471694946289062
 30
0.0
  0
VERTEX
  5
1AE
  8
0
 10
-9.8860940933227521
 20
-0.2471694946289062
 30
0.0
  0
VERTEX
  5
1AF
  8
0
 10
-9.8491468429565412
 20
-0.2692413330078125
 30
0.0
  0
VERTEX
  5
1B0
  8
0
 10
-9.4416484832763672
 20
-0.9780998229980468
 30
0.0
  0
VERTEX
  5
1B1
  8
0
 10
-9.4033803939819336
 20
-1.3921661376953121
 30
0.0
  0
VERTEX
  5
1B2
  8
0
 10
-9.4561710357666016
 20
-1.418621063232421
 30
0.0
  0
VERTEX
  5
1B3
  8
0
 10
-9.4561710357666016
 20
-1.573551177978515
 30
0.0
  0
VERTEX
  5
1B4
  8
0
 10
-9.4251794815063477
 20
-1.6005516052246089
 30
0.0
  0
VERTEX
  5
1B5
  8
0
 10
-9.4019956588745117
 20
-1.6005516052246089
 30
0.0
  0
VERTEX
  5
1B6
  8
0
 10
-9.4328126907348633
 20
-1.9252243041992181
 30
0.0
  0
VERTEX
  5
1B7
  8
0
 10
-9.5181264877319336
 20
-1.9551658630371089
 30
0.0
  0
VERTEX
  5
1B8
  8
0
 10
-9.5181264877319336
 20
-1.9943122863769529
 30
0.0
  0
VERTEX
  5
1B9
  8
0
 10
-9.5512037277221662
 20
-2.023967742919921
 30
0.0
  0
VERTEX
  5
1BA
  8
0
 10
-9.5887889862060547
 20
-2.023967742919921
 30
0.0
  0
VERTEX
  5
1BB
  8
0
 10
-9.6218662261962891
 20
-2.053691864013671
 30
0.0
  0
VERTEX
  5
1BC
  8
0
 10
-9.6218662261962891
 20
-2.1744346618652339
 30
0.0
  0
VERTEX
  5
1BD
  8
0
 10
-9.5887889862060547
 20
-2.2045326232910152
 30
0.0
  0
VERTEX
  5
1BE
  8
0
 10
-9.5512037277221662
 20
-2.2045326232910152
 30
0.0
  0
VERTEX
  5
1BF
  8
0
 10
-9.5181255340576172
 20
-2.2347068786621089
 30
0.0
  0
VERTEX
  5
1C0
  8
0
 10
-9.5181255340576172
 20
-2.2705841064453121
 30
0.0
  0
VERTEX
  5
1C1
  8
0
 10
-9.4850482940673828
 20
-2.3009376525878902
 30
0.0
  0
VERTEX
  5
1C2
  8
0
 10
-9.4362211227416992
 20
-2.3009376525878902
 30
0.0
  0
VERTEX
  5
1C3
  8
0
 10
-9.4148454666137695
 20
-2.3302268981933589
 30
0.0
  0
VERTEX
  5
1C4
  8
0
 10
-9.4148454666137695
 20
-2.3744049072265621
 30
0.0
  0
VERTEX
  5
1C5
  8
0
 10
-9.3806791305541992
 20
-2.406047821044921
 30
0.0
  0
VERTEX
  5
1C6
  8
0
 10
-9.355381965637207
 20
-2.4930763244628902
 30
0.0
  0
VERTEX
  5
1C7
  8
0
 10
-9.3007612228393555
 20
-2.59417724609375
 30
0.0
  0
VERTEX
  5
1C8
  8
0
 10
-9.2619905471801758
 20
-2.6873855590820308
 30
0.0
  0
VERTEX
  5
1C9
  8
0
 10
-9.2335700988769531
 20
-2.8197402954101558
 30
0.0
  0
VERTEX
  5
1CA
  8
0
 10
-9.1791572570800781
 20
-2.9708137512207031
 30
0.0
  0
VERTEX
  5
1CB
  8
0
 10
-9.0789308547973633
 20
-3.0972023010253902
 30
0.0
  0
VERTEX
  5
1CC
  8
0
 10
-8.9443950653076172
 20
-3.195201873779296
 30
0.0
  0
VERTEX
  5
1CD
  8
0
 10
-8.7870502471923828
 20
-3.2611656188964839
 30
0.0
  0
VERTEX
  5
1CE
  8
0
 10
-8.6449718475341797
 20
-3.3022346496582031
 30
0.0
  0
VERTEX
  5
1CF
  8
0
 10
-8.5562295913696271
 20
-3.3259353637695308
 30
0.0
  0
VERTEX
  5
1D0
  8
0
 10
-8.4941549301147461
 20
-3.3409080505371089
 30
0.0
 42
0.1012087553281297
  0
VERTEX
  5
1D1
  8
0
 10
-8.4409303665161204
 20
-3.3738021850585929
 30
0.0
  0
VERTEX
  5
1D2
  8
0
 10
-8.4146480560302734
 20
-3.371440887451171
 30
0.0
  0
VERTEX
  5
1D3
  8
0
 10
-8.3884544372558594
 20
-3.3539314270019531
 30
0.0
  0
VERTEX
  5
1D4
  8
0
 10
-8.3884563446044922
 20
-2.71319580078125
 30
0.0
 42
0.1447934726443223
  0
VERTEX
  5
1D5
  8
0
 10
-8.4409322738647461
 20
-2.700817108154296
 30
0.0
 42
0.0984471124468459
  0
VERTEX
  5
1D6
  8
0
 10
-8.4941587448120117
 20
-2.7314682006835929
 30
0.0
  0
VERTEX
  5
1D7
  8
0
 10
-8.5527477264404297
 20
-2.7454566955566402
 30
0.0
  0
VERTEX
  5
1D8
  8
0
 10
-8.6036872863769531
 20
-2.7543296813964839
 30
0.0
  0
VERTEX
  5
1D9
  8
0
 10
-8.6393289566040021
 20
-2.7529487609863281
 30
0.0
  0
VERTEX
  5
1DA
  8
0
 10
-8.6658182144165021
 20
-2.743682861328125
 30
0.0
  0
VERTEX
  5
1DB
  8
0
 10
-8.689300537109375
 20
-2.7289161682128902
 30
0.0
  0
VERTEX
  5
1DC
  8
0
 10
-8.7086400985717773
 20
-2.7090682983398429
 30
0.0
  0
VERTEX
  5
1DD
  8
0
 10
-8.7226924896240234
 20
-2.6845550537109371
 30
0.0
  0
VERTEX
  5
1DE
  8
0
 10
-8.7264614105224592
 20
-2.6536712646484371
 30
0.0
  0
VERTEX
  5
1DF
  8
0
 10
-8.6984214782714844
 20
-2.594005584716796
 30
0.0
  0
VERTEX
  5
1E0
  8
0
 10
-8.643798828125
 20
-2.4930763244628902
 30
0.0
  0
VERTEX
  5
1E1
  8
0
 10
-8.6189107894897461
 20
-2.406047821044921
 30
0.0
  0
VERTEX
  5
1E2
  8
0
 10
-8.5851516723632812
 20
-2.3744049072265621
 30
0.0
  0
VERTEX
  5
1E3
  8
0
 10
-8.5851516723632812
 20
-2.3302268981933589
 30
0.0
  0
VERTEX
  5
1E4
  8
0
 10
-8.5637760162353516
 20
-2.3009376525878902
 30
0.0
  0
VERTEX
  5
1E5
  8
0
 10
-8.5149488449096662
 20
-2.3009376525878902
 30
0.0
  0
VERTEX
  5
1E6
  8
0
 10
-8.4818716049194336
 20
-2.2705841064453121
 30
0.0
  0
VERTEX
  5
1E7
  8
0
 10
-8.4818716049194336
 20
-2.234710693359375
 30
0.0
  0
VERTEX
  5
1E8
  8
0
 10
-8.4487934112548828
 20
-2.2045326232910152
 30
0.0
  0
VERTEX
  5
1E9
  8
0
 10
-8.4112081527709961
 20
-2.2045326232910152
 30
0.0
  0
VERTEX
  5
1EA
  8
0
 10
-8.3781309127807617
 20
-2.1744346618652339
 30
0.0
  0
VERTEX
  5
1EB
  8
0
 10
-8.3781309127807617
 20
-2.053691864013671
 30
0.0
  0
VERTEX
  5
1EC
  8
0
 10
-8.4112091064453125
 20
-2.023967742919921
 30
0.0
  0
VERTEX
  5
1ED
  8
0
 10
-8.4487943649291992
 20
-2.023967742919921
 30
0.0
  0
VERTEX
  5
1EE
  8
0
 10
-8.4818716049194336
 20
-1.9943122863769529
 30
0.0
  0
VERTEX
  5
1EF
  8
0
 10
-8.4818716049194336
 20
-1.9551658630371089
 30
0.0
  0
VERTEX
  5
1F0
  8
0
 10
-8.5671825408935547
 20
-1.9252243041992181
 30
0.0
  0
VERTEX
  5
1F1
  8
0
 10
-8.5980014801025391
 20
-1.6005516052246089
 30
0.0
  0
VERTEX
  5
1F2
  8
0
 10
-8.5748157501220703
 20
-1.6005516052246089
 30
0.0
  0
VERTEX
  5
1F3
  8
0
 10
-8.5438261032104492
 20
-1.573551177978515
 30
0.0
  0
VERTEX
  5
1F4
  8
0
 10
-8.5438261032104492
 20
-1.418621063232421
 30
0.0
  0
VERTEX
  5
1F5
  8
0
 10
-8.5966100692749023
 20
-1.3921661376953121
 30
0.0
  0
VERTEX
  5
1F6
  8
0
 10
-8.558349609375
 20
-0.9780998229980468
 30
0.0
  0
VERTEX
  5
1F7
  8
0
 10
-8.150853157043457
 20
-0.2692413330078125
 30
0.0
  0
VERTEX
  5
1F8
  8
0
 10
-8.1139030456542969
 20
-0.2471694946289062
 30
0.0
  0
VERTEX
  5
1F9
  8
0
 10
-8.0590858459472656
 20
-0.2471694946289062
 30
0.0
  0
VERTEX
  5
1FA
  8
0
 10
-8.0178260803222656
 20
-0.1701126098632812
 30
0.0
  0
VERTEX
  5
1FB
  8
0
 10
-7.9453878402709961
 20
-0.1700057983398437
 30
0.0
  0
VERTEX
  5
1FC
  8
0
 10
-7.9041233062744141
 20
-0.091552734375
 30
0.0
  0
VERTEX
  5
1FD
  8
0
 10
-7.840007781982421
 20
-0.0909805297851563
 30
0.0
  0
VERTEX
  5
1FE
  8
0
 10
-7.8125
 20
-0.0673332214355469
 30
0.0
  0
VERTEX
  5
1FF
  8
0
 10
-7.8125
 20
0.0
 30
0.0
  0
SEQEND
  5
200
  8
0
  0
LINE
  5
C9
  8
0
 10
-8.1139030456542969
 20
-0.2471694946289062
 30
0.0
 11
-9.8860940933227521
 21
-0.2471694946289062
 31
0.0
  0
LINE
  5
CA
  8
0
 10
-8.0178260803222656
 20
-0.1701126098632812
 30
0.0
 11
-9.9821739196777344
 21
-0.1701126098632812
 31
0.0
  0
LINE
  5
CB
  8
0
 10
-10.095871925354
 20
-0.091552734375
 30
0.0
 11
-7.9041233062744141
 21
-0.091552734375
 31
0.0
  0
LINE
  5
CC
  8
0
 10
-8.5966100692749023
 20
-1.3921661376953121
 30
0.0
 11
-9.4033803939819336
 21
-1.3921661376953121
 31
0.0
  0
LINE
  5
CD
  8
0
 10
-8.5980014801025391
 20
-1.6005516052246089
 30
0.0
 11
-9.4089975357055664
 21
-1.6005516052246089
 31
0.0
  0
LINE
  5
CE
  8
0
 10
-8.5671825408935547
 20
-1.9252243041992181
 30
0.0
 11
-9.4328126907348633
 21
-1.9252243041992181
 31
0.0
  0
LINE
  5
CF
  8
0
 10
-9.5512037277221662
 20
-2.023967742919921
 30
0.0
 11
-8.4487943649291992
 21
-2.023967742919921
 31
0.0
  0
LINE
  5
D0
  8
0
 10
-8.4487934112548828
 20
-2.2045326232910152
 30
0.0
 11
-9.5512037277221662
 21
-2.2045326232910152
 31
0.0
  0
LINE
  5
D1
  8
0
 10
-9.4362211227416992
 20
-2.3009376525878902
 30
0.0
 11
-8.5637760162353516
 21
-2.3009376525878902
 31
0.0
  0
LINE
  5
D2
  8
0
 10
-8.6189107894897461
 20
-2.406047821044921
 30
0.0
 11
-9.3806791305541992
 21
-2.406047821044921
 31
0.0
  0
ENDSEC
  0
EOF
