  0
SECTION
  2
HEADER
  9
$ACADVER
  1
AC1009
  9
$INSBASE
 10
0.0
 20
0.0
 30
0.0
  9
$EXTMIN
 10
-13.1875
 20
-5.3550752642659853
 30
0.0
  9
$EXTMAX
 10
13.1875
 20
0.001
 30
0.0
  9
$LIMMIN
 10
0.0
 20
0.0
  9
$LIMMAX
 10
12.0
 20
9.0
  9
$ORTHOMODE
 70
     0
  9
$REGENMODE
 70
     1
  9
$FILLMODE
 70
     1
  9
$QTEXTMODE
 70
     0
  9
$MIRRTEXT
 70
     1
  9
$DRAGMODE
 70
     2
  9
$LTSCALE
 40
1.0
  9
$OSMODE
 70
    37
  9
$ATTMODE
 70
     1
  9
$TEXTSIZE
 40
0.001
  9
$TRACEWID
 40
0.05
  9
$TEXTSTYLE
  7
STANDARD
  9
$CLAYER
  8
0
  9
$CELTYPE
  6
BYLAYER
  9
$CECOLOR
 62
   256
  9
$DIMSCALE
 40
1.0
  9
$DIMASZ
 40
0.18
  9
$DIMEXO
 40
0.0625
  9
$DIMDLI
 40
0.38
  9
$DIMRND
 40
0.0
  9
$DIMDLE
 40
0.0
  9
$DIMEXE
 40
0.18
  9
$DIMTP
 40
0.0
  9
$DIMTM
 40
0.0
  9
$DIMTXT
 40
0.18
  9
$DIMCEN
 40
0.09
  9
$DIMTSZ
 40
0.0
  9
$DIMTOL
 70
     0
  9
$DIMLIM
 70
     0
  9
$DIMTIH
 70
     1
  9
$DIMTOH
 70
     1
  9
$DIMSE1
 70
     0
  9
$DIMSE2
 70
     0
  9
$DIMTAD
 70
     0
  9
$DIMZIN
 70
     0
  9
$DIMBLK
  1

  9
$DIMASO
 70
     1
  9
$DIMSHO
 70
     1
  9
$DIMPOST
  1

  9
$DIMAPOST
  1

  9
$DIMALT
 70
     0
  9
$DIMALTD
 70
     2
  9
$DIMALTF
 40
25.399999999999999
  9
$DIMLFAC
 40
1.0
  9
$DIMTOFL
 70
     0
  9
$DIMTVP
 40
0.0
  9
$DIMTIX
 70
     0
  9
$DIMSOXD
 70
     0
  9
$DIMSAH
 70
     0
  9
$DIMBLK1
  1

  9
$DIMBLK2
  1

  9
$DIMSTYLE
  2
STANDARD
  9
$DIMCLRD
 70
     0
  9
$DIMCLRE
 70
     0
  9
$DIMCLRT
 70
     0
  9
$DIMTFAC
 40
1.0
  9
$DIMGAP
 40
0.09
  9
$LUNITS
 70
     2
  9
$LUPREC
 70
     4
  9
$SKETCHINC
 40
0.1
  9
$FILLETRAD
 40
0.0
  9
$AUNITS
 70
     0
  9
$AUPREC
 70
     0
  9
$MENU
  1
.
  9
$ELEVATION
 40
0.0
  9
$PELEVATION
 40
0.0
  9
$THICKNESS
 40
0.0
  9
$LIMCHECK
 70
     0
  9
$BLIPMODE
 70
     0
  9
$CHAMFERA
 40
0.5
  9
$CHAMFERB
 40
0.5
  9
$SKPOLY
 70
     0
  9
$TDCREATE
 40
2451380.555432396
  9
$TDUPDATE
 40
2456700.4984619678
  9
$TDINDWG
 40
0.1403028009
  9
$TDUSRTIMER
 40
0.1402937616
  9
$USRTIMER
 70
     1
  9
$ANGBASE
 50
0.0
  9
$ANGDIR
 70
     0
  9
$PDMODE
 70
     0
  9
$PDSIZE
 40
0.0
  9
$PLINEWID
 40
0.0
  9
$COORDS
 70
     1
  9
$SPLFRAME
 70
     0
  9
$SPLINETYPE
 70
     6
  9
$SPLINESEGS
 70
     8
  9
$ATTDIA
 70
     0
  9
$ATTREQ
 70
     1
  9
$HANDLING
 70
     1
  9
$HANDSEED
  5
2A0
  9
$SURFTAB1
 70
     6
  9
$SURFTAB2
 70
     6
  9
$SURFTYPE
 70
     6
  9
$SURFU
 70
     6
  9
$SURFV
 70
     6
  9
$UCSNAME
  2

  9
$UCSORG
 10
0.0
 20
0.0
 30
0.0
  9
$UCSXDIR
 10
1.0
 20
0.0
 30
0.0
  9
$UCSYDIR
 10
0.0
 20
1.0
 30
0.0
  9
$PUCSNAME
  2

  9
$PUCSORG
 10
0.0
 20
0.0
 30
0.0
  9
$PUCSXDIR
 10
1.0
 20
0.0
 30
0.0
  9
$PUCSYDIR
 10
0.0
 20
1.0
 30
0.0
  9
$USERI1
 70
     0
  9
$USERI2
 70
     0
  9
$USERI3
 70
     0
  9
$USERI4
 70
     0
  9
$USERI5
 70
     0
  9
$USERR1
 40
0.0
  9
$USERR2
 40
0.0
  9
$USERR3
 40
0.0
  9
$USERR4
 40
0.0
  9
$USERR5
 40
0.0
  9
$WORLDVIEW
 70
     1
  9
$SHADEDGE
 70
     3
  9
$SHADEDIF
 70
    70
  9
$TILEMODE
 70
     1
  9
$MAXACTVP
 70
    64
  9
$PLIMCHECK
 70
     0
  9
$PEXTMIN
 10
1.0000000000000000E+020
 20
1.0000000000000000E+020
 30
1.0000000000000000E+020
  9
$PEXTMAX
 10
-1.0000000000000000E+020
 20
-1.0000000000000000E+020
 30
-1.0000000000000000E+020
  9
$PLIMMIN
 10
0.0
 20
0.0
  9
$PLIMMAX
 10
12.0
 20
9.0
  9
$UNITMODE
 70
     0
  9
$VISRETAIN
 70
     1
  9
$PLINEGEN
 70
     0
  9
$PSLTSCALE
 70
     1
  0
ENDSEC
  0
SECTION
  2
TABLES
  0
TABLE
  2
VPORT
 70
     1
  0
VPORT
  2
*ACTIVE
 70
     0
 10
0.0
 20
0.0
 11
1.0
 21
1.0
 12
0.0000010708223943
 22
0.4126715904634289
 13
0.0
 23
0.0
 14
0.5
 24
0.5
 15
0.5
 25
0.5
 16
0.0
 26
0.0
 36
1.0
 17
0.0
 27
0.0
 37
0.0
 40
22.41374469680159
 41
1.1829652996845419
 42
50.0
 43
0.0
 44
0.0
 50
0.0
 51
0.0
 71
     0
 72
  5000
 73
     1
 74
     1
 75
     0
 76
     0
 77
     0
 78
     0
  0
ENDTAB
  0
TABLE
  2
LTYPE
 70
     2
  0
LTYPE
  2
CONTINUOUS
 70
     0
  3
Solid line
 72
    65
 73
     0
 40
0.0
  0
LTYPE
  2
PHANTOM2
 70
     0
  3
Phantom (.5x) ___ _ _ ___ _ _ ___ _ _ ___ _ _
 72
    65
 73
     6
 40
1.25
 49
0.625
 49
-0.125
 49
0.125
 49
-0.125
 49
0.125
 49
-0.125
  0
ENDTAB
  0
TABLE
  2
LAYER
 70
     2
  0
LAYER
  2
0
 70
     0
 62
     7
  6
CONTINUOUS
  0
LAYER
  2
DEFPOINTS
 70
     0
 62
     7
  6
CONTINUOUS
  0
ENDTAB
  0
TABLE
  2
STYLE
 70
     1
  0
STYLE
  2
STANDARD
 70
     0
 40
0.0
 41
1.0
 50
0.0
 71
     0
 42
0.001
  3
txt
  4

  0
ENDTAB
  0
TABLE
  2
VIEW
 70
     0
  0
ENDTAB
  0
TABLE
  2
UCS
 70
     0
  0
ENDTAB
  0
TABLE
  2
APPID
 70
     7
  0
APPID
  2
ACAD
 70
     0
  0
APPID
  2
ACAECLAYERSTANDARD
 70
     0
  0
APPID
  2
ACCMTRANSPARENCY
 70
     0
  0
APPID
  2
ACAD_NAV_VCDISPLAY
 70
     0
  0
APPID
  2
ACAD_EXEMPT_FROM_CAD_STANDARDS
 70
     0
  0
APPID
  2
AcDbAttr
 70
     0
  0
APPID
  2
ACAD_MLEADERVER
 70
     0
  0
ENDTAB
  0
TABLE
  2
DIMSTYLE
 70
     1
  0
DIMSTYLE
  2
STANDARD
 70
     0
  3

  4

  5

  6

  7

 40
1.0
 41
0.18
 42
0.0625
 43
0.38
 44
0.18
 45
0.0
 46
0.0
 47
0.0
 48
0.0
140
0.18
141
0.09
142
0.0
143
25.399999999999999
144
1.0
145
0.0
146
1.0
147
0.09
 71
     0
 72
     0
 73
     1
 74
     1
 75
     0
 76
     0
 77
     0
 78
     0
170
     0
171
     2
172
     0
173
     0
174
     0
175
     0
176
     0
177
     0
178
     0
  0
ENDTAB
  0
ENDSEC
  0
SECTION
  2
BLOCKS
  0
BLOCK
  8
0
  2
$MODEL_SPACE
 70
     2
 10
0.0
 20
0.0
 30
0.0
  3
$MODEL_SPACE
  1

  0
ENDBLK
  5
16
  8
0
  0
BLOCK
 67
     1
  8
0
  2
$PAPER_SPACE
 70
     0
 10
0.0
 20
0.0
 30
0.0
  3
$PAPER_SPACE
  1

  0
ENDBLK
  5
1D
 67
     1
  8
0
  0
ENDSEC
  0
SECTION
  2
ENTITIES
  0
ATTDEF
  5
99
  8
DEFPOINTS
 10
0.0
 20
-0.005
 30
0.0
 40
0.001
  1
METAL
  3

  2
MATERIAL
 70
     8
1001
AcDbAttr
1070
     0
1070
     1
  0
ATTDEF
  5
9B
  8
DEFPOINTS
 10
0.0
 20
-0.0033333333333333
 30
0.0
 40
0.001
  1
DOUBLE TOWEL BAR
  3

  2
PRODUCT
 70
     8
1001
AcDbAttr
1070
     0
1070
     1
  0
ATTDEF
  5
9C
  8
DEFPOINTS
 10
0.0
 20
-0.0016666666666667
 30
0.0
 40
0.001
  1
DEVONSHIRE
  3

  2
TRADENAME
 70
     8
1001
AcDbAttr
1070
     0
1070
     1
  0
ATTDEF
  5
9D
  8
DEFPOINTS
 10
0.0
 20
0.0
 30
0.0
 40
0.001
  1
K-10553
  3

  2
MODELNUMBER
 70
     8
1001
AcDbAttr
1070
     0
1070
     1
  0
ARC
  5
128
  8
0
 10
-11.114853936181779
 20
-4.7297275148662861
 30
0.0
 40
0.1428845381942118
 50
26.565051177077891
 51
153.4349488229231
  0
LINE
  5
129
  8
0
 10
-10.987054120047411
 20
-4.665827606799108
 30
0.0
 11
-10.987054120047411
 21
-5.2760906341389564
 31
0.0
  0
ARC
  5
12A
  8
0
 10
-11.114853936181779
 20
-5.2121907260717686
 30
0.0
 40
0.1428845381942156
 50
206.565051177079
 51
333.43494882292322
  0
LINE
  5
12B
  8
0
 10
-11.24265375231616
 20
-5.276090634138952
 30
0.0
 11
-11.24265375231615
 21
-4.6658276067991062
 31
0.0
  0
ARC
  5
12C
  8
0
 10
-10.49476015375468
 20
-4.4855970968660248
 30
0.0
 40
0.2392150404566346
 50
228.88790956083261
 51
311.1120904391671
  0
LINE
  5
12D
  8
0
 10
-10.987054120047411
 20
-4.6658276067991054
 30
0.0
 11
-10.652052235150819
 21
-4.6658276067991054
 31
0.0
  0
LINE
  5
12E
  8
0
 10
-10.98705412004742
 20
-5.2760906341389564
 30
0.0
 11
10.987054120047411
 21
-5.2760906341389573
 31
0.0
  0
LINE
  5
12F
  8
0
 10
-10.337468072358529
 20
-4.6658276067991054
 30
0.0
 11
10.337468072358529
 21
-4.6658276067991054
 31
0.0
  0
LINE
  5
130
  8
0
 10
-10.652052235150819
 20
-4.6658276067991054
 30
0.0
 11
-10.652052235150819
 21
-3.3666555114213308
 31
0.0
  0
LINE
  5
131
  8
0
 10
-10.337468072358529
 20
-4.6658276067991062
 30
0.0
 11
-10.337468072358529
 21
-3.3666555114213308
 31
0.0
  0
LINE
  5
132
  8
0
 10
-11.380284323537779
 20
-2.717069463732444
 30
0.0
 11
-11.380284323537779
 21
-3.3666555114213308
 31
0.0
  0
LINE
  5
134
  8
0
 10
-11.380284323537779
 20
-3.3666555114213308
 30
0.0
 11
11.380284323537779
 21
-3.3666555114213299
 31
0.0
  0
LINE
  5
135
  8
0
 10
-11.380284323537779
 20
-2.717069463732444
 30
0.0
 11
11.380284323537779
 21
-2.717069463732444
 31
0.0
  0
POLYLINE
  5
136
  8
0
 66
     1
 10
0.0
 20
0.0
 30
0.0
  0
VERTEX
  5
1EE
  8
0
 10
-13.1875
 20
0.0
 30
0.0
  0
VERTEX
  5
1EF
  8
0
 10
-10.8125
 20
0.0
 30
0.0
  0
VERTEX
  5
1F0
  8
0
 10
-10.8125
 20
-0.0589845305235546
 30
0.0
  0
VERTEX
  5
1F1
  8
0
 10
-10.8329177221043
 20
-0.0983075508725904
 30
0.0
  0
VERTEX
  5
1F2
  8
0
 10
-10.888746569174829
 20
-0.0983075508725904
 30
0.0
  0
VERTEX
  5
1F3
  8
0
 10
-10.94773109969838
 20
-0.1769535915706619
 30
0.0
  0
VERTEX
  5
1F4
  8
0
 10
-11.00671563022194
 20
-0.1769535915706619
 30
0.0
  0
VERTEX
  5
1F5
  8
0
 10
-11.046038650570971
 20
-0.2555996322687353
 30
0.0
  0
VERTEX
  5
1F6
  8
0
 10
-11.105023181094531
 20
-0.2555996322687353
 30
0.0
  0
VERTEX
  5
1F7
  8
0
 10
-11.144346201443559
 20
-0.2752611424432541
 30
0.0
  0
VERTEX
  5
1F8
  8
0
 10
-11.557237915108439
 20
-0.9845879325854838
 30
0.0
  0
VERTEX
  5
1F9
  8
0
 10
-11.596560935457481
 20
-1.397479646250364
 30
0.0
  0
VERTEX
  5
1FA
  8
0
 10
-11.53757640493393
 20
-1.4171411564248819
 30
0.0
  0
VERTEX
  5
1FB
  8
0
 10
-11.53757640493393
 20
-1.5751894497508161
 30
0.0
  0
VERTEX
  5
1FC
  8
0
 10
-11.57689942528296
 20
-1.594850959925334
 30
0.0
  0
VERTEX
  5
1FD
  8
0
 10
-11.596560935457481
 20
-1.594850959925334
 30
0.0
  0
VERTEX
  5
1FE
  8
0
 10
-11.557237915108439
 20
-1.9290966328921419
 30
0.0
  0
VERTEX
  5
1FF
  8
0
 10
-11.47859187441037
 20
-1.9487581430666601
 30
0.0
  0
VERTEX
  5
200
  8
0
 10
-11.47859187441037
 20
-1.988081163415697
 30
0.0
  0
VERTEX
  5
201
  8
0
 10
-11.439268854061339
 20
-2.0274041837647321
 30
0.0
  0
VERTEX
  5
202
  8
0
 10
-11.3999458337123
 20
-2.0274041837647321
 30
0.0
  0
VERTEX
  5
203
  8
0
 10
-11.380284323537779
 20
-2.04706569393925
 30
0.0
  0
VERTEX
  5
204
  8
0
 10
-11.380284323537779
 20
-2.1854524770906671
 30
0.0
  0
VERTEX
  5
205
  8
0
 10
-11.3999458337123
 20
-2.205113987265185
 30
0.0
  0
VERTEX
  5
206
  8
0
 10
-11.439268854061339
 20
-2.205113987265185
 30
0.0
  0
VERTEX
  5
207
  8
0
 10
-11.47859187441037
 20
-2.2444370076142208
 30
0.0
  0
VERTEX
  5
208
  8
0
 10
-11.47859187441037
 20
-2.2640985177887392
 30
0.0
  0
VERTEX
  5
209
  8
0
 10
-11.49825338458489
 20
-2.3034215381377749
 30
0.0
  0
VERTEX
  5
20A
  8
0
 10
-11.557237915108439
 20
-2.3034215381377749
 30
0.0
  0
VERTEX
  5
20B
  8
0
 10
-11.57689942528296
 20
-2.3427445584868121
 30
0.0
  0
VERTEX
  5
20C
  8
0
 10
-11.57689942528296
 20
-2.382067578835847
 30
0.0
  0
VERTEX
  5
20D
  8
0
 10
-11.616222445631999
 20
-2.4017290890103662
 30
0.0
  0
SEQEND
  5
20E
  8
0
  0
POLYLINE
  5
137
  8
0
 66
     1
 10
0.0
 20
0.0
 30
0.0
  0
VERTEX
  5
20F
  8
0
 10
-13.1875
 20
0.0
 30
0.0
  0
VERTEX
  5
210
  8
0
 10
-13.1875
 20
-0.0589845305235546
 30
0.0
  0
VERTEX
  5
211
  8
0
 10
-13.148176979650961
 20
-0.0983075508725904
 30
0.0
  0
VERTEX
  5
212
  8
0
 10
-13.09234813258044
 20
-0.0983075508725904
 30
0.0
  0
VERTEX
  5
213
  8
0
 10
-13.053025112231399
 20
-0.1769535915706619
 30
0.0
  0
VERTEX
  5
214
  8
0
 10
-12.974379071533329
 20
-0.1769535915706619
 30
0.0
  0
VERTEX
  5
215
  8
0
 10
-12.93505605118429
 20
-0.2555996322687353
 30
0.0
  0
VERTEX
  5
216
  8
0
 10
-12.876071520660741
 20
-0.2555996322687353
 30
0.0
  0
VERTEX
  5
217
  8
0
 10
-12.8367485003117
 20
-0.2752611424432541
 30
0.0
  0
VERTEX
  5
218
  8
0
 10
-12.44276208489155
 20
-0.9845879325854838
 30
0.0
  0
VERTEX
  5
219
  8
0
 10
-12.403439064542511
 20
-1.397479646250364
 30
0.0
  0
VERTEX
  5
21A
  8
0
 10
-12.44276208489155
 20
-1.4171411564248819
 30
0.0
  0
VERTEX
  5
21B
  8
0
 10
-12.44276208489155
 20
-1.5751894497508161
 30
0.0
  0
VERTEX
  5
21C
  8
0
 10
-12.423100574717029
 20
-1.594850959925334
 30
0.0
  0
VERTEX
  5
21D
  8
0
 10
-12.403439064542511
 20
-1.594850959925334
 30
0.0
  0
VERTEX
  5
21E
  8
0
 10
-12.423100574717029
 20
-1.9290966328921419
 30
0.0
  0
VERTEX
  5
21F
  8
0
 10
-12.50174661541511
 20
-1.9487581430666601
 30
0.0
  0
VERTEX
  5
220
  8
0
 10
-12.50174661541511
 20
-1.988081163415697
 30
0.0
  0
VERTEX
  5
221
  8
0
 10
-12.54106963576414
 20
-2.0274041837647321
 30
0.0
  0
VERTEX
  5
222
  8
0
 10
-12.58039265611318
 20
-2.0274041837647321
 30
0.0
  0
VERTEX
  5
223
  8
0
 10
-12.61971567646221
 20
-2.04706569393925
 30
0.0
  0
VERTEX
  5
224
  8
0
 10
-12.61971567646221
 20
-2.1854524770906671
 30
0.0
  0
VERTEX
  5
225
  8
0
 10
-12.58039265611318
 20
-2.205113987265185
 30
0.0
  0
VERTEX
  5
226
  8
0
 10
-12.54106963576414
 20
-2.205113987265185
 30
0.0
  0
VERTEX
  5
227
  8
0
 10
-12.50174661541511
 20
-2.2444370076142208
 30
0.0
  0
VERTEX
  5
228
  8
0
 10
-12.50174661541511
 20
-2.2640985177887392
 30
0.0
  0
VERTEX
  5
229
  8
0
 10
-12.482085105240589
 20
-2.3034215381377749
 30
0.0
  0
VERTEX
  5
22A
  8
0
 10
-12.482085105240589
 20
-2.3034215381377749
 30
0.0
  0
VERTEX
  5
22B
  8
0
 10
-12.423100574717029
 20
-2.3034215381377749
 30
0.0
  0
VERTEX
  5
22C
  8
0
 10
-12.403439064542511
 20
-2.3427445584868121
 30
0.0
  0
VERTEX
  5
22D
  8
0
 10
-12.403439064542511
 20
-2.382067578835847
 30
0.0
  0
VERTEX
  5
22E
  8
0
 10
-12.36411604419348
 20
-2.4017290890103662
 30
0.0
  0
SEQEND
  5
22F
  8
0
  0
LINE
  5
138
  8
0
 10
-12.36411604419348
 20
-2.4017290890103662
 30
0.0
 11
-11.616222445631999
 21
-2.4017290890103662
 31
0.0
  0
LINE
  5
139
  8
0
 10
-11.57689942528296
 20
-2.3427445584868121
 30
0.0
 11
-12.403439064542511
 21
-2.3427445584868121
 31
0.0
  0
LINE
  5
13A
  8
0
 10
-12.423100574717029
 20
-2.3034215381377749
 30
0.0
 11
-11.557237915108439
 21
-2.3034215381377749
 31
0.0
  0
LINE
  5
13B
  8
0
 10
-11.47859187441037
 20
-2.2444370076142208
 30
0.0
 11
-12.50174661541511
 21
-2.2444370076142208
 31
0.0
  0
LINE
  5
13C
  8
0
 10
-12.61971567646221
 20
-2.1854524770906671
 30
0.0
 11
-11.380284323537779
 21
-2.1854524770906671
 31
0.0
  0
LINE
  5
13D
  8
0
 10
-11.439268854061339
 20
-2.205113987265185
 30
0.0
 11
-12.54106963576414
 21
-2.205113987265185
 31
0.0
  0
LINE
  5
13E
  8
0
 10
-12.54106963576414
 20
-2.0274041837647321
 30
0.0
 11
-11.439268854061339
 21
-2.0274041837647321
 31
0.0
  0
LINE
  5
13F
  8
0
 10
-12.61971567646221
 20
-2.04706569393925
 30
0.0
 11
-11.380284323537779
 21
-2.04706569393925
 31
0.0
  0
LINE
  5
140
  8
0
 10
-12.50174661541511
 20
-1.988081163415697
 30
0.0
 11
-11.47859187441037
 21
-1.988081163415697
 31
0.0
  0
LINE
  5
142
  8
0
 10
-12.50174661541511
 20
-1.9487581430666601
 30
0.0
 11
-11.47859187441037
 21
-1.9487581430666601
 31
0.0
  0
LINE
  5
143
  8
0
 10
-12.403439064542511
 20
-1.397479646250364
 30
0.0
 11
-11.596560935457481
 21
-1.397479646250364
 31
0.0
  0
LINE
  5
144
  8
0
 10
-12.44276208489155
 20
-1.4171411564248819
 30
0.0
 11
-11.53757640493393
 21
-1.4171411564248819
 31
0.0
  0
LINE
  5
145
  8
0
 10
-12.44276208489155
 20
-1.5751894497508161
 30
0.0
 11
-11.53757640493393
 21
-1.5751894497508161
 31
0.0
  0
LINE
  5
146
  8
0
 10
-12.403439064542511
 20
-1.594850959925334
 30
0.0
 11
-11.596560935457481
 21
-1.594850959925334
 31
0.0
  0
LINE
  5
147
  8
0
 10
-12.876071520660741
 20
-0.2555996322687353
 30
0.0
 11
-11.105023181094531
 21
-0.2555996322687353
 31
0.0
  0
LINE
  5
148
  8
0
 10
-12.974379071533329
 20
-0.1769535915706619
 30
0.0
 11
-11.00671563022194
 21
-0.1769535915706619
 31
0.0
  0
LINE
  5
149
  8
0
 10
-13.1875
 20
-0.0589845305235546
 30
0.0
 11
-10.8125
 21
-0.0589845305235546
 31
0.0
  0
LINE
  5
14A
  8
0
 10
-10.888746569174829
 20
-0.0983075508725904
 30
0.0
 11
-13.09234813258044
 21
-0.0983075508725904
 31
0.0
  0
LINE
  5
150
  8
0
 10
-11.63588395580652
 20
-2.5000366398829552
 30
0.0
 11
-11.63588395580652
 21
-2.5000366398829552
 31
0.0
  0
POLYLINE
  5
15A
  8
0
 66
     1
 10
0.0
 20
0.0
 30
0.0
  0
VERTEX
  5
230
  8
0
 10
-11.478591874410339
 20
-3.3469940012468209
 30
0.0
  0
VERTEX
  5
231
  8
0
 10
-11.47859187441037
 20
-2.7367309739069632
 30
0.0
  0
SEQEND
  5
232
  8
0
  0
POLYLINE
  5
16C
  8
0
 66
     1
 10
0.0
 20
0.0
 30
0.0
  0
VERTEX
  5
233
  8
0
 10
-12.36411604419348
 20
-2.4017290890103662
 30
0.0
 42
0.1732137494637144
  0
VERTEX
  5
234
  8
0
 10
-12.28547000349541
 20
-2.59834419075553
 30
0.0
 42
-0.1067642322009261
  0
VERTEX
  5
235
  8
0
 10
-12.22648547297184
 20
-2.8153770146050712
 30
0.0
 42
0.13148943684483
  0
VERTEX
  5
236
  8
0
 10
-12.0691933915757
 20
-3.1102996672228058
 30
0.0
 42
0.0287149942797247
  0
VERTEX
  5
237
  8
0
 10
-11.77351452702815
 20
-3.2675917486189499
 30
0.0
 42
0.0191990665015152
  0
VERTEX
  5
238
  8
0
 10
-11.47859187441037
 20
-3.346994001246812
 30
0.0
  0
VERTEX
  5
239
  8
0
 10
-11.458930364235851
 20
-3.3666555114213308
 30
0.0
  0
VERTEX
  5
23A
  8
0
 10
-11.439268854061339
 20
-3.38631702159585
 30
0.0
  0
VERTEX
  5
23B
  8
0
 10
-11.3999458337123
 20
-3.3666555114213308
 30
0.0
  0
VERTEX
  5
23C
  8
0
 10
-11.380284323537779
 20
-3.3666555114213308
 30
0.0
  0
VERTEX
  5
23D
  8
0
 10
-11.380284323537779
 20
-3.3666555114213308
 30
0.0
  0
SEQEND
  5
23E
  8
0
  0
POLYLINE
  5
16D
  8
0
 66
     1
 10
0.0
 20
0.0
 30
0.0
  0
VERTEX
  5
23F
  8
0
 10
-11.616222445631999
 20
-2.4017290890103662
 30
0.0
  0
VERTEX
  5
240
  8
0
 10
-11.63588395580652
 20
-2.5000366398829561
 30
0.0
 42
0.1097722286465227
  0
VERTEX
  5
241
  8
0
 10
-11.71452999650459
 20
-2.6573287212791281
 30
0.0
 42
0.3384094772793161
  0
VERTEX
  5
242
  8
0
 10
-11.63588395580652
 20
-2.7563924840814811
 30
0.0
 42
-0.0097818868587106
  0
VERTEX
  5
243
  8
0
 10
-11.53757640493393
 20
-2.7563924840814811
 30
0.0
 42
0.1446183720083601
  0
VERTEX
  5
244
  8
0
 10
-11.458930364235851
 20
-2.7170694637324431
 30
0.0
 42
-0.5000000000000257
  0
VERTEX
  5
245
  8
0
 10
-11.380284323537779
 20
-2.717069463732444
 30
0.0
  0
SEQEND
  5
246
  8
0
  0
ARC
  5
16E
  8
0
 10
11.114853936181779
 20
-4.7297275148662861
 30
0.0
 40
0.1428845381942118
 50
26.565051177076938
 51
153.43494882292211
  0
LINE
  5
16F
  8
0
 10
10.987054120047411
 20
-4.665827606799108
 30
0.0
 11
10.987054120047411
 21
-5.2760906341389564
 31
0.0
  0
ARC
  5
170
  8
0
 10
11.114853936181779
 20
-5.2121907260717686
 30
0.0
 40
0.1428845381942156
 50
206.56505117707681
 51
333.43494882292089
  0
LINE
  5
171
  8
0
 10
11.24265375231616
 20
-5.276090634138952
 30
0.0
 11
11.24265375231615
 21
-4.6658276067991062
 31
0.0
  0
ARC
  5
172
  8
0
 10
10.49476015375468
 20
-4.4855970968660248
 30
0.0
 40
0.2392150404566346
 50
228.8879095608329
 51
311.11209043916739
  0
LINE
  5
173
  8
0
 10
10.987054120047411
 20
-4.6658276067991054
 30
0.0
 11
10.652052235150819
 21
-4.6658276067991054
 31
0.0
  0
LINE
  5
174
  8
0
 10
10.652052235150819
 20
-4.6658276067991054
 30
0.0
 11
10.652052235150819
 21
-3.3666555114213308
 31
0.0
  0
LINE
  5
175
  8
0
 10
10.337468072358529
 20
-4.6658276067991062
 30
0.0
 11
10.337468072358529
 21
-3.3666555114213308
 31
0.0
  0
LINE
  5
176
  8
0
 10
11.380284323537779
 20
-2.717069463732444
 30
0.0
 11
11.380284323537779
 21
-3.3666555114213308
 31
0.0
  0
POLYLINE
  5
177
  8
0
 66
     1
 10
0.0
 20
0.0
 30
0.0
  0
VERTEX
  5
247
  8
0
 10
13.1875
 20
0.0
 30
0.0
  0
VERTEX
  5
248
  8
0
 10
10.8125
 20
0.0
 30
0.0
  0
VERTEX
  5
249
  8
0
 10
10.8125
 20
-0.0589845305235546
 30
0.0
  0
VERTEX
  5
24A
  8
0
 10
10.8329177221043
 20
-0.0983075508725904
 30
0.0
  0
VERTEX
  5
24B
  8
0
 10
10.888746569174829
 20
-0.0983075508725904
 30
0.0
  0
VERTEX
  5
24C
  8
0
 10
10.94773109969838
 20
-0.1769535915706619
 30
0.0
  0
VERTEX
  5
24D
  8
0
 10
11.00671563022194
 20
-0.1769535915706619
 30
0.0
  0
VERTEX
  5
24E
  8
0
 10
11.046038650570971
 20
-0.2555996322687353
 30
0.0
  0
VERTEX
  5
24F
  8
0
 10
11.105023181094531
 20
-0.2555996322687353
 30
0.0
  0
VERTEX
  5
250
  8
0
 10
11.144346201443559
 20
-0.2752611424432541
 30
0.0
  0
VERTEX
  5
251
  8
0
 10
11.557237915108439
 20
-0.9845879325854838
 30
0.0
  0
VERTEX
  5
252
  8
0
 10
11.596560935457481
 20
-1.397479646250364
 30
0.0
  0
VERTEX
  5
253
  8
0
 10
11.53757640493393
 20
-1.4171411564248819
 30
0.0
  0
VERTEX
  5
254
  8
0
 10
11.53757640493393
 20
-1.5751894497508161
 30
0.0
  0
VERTEX
  5
255
  8
0
 10
11.57689942528296
 20
-1.594850959925334
 30
0.0
  0
VERTEX
  5
256
  8
0
 10
11.596560935457481
 20
-1.594850959925334
 30
0.0
  0
VERTEX
  5
257
  8
0
 10
11.557237915108439
 20
-1.9290966328921419
 30
0.0
  0
VERTEX
  5
258
  8
0
 10
11.47859187441037
 20
-1.9487581430666601
 30
0.0
  0
VERTEX
  5
259
  8
0
 10
11.47859187441037
 20
-1.988081163415697
 30
0.0
  0
VERTEX
  5
25A
  8
0
 10
11.439268854061339
 20
-2.0274041837647321
 30
0.0
  0
VERTEX
  5
25B
  8
0
 10
11.3999458337123
 20
-2.0274041837647321
 30
0.0
  0
VERTEX
  5
25C
  8
0
 10
11.380284323537779
 20
-2.04706569393925
 30
0.0
  0
VERTEX
  5
25D
  8
0
 10
11.380284323537779
 20
-2.1854524770906671
 30
0.0
  0
VERTEX
  5
25E
  8
0
 10
11.3999458337123
 20
-2.205113987265185
 30
0.0
  0
VERTEX
  5
25F
  8
0
 10
11.439268854061339
 20
-2.205113987265185
 30
0.0
  0
VERTEX
  5
260
  8
0
 10
11.47859187441037
 20
-2.2444370076142208
 30
0.0
  0
VERTEX
  5
261
  8
0
 10
11.47859187441037
 20
-2.2640985177887392
 30
0.0
  0
VERTEX
  5
262
  8
0
 10
11.49825338458489
 20
-2.3034215381377749
 30
0.0
  0
VERTEX
  5
263
  8
0
 10
11.557237915108439
 20
-2.3034215381377749
 30
0.0
  0
VERTEX
  5
264
  8
0
 10
11.57689942528296
 20
-2.3427445584868121
 30
0.0
  0
VERTEX
  5
265
  8
0
 10
11.57689942528296
 20
-2.382067578835847
 30
0.0
  0
VERTEX
  5
266
  8
0
 10
11.616222445631999
 20
-2.4017290890103662
 30
0.0
  0
SEQEND
  5
267
  8
0
  0
POLYLINE
  5
178
  8
0
 66
     1
 10
0.0
 20
0.0
 30
0.0
  0
VERTEX
  5
268
  8
0
 10
13.1875
 20
0.0
 30
0.0
  0
VERTEX
  5
269
  8
0
 10
13.1875
 20
-0.0589845305235546
 30
0.0
  0
VERTEX
  5
26A
  8
0
 10
13.148176979650961
 20
-0.0983075508725904
 30
0.0
  0
VERTEX
  5
26B
  8
0
 10
13.09234813258044
 20
-0.0983075508725904
 30
0.0
  0
VERTEX
  5
26C
  8
0
 10
13.053025112231399
 20
-0.1769535915706619
 30
0.0
  0
VERTEX
  5
26D
  8
0
 10
12.974379071533329
 20
-0.1769535915706619
 30
0.0
  0
VERTEX
  5
26E
  8
0
 10
12.93505605118429
 20
-0.2555996322687353
 30
0.0
  0
VERTEX
  5
26F
  8
0
 10
12.876071520660741
 20
-0.2555996322687353
 30
0.0
  0
VERTEX
  5
270
  8
0
 10
12.8367485003117
 20
-0.2752611424432541
 30
0.0
  0
VERTEX
  5
271
  8
0
 10
12.44276208489155
 20
-0.9845879325854838
 30
0.0
  0
VERTEX
  5
272
  8
0
 10
12.403439064542511
 20
-1.397479646250364
 30
0.0
  0
VERTEX
  5
273
  8
0
 10
12.44276208489155
 20
-1.4171411564248819
 30
0.0
  0
VERTEX
  5
274
  8
0
 10
12.44276208489155
 20
-1.5751894497508161
 30
0.0
  0
VERTEX
  5
275
  8
0
 10
12.423100574717029
 20
-1.594850959925334
 30
0.0
  0
VERTEX
  5
276
  8
0
 10
12.403439064542511
 20
-1.594850959925334
 30
0.0
  0
VERTEX
  5
277
  8
0
 10
12.423100574717029
 20
-1.9290966328921419
 30
0.0
  0
VERTEX
  5
278
  8
0
 10
12.50174661541511
 20
-1.9487581430666601
 30
0.0
  0
VERTEX
  5
279
  8
0
 10
12.50174661541511
 20
-1.988081163415697
 30
0.0
  0
VERTEX
  5
27A
  8
0
 10
12.54106963576414
 20
-2.0274041837647321
 30
0.0
  0
VERTEX
  5
27B
  8
0
 10
12.58039265611318
 20
-2.0274041837647321
 30
0.0
  0
VERTEX
  5
27C
  8
0
 10
12.61971567646221
 20
-2.04706569393925
 30
0.0
  0
VERTEX
  5
27D
  8
0
 10
12.61971567646221
 20
-2.1854524770906671
 30
0.0
  0
VERTEX
  5
27E
  8
0
 10
12.58039265611318
 20
-2.205113987265185
 30
0.0
  0
VERTEX
  5
27F
  8
0
 10
12.54106963576414
 20
-2.205113987265185
 30
0.0
  0
VERTEX
  5
280
  8
0
 10
12.50174661541511
 20
-2.2444370076142208
 30
0.0
  0
VERTEX
  5
281
  8
0
 10
12.50174661541511
 20
-2.2640985177887392
 30
0.0
  0
VERTEX
  5
282
  8
0
 10
12.482085105240589
 20
-2.3034215381377749
 30
0.0
  0
VERTEX
  5
283
  8
0
 10
12.482085105240589
 20
-2.3034215381377749
 30
0.0
  0
VERTEX
  5
284
  8
0
 10
12.423100574717029
 20
-2.3034215381377749
 30
0.0
  0
VERTEX
  5
285
  8
0
 10
12.403439064542511
 20
-2.3427445584868121
 30
0.0
  0
VERTEX
  5
286
  8
0
 10
12.403439064542511
 20
-2.382067578835847
 30
0.0
  0
VERTEX
  5
287
  8
0
 10
12.36411604419348
 20
-2.4017290890103662
 30
0.0
  0
SEQEND
  5
288
  8
0
  0
LINE
  5
179
  8
0
 10
12.36411604419348
 20
-2.4017290890103662
 30
0.0
 11
11.616222445631999
 21
-2.4017290890103662
 31
0.0
  0
LINE
  5
17A
  8
0
 10
11.57689942528296
 20
-2.3427445584868121
 30
0.0
 11
12.403439064542511
 21
-2.3427445584868121
 31
0.0
  0
LINE
  5
17B
  8
0
 10
12.423100574717029
 20
-2.3034215381377749
 30
0.0
 11
11.557237915108439
 21
-2.3034215381377749
 31
0.0
  0
LINE
  5
17C
  8
0
 10
11.47859187441037
 20
-2.2444370076142208
 30
0.0
 11
12.50174661541511
 21
-2.2444370076142208
 31
0.0
  0
LINE
  5
17D
  8
0
 10
12.61971567646221
 20
-2.1854524770906671
 30
0.0
 11
11.380284323537779
 21
-2.1854524770906671
 31
0.0
  0
LINE
  5
17E
  8
0
 10
11.439268854061339
 20
-2.205113987265185
 30
0.0
 11
12.54106963576414
 21
-2.205113987265185
 31
0.0
  0
LINE
  5
17F
  8
0
 10
12.54106963576414
 20
-2.0274041837647321
 30
0.0
 11
11.439268854061339
 21
-2.0274041837647321
 31
0.0
  0
LINE
  5
180
  8
0
 10
12.61971567646221
 20
-2.04706569393925
 30
0.0
 11
11.380284323537779
 21
-2.04706569393925
 31
0.0
  0
LINE
  5
181
  8
0
 10
12.50174661541511
 20
-1.988081163415697
 30
0.0
 11
11.47859187441037
 21
-1.988081163415697
 31
0.0
  0
LINE
  5
182
  8
0
 10
12.50174661541511
 20
-1.9487581430666601
 30
0.0
 11
11.47859187441037
 21
-1.9487581430666601
 31
0.0
  0
LINE
  5
183
  8
0
 10
12.403439064542511
 20
-1.397479646250364
 30
0.0
 11
11.596560935457481
 21
-1.397479646250364
 31
0.0
  0
LINE
  5
184
  8
0
 10
12.44276208489155
 20
-1.4171411564248819
 30
0.0
 11
11.53757640493393
 21
-1.4171411564248819
 31
0.0
  0
LINE
  5
185
  8
0
 10
12.44276208489155
 20
-1.5751894497508161
 30
0.0
 11
11.53757640493393
 21
-1.5751894497508161
 31
0.0
  0
LINE
  5
186
  8
0
 10
12.403439064542511
 20
-1.594850959925334
 30
0.0
 11
11.596560935457481
 21
-1.594850959925334
 31
0.0
  0
LINE
  5
187
  8
0
 10
12.876071520660741
 20
-0.2555996322687353
 30
0.0
 11
11.105023181094531
 21
-0.2555996322687353
 31
0.0
  0
LINE
  5
188
  8
0
 10
12.974379071533329
 20
-0.1769535915706619
 30
0.0
 11
11.00671563022194
 21
-0.1769535915706619
 31
0.0
  0
LINE
  5
189
  8
0
 10
13.1875
 20
-0.0589845305235546
 30
0.0
 11
10.8125
 21
-0.0589845305235546
 31
0.0
  0
LINE
  5
18A
  8
0
 10
10.888746569174829
 20
-0.0983075508725904
 30
0.0
 11
13.09234813258044
 21
-0.0983075508725904
 31
0.0
  0
POLYLINE
  5
18B
  8
0
 66
     1
 10
0.0
 20
0.0
 30
0.0
  0
VERTEX
  5
289
  8
0
 10
11.616222445631999
 20
-2.4017290890103662
 30
0.0
  0
VERTEX
  5
28A
  8
0
 10
11.63588395580652
 20
-2.5000366398829561
 30
0.0
 42
-0.1097722286465227
  0
VERTEX
  5
28B
  8
0
 10
11.71452999650459
 20
-2.6573287212791281
 30
0.0
 42
-0.3384094772793161
  0
VERTEX
  5
28C
  8
0
 10
11.63588395580652
 20
-2.7563924840814811
 30
0.0
 42
0.0097818868587106
  0
VERTEX
  5
28D
  8
0
 10
11.53757640493393
 20
-2.7563924840814811
 30
0.0
 42
-0.1446183720083601
  0
VERTEX
  5
28E
  8
0
 10
11.458930364235851
 20
-2.7170694637324431
 30
0.0
 42
0.5000000000000257
  0
VERTEX
  5
28F
  8
0
 10
11.380284323537779
 20
-2.717069463732444
 30
0.0
  0
SEQEND
  5
290
  8
0
  0
LINE
  5
18C
  8
0
 10
11.63588395580652
 20
-2.5000366398829552
 30
0.0
 11
11.63588395580652
 21
-2.5000366398829552
 31
0.0
  0
POLYLINE
  5
18D
  8
0
 66
     1
 10
0.0
 20
0.0
 30
0.0
  0
VERTEX
  5
291
  8
0
 10
12.36411604419348
 20
-2.4017290890103662
 30
0.0
 42
-0.1732137494637144
  0
VERTEX
  5
292
  8
0
 10
12.28547000349541
 20
-2.59834419075553
 30
0.0
 42
0.1067642322009261
  0
VERTEX
  5
293
  8
0
 10
12.22648547297184
 20
-2.8153770146050712
 30
0.0
 42
-0.13148943684483
  0
VERTEX
  5
294
  8
0
 10
12.0691933915757
 20
-3.1102996672228058
 30
0.0
 42
-0.0287149942797247
  0
VERTEX
  5
295
  8
0
 10
11.77351452702815
 20
-3.2675917486189499
 30
0.0
 42
-0.0191990665015152
  0
VERTEX
  5
296
  8
0
 10
11.47859187441037
 20
-3.346994001246812
 30
0.0
  0
VERTEX
  5
297
  8
0
 10
11.458930364235851
 20
-3.3666555114213308
 30
0.0
  0
VERTEX
  5
298
  8
0
 10
11.439268854061339
 20
-3.38631702159585
 30
0.0
  0
VERTEX
  5
299
  8
0
 10
11.3999458337123
 20
-3.3666555114213308
 30
0.0
  0
VERTEX
  5
29A
  8
0
 10
11.380284323537779
 20
-3.3666555114213308
 30
0.0
  0
VERTEX
  5
29B
  8
0
 10
11.380284323537779
 20
-3.3666555114213308
 30
0.0
  0
SEQEND
  5
29C
  8
0
  0
POLYLINE
  5
18E
  8
0
 66
     1
 10
0.0
 20
0.0
 30
0.0
  0
VERTEX
  5
29D
  8
0
 10
11.478591874410339
 20
-3.3469940012468209
 30
0.0
  0
VERTEX
  5
29E
  8
0
 10
11.47859187441037
 20
-2.7367309739069632
 30
0.0
  0
SEQEND
  5
29F
  8
0
  0
ENDSEC
  0
EOF
