  0
SECTION
  2
HEADER
  9
$ACADVER
  1
AC1009
  9
$INSBASE
 10
0.0
 20
0.0
 30
0.0
  9
$EXTMIN
 10
-5.3511310425320824
 20
-2.3420849552336791
 30
0.0
  9
$EXTMAX
 10
0.0106666666666667
 20
1.1875
 30
0.0
  9
$LIMMIN
 10
0.0
 20
0.0
  9
$LIMMAX
 10
12.0
 20
9.0
  9
$ORTHOMODE
 70
     0
  9
$REGENMODE
 70
     1
  9
$FILLMODE
 70
     1
  9
$QTEXTMODE
 70
     0
  9
$MIRRTEXT
 70
     1
  9
$DRAGMODE
 70
     2
  9
$LTSCALE
 40
1.0
  9
$OSMODE
 70
    37
  9
$ATTMODE
 70
     1
  9
$TEXTSIZE
 40
0.001
  9
$TRACEWID
 40
0.05
  9
$TEXTSTYLE
  7
STANDARD
  9
$CLAYER
  8
0
  9
$CELTYPE
  6
BYLAYER
  9
$CECOLOR
 62
   256
  9
$DIMSCALE
 40
1.0
  9
$DIMASZ
 40
0.18
  9
$DIMEXO
 40
0.0625
  9
$DIMDLI
 40
0.38
  9
$DIMRND
 40
0.0
  9
$DIMDLE
 40
0.0
  9
$DIMEXE
 40
0.18
  9
$DIMTP
 40
0.0
  9
$DIMTM
 40
0.0
  9
$DIMTXT
 40
0.18
  9
$DIMCEN
 40
0.09
  9
$DIMTSZ
 40
0.0
  9
$DIMTOL
 70
     0
  9
$DIMLIM
 70
     0
  9
$DIMTIH
 70
     1
  9
$DIMTOH
 70
     1
  9
$DIMSE1
 70
     0
  9
$DIMSE2
 70
     0
  9
$DIMTAD
 70
     0
  9
$DIMZIN
 70
     0
  9
$DIMBLK
  1

  9
$DIMASO
 70
     1
  9
$DIMSHO
 70
     1
  9
$DIMPOST
  1

  9
$DIMAPOST
  1

  9
$DIMALT
 70
     0
  9
$DIMALTD
 70
     2
  9
$DIMALTF
 40
25.399999999999999
  9
$DIMLFAC
 40
1.0
  9
$DIMTOFL
 70
     0
  9
$DIMTVP
 40
0.0
  9
$DIMTIX
 70
     0
  9
$DIMSOXD
 70
     0
  9
$DIMSAH
 70
     0
  9
$DIMBLK1
  1

  9
$DIMBLK2
  1

  9
$DIMSTYLE
  2
STANDARD
  9
$DIMCLRD
 70
     0
  9
$DIMCLRE
 70
     0
  9
$DIMCLRT
 70
     0
  9
$DIMTFAC
 40
1.0
  9
$DIMGAP
 40
0.09
  9
$LUNITS
 70
     2
  9
$LUPREC
 70
     4
  9
$SKETCHINC
 40
0.1
  9
$FILLETRAD
 40
0.0
  9
$AUNITS
 70
     0
  9
$AUPREC
 70
     0
  9
$MENU
  1
.
  9
$ELEVATION
 40
0.0
  9
$PELEVATION
 40
0.0
  9
$THICKNESS
 40
0.0
  9
$LIMCHECK
 70
     0
  9
$BLIPMODE
 70
     0
  9
$CHAMFERA
 40
0.5
  9
$CHAMFERB
 40
0.5
  9
$SKPOLY
 70
     0
  9
$TDCREATE
 40
2451380.555432396
  9
$TDUPDATE
 40
2456700.498382628
  9
$TDINDWG
 40
0.1382483796
  9
$TDUSRTIMER
 40
0.1382393403
  9
$USRTIMER
 70
     1
  9
$ANGBASE
 50
0.0
  9
$ANGDIR
 70
     0
  9
$PDMODE
 70
     0
  9
$PDSIZE
 40
0.0
  9
$PLINEWID
 40
0.0
  9
$COORDS
 70
     1
  9
$SPLFRAME
 70
     0
  9
$SPLINETYPE
 70
     6
  9
$SPLINESEGS
 70
     8
  9
$ATTDIA
 70
     0
  9
$ATTREQ
 70
     1
  9
$HANDLING
 70
     1
  9
$HANDSEED
  5
1C4
  9
$SURFTAB1
 70
     6
  9
$SURFTAB2
 70
     6
  9
$SURFTYPE
 70
     6
  9
$SURFU
 70
     6
  9
$SURFV
 70
     6
  9
$UCSNAME
  2

  9
$UCSORG
 10
0.0
 20
0.0
 30
0.0
  9
$UCSXDIR
 10
1.0
 20
0.0
 30
0.0
  9
$UCSYDIR
 10
0.0
 20
1.0
 30
0.0
  9
$PUCSNAME
  2

  9
$PUCSORG
 10
0.0
 20
0.0
 30
0.0
  9
$PUCSXDIR
 10
1.0
 20
0.0
 30
0.0
  9
$PUCSYDIR
 10
0.0
 20
1.0
 30
0.0
  9
$USERI1
 70
     0
  9
$USERI2
 70
     0
  9
$USERI3
 70
     0
  9
$USERI4
 70
     0
  9
$USERI5
 70
     0
  9
$USERR1
 40
0.0
  9
$USERR2
 40
0.0
  9
$USERR3
 40
0.0
  9
$USERR4
 40
0.0
  9
$USERR5
 40
0.0
  9
$WORLDVIEW
 70
     1
  9
$SHADEDGE
 70
     3
  9
$SHADEDIF
 70
    70
  9
$TILEMODE
 70
     1
  9
$MAXACTVP
 70
    64
  9
$PLIMCHECK
 70
     0
  9
$PEXTMIN
 10
1.0000000000000000E+020
 20
1.0000000000000000E+020
 30
1.0000000000000000E+020
  9
$PEXTMAX
 10
-1.0000000000000000E+020
 20
-1.0000000000000000E+020
 30
-1.0000000000000000E+020
  9
$PLIMMIN
 10
0.0
 20
0.0
  9
$PLIMMAX
 10
12.0
 20
9.0
  9
$UNITMODE
 70
     0
  9
$VISRETAIN
 70
     1
  9
$PLINEGEN
 70
     0
  9
$PSLTSCALE
 70
     1
  0
ENDSEC
  0
SECTION
  2
TABLES
  0
TABLE
  2
VPORT
 70
     1
  0
VPORT
  2
*ACTIVE
 70
     0
 10
0.0
 20
0.0
 11
1.0
 21
1.0
 12
-2.6723460926156819
 22
0.1004429588366285
 13
0.0
 23
0.0
 14
0.5
 24
0.5
 15
0.5
 25
0.5
 16
0.0
 26
0.0
 36
1.0
 17
0.0
 27
0.0
 37
0.0
 40
4.9175107805784251
 41
1.1829652996845419
 42
50.0
 43
0.0
 44
0.0
 50
0.0
 51
0.0
 71
     0
 72
  5000
 73
     1
 74
     1
 75
     0
 76
     0
 77
     0
 78
     0
  0
ENDTAB
  0
TABLE
  2
LTYPE
 70
     2
  0
LTYPE
  2
CONTINUOUS
 70
     0
  3
Solid line
 72
    65
 73
     0
 40
0.0
  0
LTYPE
  2
PHANTOM2
 70
     0
  3
Phantom (.5x) ___ _ _ ___ _ _ ___ _ _ ___ _ _
 72
    65
 73
     6
 40
1.25
 49
0.625
 49
-0.125
 49
0.125
 49
-0.125
 49
0.125
 49
-0.125
  0
ENDTAB
  0
TABLE
  2
LAYER
 70
     2
  0
LAYER
  2
0
 70
     0
 62
     7
  6
CONTINUOUS
  0
LAYER
  2
DEFPOINTS
 70
     0
 62
     7
  6
CONTINUOUS
  0
ENDTAB
  0
TABLE
  2
STYLE
 70
     1
  0
STYLE
  2
STANDARD
 70
     0
 40
0.0
 41
1.0
 50
0.0
 71
     0
 42
0.001
  3
txt
  4

  0
ENDTAB
  0
TABLE
  2
VIEW
 70
     0
  0
ENDTAB
  0
TABLE
  2
UCS
 70
     0
  0
ENDTAB
  0
TABLE
  2
APPID
 70
     7
  0
APPID
  2
ACAD
 70
     0
  0
APPID
  2
ACAD_NAV_VCDISPLAY
 70
     0
  0
APPID
  2
ACAECLAYERSTANDARD
 70
     0
  0
APPID
  2
ACCMTRANSPARENCY
 70
     0
  0
APPID
  2
ACAD_EXEMPT_FROM_CAD_STANDARDS
 70
     0
  0
APPID
  2
AcDbAttr
 70
     0
  0
APPID
  2
ACAD_MLEADERVER
 70
     0
  0
ENDTAB
  0
TABLE
  2
DIMSTYLE
 70
     1
  0
DIMSTYLE
  2
STANDARD
 70
     0
  3

  4

  5

  6

  7

 40
1.0
 41
0.18
 42
0.0625
 43
0.38
 44
0.18
 45
0.0
 46
0.0
 47
0.0
 48
0.0
140
0.18
141
0.09
142
0.0
143
25.399999999999999
144
1.0
145
0.0
146
1.0
147
0.09
 71
     0
 72
     0
 73
     1
 74
     1
 75
     0
 76
     0
 77
     0
 78
     0
170
     0
171
     2
172
     0
173
     0
174
     0
175
     0
176
     0
177
     0
178
     0
  0
ENDTAB
  0
ENDSEC
  0
SECTION
  2
BLOCKS
  0
BLOCK
  8
0
  2
$MODEL_SPACE
 70
     2
 10
0.0
 20
0.0
 30
0.0
  3
$MODEL_SPACE
  1

  0
ENDBLK
  5
16
  8
0
  0
BLOCK
 67
     1
  8
0
  2
$PAPER_SPACE
 70
     0
 10
0.0
 20
0.0
 30
0.0
  3
$PAPER_SPACE
  1

  0
ENDBLK
  5
1D
 67
     1
  8
0
  0
ENDSEC
  0
SECTION
  2
ENTITIES
  0
ATTDEF
  5
86
  8
DEFPOINTS
 10
0.0
 20
-0.005
 30
0.0
 40
0.001
  1
METAL
  3

  2
MATERIAL
 70
     8
1001
AcDbAttr
1070
     0
1070
     1
  0
ATTDEF
  5
88
  8
DEFPOINTS
 10
0.0
 20
-0.0033333333333333
 30
0.0
 40
0.001
  1
DOUBLE TOWEL BAR
  3

  2
PRODUCT
 70
     8
1001
AcDbAttr
1070
     0
1070
     1
  0
ATTDEF
  5
89
  8
DEFPOINTS
 10
0.0
 20
-0.0016666666666667
 30
0.0
 40
0.001
  1
DEVONSHIRE
  3

  2
TRADENAME
 70
     8
1001
AcDbAttr
1070
     0
1070
     1
  0
ATTDEF
  5
8A
  8
DEFPOINTS
 10
0.0
 20
0.0
 30
0.0
 40
0.001
  1
K-10553
  3

  2
MODELNUMBER
 70
     8
1001
AcDbAttr
1070
     0
1070
     1
  0
POLYLINE
  5
E0
  8
0
 66
     1
 10
0.0
 20
0.0
 30
0.0
  0
VERTEX
  5
166
  8
0
 10
-2.4018091603992531
 20
-0.3727448903757538
 30
0.0
  0
VERTEX
  5
167
  8
0
 10
-2.3714286991147091
 20
-0.410720466981434
 30
0.0
  0
VERTEX
  5
168
  8
0
 10
-2.3714286991147091
 20
-0.410720466981434
 30
0.0
  0
VERTEX
  5
169
  8
0
 10
-2.33345312250903
 20
-0.410720466981434
 30
0.0
  0
VERTEX
  5
16A
  8
0
 10
-2.3030726612244861
 20
-0.4335058129448422
 30
0.0
  0
VERTEX
  5
16B
  8
0
 10
-2.3030726612244861
 20
-0.4790765048716585
 30
0.0
  0
VERTEX
  5
16C
  8
0
 10
-2.2726921999399412
 20
-0.5094569661562028
 30
0.0
  0
VERTEX
  5
16D
  8
0
 10
-2.2726921999399412
 20
-0.5094569661562028
 30
0.0
  0
VERTEX
  5
16E
  8
0
 10
-2.2347166233342608
 20
-0.5094569661562028
 30
0.0
  0
VERTEX
  5
16F
  8
0
 10
-2.2043361620497168
 20
-0.547432542761883
 30
0.0
  0
VERTEX
  5
170
  8
0
 10
-2.2043361620497168
 20
-0.547432542761883
 30
0.0
  0
VERTEX
  5
171
  8
0
 10
-2.2043361620497168
 20
-0.5854081193675631
 30
0.0
  0
VERTEX
  5
172
  8
0
 10
-2.173955700765172
 20
-0.6160807004721512
 30
0.0
  0
VERTEX
  5
173
  8
0
 10
-2.052141735806952
 20
-0.6160807004721512
 30
0.0
  0
VERTEX
  5
174
  8
0
 10
-2.0217612745224081
 20
-0.5854081193675631
 30
0.0
  0
VERTEX
  5
175
  8
0
 10
-2.0217612745224081
 20
-0.547432542761883
 30
0.0
  0
VERTEX
  5
176
  8
0
 10
-1.9913808132378641
 20
-0.5094569661562028
 30
0.0
  0
VERTEX
  5
177
  8
0
 10
-1.953405236632183
 20
-0.5094569661562028
 30
0.0
  0
VERTEX
  5
178
  8
0
 10
-1.923024775347639
 20
-0.4259106976237062
 30
0.0
  0
VERTEX
  5
179
  8
0
 10
-1.5961426967187451
 20
-0.395530236339162
 30
0.0
  0
VERTEX
  5
17A
  8
0
 10
-1.5961426967187451
 20
-0.41831558230257
 30
0.0
  0
VERTEX
  5
17B
  8
0
 10
-1.5733573507553369
 20
-0.4562911589082504
 30
0.0
  0
VERTEX
  5
17C
  8
0
 10
-1.4214550443326159
 20
-0.4562911589082504
 30
0.0
  0
VERTEX
  5
17D
  8
0
 10
-1.3907824632280279
 20
-0.403125351660298
 30
0.0
  0
VERTEX
  5
17E
  8
0
 10
-0.9803541160666383
 20
-0.4411009282659782
 30
0.0
  0
VERTEX
  5
17F
  8
0
 10
-0.2658290362397624
 20
-0.8518213952474123
 30
0.0
  0
VERTEX
  5
180
  8
0
 10
-0.2430436902763535
 20
-0.8897969718530925
 30
0.0
  0
VERTEX
  5
181
  8
0
 10
-0.2430436902763535
 20
-0.9429627791010448
 30
0.0
  0
VERTEX
  5
182
  8
0
 10
-0.1670925370649936
 20
-0.9809383557067249
 30
0.0
  0
VERTEX
  5
183
  8
0
 10
-0.1670925370649936
 20
-1.057181628738129
 30
0.0
  0
VERTEX
  5
184
  8
0
 10
-0.0911413838536328
 20
-1.095157205343809
 30
0.0
  0
VERTEX
  5
185
  8
0
 10
-0.0911413838536328
 20
-1.1647146540365909
 30
0.0
  0
VERTEX
  5
186
  8
0
 10
-0.0911413838536328
 20
-1.1647146540365909
 30
0.0
  0
VERTEX
  5
187
  8
0
 10
-0.0683560378902248
 20
-1.1875
 30
0.0
  0
VERTEX
  5
188
  8
0
 10
0.0
 20
-1.1875
 30
0.0
  0
VERTEX
  5
189
  8
0
 10
0.0
 20
0.0
 30
0.0
  0
VERTEX
  5
18A
  8
0
 10
0.0
 20
1.1875
 30
0.0
  0
VERTEX
  5
18B
  8
0
 10
-0.0683560378902248
 20
1.1875
 30
0.0
  0
VERTEX
  5
18C
  8
0
 10
-0.0911413838536328
 20
1.1647146540365909
 30
0.0
  0
VERTEX
  5
18D
  8
0
 10
-0.0911413838536328
 20
1.1647146540365909
 30
0.0
  0
VERTEX
  5
18E
  8
0
 10
-0.0911413838536328
 20
1.095157205343809
 30
0.0
  0
VERTEX
  5
18F
  8
0
 10
-0.1670925370649936
 20
1.057181628738129
 30
0.0
  0
VERTEX
  5
190
  8
0
 10
-0.1670925370649936
 20
0.9809383557067249
 30
0.0
  0
VERTEX
  5
191
  8
0
 10
-0.2430436902763535
 20
0.942962779101045
 30
0.0
  0
VERTEX
  5
192
  8
0
 10
-0.2430436902763535
 20
0.8897969718530923
 30
0.0
  0
VERTEX
  5
193
  8
0
 10
-0.2658290362397624
 20
0.8518213952474123
 30
0.0
  0
VERTEX
  5
194
  8
0
 10
-0.9803541160666383
 20
0.4411009282659779
 30
0.0
  0
VERTEX
  5
195
  8
0
 10
-1.3907824632280279
 20
0.403125351660298
 30
0.0
  0
VERTEX
  5
196
  8
0
 10
-1.4214550443326159
 20
0.4562911589082504
 30
0.0
  0
VERTEX
  5
197
  8
0
 10
-1.5733573507553369
 20
0.4562911589082504
 30
0.0
  0
VERTEX
  5
198
  8
0
 10
-1.5961426967187451
 20
0.41831558230257
 30
0.0
  0
VERTEX
  5
199
  8
0
 10
-1.5961426967187451
 20
0.395530236339162
 30
0.0
  0
VERTEX
  5
19A
  8
0
 10
-1.923024775347639
 20
0.425910697623706
 30
0.0
  0
VERTEX
  5
19B
  8
0
 10
-1.953405236632183
 20
0.5094569661562028
 30
0.0
  0
VERTEX
  5
19C
  8
0
 10
-1.9913808132378641
 20
0.5094569661562028
 30
0.0
  0
VERTEX
  5
19D
  8
0
 10
-2.0217612745224081
 20
0.5474325427618827
 30
0.0
  0
VERTEX
  5
19E
  8
0
 10
-2.0217612745224081
 20
0.5854081193675631
 30
0.0
  0
VERTEX
  5
19F
  8
0
 10
-2.052141735806952
 20
0.6160807004721512
 30
0.0
  0
VERTEX
  5
1A0
  8
0
 10
-2.173955700765172
 20
0.6160807004721512
 30
0.0
  0
VERTEX
  5
1A1
  8
0
 10
-2.2043361620497168
 20
0.5854081193675631
 30
0.0
  0
VERTEX
  5
1A2
  8
0
 10
-2.2043361620497168
 20
0.5474325427618827
 30
0.0
  0
VERTEX
  5
1A3
  8
0
 10
-2.2043361620497168
 20
0.5474325427618827
 30
0.0
  0
VERTEX
  5
1A4
  8
0
 10
-2.2347166233342608
 20
0.5094569661562028
 30
0.0
  0
VERTEX
  5
1A5
  8
0
 10
-2.2726921999399412
 20
0.5094569661562028
 30
0.0
  0
VERTEX
  5
1A6
  8
0
 10
-2.2726921999399412
 20
0.5094569661562028
 30
0.0
  0
VERTEX
  5
1A7
  8
0
 10
-2.3030726612244861
 20
0.4790765048716588
 30
0.0
  0
VERTEX
  5
1A8
  8
0
 10
-2.3030726612244861
 20
0.433505812944842
 30
0.0
  0
VERTEX
  5
1A9
  8
0
 10
-2.33345312250903
 20
0.410720466981434
 30
0.0
  0
VERTEX
  5
1AA
  8
0
 10
-2.3714286991147091
 20
0.410720466981434
 30
0.0
  0
VERTEX
  5
1AB
  8
0
 10
-2.3714286991147091
 20
0.410720466981434
 30
0.0
  0
VERTEX
  5
1AC
  8
0
 10
-2.4018091603992531
 20
0.372744890375754
 30
0.0
  0
SEQEND
  5
1AD
  8
0
  0
POLYLINE
  5
E2
  8
0
 66
     1
 10
0.0
 20
0.0
 30
0.0
  0
VERTEX
  5
1AE
  8
0
 10
-2.4018091603992531
 20
0.372744890375754
 30
0.0
 42
0.1229724175947621
  0
VERTEX
  5
1AF
  8
0
 10
-2.5919791632477001
 20
0.2965016173443491
 30
0.0
  0
VERTEX
  5
1B0
  8
0
 10
-2.6679303164590591
 20
0.2661211560598056
 30
0.0
  0
VERTEX
  5
1B1
  8
0
 10
-2.7514765849915559
 20
0.2661211560598056
 30
0.0
  0
VERTEX
  5
1B2
  8
0
 10
-2.8350228535240518
 20
0.2661211560598056
 30
0.0
  0
VERTEX
  5
1B3
  8
0
 10
-2.9112661265554571
 20
0.2661211560598056
 30
0.0
  0
VERTEX
  5
1B4
  8
0
 10
-2.9644319338034091
 20
0.2661211560598056
 30
0.0
  0
VERTEX
  5
1B5
  8
0
 10
-3.002407510409089
 20
0.2737162713809416
 30
0.0
  0
VERTEX
  5
1B6
  8
0
 10
-3.025192856372497
 20
0.2813113867020776
 30
0.0
  0
VERTEX
  5
1B7
  8
0
 10
-3.032787971693633
 20
0.2889065020232136
 30
0.0
  0
SEQEND
  5
1B8
  8
0
  0
ARC
  5
E3
  8
0
 10
-3.0401559520052479
 20
-0.0001460599100218
 30
0.0
 40
0.3347043608287184
 50
52.705303433302902
 51
307.37714849475083
  0
POLYLINE
  5
E4
  8
0
 66
     1
 10
0.0
 20
0.0
 30
0.0
  0
VERTEX
  5
1B9
  8
0
 10
-2.4018091603992531
 20
-0.3727448903757533
 30
0.0
 42
-0.1229724175947621
  0
VERTEX
  5
1BA
  8
0
 10
-2.5919791632477001
 20
-0.2965016173443487
 30
0.0
  0
VERTEX
  5
1BB
  8
0
 10
-2.6679303164590591
 20
-0.2661211560598047
 30
0.0
  0
VERTEX
  5
1BC
  8
0
 10
-2.7514765849915559
 20
-0.2661211560598047
 30
0.0
  0
VERTEX
  5
1BD
  8
0
 10
-2.8350228535240518
 20
-0.2661211560598047
 30
0.0
  0
VERTEX
  5
1BE
  8
0
 10
-2.9112661265554571
 20
-0.2661211560598047
 30
0.0
  0
VERTEX
  5
1BF
  8
0
 10
-2.9644319338034091
 20
-0.2661211560598047
 30
0.0
  0
VERTEX
  5
1C0
  8
0
 10
-3.002407510409089
 20
-0.2737162713809407
 30
0.0
  0
VERTEX
  5
1C1
  8
0
 10
-3.025192856372497
 20
-0.2813113867020767
 30
0.0
  0
VERTEX
  5
1C2
  8
0
 10
-3.032787971693633
 20
-0.2889065020232131
 30
0.0
  0
SEQEND
  5
1C3
  8
0
  0
CIRCLE
  5
E5
  8
0
 10
-4.9710029776835443
 20
-1.961956890385141
 30
0.0
 40
0.380128064848538
  0
CIRCLE
  5
E6
  8
0
 10
-4.9710029776835443
 20
-1.961956890385141
 30
0.0
 40
0.3041969311874429
  0
ARC
  5
E7
  8
0
 10
-4.9749484697802773
 20
-0.0401607790745269
 30
0.0
 40
1.775327023788474
 50
281.01476851747611
 51
352.43570937125281
  0
ARC
  5
E8
  8
0
 10
-4.9749484697802773
 20
-0.0401607790745269
 30
0.0
 40
2.075327023788474
 50
280.1069696133377
 51
352.43570937125281
  0
LINE
  5
E9
  8
0
 10
-0.0911413838536328
 20
1.095157205343809
 30
0.0
 11
-0.0911413838536328
 21
-1.095157205343809
 31
0.0
  0
LINE
  5
EA
  8
0
 10
-0.1670925370649936
 20
-0.9809383557067254
 30
0.0
 11
-0.1670925370649936
 21
0.9809383557067249
 31
0.0
  0
LINE
  5
EB
  8
0
 10
-0.2430436902763535
 20
0.8897969718530923
 30
0.0
 11
-0.2430436902763535
 21
-0.8897969718530925
 31
0.0
  0
LINE
  5
EC
  8
0
 10
-1.3907824632280279
 20
0.403125351660298
 30
0.0
 11
-1.3907824632280279
 21
-0.4031253516602984
 31
0.0
  0
LINE
  5
ED
  8
0
 10
-1.4214550443326159
 20
0.4562911589082504
 30
0.0
 11
-1.4214550443326159
 21
-0.4562911589082504
 31
0.0
  0
LINE
  5
EE
  8
0
 10
-1.5733573507553369
 20
0.4562911589082504
 30
0.0
 11
-1.5733573507553369
 21
-0.4562911589082504
 31
0.0
  0
LINE
  5
EF
  8
0
 10
-1.5961426967187451
 20
0.395530236339162
 30
0.0
 11
-1.5961426967187451
 21
-0.395530236339162
 31
0.0
  0
LINE
  5
F0
  8
0
 10
-2.052141735806952
 20
0.6160807004721512
 30
0.0
 11
-2.052141735806952
 21
-0.6160807004721512
 31
0.0
  0
LINE
  5
F1
  8
0
 10
-2.173955700765172
 20
0.6160807004721512
 30
0.0
 11
-2.173955700765172
 21
-0.6160807004721512
 31
0.0
  0
LINE
  5
F2
  8
0
 10
-2.0217612745224081
 20
0.5474325427618827
 30
0.0
 11
-2.0217612745224081
 21
-0.547432542761883
 31
0.0
  0
LINE
  5
F3
  8
0
 10
-1.923024775347639
 20
-0.4259106976237062
 30
0.0
 11
-1.923024775347639
 21
0.425910697623706
 31
0.0
  0
LINE
  5
F4
  8
0
 10
-1.9913808132378641
 20
0.5094569661562028
 30
0.0
 11
-1.9913808132378641
 21
-0.5094569661562028
 31
0.0
  0
LINE
  5
F5
  8
0
 10
-2.2043361620497168
 20
0.5474325427618827
 30
0.0
 11
-2.2043361620497168
 21
-0.547432542761883
 31
0.0
  0
LINE
  5
F6
  8
0
 10
-2.3030726612244861
 20
0.433505812944842
 30
0.0
 11
-2.3030726612244861
 21
-0.4335058129448422
 31
0.0
  0
LINE
  5
F7
  8
0
 10
-2.2347166233342608
 20
0.5094569661562028
 30
0.0
 11
-2.2347166233342608
 21
-0.5094569661562028
 31
0.0
  0
LINE
  5
F8
  8
0
 10
-2.4018091603992531
 20
0.372744890375754
 30
0.0
 11
-2.4018091603992531
 21
-0.3727448903757533
 31
0.0
  0
ENDSEC
  0
EOF
