  0
SECTION
  2
HEADER
  9
$ACADVER
  1
AC1009
  9
$INSBASE
 10
0.0
 20
0.0
 30
0.0
  9
$EXTMIN
 10
-1.1875
 20
-1.1875
 30
0.0
  9
$EXTMAX
 10
1.1875
 20
2.0625
 30
0.0
  9
$LIMMIN
 10
0.0
 20
0.0
  9
$LIMMAX
 10
12.0
 20
9.0
  9
$ORTHOMODE
 70
     0
  9
$REGENMODE
 70
     1
  9
$FILLMODE
 70
     1
  9
$QTEXTMODE
 70
     0
  9
$MIRRTEXT
 70
     1
  9
$DRAGMODE
 70
     2
  9
$LTSCALE
 40
1.0
  9
$OSMODE
 70
    37
  9
$ATTMODE
 70
     1
  9
$TEXTSIZE
 40
6.0
  9
$TRACEWID
 40
0.05
  9
$TEXTSTYLE
  7
STANDARD
  9
$CLAYER
  8
0
  9
$CELTYPE
  6
BYLAYER
  9
$CECOLOR
 62
   256
  9
$DIMSCALE
 40
1.0
  9
$DIMASZ
 40
0.18
  9
$DIMEXO
 40
0.0625
  9
$DIMDLI
 40
0.38
  9
$DIMRND
 40
0.0
  9
$DIMDLE
 40
0.0
  9
$DIMEXE
 40
0.18
  9
$DIMTP
 40
0.0
  9
$DIMTM
 40
0.0
  9
$DIMTXT
 40
0.18
  9
$DIMCEN
 40
0.09
  9
$DIMTSZ
 40
0.0
  9
$DIMTOL
 70
     0
  9
$DIMLIM
 70
     0
  9
$DIMTIH
 70
     1
  9
$DIMTOH
 70
     1
  9
$DIMSE1
 70
     0
  9
$DIMSE2
 70
     0
  9
$DIMTAD
 70
     0
  9
$DIMZIN
 70
     0
  9
$DIMBLK
  1

  9
$DIMASO
 70
     1
  9
$DIMSHO
 70
     1
  9
$DIMPOST
  1

  9
$DIMAPOST
  1

  9
$DIMALT
 70
     0
  9
$DIMALTD
 70
     2
  9
$DIMALTF
 40
25.399999999999999
  9
$DIMLFAC
 40
1.0
  9
$DIMTOFL
 70
     0
  9
$DIMTVP
 40
0.0
  9
$DIMTIX
 70
     0
  9
$DIMSOXD
 70
     0
  9
$DIMSAH
 70
     0
  9
$DIMBLK1
  1

  9
$DIMBLK2
  1

  9
$DIMSTYLE
  2
STANDARD
  9
$DIMCLRD
 70
     0
  9
$DIMCLRE
 70
     0
  9
$DIMCLRT
 70
     0
  9
$DIMTFAC
 40
1.0
  9
$DIMGAP
 40
0.09
  9
$LUNITS
 70
     2
  9
$LUPREC
 70
     4
  9
$SKETCHINC
 40
0.1
  9
$FILLETRAD
 40
0.075
  9
$AUNITS
 70
     0
  9
$AUPREC
 70
     3
  9
$MENU
  1
.
  9
$ELEVATION
 40
0.0
  9
$PELEVATION
 40
0.0
  9
$THICKNESS
 40
0.0
  9
$LIMCHECK
 70
     0
  9
$BLIPMODE
 70
     0
  9
$CHAMFERA
 40
0.5
  9
$CHAMFERB
 40
0.5
  9
$SKPOLY
 70
     0
  9
$TDCREATE
 40
2451380.555432396
  9
$TDUPDATE
 40
2456700.4981468408
  9
$TDINDWG
 40
6.9149489815000003
  9
$TDUSRTIMER
 40
6.9149399421000002
  9
$USRTIMER
 70
     1
  9
$ANGBASE
 50
0.0
  9
$ANGDIR
 70
     0
  9
$PDMODE
 70
     0
  9
$PDSIZE
 40
0.0
  9
$PLINEWID
 40
0.0
  9
$COORDS
 70
     1
  9
$SPLFRAME
 70
     0
  9
$SPLINETYPE
 70
     6
  9
$SPLINESEGS
 70
     8
  9
$ATTDIA
 70
     0
  9
$ATTREQ
 70
     1
  9
$HANDLING
 70
     1
  9
$HANDSEED
  5
12A
  9
$SURFTAB1
 70
     6
  9
$SURFTAB2
 70
     6
  9
$SURFTYPE
 70
     6
  9
$SURFU
 70
     6
  9
$SURFV
 70
     6
  9
$UCSNAME
  2

  9
$UCSORG
 10
0.0
 20
0.0
 30
0.0
  9
$UCSXDIR
 10
1.0
 20
0.0
 30
0.0
  9
$UCSYDIR
 10
0.0
 20
1.0
 30
0.0
  9
$PUCSNAME
  2

  9
$PUCSORG
 10
0.0
 20
0.0
 30
0.0
  9
$PUCSXDIR
 10
1.0
 20
0.0
 30
0.0
  9
$PUCSYDIR
 10
0.0
 20
1.0
 30
0.0
  9
$USERI1
 70
     0
  9
$USERI2
 70
     0
  9
$USERI3
 70
     0
  9
$USERI4
 70
     0
  9
$USERI5
 70
     0
  9
$USERR1
 40
0.0
  9
$USERR2
 40
0.0
  9
$USERR3
 40
0.0
  9
$USERR4
 40
0.0
  9
$USERR5
 40
0.0
  9
$WORLDVIEW
 70
     1
  9
$SHADEDGE
 70
     3
  9
$SHADEDIF
 70
    70
  9
$TILEMODE
 70
     1
  9
$MAXACTVP
 70
    64
  9
$PLIMCHECK
 70
     0
  9
$PEXTMIN
 10
1.0000000000000000E+020
 20
1.0000000000000000E+020
 30
1.0000000000000000E+020
  9
$PEXTMAX
 10
-1.0000000000000000E+020
 20
-1.0000000000000000E+020
 30
-1.0000000000000000E+020
  9
$PLIMMIN
 10
0.0
 20
0.0
  9
$PLIMMAX
 10
12.0
 20
9.0
  9
$UNITMODE
 70
     0
  9
$VISRETAIN
 70
     1
  9
$PLINEGEN
 70
     0
  9
$PSLTSCALE
 70
     1
  0
ENDSEC
  0
SECTION
  2
TABLES
  0
TABLE
  2
VPORT
 70
     1
  0
VPORT
  2
*ACTIVE
 70
     0
 10
0.0
 20
0.0
 11
1.0
 21
1.0
 12
-0.9527953444405704
 22
2.98271905616591
 13
0.0
 23
0.0
 14
0.5
 24
0.5
 15
0.5
 25
0.5
 16
0.0
 26
0.0
 36
1.0
 17
0.0
 27
0.0
 37
0.0
 40
19.83115542956503
 41
1.1829652996845419
 42
50.0
 43
0.0
 44
0.0
 50
0.0
 51
0.0
 71
     0
 72
  6500
 73
     1
 74
     1
 75
     0
 76
     0
 77
     0
 78
     0
  0
ENDTAB
  0
TABLE
  2
LTYPE
 70
     2
  0
LTYPE
  2
CONTINUOUS
 70
     0
  3
Solid line
 72
    65
 73
     0
 40
0.0
  0
LTYPE
  2
PHANTOM2
 70
     0
  3
Phantom (.5x) ___ _ _ ___ _ _ ___ _ _ ___ _ _
 72
    65
 73
     6
 40
1.25
 49
0.625
 49
-0.125
 49
0.125
 49
-0.125
 49
0.125
 49
-0.125
  0
ENDTAB
  0
TABLE
  2
LAYER
 70
     2
  0
LAYER
  2
0
 70
     0
 62
     7
  6
CONTINUOUS
  0
LAYER
  2
DEFPOINTS
 70
     0
 62
     7
  6
CONTINUOUS
  0
ENDTAB
  0
TABLE
  2
STYLE
 70
     1
  0
STYLE
  2
STANDARD
 70
     0
 40
0.0
 41
1.0
 50
0.0
 71
     0
 42
6.0
  3
txt
  4

  0
ENDTAB
  0
TABLE
  2
VIEW
 70
     0
  0
ENDTAB
  0
TABLE
  2
UCS
 70
     0
  0
ENDTAB
  0
TABLE
  2
APPID
 70
     5
  0
APPID
  2
ACAD
 70
     0
  0
APPID
  2
ACAD_PSEXT
 70
     0
  0
APPID
  2
ACAD_NAV_VCDISPLAY
 70
     0
  0
APPID
  2
AcDbAttr
 70
     0
  0
APPID
  2
ACAD_MLEADERVER
 70
     0
  0
ENDTAB
  0
TABLE
  2
DIMSTYLE
 70
     1
  0
DIMSTYLE
  2
STANDARD
 70
     0
  3

  4

  5

  6

  7

 40
1.0
 41
0.18
 42
0.0625
 43
0.38
 44
0.18
 45
0.0
 46
0.0
 47
0.0
 48
0.0
140
0.18
141
0.09
142
0.0
143
25.399999999999999
144
1.0
145
0.0
146
1.0
147
0.09
 71
     0
 72
     0
 73
     1
 74
     1
 75
     0
 76
     0
 77
     0
 78
     0
170
     0
171
     2
172
     0
173
     0
174
     0
175
     0
176
     0
177
     0
178
     0
  0
ENDTAB
  0
ENDSEC
  0
SECTION
  2
BLOCKS
  0
BLOCK
  8
0
  2
$MODEL_SPACE
 70
     2
 10
0.0
 20
0.0
 30
0.0
  3
$MODEL_SPACE
  1

  0
ENDBLK
  5
16
  8
0
  0
BLOCK
 67
     1
  8
0
  2
$PAPER_SPACE
 70
     0
 10
0.0
 20
0.0
 30
0.0
  3
$PAPER_SPACE
  1

  0
ENDBLK
  5
1E
 67
     1
  8
0
  0
ENDSEC
  0
SECTION
  2
ENTITIES
  0
ARC
  5
72
  8
0
 10
0.0
 20
0.0
 30
0.0
 40
1.1875
 50
107.63800756418119
 51
72.361992435817513
  0
ARC
  5
73
  8
0
 10
-0.4839158115004523
 20
2.032499999999998
 30
0.0
 40
0.03
 50
90.0
 51
180.0
  0
LINE
  5
74
  8
0
 10
-0.6160369639288561
 20
1.922402569780139
 30
0.0
 11
-0.6160369639288561
 21
1.8444
 31
0.0
  0
ARC
  5
75
  8
0
 10
-0.584136963928856
 20
1.922402569780139
 30
0.0
 40
0.0319
 50
90.0
 51
180.0
  0
LINE
  5
76
  8
0
 10
-0.5841624145514431
 20
1.8125
 30
0.0
 11
-0.5457903608778665
 21
1.8125
 31
0.0
  0
LINE
  5
77
  8
0
 10
-0.4309193886984986
 20
1.7135663025093351
 30
0.0
 11
-0.3208132660583942
 21
0.8125
 31
0.0
  0
LINE
  5
78
  8
0
 10
-0.3208132660583942
 20
0.8125
 30
0.0
 11
-0.3431254506225869
 21
0.8125
 31
0.0
  0
LINE
  5
79
  8
0
 10
-0.3431254506225869
 20
0.8125
 30
0.0
 11
-0.375
 21
0.7870003604980697
 31
0.0
  0
LINE
  5
7A
  8
0
 10
-0.375
 20
0.7870003604980697
 30
0.0
 11
-0.375
 21
0.7129996395019305
 31
0.0
  0
LINE
  5
7B
  8
0
 10
-0.375
 20
0.7129996395019305
 30
0.0
 11
-0.3190983005625085
 21
0.6850487897831812
 31
0.0
  0
LINE
  5
7C
  8
0
 10
0.3190983005625085
 20
0.6850487897831812
 30
0.0
 11
0.375
 21
0.7129996395019305
 31
0.0
  0
LINE
  5
7D
  8
0
 10
0.375
 20
0.7129996395019305
 30
0.0
 11
0.375
 21
0.7870003604980697
 31
0.0
  0
LINE
  5
7E
  8
0
 10
0.375
 20
0.7870003604980697
 30
0.0
 11
0.3431254506225869
 21
0.8125
 31
0.0
  0
LINE
  5
7F
  8
0
 10
0.3431254506225869
 20
0.8125
 30
0.0
 11
0.3208132660583942
 21
0.8125
 31
0.0
  0
LINE
  5
80
  8
0
 10
0.3208132660583942
 20
0.8125
 30
0.0
 11
0.4309193886984986
 21
1.7135663025093351
 31
0.0
  0
ARC
  5
81
  8
0
 10
-0.584136963928856
 20
1.8444
 30
0.0
 40
0.0319
 50
180.0
 51
270.0
  0
LINE
  5
82
  8
0
 10
-0.3208132660583942
 20
0.8125
 30
0.0
 11
0.3208132660583942
 21
0.8125
 31
0.0
  0
LINE
  5
83
  8
0
 10
-0.3208132660583942
 20
0.6875
 30
0.0
 11
0.0
 21
0.6875
 31
0.0
  0
LINE
  5
84
  8
0
 10
0.0
 20
0.6875
 30
0.0
 11
0.3208132660583942
 21
0.6875
 31
0.0
  0
ARC
  5
85
  8
0
 10
-0.6409294843996493
 20
1.585880227827196
 30
0.0
 40
0.2457803368134773
 50
31.29958868520697
 51
67.226445276295706
  0
ARC
  5
86
  8
0
 10
0.6409294843996493
 20
1.585880227827196
 30
0.0
 40
0.2457803368134773
 50
112.77355472370429
 51
148.7004113147924
  0
LINE
  5
87
  8
0
 10
-0.5157511572660383
 20
2.008401284890069
 30
0.0
 11
-0.5139158115004534
 21
2.032499999999998
 31
0.0
  0
LINE
  5
88
  8
0
 10
-0.25
 20
-0.0479061225704598
 30
0.0
 11
-0.25
 21
0.5732453909081983
 31
0.0
  0
ARC
  5
89
  8
0
 10
-0.375
 20
0.5732453909081983
 30
0.0
 40
0.125
 50
0.0
 51
63.434948822921832
  0
LINE
  5
8A
  8
0
 10
0.25
 20
-0.0479061225704598
 30
0.0
 11
0.25
 21
0.5732453909081983
 31
0.0
  0
ARC
  5
8B
  8
0
 10
0.0
 20
-0.0479061225704598
 30
0.0
 40
0.25
 50
180.0
 51
0.0
  0
ARC
  5
8C
  8
0
 10
0.375
 20
0.5732453909081983
 30
0.0
 40
0.125
 50
116.5650511770782
 51
180.0
  0
ARC
  5
8D
  8
0
 10
-0.5262390270038324
 20
1.9784012848900681
 30
0.0
 40
0.03
 50
90.0
 51
180.0
  0
LINE
  5
8E
  8
0
 10
-0.5580743727694184
 20
1.9543025697801391
 30
0.0
 11
-0.5562390270038337
 21
1.9784012848900681
 31
0.0
  0
ARC
  5
8F
  8
0
 10
0.4839158115004523
 20
2.032499999999998
 30
0.0
 40
0.03
 50
0.0
 51
90.0
  0
LINE
  5
90
  8
0
 10
0.6160369639288561
 20
1.922402569780139
 30
0.0
 11
0.6160369639288561
 21
1.8444
 31
0.0
  0
ARC
  5
91
  8
0
 10
0.584136963928856
 20
1.922402569780139
 30
0.0
 40
0.0319
 50
0.0
 51
90.0
  0
ARC
  5
92
  8
0
 10
0.584136963928856
 20
1.8444
 30
0.0
 40
0.0319
 50
270.0
 51
0.0
  0
LINE
  5
93
  8
0
 10
0.5157511572660383
 20
2.008401284890069
 30
0.0
 11
0.5139158115004534
 21
2.032499999999998
 31
0.0
  0
ARC
  5
94
  8
0
 10
0.5262390270038324
 20
1.9784012848900681
 30
0.0
 40
0.03
 50
0.0
 51
90.0
  0
LINE
  5
95
  8
0
 10
0.5580743727694184
 20
1.9543025697801391
 30
0.0
 11
0.5562390270038337
 21
1.9784012848900681
 31
0.0
  0
POLYLINE
  5
96
  8
0
 66
     1
 10
0.0
 20
0.0
 30
0.0
  0
VERTEX
  5
EA
  8
0
 10
0.5262390270038324
 20
2.008401284890069
 30
0.0
  0
VERTEX
  5
EB
  8
0
 10
-0.5262390270038324
 20
2.008401284890069
 30
0.0
  0
VERTEX
  5
EC
  8
0
 10
0.5157903608778655
 20
2.008401284890069
 30
0.0
  0
SEQEND
  5
ED
  8
0
  0
POLYLINE
  5
97
  8
0
 66
     1
 10
0.0
 20
0.0
 30
0.0
  0
VERTEX
  5
EE
  8
0
 10
0.4839158115004523
 20
2.0625
 30
0.0
  0
VERTEX
  5
EF
  8
0
 10
0.0
 20
2.0625
 30
0.0
  0
VERTEX
  5
F0
  8
0
 10
-0.4839158115004523
 20
2.0625
 30
0.0
  0
SEQEND
  5
F1
  8
0
  0
POLYLINE
  5
98
  8
0
 66
     1
 10
0.0
 20
0.0
 30
0.0
  0
VERTEX
  5
F2
  8
0
 10
-0.584136963928856
 20
1.8125
 30
0.0
  0
VERTEX
  5
F3
  8
0
 10
0.0
 20
1.812499999999992
 30
0.0
  0
VERTEX
  5
F4
  8
0
 10
0.584136963928856
 20
1.8125
 30
0.0
  0
SEQEND
  5
F5
  8
0
  0
POLYLINE
  5
99
  8
0
 66
     1
 10
0.0
 20
0.0
 30
0.0
  0
VERTEX
  5
F6
  8
0
 10
-0.584136963928856
 20
1.9543025697801391
 30
0.0
  0
VERTEX
  5
F7
  8
0
 10
-0.0000000000000071
 20
1.9543025697801319
 30
0.0
  0
VERTEX
  5
F8
  8
0
 10
0.584136963928856
 20
1.9543025697801391
 30
0.0
  0
SEQEND
  5
F9
  8
0
  0
ARC
  5
9A
  8
0
 10
0.0
 20
0.0
 30
0.0
 40
0.4213570238852711
 50
126.3930372635706
 51
53.606962736429892
  0
ARC
  5
9B
  8
0
 10
0.0
 20
0.0
 30
0.0
 40
0.4532315732626842
 50
123.4764647200803
 51
56.52353527992026
  0
ARC
  5
9C
  8
0
 10
0.0
 20
0.0
 30
0.0
 40
0.8873384168989204
 50
111.31486996207499
 51
68.685130037924239
  0
ARC
  5
9D
  8
0
 10
0.0
 20
0.0
 30
0.0
 40
0.9830846594518476
 50
109.89186316660521
 51
70.108136833393843
  0
ARC
  5
9E
  8
0
 10
0.0
 20
0.0
 30
0.0
 40
1.0979556316312149
 50
108.5198268218149
 51
71.480173178184174
  0
ATTDEF
  5
9F
  8
DEFPOINTS
 10
0.0
 20
-0.005
 30
0.0
 40
0.001
  1
METAL
  3

  2
MATERIAL
 70
     8
1001
AcDbAttr
1070
     0
1070
     1
  0
ATTDEF
  5
A1
  8
DEFPOINTS
 10
0.0
 20
-0.0033333333333333
 30
0.0
 40
0.001
  1
ROBE HOOK
  3

  2
PRODUCT
 70
     8
1001
AcDbAttr
1070
     0
1070
     1
  0
ATTDEF
  5
A2
  8
DEFPOINTS
 10
0.0
 20
-0.0016666666666667
 30
0.0
 40
0.001
  1
DEVONSHIRE
  3

  2
TRADENAME
 70
     8
1001
AcDbAttr
1070
     0
1070
     1
  0
ATTDEF
  5
A3
  8
DEFPOINTS
 10
0.0
 20
0.0
 30
0.0
 40
0.001
  1
K-10555
  3

  2
MODELNUMBER
 70
     8
1001
AcDbAttr
1070
     0
1070
     1
  0
ENDSEC
  0
EOF
