  0
SECTION
  2
HEADER
  9
$ACADVER
  1
AC1009
  9
$INSBASE
 10
0.0
 20
0.0
 30
0.0
  9
$EXTMIN
 10
1.0000000000000000E+020
 20
1.0000000000000000E+020
 30
1.0000000000000000E+020
  9
$EXTMAX
 10
-1.0000000000000000E+020
 20
-1.0000000000000000E+020
 30
-1.0000000000000000E+020
  9
$LIMMIN
 10
0.0
 20
0.0
  9
$LIMMAX
 10
12.0
 20
9.0
  9
$ORTHOMODE
 70
     0
  9
$REGENMODE
 70
     1
  9
$FILLMODE
 70
     1
  9
$QTEXTMODE
 70
     0
  9
$MIRRTEXT
 70
     1
  9
$DRAGMODE
 70
     2
  9
$LTSCALE
 40
1.0
  9
$OSMODE
 70
     0
  9
$ATTMODE
 70
     1
  9
$TEXTSIZE
 40
0.2
  9
$TRACEWID
 40
0.05
  9
$TEXTSTYLE
  7
STANDARD
  9
$CLAYER
  8
0
  9
$CELTYPE
  6
BYLAYER
  9
$CECOLOR
 62
   256
  9
$DIMSCALE
 40
1.0
  9
$DIMASZ
 40
0.18
  9
$DIMEXO
 40
0.0625
  9
$DIMDLI
 40
0.38
  9
$DIMRND
 40
0.0
  9
$DIMDLE
 40
0.0
  9
$DIMEXE
 40
0.18
  9
$DIMTP
 40
0.0
  9
$DIMTM
 40
0.0
  9
$DIMTXT
 40
0.18
  9
$DIMCEN
 40
0.09
  9
$DIMTSZ
 40
0.0
  9
$DIMTOL
 70
     0
  9
$DIMLIM
 70
     0
  9
$DIMTIH
 70
     1
  9
$DIMTOH
 70
     1
  9
$DIMSE1
 70
     0
  9
$DIMSE2
 70
     0
  9
$DIMTAD
 70
     0
  9
$DIMZIN
 70
     0
  9
$DIMBLK
  1

  9
$DIMASO
 70
     1
  9
$DIMSHO
 70
     1
  9
$DIMPOST
  1

  9
$DIMAPOST
  1

  9
$DIMALT
 70
     0
  9
$DIMALTD
 70
     2
  9
$DIMALTF
 40
25.399999999999999
  9
$DIMLFAC
 40
1.0
  9
$DIMTOFL
 70
     0
  9
$DIMTVP
 40
0.0
  9
$DIMTIX
 70
     0
  9
$DIMSOXD
 70
     0
  9
$DIMSAH
 70
     0
  9
$DIMBLK1
  1

  9
$DIMBLK2
  1

  9
$DIMSTYLE
  2
STANDARD
  9
$DIMCLRD
 70
     0
  9
$DIMCLRE
 70
     0
  9
$DIMCLRT
 70
     0
  9
$DIMTFAC
 40
1.0
  9
$DIMGAP
 40
0.09
  9
$LUNITS
 70
     2
  9
$LUPREC
 70
     4
  9
$SKETCHINC
 40
0.1
  9
$FILLETRAD
 40
0.5
  9
$AUNITS
 70
     0
  9
$AUPREC
 70
     0
  9
$MENU
  1
.
  9
$ELEVATION
 40
0.0
  9
$PELEVATION
 40
0.0
  9
$THICKNESS
 40
0.0
  9
$LIMCHECK
 70
     0
  9
$BLIPMODE
 70
     0
  9
$CHAMFERA
 40
0.5
  9
$CHAMFERB
 40
0.5
  9
$SKPOLY
 70
     0
  9
$TDCREATE
 40
2451380.5970990621
  9
$TDUPDATE
 40
2451380.632847222
  9
$TDINDWG
 40
0.0075614815
  9
$TDUSRTIMER
 40
0.0075524421
  9
$USRTIMER
 70
     1
  9
$ANGBASE
 50
0.0
  9
$ANGDIR
 70
     0
  9
$PDMODE
 70
     0
  9
$PDSIZE
 40
0.0
  9
$PLINEWID
 40
0.0
  9
$COORDS
 70
     0
  9
$SPLFRAME
 70
     0
  9
$SPLINETYPE
 70
     6
  9
$SPLINESEGS
 70
     8
  9
$ATTDIA
 70
     0
  9
$ATTREQ
 70
     1
  9
$HANDLING
 70
     1
  9
$HANDSEED
  5
99F
  9
$SURFTAB1
 70
     6
  9
$SURFTAB2
 70
     6
  9
$SURFTYPE
 70
     6
  9
$SURFU
 70
     6
  9
$SURFV
 70
     6
  9
$UCSNAME
  2

  9
$UCSORG
 10
0.0
 20
0.0
 30
0.0
  9
$UCSXDIR
 10
1.0
 20
0.0
 30
0.0
  9
$UCSYDIR
 10
0.0
 20
1.0
 30
0.0
  9
$PUCSNAME
  2

  9
$PUCSORG
 10
0.0
 20
0.0
 30
0.0
  9
$PUCSXDIR
 10
1.0
 20
0.0
 30
0.0
  9
$PUCSYDIR
 10
0.0
 20
1.0
 30
0.0
  9
$USERI1
 70
     0
  9
$USERI2
 70
     0
  9
$USERI3
 70
     0
  9
$USERI4
 70
     0
  9
$USERI5
 70
     0
  9
$USERR1
 40
0.0
  9
$USERR2
 40
0.0
  9
$USERR3
 40
0.0
  9
$USERR4
 40
0.0
  9
$USERR5
 40
0.0
  9
$WORLDVIEW
 70
     1
  9
$SHADEDGE
 70
     3
  9
$SHADEDIF
 70
    70
  9
$TILEMODE
 70
     1
  9
$MAXACTVP
 70
    64
  9
$PLIMCHECK
 70
     0
  9
$PEXTMIN
 10
1.0000000000000000E+020
 20
1.0000000000000000E+020
 30
1.0000000000000000E+020
  9
$PEXTMAX
 10
-1.0000000000000000E+020
 20
-1.0000000000000000E+020
 30
-1.0000000000000000E+020
  9
$PLIMMIN
 10
0.0
 20
0.0
  9
$PLIMMAX
 10
12.0
 20
9.0
  9
$UNITMODE
 70
     0
  9
$VISRETAIN
 70
     1
  9
$PLINEGEN
 70
     0
  9
$PSLTSCALE
 70
     1
  0
ENDSEC
  0
SECTION
  2
TABLES
  0
TABLE
  2
VPORT
 70
     1
  0
VPORT
  2
*ACTIVE
 70
     0
 10
0.0
 20
0.0
 11
1.0
 21
1.0
 12
-0.0164618417620659
 22
-0.0050337482243776
 13
0.0
 23
0.0
 14
0.5
 24
0.5
 15
0.5
 25
0.5
 16
-1.0
 26
-1.0
 36
1.0
 17
0.0
 27
0.0
 37
0.0
 40
13.193594753613381
 41
0.6524969834079472
 42
50.0
 43
0.0
 44
0.0
 50
0.0
 51
0.0
 71
     0
 72
   100
 73
     1
 74
     3
 75
     0
 76
     0
 77
     0
 78
     0
  0
ENDTAB
  0
TABLE
  2
LTYPE
 70
     1
  0
LTYPE
  2
CONTINUOUS
 70
     0
  3
Solid line
 72
    65
 73
     0
 40
0.0
  0
ENDTAB
  0
TABLE
  2
LAYER
 70
     2
  0
LAYER
  2
0
 70
     0
 62
   151
  6
CONTINUOUS
  0
LAYER
  2
ASHADE
 70
     4
 62
     7
  6
CONTINUOUS
  0
ENDTAB
  0
TABLE
  2
STYLE
 70
     2
  0
STYLE
  2
STANDARD
 70
     0
 40
0.0
 41
1.0
 50
0.0
 71
     0
 42
0.2
  3
txt
  4

  0
STYLE
  2
ASHADE
 70
     0
 40
0.2
 41
1.0
 50
0.0
 71
     0
 42
0.2
  3
simplex
  4

  0
ENDTAB
  0
TABLE
  2
VIEW
 70
     0
  0
ENDTAB
  0
TABLE
  2
UCS
 70
     0
  0
ENDTAB
  0
TABLE
  2
APPID
 70
     6
  0
APPID
  2
ACAD
 70
     0
  0
APPID
  2
AVE_RENDER
 70
     0
  0
APPID
  2
AVE_ENTITY_MATERIAL
 70
     0
  0
APPID
  2
AVE_FINISH
 70
     0
  0
APPID
  2
AVE_MATERIAL
 70
     0
  0
APPID
  2
AVE_GLOBAL
 70
     0
  0
ENDTAB
  0
TABLE
  2
DIMSTYLE
 70
     1
  0
DIMSTYLE
  2
STANDARD
 70
     0
  3

  4

  5

  6

  7

 40
1.0
 41
0.18
 42
0.0625
 43
0.38
 44
0.18
 45
0.0
 46
0.0
 47
0.0
 48
0.0
140
0.18
141
0.09
142
0.0
143
25.399999999999999
144
1.0
145
0.0
146
1.0
147
0.09
 71
     0
 72
     0
 73
     1
 74
     1
 75
     0
 76
     0
 77
     0
 78
     0
170
     0
171
     2
172
     0
173
     0
174
     0
175
     0
176
     0
177
     0
178
     0
  0
ENDTAB
  0
ENDSEC
  0
SECTION
  2
BLOCKS
  0
BLOCK
  8
0
  2
$MODEL_SPACE
 70
     0
 10
0.0
 20
0.0
 30
0.0
  3
$MODEL_SPACE
  1

  0
ENDBLK
  5
21
  8
0
  0
BLOCK
 67
     1
  8
0
  2
$PAPER_SPACE
 70
     0
 10
0.0
 20
0.0
 30
0.0
  3
$PAPER_SPACE
  1

  0
ENDBLK
  5
1D
 67
     1
  8
0
  0
BLOCK
  8
0
  2
DIRECT
 70
     2
 10
0.0
 20
0.0
 30
0.0
  3
DIRECT
  1

  0
ATTDEF
  5
2F
  8
ASHADE
  6
CONTINUOUS
 62
     1
 10
0.0
 20
-0.1
 30
0.0
 40
0.2
  1

  7
ASHADE
 72
     1
 11
0.0
 21
-0.1
 31
0.0
  3
Light Name
  2
SNAME
 70
     0
  0
ARC
  5
30
  8
ASHADE
  6
CONTINUOUS
 62
     7
 10
0.0
 20
0.0
 30
0.0
 40
0.3
 50
205.67928861945691
 51
334.32071138054312
  0
ARC
  5
31
  8
ASHADE
  6
CONTINUOUS
 62
     7
 10
0.0
 20
0.0
 30
0.0
 40
0.3
 50
25.679288619456852
 51
154.32071138054309
  0
LINE
  5
32
  8
ASHADE
  6
CONTINUOUS
 62
     7
 10
-0.21
 20
0.2142428528562855
 30
0.0
 11
-0.21
 21
0.5
 31
0.0
  0
LINE
  5
33
  8
ASHADE
  6
CONTINUOUS
 62
     7
 10
-0.11
 20
0.2791057147390572
 30
0.0
 11
-0.11
 21
0.5
 31
0.0
  0
LINE
  5
34
  8
ASHADE
  6
CONTINUOUS
 62
     7
 10
0.21
 20
0.2142428528562855
 30
0.0
 11
0.21
 21
0.5
 31
0.0
  0
ATTDEF
  5
35
  8
ASHADE
  6
CONTINUOUS
 62
     7
 10
0.0
 20
0.25
 30
0.0
 40
0.01
  1

  3
Look-at Y
  2
LAY
 70
     1
  0
ATTDEF
  5
36
  8
ASHADE
  6
CONTINUOUS
 62
     7
 10
0.0
 20
0.22
 30
0.0
 40
0.01
  1
1
  3
Light Intensity
  2
INTENSITY
 70
     1
  0
ATTDEF
  5
37
  8
ASHADE
  6
CONTINUOUS
 62
     7
 10
0.0
 20
0.16
 30
0.0
 40
0.01
  1
-1
  3
*not used*
  2
BEAMD
 70
     1
  0
ATTDEF
  5
38
  8
ASHADE
  6
CONTINUOUS
 62
     7
 10
0.0
 20
0.175
 30
0.0
 40
0.01
  1
-1
  3
*not used*
  2
CONED
 70
     1
  0
ATTDEF
  5
39
  8
ASHADE
  6
CONTINUOUS
 62
     7
 10
0.0
 20
0.19
 30
0.0
 40
0.01
  1
0
  3
Depth Map Size
  2
CONEA
 70
     1
  0
ATTDEF
  5
3A
  8
ASHADE
  6
CONTINUOUS
 62
     7
 10
0.0
 20
0.2050000000000001
 30
0.0
 40
0.01
  1
1,1,1
  3
Light Color (RGB)
  2
COLOR
 70
     1
  0
ATTDEF
  5
3B
  8
ASHADE
  6
CONTINUOUS
 62
     7
 10
0.0
 20
0.235
 30
0.0
 40
0.01
  1

  3
Look-at Z
  2
LAZ
 70
     1
  0
LINE
  5
3C
  8
ASHADE
  6
CONTINUOUS
 62
     7
 10
0.0
 20
0.3
 30
0.0
 11
0.0
 21
0.5
 31
0.0
  0
LINE
  5
3D
  8
ASHADE
  6
CONTINUOUS
 62
     7
 10
0.11
 20
0.2791057147390572
 30
0.0
 11
0.11
 21
0.5
 31
0.0
  0
ATTDEF
  5
3E
  8
ASHADE
  6
CONTINUOUS
 62
     7
 10
0.0
 20
0.265
 30
0.0
 40
0.01
  1

  3
Look-at X
  2
LAX
 70
     1
  0
ATTDEF
  5
3F
  8
ASHADE
  6
CONTINUOUS
 62
     7
 10
0.0
 20
0.28
 30
0.0
 40
0.01
  1

  3

  2
GNAME
 70
     1
  0
ENDBLK
  5
41
  8
0
  0
BLOCK
  8
0
  2
OVERHEAD
 70
     2
 10
0.0
 20
0.0
 30
0.0
  3
OVERHEAD
  1

  0
ATTDEF
  5
43
  8
ASHADE
  6
CONTINUOUS
 62
     1
 10
0.0
 20
-0.1
 30
0.0
 40
0.2
  1

  7
ASHADE
 72
     1
 11
0.0
 21
-0.1
 31
0.0
  3
Light Name
  2
SNAME
 70
     0
  0
ARC
  5
44
  8
ASHADE
  6
CONTINUOUS
 62
     7
 10
0.0
 20
0.0
 30
0.0
 40
0.3
 50
205.67928861945691
 51
334.32071138054312
  0
LINE
  5
45
  8
ASHADE
  6
CONTINUOUS
 62
     7
 10
-0.2041413561583015
 20
-0.2198324514393848
 30
0.0
 11
-0.2721884748777353
 21
-0.2931099352525131
 31
0.0
  0
LINE
  5
46
  8
ASHADE
  6
CONTINUOUS
 62
     7
 10
-0.1096591641591904
 20
-0.2792398032442862
 30
0.0
 11
-0.1279356915190555
 21
-0.3257797704516673
 31
0.0
  0
LINE
  5
47
  8
ASHADE
  6
CONTINUOUS
 62
     7
 10
0.0
 20
-0.2999999999999999
 30
0.0
 11
0.0
 21
-0.4
 31
0.0
  0
LINE
  5
48
  8
ASHADE
  6
CONTINUOUS
 62
     7
 10
0.1096591641591904
 20
-0.2792398032442862
 30
0.0
 11
0.1279356915190555
 21
-0.3257797704516673
 31
0.0
  0
LINE
  5
49
  8
ASHADE
  6
CONTINUOUS
 62
     7
 10
0.2041413561583015
 20
-0.2198324514393848
 30
0.0
 11
0.2721884748777353
 21
-0.2931099352525131
 31
0.0
  0
ARC
  5
4A
  8
ASHADE
  6
CONTINUOUS
 62
     7
 10
0.0
 20
0.0
 30
0.0
 40
0.3
 50
25.679288619456852
 51
154.32071138054309
  0
LINE
  5
4B
  8
ASHADE
  6
CONTINUOUS
 62
     7
 10
-0.2703701166919155
 20
0.13
 30
0.0
 11
-0.3154318028072347
 21
0.1516666666666666
 31
0.0
  0
LINE
  5
4C
  8
ASHADE
  6
CONTINUOUS
 62
     7
 10
-0.2703701166919155
 20
-0.13
 30
0.0
 11
-0.3154318028072347
 21
-0.1516666666666666
 31
0.0
  0
LINE
  5
4D
  8
ASHADE
  6
CONTINUOUS
 62
     7
 10
-0.2041413561583015
 20
0.2198324514393849
 30
0.0
 11
-0.2721884748777353
 21
0.2931099352525131
 31
0.0
  0
LINE
  5
4E
  8
ASHADE
  6
CONTINUOUS
 62
     7
 10
-0.1096591641591904
 20
0.2792398032442862
 30
0.0
 11
-0.1279356915190555
 21
0.3257797704516674
 31
0.0
  0
LINE
  5
4F
  8
ASHADE
  6
CONTINUOUS
 62
     7
 10
0.2703701166919155
 20
-0.13
 30
0.0
 11
0.3154318028072347
 21
-0.1516666666666666
 31
0.0
  0
LINE
  5
50
  8
ASHADE
  6
CONTINUOUS
 62
     7
 10
0.2703701166919155
 20
0.13
 30
0.0
 11
0.3154318028072347
 21
0.1516666666666666
 31
0.0
  0
LINE
  5
51
  8
ASHADE
  6
CONTINUOUS
 62
     7
 10
0.0
 20
0.3
 30
0.0
 11
0.0
 21
0.4
 31
0.0
  0
ATTDEF
  5
52
  8
ASHADE
  6
CONTINUOUS
 62
     7
 10
0.0
 20
0.22
 30
0.0
 40
0.01
  1
1
  3
Light Intensity
  2
INTENSITY
 70
     1
  0
ATTDEF
  5
53
  8
ASHADE
  6
CONTINUOUS
 62
     7
 10
0.0
 20
0.16
 30
0.0
 40
0.01
  1
-1
  3
*not used*
  2
BEAMD
 70
     1
  0
ATTDEF
  5
54
  8
ASHADE
  6
CONTINUOUS
 62
     7
 10
0.0
 20
0.175
 30
0.0
 40
0.01
  1
-1
  3
*not used*
  2
CONED
 70
     1
  0
ATTDEF
  5
55
  8
ASHADE
  6
CONTINUOUS
 62
     7
 10
0.0
 20
0.19
 30
0.0
 40
0.01
  1
0
  3
Depth Map Size
  2
CONEA
 70
     1
  0
ATTDEF
  5
56
  8
ASHADE
  6
CONTINUOUS
 62
     7
 10
0.0
 20
0.2050000000000001
 30
0.0
 40
0.01
  1
1,1,1
  3
Light Color (RGB)
  2
COLOR
 70
     1
  0
ATTDEF
  5
57
  8
ASHADE
  6
CONTINUOUS
 62
     7
 10
0.0
 20
0.235
 30
0.0
 40
0.01
  1

  3
Look-at Z
  2
LAZ
 70
     1
  0
ATTDEF
  5
58
  8
ASHADE
  6
CONTINUOUS
 62
     7
 10
0.0
 20
0.25
 30
0.0
 40
0.01
  1

  3
Look-at Y
  2
LAY
 70
     1
  0
ATTDEF
  5
59
  8
ASHADE
  6
CONTINUOUS
 62
     7
 10
0.0
 20
0.265
 30
0.0
 40
0.01
  1

  3
Look-at X
  2
LAX
 70
     1
  0
ATTDEF
  5
5A
  8
ASHADE
  6
CONTINUOUS
 62
     7
 10
0.0
 20
0.28
 30
0.0
 40
0.01
  1

  3

  2
GNAME
 70
     1
  0
LINE
  5
5B
  8
ASHADE
  6
CONTINUOUS
 62
     7
 10
0.1096591641591904
 20
0.2792398032442862
 30
0.0
 11
0.1279356915190555
 21
0.3257797704516674
 31
0.0
  0
LINE
  5
5C
  8
ASHADE
  6
CONTINUOUS
 62
     7
 10
0.2041413561583015
 20
0.2198324514393849
 30
0.0
 11
0.2721884748777353
 21
0.2931099352525131
 31
0.0
  0
ENDBLK
  5
5E
  8
0
  0
BLOCK
  8
0
  2
SH_SPOT
 70
     2
 10
0.0
 20
0.0
 30
0.0
  3
SH_SPOT
  1

  0
LINE
  5
60
  8
ASHADE
  6
CONTINUOUS
 62
     7
 10
0.25
 20
0.26
 30
0.0
 11
-0.25
 21
0.26
 31
0.0
  0
LINE
  5
61
  8
ASHADE
  6
CONTINUOUS
 62
     7
 10
-0.25
 20
-0.3399999999999999
 30
0.0
 11
0.25
 21
-0.3399999999999999
 31
0.0
  0
ATTDEF
  5
62
  8
ASHADE
  6
CONTINUOUS
 62
     1
 10
0.0
 20
-0.1
 30
0.0
 40
0.2
  1

  7
ASHADE
 72
     1
 11
0.0
 21
-0.1
 31
0.0
  3
Light Name
  2
SNAME
 70
     0
  0
LINE
  5
63
  8
ASHADE
  6
CONTINUOUS
 62
     7
 10
-0.25
 20
-0.13
 30
0.0
 11
-0.25
 21
-0.3399999999999999
 31
0.0
  0
LINE
  5
64
  8
ASHADE
  6
CONTINUOUS
 62
     7
 10
-0.25
 20
-0.18
 30
0.0
 11
-0.29
 21
-0.18
 31
0.0
  0
LINE
  5
65
  8
ASHADE
  6
CONTINUOUS
 62
     7
 10
-0.29
 20
-0.22
 30
0.0
 11
-0.25
 21
-0.22
 31
0.0
  0
LINE
  5
66
  8
ASHADE
  6
CONTINUOUS
 62
     7
 10
-0.29
 20
-0.18
 30
0.0
 11
-0.29
 21
-0.22
 31
0.0
  0
LINE
  5
67
  8
ASHADE
  6
CONTINUOUS
 62
     7
 10
-0.1045454545454545
 20
0.26
 30
0.0
 11
-0.15
 21
0.46
 31
0.0
  0
LINE
  5
68
  8
ASHADE
  6
CONTINUOUS
 62
     7
 10
-0.21
 20
0.26
 30
0.0
 11
-0.301304347826087
 21
0.46
 31
0.0
  0
LINE
  5
69
  8
ASHADE
  6
CONTINUOUS
 62
     7
 10
-0.25
 20
0.26
 30
0.0
 11
-0.25
 21
0.13
 31
0.0
  0
LINE
  5
6A
  8
ASHADE
  6
CONTINUOUS
 62
     7
 10
-0.25
 20
0.22
 30
0.0
 11
-0.29
 21
0.22
 31
0.0
  0
LINE
  5
6B
  8
ASHADE
  6
CONTINUOUS
 62
     7
 10
-0.29
 20
0.1799999999999999
 30
0.0
 11
-0.25
 21
0.1799999999999999
 31
0.0
  0
LINE
  5
6C
  8
ASHADE
  6
CONTINUOUS
 62
     7
 10
-0.29
 20
0.22
 30
0.0
 11
-0.29
 21
0.1799999999999999
 31
0.0
  0
ATTDEF
  5
6D
  8
ASHADE
  6
CONTINUOUS
 62
     7
 10
0.0
 20
-0.24
 30
0.0
 40
0.01
  1
0
  3
Depth Map Size
  2
ZSIZE
 70
     1
  0
ATTDEF
  5
6E
  8
ASHADE
  6
CONTINUOUS
 62
     7
 10
0.0
 20
-0.3300000000000001
 30
0.0
 40
0.01
  1
0,0,0
  3
Look-from XYZ
  2
LFXYZ
 70
     1
  0
ATTDEF
  5
6F
  8
ASHADE
  6
CONTINUOUS
 62
     7
 10
0.0
 20
-0.315
 30
0.0
 40
0.01
  1
0.0
  3
Beam Distribution
  2
BEAMDI
 70
     1
  0
ATTDEF
  5
70
  8
ASHADE
  6
CONTINUOUS
 62
     7
 10
0.0
 20
-0.3
 30
0.0
 40
0.01
  1
0.0
  3
Cone Delta
  2
CONEDE
 70
     1
  0
ATTDEF
  5
71
  8
ASHADE
  6
CONTINUOUS
 62
     7
 10
0.0
 20
-0.2850000000000001
 30
0.0
 40
0.01
  1
10.0
  3
Cone Angle
  2
CONEAN
 70
     1
  0
ATTDEF
  5
72
  8
ASHADE
  6
CONTINUOUS
 62
     7
 10
0.0
 20
-0.27
 30
0.0
 40
0.01
  1
-1
  3
*not used*
  2
BIASMAX
 70
     1
  0
ATTDEF
  5
73
  8
ASHADE
  6
CONTINUOUS
 62
     7
 10
0.0
 20
-0.255
 30
0.0
 40
0.01
  1
-1
  3
*not used*
  2
BIASMIN
 70
     1
  0
ATTDEF
  5
74
  8
ASHADE
  6
CONTINUOUS
 62
     7
 10
0.0
 20
-0.225
 30
0.0
 40
0.01
  1
1,1,1
  3
Light Color (RGB)
  2
COLOR
 70
     1
  0
ATTDEF
  5
75
  8
ASHADE
  6
CONTINUOUS
 62
     7
 10
0.0
 20
-0.21
 30
0.0
 40
0.01
  1
1
  3
Light Intensity
  2
INTENSITY
 70
     1
  0
ATTDEF
  5
76
  8
ASHADE
  6
CONTINUOUS
 62
     7
 10
0.0
 20
-0.15
 30
0.0
 40
0.01
  1

  3

  2
GNAME
 70
     1
  0
ATTDEF
  5
77
  8
ASHADE
  6
CONTINUOUS
 62
     7
 10
0.0
 20
-0.195
 30
0.0
 40
0.01
  1

  3
Look-at Z
  2
LAZ
 70
     1
  0
ATTDEF
  5
78
  8
ASHADE
  6
CONTINUOUS
 62
     7
 10
0.0
 20
-0.18
 30
0.0
 40
0.01
  1

  3
Look-at Y
  2
LAY
 70
     1
  0
ATTDEF
  5
79
  8
ASHADE
  6
CONTINUOUS
 62
     7
 10
0.0
 20
-0.165
 30
0.0
 40
0.01
  1

  3
Look-at X
  2
LAX
 70
     1
  0
LINE
  5
7A
  8
ASHADE
  6
CONTINUOUS
 62
     7
 10
0.25
 20
-0.3399999999999999
 30
0.0
 11
0.25
 21
-0.13
 31
0.0
  0
LINE
  5
7B
  8
ASHADE
  6
CONTINUOUS
 62
     7
 10
0.25
 20
-0.18
 30
0.0
 11
0.29
 21
-0.18
 31
0.0
  0
LINE
  5
7C
  8
ASHADE
  6
CONTINUOUS
 62
     7
 10
0.29
 20
-0.22
 30
0.0
 11
0.25
 21
-0.22
 31
0.0
  0
LINE
  5
7D
  8
ASHADE
  6
CONTINUOUS
 62
     7
 10
0.29
 20
-0.18
 30
0.0
 11
0.29
 21
-0.22
 31
0.0
  0
LINE
  5
7E
  8
ASHADE
  6
CONTINUOUS
 62
     7
 10
0.21
 20
0.26
 30
0.0
 11
0.301304347826087
 21
0.46
 31
0.0
  0
LINE
  5
7F
  8
ASHADE
  6
CONTINUOUS
 62
     7
 10
0.1045454545454545
 20
0.26
 30
0.0
 11
0.15
 21
0.46
 31
0.0
  0
LINE
  5
80
  8
ASHADE
  6
CONTINUOUS
 62
     7
 10
0.0
 20
0.26
 30
0.0
 11
0.0
 21
0.46
 31
0.0
  0
LINE
  5
81
  8
ASHADE
  6
CONTINUOUS
 62
     7
 10
0.25
 20
0.13
 30
0.0
 11
0.25
 21
0.26
 31
0.0
  0
LINE
  5
82
  8
ASHADE
  6
CONTINUOUS
 62
     7
 10
0.25
 20
0.22
 30
0.0
 11
0.29
 21
0.22
 31
0.0
  0
LINE
  5
83
  8
ASHADE
  6
CONTINUOUS
 62
     7
 10
0.29
 20
0.1799999999999999
 30
0.0
 11
0.25
 21
0.1799999999999999
 31
0.0
  0
LINE
  5
84
  8
ASHADE
  6
CONTINUOUS
 62
     7
 10
0.29
 20
0.22
 30
0.0
 11
0.29
 21
0.1799999999999999
 31
0.0
  0
ENDBLK
  5
86
  8
0
  0
BLOCK
  8
ASHADE
  2
AVE_RENDER
 70
     0
 10
0.0
 20
0.0
 30
0.0
  3
AVE_RENDER
  1
AVE_RENDER
  0
ENDBLK
  5
93
  8
0
  0
BLOCK
  8
ASHADE
  2
AVE_GLOBAL
 70
     0
 10
0.0
 20
0.0
 30
0.0
  3
AVE_GLOBAL
  1
AVE_GLOBAL
  0
ENDBLK
  5
A1
  8
0
  0
ENDSEC
  0
SECTION
  2
ENTITIES
  0
INSERT
  5
94
  8
ASHADE
 62
     1
  2
AVE_RENDER
 10
0.0
 20
0.0
 30
0.0
1001
AVE_RENDER
1002
{
1070
     7
1000
Pref
1070
    30
1070
    20
1070
     1
1070
     0
1000

1070
    10
1070
     1
1070
    10
1040
1.0
1070
     1
1040
0.3
1040
0.7
1040
0.0
1040
10.0
1010
-1.0
1020
-1.0
1030
-1.0
1040
0.3
1070
    49
1070
     0
1070
     0
1010
1.0
1020
1.0
1030
1.0
1040
45.0
1070
     1
1070
     0
1000
WCS
1040
0.0
1070
     0
1040
10.0
1002
}
  0
INSERT
  5
95
  8
ASHADE
 62
     3
  2
AVE_RENDER
 10
0.0
 20
0.0
 30
0.0
1001
AVE_RENDER
1002
{
1070
     0
1000
Full Opt
1070
     0
1070
     1
1070
     1
1070
     1
1070
     0
1070
     0
1070
     0
1070
     1
1070
     1
1040
0.0001
1040
0.0001
1002
}
  0
INSERT
  5
96
  8
ASHADE
 62
     4
  2
AVE_RENDER
 10
0.0
 20
0.0
 30
0.0
1001
AVE_RENDER
1002
{
1070
     0
1000
Quick Opt
1070
     0
1070
     1
1070
     1
1070
     1
1070
     0
1070
     0
1070
     1
1002
}
  0
INSERT
  5
97
  8
ASHADE
 62
     5
  2
AVE_RENDER
 10
0.0
 20
0.0
 30
0.0
1001
AVE_RENDER
1002
{
1070
     1
1000
Scanl Opt
1070
     2
1070
     0
1070
     2
1040
2.0
1040
4.0
1070
     0
1070
     1
1070
     0
1040
0.03
1002
}
  0
INSERT
  5
98
  8
ASHADE
 62
     6
  2
AVE_RENDER
 10
0.0
 20
0.0
 30
0.0
1001
AVE_RENDER
1002
{
1070
     2
1000
Raytr Opt
1070
     2
1070
     0
1070
     2
1040
2.0
1040
4.0
1070
     0
1070
     1
1070
     1
1040
0.03
1070
     3
1040
0.03
1002
}
  0
INSERT
  5
99
  8
ASHADE
 62
     7
  2
AVE_RENDER
 10
0.0
 20
0.0
 30
0.0
1001
AVE_RENDER
1002
{
1070
     0
1000
RFile Opt
1070
     1
1070
   640
1070
   480
1070
 10000
1070
     1
1070
     8
1070
     8
1070
     0
1070
     0
1070
     0
1070
     0
1070
     0
1070
     0
1070
     0
1002
}
  0
INSERT
  5
9A
  8
ASHADE
 62
     8
  2
AVE_RENDER
 10
0.0
 20
0.0
 30
0.0
1001
AVE_RENDER
1002
{
1070
     0
1000
Fog Opt
1070
     0
1070
     0
1040
0.0
1040
1.0
1040
0.0
1040
1.0
1010
0.5
1020
0.5
1030
0.5
1002
}
  0
INSERT
  5
9B
  8
ASHADE
 62
     9
  2
AVE_RENDER
 10
0.0
 20
0.0
 30
0.0
1001
AVE_RENDER
1002
{
1070
     0
1000
BG Opt
1070
     0
1070
     1
1010
0.0
1020
0.0
1030
0.0
1010
1.0
1020
0.0
1030
0.0
1010
0.0
1020
1.0
1030
0.0
1010
0.0
1020
0.0
1030
1.0
1040
0.5
1040
0.33
1040
0.0
1000

1070
     1
1000

1070
     1
1070
     1
1040
1.0
1040
1.0
1040
0.0
1040
0.0
1070
     0
1002
}
  0
INSERT
  5
A2
  8
ASHADE
 62
     1
  2
AVE_GLOBAL
 10
0.0
 20
0.0
 30
0.0
1001
AVE_MATERIAL
1002
{
1000
*GLOBAL*
1000
2
1000
Global finish.
1002
{
1002
}
1002
{
1070
    63
1002
{
1002
{
1010
-1.0
1020
-1.0
1030
-1.0
1002
}
1040
0.1000000014901161
1000

1040
0.0
1002
{
1002
}
1040
0.0
1002
{
1002
}
1040
0.0
1002
}
1002
{
1002
{
1010
-1.0
1020
-1.0
1030
-1.0
1002
}
1040
0.699999988079071
1000

1040
0.0
1002
{
1002
}
1040
0.0
1002
{
1002
}
1040
0.0
1002
}
1002
{
1002
{
1010
-1.0
1020
-1.0
1030
-1.0
1002
}
1040
0.2000000029802322
1000

1040
0.0
1002
{
1002
}
1040
0.0
1002
{
1002
}
1040
0.0
1002
}
1002
{
1070
     0
1002
{
1070
     1
1002
{
1040
1.0
1040
1.0
1000

1040
0.0
1002
{
1002
}
1040
0.0
1002
{
1002
}
1040
0.0
1002
}
1002
}
1040
1.0
1040
0.0
1040
0.0
1002
}
1002
{
1040
1.0
1040
1.0
1000

1040
0.0
1002
{
1002
}
1040
0.0
1002
{
1002
}
1040
0.0
1002
}
1002
{
1040
0.5
1040
1.0
1000

1040
0.0
1002
{
1002
}
1040
0.0
1002
{
1002
}
1040
0.0
1002
}
1002
{
1070
     0
1040
0.0
1002
{
1002
}
1040
1.0
1002
{
1002
}
1040
0.0
1002
}
1002
{
1040
0.0
1002
{
1002
{
1010
0.0
1020
0.0
1030
0.0
1002
}
1040
1.0
1000

1040
0.0
1002
{
1002
}
1040
0.0
1002
{
1002
}
1040
0.0
1002
}
1002
}
1002
{
1002
{
1070
     1
1002
{
1040
0.0
1040
1.0
1000

1040
0.0
1002
{
1002
}
1040
0.0
1002
{
1002
}
1040
0.0
1002
}
1002
}
1040
0.0
1002
{
1002
}
1010
1.0
1020
0.0
1030
0.0
1010
0.0
1020
1.0
1030
0.0
1010
0.0
1020
0.0
1030
1.0
1070
     0
1002
}
1002
{
1002
{
1040
1.0
1040
1.0
1002
{
1070
     1
1002
{
1040
1.0
1040
1.0
1000

1040
0.0
1002
{
1002
}
1040
0.0
1002
{
1002
}
1040
0.0
1002
}
1002
}
1002
}
1070
     0
1040
0.0
1002
{
1002
}
1002
}
1002
{
1002
}
1002
}
1002
{
1071
        3
1070
     3
1070
     0
1002
{
1070
     2
1070
     0
1070
     0
1040
0.0
1002
}
1070
     0
1070
     2
1002
{
1002
}
1002
}
1002
{
1040
8030.0
1040
190.30000305175781
1040
0.3050000071525574
1040
228.0
1040
545.0
1040
14.0
1040
17.39999961853027
1040
0.4560000002384186
1002
}
1002
}
  0
POLYLINE
  5
AE
  8
0
 62
   134
 66
     1
 10
0.0
 20
0.0
 30
0.0
 70
    64
 71
   777
 72
  1494
  0
VERTEX
  5
AF
  8
0
 62
   134
 10
-1.1920578479766839
 20
1.2436695098876951
 30
2.9298005104064941
 70
   192
  0
VERTEX
  5
B0
  8
0
 62
   134
 10
-1.1920578479766839
 20
1.1763336658477781
 30
2.9298005104064941
 70
   192
  0
VERTEX
  5
B1
  8
0
 62
   134
 10
-1.1645462512969971
 20
1.1526879072189331
 30
2.9298005104064941
 70
   192
  0
VERTEX
  5
B2
  8
0
 62
   134
 10
-1.100397944450378
 20
1.1521161794662469
 30
2.9298005104064941
 70
   192
  0
VERTEX
  5
B3
  8
0
 62
   134
 10
-1.0591379404067991
 20
1.0736618041992181
 30
2.9298005104064941
 70
   192
  0
VERTEX
  5
B4
  8
0
 62
   134
 10
-0.9866998791694641
 20
1.073557376861572
 30
2.9298005104064941
 70
   192
  0
VERTEX
  5
B5
  8
0
 62
   134
 10
-0.9454356431961059
 20
0.9964982271194458
 30
2.9298005104064941
 70
   192
  0
VERTEX
  5
B6
  8
0
 62
   134
 10
-0.8906202316284179
 20
0.9964982271194458
 30
2.9298005104064941
 70
   192
  0
VERTEX
  5
B7
  8
0
 62
   134
 10
-0.8536729216575621
 20
0.9744271039962769
 30
2.9298005104064941
 70
   192
  0
VERTEX
  5
B8
  8
0
 62
   134
 10
-0.4461743235588074
 20
0.2655690312385559
 30
2.9298007488250728
 70
   192
  0
VERTEX
  5
B9
  8
0
 62
   134
 10
-0.365945965051651
 20
-0.1614930331707001
 30
2.9298005104064941
 70
   192
  0
VERTEX
  5
BA
  8
0
 62
   134
 10
-0.4132439196109772
 20
-0.1851953715085983
 30
2.9298007488250728
 70
   192
  0
VERTEX
  5
BB
  8
0
 62
   134
 10
-0.4132439196109772
 20
-0.2506133913993835
 30
2.9298007488250728
 70
   192
  0
VERTEX
  5
BC
  8
0
 62
   134
 10
-0.385476291179657
 20
-0.2748026251792908
 30
2.9298005104064941
 70
   192
  0
VERTEX
  5
BD
  8
0
 62
   134
 10
-0.3647014498710632
 20
-0.2748026251792908
 30
2.9298005104064941
 70
   192
  0
VERTEX
  5
BE
  8
0
 62
   134
 10
-1.1016613245010369
 20
1.2436693906784051
 30
2.4754290580749512
 70
   192
  0
VERTEX
  5
BF
  8
0
 62
   134
 10
-1.1016613245010369
 20
1.176333308219909
 30
2.4754374027252188
 70
   192
  0
VERTEX
  5
C0
  8
0
 62
   134
 10
-1.0762484073638909
 20
1.152688145637512
 30
2.485969066619873
 70
   192
  0
VERTEX
  5
C1
  8
0
 62
   134
 10
-1.0169795751571651
 20
1.152116060256958
 30
2.5105206966400142
 70
   192
  0
VERTEX
  5
C2
  8
0
 62
   134
 10
-0.9788591265678405
 20
1.073662042617797
 30
2.5263338088989249
 70
   192
  0
VERTEX
  5
C3
  8
0
 62
   134
 10
-0.9119364619255065
 20
1.073557376861572
 30
2.5540575981140128
 70
   192
  0
VERTEX
  5
C4
  8
0
 62
   134
 10
-0.8738160133361816
 20
0.9964983463287354
 30
2.5698781013488761
 70
   192
  0
VERTEX
  5
C5
  8
0
 62
   134
 10
-0.8231706619262695
 20
0.9964983463287354
 30
2.590847253799438
 70
   192
  0
VERTEX
  5
C6
  8
0
 62
   134
 10
-0.7890356183052063
 20
0.9744272232055664
 30
2.6049950122833252
 70
   192
  0
VERTEX
  5
C7
  8
0
 62
   134
 10
-0.4125555157661438
 20
0.2655690312385559
 30
2.7613692283630371
 70
   192
  0
VERTEX
  5
C8
  8
0
 62
   134
 10
-0.3384364545345306
 20
-0.161493107676506
 30
2.7923190593719478
 70
   192
  0
VERTEX
  5
C9
  8
0
 62
   134
 10
-0.3821288645267486
 20
-0.1851953864097595
 30
2.7743649482727051
 70
   192
  0
VERTEX
  5
CA
  8
0
 62
   134
 10
-0.3821288645267486
 20
-0.2506132125854492
 30
2.774527788162231
 70
   192
  0
VERTEX
  5
CB
  8
0
 62
   134
 10
-0.3564788103103638
 20
-0.2748027145862579
 30
2.7851026058197021
 70
   192
  0
VERTEX
  5
CC
  8
0
 62
   134
 10
-0.3372863531112671
 20
-0.2748027145862579
 30
2.7929930686950679
 70
   192
  0
VERTEX
  5
CD
  8
0
 62
   134
 10
-0.8442371487617492
 20
1.243669152259826
 30
2.0902314186096191
 70
   192
  0
VERTEX
  5
CE
  8
0
 62
   134
 10
-0.8442371487617492
 20
1.176333308219909
 30
2.090247154235839
 70
   192
  0
VERTEX
  5
CF
  8
0
 62
   134
 10
-0.8247844576835632
 20
1.152688145637512
 30
2.1097073554992671
 70
   192
  0
VERTEX
  5
D0
  8
0
 62
   134
 10
-0.7794256806373597
 20
1.152116060256958
 30
2.1550729274749751
 70
   192
  0
VERTEX
  5
D1
  8
0
 62
   134
 10
-0.7502477765083313
 20
1.073662042617797
 30
2.1842913627624512
 70
   192
  0
VERTEX
  5
D2
  8
0
 62
   134
 10
-0.6990252733230591
 20
1.073557376861572
 30
2.2355182170867911
 70
   192
  0
VERTEX
  5
D3
  8
0
 62
   134
 10
-0.6698515415191652
 20
0.9964982867240905
 30
2.2647509574890128
 70
   192
  0
VERTEX
  5
D4
  8
0
 62
   134
 10
-0.6310889124870301
 20
0.9964982867240905
 30
2.3034968376159659
 70
   192
  0
VERTEX
  5
D5
  8
0
 62
   134
 10
-0.6049624681472779
 20
0.9744271636009216
 30
2.3296384811401358
 70
   192
  0
VERTEX
  5
D6
  8
0
 62
   134
 10
-0.3168179094791412
 20
0.2655690014362335
 30
2.618579626083374
 70
   192
  0
VERTEX
  5
D7
  8
0
 62
   134
 10
-0.2600885033607483
 20
-0.1614932417869568
 30
2.6757678985595699
 70
   192
  0
VERTEX
  5
D8
  8
0
 62
   134
 10
-0.293533056974411
 20
-0.1851954609155655
 30
2.642593145370483
 70
   192
  0
VERTEX
  5
D9
  8
0
 62
   134
 10
-0.293533056974411
 20
-0.2506132125854492
 30
2.6428935527801509
 70
   192
  0
VERTEX
  5
DA
  8
0
 62
   134
 10
-0.2738999128341675
 20
-0.2748027145862579
 30
2.6624336242675781
 70
   192
  0
VERTEX
  5
DB
  8
0
 62
   134
 10
-0.2592091560363769
 20
-0.2748027145862579
 30
2.677013397216796
 70
   192
  0
VERTEX
  5
DC
  8
0
 62
   134
 10
-0.4589739739894867
 20
1.243669152259826
 30
1.8328510522842401
 70
   192
  0
VERTEX
  5
DD
  8
0
 62
   134
 10
-0.4589739739894867
 20
1.1763335466384881
 30
1.832871556282043
 70
   192
  0
VERTEX
  5
DE
  8
0
 62
   134
 10
-0.4484469890594483
 20
1.1526883840560911
 30
1.8582971096038809
 70
   192
  0
VERTEX
  5
DF
  8
0
 62
   134
 10
-0.4238987565040589
 20
1.152116060256958
 30
1.917570114135742
 70
   192
  0
VERTEX
  5
E0
  8
0
 62
   134
 10
-0.4081082940101624
 20
1.073661684989929
 30
1.955745935440063
 70
   192
  0
VERTEX
  5
E1
  8
0
 62
   134
 10
-0.3803868293762207
 20
1.073557376861572
 30
2.0226771831512451
 70
   192
  0
VERTEX
  5
E2
  8
0
 62
   134
 10
-0.3645963668823242
 20
0.9964982867240905
 30
2.0608713626861568
 70
   192
  0
VERTEX
  5
E3
  8
0
 62
   134
 10
-0.3436200618743896
 20
0.9964982867240905
 30
2.1114952564239502
 70
   192
  0
VERTEX
  5
E4
  8
0
 62
   134
 10
-0.3294791579246521
 20
0.9744271636009216
 30
2.14565110206604
 70
   192
  0
VERTEX
  5
E5
  8
0
 62
   134
 10
-0.1735367923974991
 20
0.2655690014362335
 30
2.5231707096099849
 70
   192
  0
VERTEX
  5
E6
  8
0
 62
   134
 10
-0.142831027507782
 20
-0.1614930629730225
 30
2.597890853881835
 70
   192
  0
VERTEX
  5
E7
  8
0
 62
   134
 10
-0.1609342247247696
 20
-0.1851952821016312
 30
2.5545456409454341
 70
   192
  0
VERTEX
  5
E8
  8
0
 62
   134
 10
-0.1609342247247696
 20
-0.2506132423877716
 30
2.5549385547637931
 70
   192
  0
VERTEX
  5
E9
  8
0
 62
   134
 10
-0.1503086239099503
 20
-0.2748028039932251
 30
2.5804686546325679
 70
   192
  0
VERTEX
  5
EA
  8
0
 62
   134
 10
-0.1423609256744385
 20
-0.2748027741909027
 30
2.5995182991027832
 70
   192
  0
VERTEX
  5
EB
  8
0
 62
   134
 10
-0.0045257513411343
 20
1.243669152259826
 30
1.74247121810913
 70
   192
  0
VERTEX
  5
EC
  8
0
 62
   134
 10
-0.0045257513411343
 20
1.1763335466384881
 30
1.742493510246276
 70
   192
  0
VERTEX
  5
ED
  8
0
 62
   134
 10
-0.0045257559977472
 20
1.1526882648468011
 30
1.770013689994812
 70
   192
  0
VERTEX
  5
EE
  8
0
 62
   134
 10
-0.0045257671736181
 20
1.152116060256958
 30
1.834170222282409
 70
   192
  0
VERTEX
  5
EF
  8
0
 62
   134
 10
-0.0045257746241987
 20
1.073661684989929
 30
1.875491619110107
 70
   192
  0
VERTEX
  5
F0
  8
0
 62
   134
 10
-0.0045257871970534
 20
1.073557257652282
 30
1.947937369346618
 70
   192
  0
VERTEX
  5
F1
  8
0
 62
   134
 10
-0.004525794647634
 20
0.9964982867240905
 30
1.9892786741256709
 70
   192
  0
VERTEX
  5
F2
  8
0
 62
   134
 10
-0.0045258039608598
 20
0.9964982867240905
 30
2.0440733432769771
 70
   192
  0
VERTEX
  5
F3
  8
0
 62
   134
 10
-0.0045258104801178
 20
0.9744271636009216
 30
2.0810434818267818
 70
   192
  0
VERTEX
  5
F4
  8
0
 62
   134
 10
-0.0045258817262948
 20
0.265568882226944
 30
2.4896678924560538
 70
   192
  0
VERTEX
  5
F5
  8
0
 62
   134
 10
-0.0045216986909509
 20
-0.1614930629730225
 30
2.5705440044403072
 70
   192
  0
VERTEX
  5
F6
  8
0
 62
   134
 10
-0.0045258877798915
 20
-0.1851954609155655
 30
2.523627758026123
 70
   192
  0
VERTEX
  5
F7
  8
0
 62
   134
 10
-0.004521690774709
 20
-0.2506132423877716
 30
2.5240528583526611
 70
   192
  0
VERTEX
  5
F8
  8
0
 62
   134
 10
-0.0045216954313219
 20
-0.2748028635978699
 30
2.5516862869262691
 70
   192
  0
VERTEX
  5
F9
  8
0
 62
   134
 10
-0.0045216991566122
 20
-0.2748028039932251
 30
2.5723056793212891
 70
   192
  0
VERTEX
  5
FA
  8
0
 62
   134
 10
0.4499245285987854
 20
1.243669152259826
 30
1.8328514099121089
 70
   192
  0
VERTEX
  5
FB
  8
0
 62
   134
 10
0.4499245285987854
 20
1.1763335466384881
 30
1.832872033119201
 70
   192
  0
VERTEX
  5
FC
  8
0
 62
   134
 10
0.439397543668747
 20
1.1526883840560911
 30
1.85829746723175
 70
   192
  0
VERTEX
  5
FD
  8
0
 62
   134
 10
0.4148471951484681
 20
1.152116060256958
 30
1.91757047176361
 70
   192
  0
VERTEX
  5
FE
  8
0
 62
   134
 10
0.3990587890148163
 20
1.073661684989929
 30
1.9557462930679319
 70
   192
  0
VERTEX
  5
FF
  8
0
 62
   134
 10
0.3713373243808746
 20
1.073557376861572
 30
2.0226774215698242
 70
   192
  0
VERTEX
  5
100
  8
0
 62
   134
 10
0.3555468618869781
 20
0.9964982867240905
 30
2.060871839523315
 70
   192
  0
VERTEX
  5
101
  8
0
 62
   134
 10
0.3345705270767212
 20
0.9964982867240905
 30
2.1114954948425289
 70
   192
  0
VERTEX
  5
102
  8
0
 62
   134
 10
0.3204296231269836
 20
0.9744271636009216
 30
2.1456513404846191
 70
   192
  0
VERTEX
  5
103
  8
0
 62
   134
 10
0.1644871234893799
 20
0.2655690014362335
 30
2.523170948028564
 70
   192
  0
VERTEX
  5
104
  8
0
 62
   134
 10
0.1337855160236359
 20
-0.1614931225776672
 30
2.597890853881835
 70
   192
  0
VERTEX
  5
105
  8
0
 62
   134
 10
0.1518887430429459
 20
-0.1851952821016312
 30
2.5545458793640128
 70
   192
  0
VERTEX
  5
106
  8
0
 62
   134
 10
0.1518887430429459
 20
-0.2506131827831268
 30
2.5549385547637931
 70
   192
  0
VERTEX
  5
107
  8
0
 62
   134
 10
0.141261026263237
 20
-0.2748028039932251
 30
2.5804686546325679
 70
   192
  0
VERTEX
  5
108
  8
0
 62
   134
 10
0.1333091109991074
 20
-0.2748027741909027
 30
2.5995182991027832
 70
   192
  0
VERTEX
  5
109
  8
0
 62
   134
 10
0.8351876139640808
 20
1.243669152259826
 30
2.0902323722839351
 70
   192
  0
VERTEX
  5
10A
  8
0
 62
   134
 10
0.8351876139640808
 20
1.176333308219909
 30
2.0902481079101558
 70
   192
  0
VERTEX
  5
10B
  8
0
 62
   134
 10
0.8157349228858947
 20
1.152688145637512
 30
2.109708070755004
 70
   192
  0
VERTEX
  5
10C
  8
0
 62
   134
 10
0.7703740596771241
 20
1.152116060256958
 30
2.155073642730712
 70
   192
  0
VERTEX
  5
10D
  8
0
 62
   134
 10
0.7412002682685852
 20
1.073662042617797
 30
2.1842918395996089
 70
   192
  0
VERTEX
  5
10E
  8
0
 62
   134
 10
0.6899778246879578
 20
1.073557376861572
 30
2.2355189323425289
 70
   192
  0
VERTEX
  5
10F
  8
0
 62
   134
 10
0.6607998609542847
 20
0.9964982867240905
 30
2.264751434326171
 70
   192
  0
VERTEX
  5
110
  8
0
 62
   134
 10
0.6220393180847168
 20
0.9964982867240905
 30
2.303497314453125
 70
   192
  0
VERTEX
  5
111
  8
0
 62
   134
 10
0.5959128141403199
 20
0.9744271636009216
 30
2.329638957977294
 70
   192
  0
VERTEX
  5
112
  8
0
 62
   134
 10
0.3077681958675384
 20
0.2655690014362335
 30
2.6185798645019531
 70
   192
  0
VERTEX
  5
113
  8
0
 62
   134
 10
0.2510408759117126
 20
-0.1614931225776672
 30
2.6757678985595699
 70
   192
  0
VERTEX
  5
114
  8
0
 62
   134
 10
0.2844833433628082
 20
-0.1851954609155655
 30
2.642593145370483
 70
   192
  0
VERTEX
  5
115
  8
0
 62
   134
 10
0.2844833433628082
 20
-0.2506132125854492
 30
2.6428935527801509
 70
   192
  0
VERTEX
  5
116
  8
0
 62
   134
 10
0.2648501694202423
 20
-0.2748025953769684
 30
2.662433385848999
 70
   192
  0
VERTEX
  5
117
  8
0
 62
   134
 10
0.2501615285873413
 20
-0.2748027145862579
 30
2.677013397216796
 70
   192
  0
VERTEX
  5
118
  8
0
 62
   134
 10
1.0926116704940789
 20
1.2436693906784051
 30
2.4754302501678458
 70
   192
  0
VERTEX
  5
119
  8
0
 62
   134
 10
1.0926116704940789
 20
1.176333308219909
 30
2.4754385948181148
 70
   192
  0
VERTEX
  5
11A
  8
0
 62
   134
 10
1.067196607589721
 20
1.152688145637512
 30
2.4859702587127681
 70
   192
  0
VERTEX
  5
11B
  8
0
 62
   134
 10
1.007931947708129
 20
1.152116060256958
 30
2.5105218887329102
 70
   192
  0
VERTEX
  5
11C
  8
0
 62
   134
 10
0.9698094725608825
 20
1.073662042617797
 30
2.5263350009918208
 70
   192
  0
VERTEX
  5
11D
  8
0
 62
   134
 10
0.9028846621513366
 20
1.073557376861572
 30
2.5540587902069092
 70
   192
  0
VERTEX
  5
11E
  8
0
 62
   134
 10
0.8647642135620117
 20
0.9964983463287354
 30
2.5698790550231929
 70
   192
  0
VERTEX
  5
11F
  8
0
 62
   134
 10
0.8141188621520996
 20
0.9964983463287354
 30
2.590848207473754
 70
   192
  0
VERTEX
  5
120
  8
0
 62
   134
 10
0.7799838185310364
 20
0.9744272232055664
 30
2.6049959659576412
 70
   192
  0
VERTEX
  5
121
  8
0
 62
   134
 10
0.4035078585147858
 20
0.2655689120292664
 30
2.7613694667816162
 70
   192
  0
VERTEX
  5
122
  8
0
 62
   134
 10
0.3293887674808502
 20
-0.1614929884672165
 30
2.7923190593719478
 70
   192
  0
VERTEX
  5
123
  8
0
 62
   134
 10
0.3730832934379578
 20
-0.1851953864097595
 30
2.7743651866912842
 70
   192
  0
VERTEX
  5
124
  8
0
 62
   134
 10
0.3730832934379578
 20
-0.2506132125854492
 30
2.774527788162231
 70
   192
  0
VERTEX
  5
125
  8
0
 62
   134
 10
0.3474311232566833
 20
-0.2748025953769684
 30
2.785102367401123
 70
   192
  0
VERTEX
  5
126
  8
0
 62
   134
 10
0.3282386958599091
 20
-0.2748027145862579
 30
2.7929930686950679
 70
   192
  0
VERTEX
  5
127
  8
0
 62
   134
 10
1.1830059289932251
 20
1.2436695098876951
 30
2.9298017024993892
 70
   192
  0
VERTEX
  5
128
  8
0
 62
   134
 10
1.1830059289932251
 20
1.1763336658477781
 30
2.9298017024993892
 70
   192
  0
VERTEX
  5
129
  8
0
 62
   134
 10
1.155498504638671
 20
1.1526879072189331
 30
2.9298017024993892
 70
   192
  0
VERTEX
  5
12A
  8
0
 62
   134
 10
1.0913503170013421
 20
1.1521161794662469
 30
2.9298014640808101
 70
   192
  0
VERTEX
  5
12B
  8
0
 62
   134
 10
1.050086021423339
 20
1.0736618041992181
 30
2.9298014640808101
 70
   192
  0
VERTEX
  5
12C
  8
0
 62
   134
 10
0.9776479601860046
 20
1.073557376861572
 30
2.9298014640808101
 70
   192
  0
VERTEX
  5
12D
  8
0
 62
   134
 10
0.9363878965377807
 20
0.9964982271194458
 30
2.9298014640808101
 70
   192
  0
VERTEX
  5
12E
  8
0
 62
   134
 10
0.8815703988075256
 20
0.9964982271194458
 30
2.929801225662231
 70
   192
  0
VERTEX
  5
12F
  8
0
 62
   134
 10
0.8446210026741027
 20
0.9744271039962769
 30
2.9298014640808101
 70
   192
  0
VERTEX
  5
130
  8
0
 62
   134
 10
0.4371244907379151
 20
0.2655690312385559
 30
2.9298009872436519
 70
   192
  0
VERTEX
  5
131
  8
0
 62
   134
 10
0.3569024503231049
 20
-0.1614930331707001
 30
2.9298005104064941
 70
   192
  0
VERTEX
  5
132
  8
0
 62
   134
 10
0.4041982889175415
 20
-0.1851954311132431
 30
2.9298007488250728
 70
   192
  0
VERTEX
  5
133
  8
0
 62
   134
 10
0.4041982889175415
 20
-0.2506133317947388
 30
2.9298007488250728
 70
   192
  0
VERTEX
  5
134
  8
0
 62
   134
 10
0.3764306604862213
 20
-0.2748026251792908
 30
2.9298005104064941
 70
   192
  0
VERTEX
  5
135
  8
0
 62
   134
 10
0.3556558191776276
 20
-0.2748026251792908
 30
2.9298005104064941
 70
   192
  0
VERTEX
  5
136
  8
0
 62
   134
 10
1.0926094055175779
 20
1.243669271469116
 30
3.3841729164123531
 70
   192
  0
VERTEX
  5
137
  8
0
 62
   134
 10
1.0926094055175779
 20
1.1763336658477781
 30
3.384164333343505
 70
   192
  0
VERTEX
  5
138
  8
0
 62
   134
 10
1.067198514938354
 20
1.1526882648468011
 30
3.3736326694488521
 70
   192
  0
VERTEX
  5
139
  8
0
 62
   134
 10
1.0079298019409171
 20
1.1521157026290889
 30
3.34908103942871
 70
   192
  0
VERTEX
  5
13A
  8
0
 62
   134
 10
0.969809353351593
 20
1.0736618041992181
 30
3.3332679271697989
 70
   192
  0
VERTEX
  5
13B
  8
0
 62
   134
 10
0.9028845429420471
 20
1.073557376861572
 30
3.305544137954711
 70
   192
  0
VERTEX
  5
13C
  8
0
 62
   134
 10
0.8647640943527221
 20
0.9964982867240905
 30
3.2897233963012691
 70
   192
  0
VERTEX
  5
13D
  8
0
 62
   134
 10
0.81411874294281
 20
0.9964982867240905
 30
3.2687544822692871
 70
   192
  0
VERTEX
  5
13E
  8
0
 62
   134
 10
0.7799836993217469
 20
0.9744271636009216
 30
3.2546067237853999
 70
   192
  0
VERTEX
  5
13F
  8
0
 62
   134
 10
0.4035057127475739
 20
0.2655689418315887
 30
3.0982327461242671
 70
   192
  0
VERTEX
  5
140
  8
0
 62
   134
 10
0.3293887376785278
 20
-0.1614930778741836
 30
3.0672821998596191
 70
   192
  0
VERTEX
  5
141
  8
0
 62
   134
 10
0.373083233833313
 20
-0.1851953566074371
 30
3.0852363109588619
 70
   192
  0
VERTEX
  5
142
  8
0
 62
   134
 10
0.373083233833313
 20
-0.2506132423877716
 30
3.085073709487915
 70
   192
  0
VERTEX
  5
143
  8
0
 62
   134
 10
0.3474310636520386
 20
-0.274802565574646
 30
3.0744986534118648
 70
   192
  0
VERTEX
  5
144
  8
0
 62
   134
 10
0.3282386362552643
 20
-0.2748026251792908
 30
3.066607952117919
 70
   192
  0
VERTEX
  5
145
  8
0
 62
   134
 10
0.8351852297782897
 20
1.243669271469116
 30
3.7693707942962642
 70
   192
  0
VERTEX
  5
146
  8
0
 62
   134
 10
0.8351852297782897
 20
1.176333427429199
 30
3.7693545818328849
 70
   192
  0
VERTEX
  5
147
  8
0
 62
   134
 10
0.8157346248626708
 20
1.1526882648468011
 30
3.7498946189880371
 70
   192
  0
VERTEX
  5
148
  8
0
 62
   134
 10
0.7703737616539002
 20
1.1521157026290889
 30
3.7045292854309082
 70
   192
  0
VERTEX
  5
149
  8
0
 62
   134
 10
0.741197943687439
 20
1.0736619234085081
 30
3.675310373306274
 70
   192
  0
VERTEX
  5
14A
  8
0
 62
   134
 10
0.6899754405021668
 20
1.0735570192337029
 30
3.6240837574005118
 70
   192
  0
VERTEX
  5
14B
  8
0
 62
   134
 10
0.6608017086982727
 20
0.9964982867240905
 30
3.594850778579711
 70
   192
  0
VERTEX
  5
14C
  8
0
 62
   134
 10
0.6220369935035706
 20
0.9964982867240905
 30
3.5561053752899161
 70
   192
  0
VERTEX
  5
14D
  8
0
 62
   134
 10
0.5959126353263855
 20
0.9744271636009216
 30
3.529963254928588
 70
   192
  0
VERTEX
  5
14E
  8
0
 62
   134
 10
0.3077680766582489
 20
0.2655690610408783
 30
3.241021871566772
 70
   192
  0
VERTEX
  5
14F
  8
0
 62
   134
 10
0.2510407865047455
 20
-0.1614929586648941
 30
3.1838335990905762
 70
   192
  0
VERTEX
  5
150
  8
0
 62
   134
 10
0.2844832241535187
 20
-0.1851954013109207
 30
3.2170083522796631
 70
   192
  0
VERTEX
  5
151
  8
0
 62
   134
 10
0.2844832241535187
 20
-0.2506133019924164
 30
3.216707706451416
 70
   192
  0
VERTEX
  5
152
  8
0
 62
   134
 10
0.2648500800132751
 20
-0.2748027443885803
 30
3.1971676349639888
 70
   192
  0
VERTEX
  5
153
  8
0
 62
   134
 10
0.2501614391803741
 20
-0.2748028635978699
 30
3.1825878620147701
 70
   192
  0
VERTEX
  5
154
  8
0
 62
   134
 10
0.4499220550060273
 20
1.2436693906784051
 30
4.0267510414123526
 70
   192
  0
VERTEX
  5
155
  8
0
 62
   134
 10
0.4499220550060273
 20
1.1763336658477781
 30
4.0267305374145499
 70
   192
  0
VERTEX
  5
156
  8
0
 62
   134
 10
0.4393950700759888
 20
1.1526882648468011
 30
4.0013051033020011
 70
   192
  0
VERTEX
  5
157
  8
0
 62
   134
 10
0.4148489236831665
 20
1.1521157026290889
 30
3.9420318603515621
 70
   192
  0
VERTEX
  5
158
  8
0
 62
   134
 10
0.3990563750267029
 20
1.073661684989929
 30
3.9038560390472412
 70
   192
  0
VERTEX
  5
159
  8
0
 62
   134
 10
0.3713349103927612
 20
1.073557257652282
 30
3.8369247913360591
 70
   192
  0
VERTEX
  5
15A
  8
0
 62
   134
 10
0.3555444478988647
 20
0.9964982867240905
 30
3.798730611801147
 70
   192
  0
VERTEX
  5
15B
  8
0
 62
   134
 10
0.3345681428909302
 20
0.9964982867240905
 30
3.748106718063354
 70
   192
  0
VERTEX
  5
15C
  8
0
 62
   134
 10
0.3204314410686493
 20
0.9744271636009216
 30
3.7139508724212642
 70
   192
  0
VERTEX
  5
15D
  8
0
 62
   134
 10
0.1644869744777679
 20
0.2655689418315887
 30
3.3364307880401611
 70
   192
  0
VERTEX
  5
15E
  8
0
 62
   134
 10
0.1337853968143463
 20
-0.1614930629730225
 30
3.2617106437683101
 70
   192
  0
VERTEX
  5
15F
  8
0
 62
   134
 10
0.1518886089324951
 20
-0.1851952821016312
 30
3.3050553798675528
 70
   192
  0
VERTEX
  5
160
  8
0
 62
   134
 10
0.1518886089324951
 20
-0.2506131529808044
 30
3.304662704467773
 70
   192
  0
VERTEX
  5
161
  8
0
 62
   134
 10
0.1412608921527862
 20
-0.2748029232025146
 30
3.279132604598999
 70
   192
  0
VERTEX
  5
162
  8
0
 62
   134
 10
0.1333110928535461
 20
-0.2748027443885803
 30
3.2600827217102051
 70
   192
  0
VERTEX
  5
163
  8
0
 62
   134
 10
-0.0045261667110026
 20
1.2436693906784051
 30
4.117131233215332
 70
   192
  0
VERTEX
  5
164
  8
0
 62
   134
 10
-0.0045261667110026
 20
1.176333427429199
 30
4.1171088218688956
 70
   192
  0
VERTEX
  5
165
  8
0
 62
   134
 10
-0.0045261615887284
 20
1.1526882648468011
 30
4.089587688446044
 70
   192
  0
VERTEX
  5
166
  8
0
 62
   134
 10
-0.0045261504128575
 20
1.1521157026290889
 30
4.0254311561584473
 70
   192
  0
VERTEX
  5
167
  8
0
 62
   134
 10
-0.0045261434279382
 20
1.073661684989929
 30
3.9841101169586182
 70
   192
  0
VERTEX
  5
168
  8
0
 62
   134
 10
-0.0045261303894222
 20
1.0735570192337029
 30
3.9116642475128169
 70
   192
  0
VERTEX
  5
169
  8
0
 62
   134
 10
-0.0045261234045029
 20
0.9964982867240905
 30
3.8703229427337642
 70
   192
  0
VERTEX
  5
16A
  8
0
 62
   134
 10
-0.0045261136256158
 20
0.9964982867240905
 30
3.8155281543731681
 70
   192
  0
VERTEX
  5
16B
  8
0
 62
   134
 10
-0.0045261071063578
 20
0.9744272232055664
 30
3.7785582542419429
 70
   192
  0
VERTEX
  5
16C
  8
0
 62
   134
 10
-0.0045260358601809
 20
0.2655690610408783
 30
3.3699336051940909
 70
   192
  0
VERTEX
  5
16D
  8
0
 62
   134
 10
-0.0045197256840765
 20
-0.161493182182312
 30
3.2890572547912589
 70
   192
  0
VERTEX
  5
16E
  8
0
 62
   134
 10
-0.0045239310711622
 20
-0.1851954609155655
 30
3.3359735012054439
 70
   192
  0
VERTEX
  5
16F
  8
0
 62
   134
 10
-0.0045239310711622
 20
-0.250613272190094
 30
3.3355484008789058
 70
   192
  0
VERTEX
  5
170
  8
0
 62
   134
 10
-0.0045239264145494
 20
-0.2748029232025146
 30
3.3079147338867179
 70
   192
  0
VERTEX
  5
171
  8
0
 62
   134
 10
-0.0045239226892591
 20
-0.2748029232025146
 30
3.2872955799102779
 70
   192
  0
VERTEX
  5
172
  8
0
 62
   134
 10
-0.4589722454547882
 20
1.2436693906784051
 30
4.0267505645751953
 70
   192
  0
VERTEX
  5
173
  8
0
 62
   134
 10
-0.4589722454547882
 20
1.1763336658477781
 30
4.0267300605773917
 70
   192
  0
VERTEX
  5
174
  8
0
 62
   134
 10
-0.4484473764896393
 20
1.1526882648468011
 30
4.0013041496276847
 70
   192
  0
VERTEX
  5
175
  8
0
 62
   134
 10
-0.4238990843296051
 20
1.1521157026290889
 30
3.9420313835144039
 70
   192
  0
VERTEX
  5
176
  8
0
 62
   134
 10
-0.4081086218357087
 20
1.073661684989929
 30
3.903855323791503
 70
   192
  0
VERTEX
  5
177
  8
0
 62
   134
 10
-0.380387157201767
 20
1.073557257652282
 30
3.8369243144989009
 70
   192
  0
VERTEX
  5
178
  8
0
 62
   134
 10
-0.364594578742981
 20
0.9964982867240905
 30
3.7987298965454102
 70
   192
  0
VERTEX
  5
179
  8
0
 62
   134
 10
-0.3436203598976135
 20
0.9964982867240905
 30
3.7481060028076172
 70
   192
  0
VERTEX
  5
17A
  8
0
 62
   134
 10
-0.3294815421104431
 20
0.9744271636009216
 30
3.7139501571655269
 70
   192
  0
VERTEX
  5
17B
  8
0
 62
   134
 10
-0.173536941409111
 20
0.2655689418315887
 30
3.3364307880401611
 70
   192
  0
VERTEX
  5
17C
  8
0
 62
   134
 10
-0.1428311318159103
 20
-0.1614930033683777
 30
3.261710405349731
 70
   192
  0
VERTEX
  5
17D
  8
0
 62
   134
 10
-0.1609343588352203
 20
-0.1851954013109207
 30
3.3050553798675528
 70
   192
  0
VERTEX
  5
17E
  8
0
 62
   134
 10
-0.1609343588352203
 20
-0.2506131529808044
 30
3.304662704467773
 70
   192
  0
VERTEX
  5
17F
  8
0
 62
   134
 10
-0.1503087431192398
 20
-0.2748028039932251
 30
3.279132366180419
 70
   192
  0
VERTEX
  5
180
  8
0
 62
   134
 10
-0.1423589289188385
 20
-0.2748028039932251
 30
3.2600827217102051
 70
   192
  0
VERTEX
  5
181
  8
0
 62
   134
 10
-0.8442374467849731
 20
1.243669271469116
 30
3.76936936378479
 70
   192
  0
VERTEX
  5
182
  8
0
 62
   134
 10
-0.8442374467849731
 20
1.176333427429199
 30
3.7693536281585689
 70
   192
  0
VERTEX
  5
183
  8
0
 62
   134
 10
-0.8247868418693543
 20
1.1526882648468011
 30
3.7498934268951412
 70
   192
  0
VERTEX
  5
184
  8
0
 62
   134
 10
-0.7794238924980164
 20
1.1521157026290889
 30
3.7045280933380118
 70
   192
  0
VERTEX
  5
185
  8
0
 62
   134
 10
-0.7502501010894777
 20
1.0736619234085081
 30
3.675309419631958
 70
   192
  0
VERTEX
  5
186
  8
0
 62
   134
 10
-0.6990275979042054
 20
1.0735570192337029
 30
3.6240825653076172
 70
   192
  0
VERTEX
  5
187
  8
0
 62
   134
 10
-0.6698517799377443
 20
0.9964982867240905
 30
3.5948498249053951
 70
   192
  0
VERTEX
  5
188
  8
0
 62
   134
 10
-0.6310891509056092
 20
0.9964982867240905
 30
3.556104183197021
 70
   192
  0
VERTEX
  5
189
  8
0
 62
   134
 10
-0.6049605607986451
 20
0.9744271636009216
 30
3.5299625396728511
 70
   192
  0
VERTEX
  5
18A
  8
0
 62
   134
 10
-0.3168180286884308
 20
0.2655689418315887
 30
3.2410216331481929
 70
   192
  0
VERTEX
  5
18B
  8
0
 62
   134
 10
-0.2600885927677154
 20
-0.1614929586648941
 30
3.1838333606719971
 70
   192
  0
VERTEX
  5
18C
  8
0
 62
   134
 10
-0.2935331463813782
 20
-0.1851954013109207
 30
3.2170081138610831
 70
   192
  0
VERTEX
  5
18D
  8
0
 62
   134
 10
-0.2935331463813782
 20
-0.2506131827831268
 30
3.216707468032836
 70
   192
  0
VERTEX
  5
18E
  8
0
 62
   134
 10
-0.2739000022411346
 20
-0.2748026847839355
 30
3.1971673965454102
 70
   192
  0
VERTEX
  5
18F
  8
0
 62
   134
 10
-0.2592092454433441
 20
-0.2748026847839355
 30
3.182587623596191
 70
   192
  0
VERTEX
  5
190
  8
0
 62
   134
 10
-1.1016614437103269
 20
1.243669271469116
 30
3.3841719627380371
 70
   192
  0
VERTEX
  5
191
  8
0
 62
   134
 10
-1.1016614437103269
 20
1.1763336658477781
 30
3.384163379669189
 70
   192
  0
VERTEX
  5
192
  8
0
 62
   134
 10
-1.0762485265731809
 20
1.1526882648468011
 30
3.3736317157745361
 70
   192
  0
VERTEX
  5
193
  8
0
 62
   134
 10
-1.0169796943664551
 20
1.1521157026290889
 30
3.3490800857543941
 70
   192
  0
VERTEX
  5
194
  8
0
 62
   134
 10
-0.9788593053817749
 20
1.0736618041992181
 30
3.3332672119140621
 70
   192
  0
VERTEX
  5
195
  8
0
 62
   134
 10
-0.9119365811347961
 20
1.073557376861572
 30
3.3055434226989742
 70
   192
  0
VERTEX
  5
196
  8
0
 62
   134
 10
-0.8738161325454711
 20
0.9964982867240905
 30
3.2897226810455318
 70
   192
  0
VERTEX
  5
197
  8
0
 62
   134
 10
-0.823170781135559
 20
0.9964982867240905
 30
3.2687537670135489
 70
   192
  0
VERTEX
  5
198
  8
0
 62
   134
 10
-0.7890357375144959
 20
0.9744271636009216
 30
3.2546060085296631
 70
   192
  0
VERTEX
  5
199
  8
0
 62
   134
 10
-0.4125555753707886
 20
0.2655689418315887
 30
3.0982322692871089
 70
   192
  0
VERTEX
  5
19A
  8
0
 62
   134
 10
-0.338436484336853
 20
-0.1614932715892792
 30
3.0672821998596191
 70
   192
  0
VERTEX
  5
19B
  8
0
 62
   134
 10
-0.3821289241313934
 20
-0.1851953566074371
 30
3.0852363109588619
 70
   192
  0
VERTEX
  5
19C
  8
0
 62
   134
 10
-0.3821289241313934
 20
-0.2506132423877716
 30
3.085073709487915
 70
   192
  0
VERTEX
  5
19D
  8
0
 62
   134
 10
-0.3564788401126862
 20
-0.2748027443885803
 30
3.0744986534118648
 70
   192
  0
VERTEX
  5
19E
  8
0
 62
   134
 10
-0.3372864127159119
 20
-0.2748026251792908
 30
3.066607952117919
 70
   192
  0
VERTEX
  5
19F
  8
0
 62
   134
 10
0.3723319470882416
 20
-0.2734578251838684
 30
2.9298019409179679
 70
   192
  0
VERTEX
  5
1A0
  8
0
 62
   134
 10
0.2690118253231049
 20
-0.5235391259193422
 30
2.9298019409179679
 70
   192
  0
VERTEX
  5
1A1
  8
0
 62
   134
 10
0.1905547231435776
 20
-0.5284714102745057
 30
3.118768453598022
 70
   192
  0
VERTEX
  5
1A2
  8
0
 62
   134
 10
0.0012474635150284
 20
-0.5403807163238527
 30
3.1970722675323482
 70
   192
  0
VERTEX
  5
1A3
  8
0
 62
   134
 10
-0.1880597770214081
 20
-0.5523054599761963
 30
3.118751049041748
 70
   192
  0
VERTEX
  5
1A4
  8
0
 62
   134
 10
-0.2665168046951294
 20
-0.5572518110275269
 30
2.9298019409179679
 70
   192
  0
VERTEX
  5
1A5
  8
0
 62
   134
 10
-0.1880597025156021
 20
-0.552305281162262
 30
2.7408525943756099
 70
   192
  0
VERTEX
  5
1A6
  8
0
 62
   134
 10
0.0012475569965318
 20
-0.5403806567192078
 30
2.662531614303588
 70
   192
  0
VERTEX
  5
1A7
  8
0
 62
   134
 10
0.1905547976493835
 20
-0.5284711718559266
 30
2.7408356666564941
 70
   192
  0
VERTEX
  5
1A8
  8
0
 62
   134
 10
0.2868338227272034
 20
-0.5789330005645752
 30
2.9298019409179679
 70
   192
  0
VERTEX
  5
1A9
  8
0
 62
   134
 10
0.2179005295038223
 20
-0.616830587387085
 30
3.119631290435791
 70
   192
  0
VERTEX
  5
1AA
  8
0
 62
   134
 10
0.0515759140253067
 20
-0.7088956236839296
 30
3.198225498199462
 70
   192
  0
VERTEX
  5
1AB
  8
0
 62
   134
 10
-0.1147507727146149
 20
-0.801870584487915
 30
3.1195263862609859
 70
   192
  0
VERTEX
  5
1AC
  8
0
 62
   134
 10
-0.1836839914321899
 20
-0.8406788706779479
 30
2.9298019409179679
 70
   192
  0
VERTEX
  5
1AD
  8
0
 62
   134
 10
-0.1147507056593895
 20
-0.8018705248832702
 30
2.7400772571563721
 70
   192
  0
VERTEX
  5
1AE
  8
0
 62
   134
 10
0.0515760071575642
 20
-0.7088956832885743
 30
2.6613783836364742
 70
   192
  0
VERTEX
  5
1AF
  8
0
 62
   134
 10
0.2179005891084671
 20
-0.6168305277824402
 30
2.739972591400146
 70
   192
  0
VERTEX
  5
1B0
  8
0
 62
   134
 10
0.3296573758125305
 20
-0.6135494709014893
 30
2.9298019409179679
 70
   192
  0
VERTEX
  5
1B1
  8
0
 62
   134
 10
0.2888443171977997
 20
-0.6783402562141419
 30
3.1187748908996582
 70
   192
  0
VERTEX
  5
1B2
  8
0
 62
   134
 10
0.1903679221868515
 20
-0.8365316987037658
 30
3.196977853775024
 70
   192
  0
VERTEX
  5
1B3
  8
0
 62
   134
 10
0.0918915718793869
 20
-0.9974998831748962
 30
3.1186358928680411
 70
   192
  0
VERTEX
  5
1B4
  8
0
 62
   134
 10
0.0510785728693009
 20
-1.065067291259765
 30
2.9298019409179679
 70
   192
  0
VERTEX
  5
1B5
  8
0
 62
   134
 10
0.0918916389346123
 20
-0.9974998831748962
 30
2.7409682273864742
 70
   192
  0
VERTEX
  5
1B6
  8
0
 62
   134
 10
0.1903680264949798
 20
-0.836531639099121
 30
2.6626260280609131
 70
   192
  0
VERTEX
  5
1B7
  8
0
 62
   134
 10
0.2888443768024444
 20
-0.6783401370048523
 30
2.740829229354858
 70
   192
  0
VERTEX
  5
1B8
  8
0
 62
   134
 10
0.3917866945266723
 20
-0.6241971850395203
 30
2.9298019409179679
 70
   192
  0
VERTEX
  5
1B9
  8
0
 62
   134
 10
0.3857382833957672
 20
-0.7024543285369873
 30
3.1265070438385001
 70
   192
  0
VERTEX
  5
1BA
  8
0
 62
   134
 10
0.371144026517868
 20
-0.8940191268920898
 30
3.2078955173492432
 70
   192
  0
VERTEX
  5
1BB
  8
0
 62
   134
 10
0.3565498292446136
 20
-1.089712381362915
 30
3.126355648040771
 70
   192
  0
VERTEX
  5
1BC
  8
0
 62
   134
 10
0.3505014777183533
 20
-1.1720988750457759
 30
2.9298019409179679
 70
   192
  0
VERTEX
  5
1BD
  8
0
 62
   134
 10
0.3565498888492584
 20
-1.0897125005722039
 30
2.7332484722137451
 70
   192
  0
VERTEX
  5
1BE
  8
0
 62
   134
 10
0.3711441457271576
 20
-0.8940191268920898
 30
2.6517083644866939
 70
   192
  0
VERTEX
  5
1BF
  8
0
 62
   134
 10
0.385738343000412
 20
-0.7024545669555664
 30
2.7330973148345938
 70
   192
  0
VERTEX
  5
1C0
  8
0
 62
   134
 10
0.5013168454170227
 20
-0.6013361215591431
 30
2.9298019409179679
 70
   192
  0
VERTEX
  5
1C1
  8
0
 62
   134
 10
0.501316785812378
 20
-0.6881354451179506
 30
3.145728111267089
 70
   192
  0
VERTEX
  5
1C2
  8
0
 62
   134
 10
0.501316785812378
 20
-0.9009426236152648
 30
3.2350525856018062
 70
   192
  0
VERTEX
  5
1C3
  8
0
 62
   134
 10
0.501316785812378
 20
-1.1188603639602659
 30
3.14554738998413
 70
   192
  0
VERTEX
  5
1C4
  8
0
 62
   134
 10
0.50131893157959
 20
-1.2107739448547361
 30
2.929802179336547
 70
   192
  0
VERTEX
  5
1C5
  8
0
 62
   134
 10
0.5013168454170227
 20
-1.1188602447509759
 30
2.7140564918518062
 70
   192
  0
VERTEX
  5
1C6
  8
0
 62
   134
 10
0.5013169050216675
 20
-0.9009426236152648
 30
2.6245515346527091
 70
   192
  0
VERTEX
  5
1C7
  8
0
 62
   134
 10
0.5013168454170227
 20
-0.6881356835365297
 30
2.7138760089874259
 70
   192
  0
VERTEX
  5
1C8
  8
0
 62
   134
 10
0.5545414686203003
 20
-0.5706815719604493
 30
2.9298019409179679
 70
   192
  0
VERTEX
  5
1C9
  8
0
 62
   134
 10
0.5545414090156556
 20
-0.6662553548812867
 30
3.1682260036468501
 70
   192
  0
VERTEX
  5
1CA
  8
0
 62
   134
 10
0.5545434951782227
 20
-0.9009428024291992
 30
3.2668342590332031
 70
   192
  0
VERTEX
  5
1CB
  8
0
 62
   134
 10
0.5545434951782227
 20
-1.1418600082397461
 30
3.168006420135498
 70
   192
  0
VERTEX
  5
1CC
  8
0
 62
   134
 10
0.5545435547828675
 20
-1.243668675422668
 30
2.9298019409179679
 70
   192
  0
VERTEX
  5
1CD
  8
0
 62
   134
 10
0.5545436143875122
 20
-1.1418598890304561
 30
2.6915977001190181
 70
   192
  0
VERTEX
  5
1CE
  8
0
 62
   134
 10
0.5545436143875122
 20
-0.9009428024291992
 30
2.5927700996398921
 70
   192
  0
VERTEX
  5
1CF
  8
0
 62
   134
 10
0.5545436143875122
 20
-0.666255533695221
 30
2.691378116607666
 70
   192
  0
VERTEX
  5
1D0
  8
0
 62
   134
 10
0.6070168614387513
 20
-0.5830609798431397
 30
2.9300439357757559
 70
   192
  0
VERTEX
  5
1D1
  8
0
 62
   134
 10
0.6070168018341065
 20
-0.6755238175392151
 30
3.156690120697021
 70
   192
  0
VERTEX
  5
1D2
  8
0
 62
   134
 10
0.6070168018341065
 20
-0.9005287289619445
 30
3.2505273818969722
 70
   192
  0
VERTEX
  5
1D3
  8
0
 62
   134
 10
0.6070168018341065
 20
-1.128434181213378
 30
3.1565876007080069
 70
   192
  0
VERTEX
  5
1D4
  8
0
 62
   134
 10
0.6070189476013184
 20
-1.223798871040344
 30
2.9300439357757559
 70
   192
  0
VERTEX
  5
1D5
  8
0
 62
   134
 10
0.6070168614387513
 20
-1.12843382358551
 30
2.703500270843505
 70
   192
  0
VERTEX
  5
1D6
  8
0
 62
   134
 10
0.607016921043396
 20
-0.9005287885665894
 30
2.609560251235961
 70
   192
  0
VERTEX
  5
1D7
  8
0
 62
   134
 10
0.6070168614387513
 20
-0.6755238771438599
 30
2.7033977508544922
 70
   192
  0
VERTEX
  5
1D8
  8
0
 62
   134
 10
0.2866575121879577
 20
-0.4113123416900635
 30
3.0485141277313228
 70
   192
  0
VERTEX
  5
1D9
  8
0
 62
   134
 10
0.1163076013326645
 20
-0.4113599061965943
 30
3.2164428234100342
 70
   192
  0
VERTEX
  5
1DA
  8
0
 62
   134
 10
-0.124543234705925
 20
-0.4114266633987427
 30
3.2164425849914551
 70
   192
  0
VERTEX
  5
1DB
  8
0
 62
   134
 10
-0.2948930859565735
 20
-0.4114743769168854
 30
3.0485138893127441
 70
   192
  0
VERTEX
  5
1DC
  8
0
 62
   134
 10
-0.2948930263519287
 20
-0.4114744067192078
 30
2.8110897541046138
 70
   192
  0
VERTEX
  5
1DD
  8
0
 62
   134
 10
-0.1245431303977966
 20
-0.4114266633987427
 30
2.6431610584259029
 70
   192
  0
VERTEX
  5
1DE
  8
0
 62
   134
 10
0.1163076981902122
 20
-0.4113602340221405
 30
2.643161296844482
 70
   192
  0
VERTEX
  5
1DF
  8
0
 62
   134
 10
0.2866575419902801
 20
-0.4113121032714844
 30
2.8110899925231929
 70
   192
  0
VERTEX
  5
1E0
  8
0
 62
   134
 10
0.2525854408740997
 20
-0.559727430343628
 30
3.0311818122863761
 70
   192
  0
VERTEX
  5
1E1
  8
0
 62
   134
 10
0.1147671788930893
 20
-0.596029818058014
 30
3.174560546875
 70
   192
  0
VERTEX
  5
1E2
  8
0
 62
   134
 10
-0.0800847858190537
 20
-0.6475892663002015
 30
3.1745171546936031
 70
   192
  0
VERTEX
  5
1E3
  8
0
 62
   134
 10
-0.217900887131691
 20
-0.6842253804206849
 30
3.0311386585235591
 70
   192
  0
VERTEX
  5
1E4
  8
0
 62
   134
 10
-0.2179008573293686
 20
-0.6842255592346193
 30
2.8284649848937979
 70
   192
  0
VERTEX
  5
1E5
  8
0
 62
   134
 10
-0.0800846964120865
 20
-0.6475892663002015
 30
2.6850867271423331
 70
   192
  0
VERTEX
  5
1E6
  8
0
 62
   134
 10
0.1147672608494759
 20
-0.5960298776626587
 30
2.6850435733795162
 70
   192
  0
VERTEX
  5
1E7
  8
0
 62
   134
 10
0.2525854706764221
 20
-0.5597277283668518
 30
2.8284220695495601
 70
   192
  0
VERTEX
  5
1E8
  8
0
 62
   134
 10
0.2907709181308746
 20
-0.613071084022522
 30
3.031954288482666
 70
   192
  0
VERTEX
  5
1E9
  8
0
 62
   134
 10
0.1856605857610702
 20
-0.7111455202102662
 30
3.1763794422149649
 70
   192
  0
VERTEX
  5
1EA
  8
0
 62
   134
 10
0.0370530486106873
 20
-0.8515821695327758
 30
3.1762888431549068
 70
   192
  0
VERTEX
  5
1EB
  8
0
 62
   134
 10
-0.068055123090744
 20
-0.9522264003753662
 30
3.0318641662597652
 70
   192
  0
VERTEX
  5
1EC
  8
0
 62
   134
 10
-0.068055085837841
 20
-0.9522264599800109
 30
2.8277394771575919
 70
   192
  0
VERTEX
  5
1ED
  8
0
 62
   134
 10
0.0370552353560925
 20
-0.8515819311141967
 30
2.6833148002624512
 70
   192
  0
VERTEX
  5
1EE
  8
0
 62
   134
 10
0.1856606751680374
 20
-0.71114581823349
 30
2.6832244396209708
 70
   192
  0
VERTEX
  5
1EF
  8
0
 62
   134
 10
0.290770947933197
 20
-0.6130709648132325
 30
2.827649593353271
 70
   192
  0
VERTEX
  5
1F0
  8
0
 62
   134
 10
0.3503062725067139
 20
-0.6423854827880861
 30
3.0330317020416251
 70
   192
  0
VERTEX
  5
1F1
  8
0
 62
   134
 10
0.310454398393631
 20
-0.7770189642906189
 30
3.1789586544036861
 70
   192
  0
VERTEX
  5
1F2
  8
0
 62
   134
 10
0.2541132569313049
 20
-0.9707786440849304
 30
3.1788563728332511
 70
   192
  0
VERTEX
  5
1F3
  8
0
 62
   134
 10
0.214263528585434
 20
-1.110386729240417
 30
3.0329303741455069
 70
   192
  0
VERTEX
  5
1F4
  8
0
 62
   134
 10
0.2142635583877563
 20
-1.110386729240417
 30
2.8266732692718501
 70
   192
  0
VERTEX
  5
1F5
  8
0
 62
   134
 10
0.2541133165359497
 20
-0.970778465270996
 30
2.6807475090026851
 70
   192
  0
VERTEX
  5
1F6
  8
0
 62
   134
 10
0.3104544878005981
 20
-0.7770184874534607
 30
2.6806452274322501
 70
   192
  0
VERTEX
  5
1F7
  8
0
 62
   134
 10
0.3503063023090362
 20
-0.6423854827880861
 30
2.8265724182128902
 70
   192
  0
VERTEX
  5
1F8
  8
0
 62
   134
 10
0.4425915479660035
 20
-0.6375893950462342
 30
3.0406699180603018
 70
   192
  0
VERTEX
  5
1F9
  8
0
 62
   134
 10
0.4416491985321045
 20
-0.7909551858901978
 30
3.1973810195922852
 70
   192
  0
VERTEX
  5
1FA
  8
0
 62
   134
 10
0.4403207302093506
 20
-1.0122386217117301
 30
3.1972646713256831
 70
   192
  0
VERTEX
  5
1FB
  8
0
 62
   134
 10
0.4393826425075531
 20
-1.172123789787292
 30
3.0405559539794922
 70
   192
  0
VERTEX
  5
1FC
  8
0
 62
   134
 10
0.4393827021121979
 20
-1.172123789787292
 30
2.8190484046936031
 70
   192
  0
VERTEX
  5
1FD
  8
0
 62
   134
 10
0.4403208196163178
 20
-1.0122388601303101
 30
2.662339210510253
 70
   192
  0
VERTEX
  5
1FE
  8
0
 62
   134
 10
0.4416492879390717
 20
-0.7909552454948426
 30
2.662223100662231
 70
   192
  0
VERTEX
  5
1FF
  8
0
 62
   134
 10
0.4425915777683258
 20
-0.6375891566276551
 30
2.8189339637756339
 70
   192
  0
VERTEX
  5
200
  8
0
 62
   134
 10
0.5279952287673951
 20
-0.60728257894516
 30
3.0537734031677242
 70
   192
  0
VERTEX
  5
201
  8
0
 62
   134
 10
0.5279951691627504
 20
-0.7781972289085389
 30
3.2289841175079341
 70
   192
  0
VERTEX
  5
202
  8
0
 62
   134
 10
0.5279973149299622
 20
-1.0253713130950921
 30
3.2288386821746822
 70
   192
  0
VERTEX
  5
203
  8
0
 62
   134
 10
0.5279973149299622
 20
-1.204420089721679
 30
3.0536313056945801
 70
   192
  0
VERTEX
  5
204
  8
0
 62
   134
 10
0.527997374534607
 20
-1.2044198513030999
 30
2.8059728145599361
 70
   192
  0
VERTEX
  5
205
  8
0
 62
   134
 10
0.527997374534607
 20
-1.025371193885803
 30
2.6307649612426749
 70
   192
  0
VERTEX
  5
206
  8
0
 62
   134
 10
0.5279952883720398
 20
-0.7781972885131836
 30
2.630620002746582
 70
   192
  0
VERTEX
  5
207
  8
0
 62
   134
 10
0.5279952883720398
 20
-0.6072826385498047
 30
2.8058309555053711
 70
   192
  0
VERTEX
  5
208
  8
0
 62
   134
 10
0.5808231830596924
 20
-0.5984033942222596
 30
3.0575859546661368
 70
   192
  0
VERTEX
  5
209
  8
0
 62
   134
 10
0.5808231830596924
 20
-0.7744520902633667
 30
3.2381792068481441
 70
   192
  0
VERTEX
  5
20A
  8
0
 62
   134
 10
0.5808252692222596
 20
-1.029221773147583
 30
3.2380249500274649
 70
   192
  0
VERTEX
  5
20B
  8
0
 62
   134
 10
0.5808253288269043
 20
-1.2139109373092649
 30
3.0574355125427242
 70
   192
  0
VERTEX
  5
20C
  8
0
 62
   134
 10
0.5808253288269043
 20
-1.2139112949371329
 30
2.8021686077117911
 70
   192
  0
VERTEX
  5
20D
  8
0
 62
   134
 10
0.5808253884315491
 20
-1.029221773147583
 30
2.6215789318084708
 70
   192
  0
VERTEX
  5
20E
  8
0
 62
   134
 10
0.580823302268982
 20
-0.7744519710540772
 30
2.6214249134063721
 70
   192
  0
VERTEX
  5
20F
  8
0
 62
   134
 10
0.5808232426643372
 20
-0.5984035134315491
 30
2.802018165588378
 70
   192
  0
VERTEX
  5
210
  8
0
 62
   134
 10
0.3425705432891846
 20
-0.2734577357769012
 30
3.0714707374572749
 70
   192
  0
VERTEX
  5
211
  8
0
 62
   134
 10
0.1394644230604172
 20
-0.273457795381546
 30
3.2718734741210929
 70
   192
  0
VERTEX
  5
212
  8
0
 62
   134
 10
-0.1476916819810867
 20
-0.273457795381546
 30
3.2718734741210929
 70
   192
  0
VERTEX
  5
213
  8
0
 62
   134
 10
-0.350797712802887
 20
-0.2734576761722565
 30
3.0714704990386958
 70
   192
  0
VERTEX
  5
214
  8
0
 62
   134
 10
-0.3507976830005646
 20
-0.2734577059745789
 30
2.7881331443786621
 70
   192
  0
VERTEX
  5
215
  8
0
 62
   134
 10
-0.1476915627717972
 20
-0.2734578549861908
 30
2.5877304077148429
 70
   192
  0
VERTEX
  5
216
  8
0
 62
   134
 10
0.1394645422697067
 20
-0.2734578549861908
 30
2.587730646133422
 70
   192
  0
VERTEX
  5
217
  8
0
 62
   134
 10
0.342570573091507
 20
-0.2734578847885132
 30
2.7881333827972412
 70
   192
  0
VERTEX
  5
218
  8
0
 62
   134
 10
0.2478403151035309
 20
-0.5248698592185975
 30
3.031746387481689
 70
   192
  0
VERTEX
  5
219
  8
0
 62
   134
 10
0.3116234242916107
 20
-0.4113053381443024
 30
2.9298019409179679
 70
   192
  0
VERTEX
  5
21A
  8
0
 62
   134
 10
0.2191093564033508
 20
-0.411331057548523
 30
3.1498522758483878
 70
   192
  0
VERTEX
  5
21B
  8
0
 62
   134
 10
0.1033734381198883
 20
-0.5339543819427491
 30
3.1759471893310538
 70
   192
  0
VERTEX
  5
21C
  8
0
 62
   134
 10
-0.004116770811379
 20
-0.4113933145999909
 30
3.241050958633422
 70
   192
  0
VERTEX
  5
21D
  8
0
 62
   134
 10
-0.10087850689888
 20
-0.5468122363090516
 30
3.175934791564941
 70
   192
  0
VERTEX
  5
21E
  8
0
 62
   134
 10
-0.2273407727479935
 20
-0.4114553332328797
 30
3.1498520374298091
 70
   192
  0
VERTEX
  5
21F
  8
0
 62
   134
 10
-0.2453453242778778
 20
-0.5559168457984925
 30
3.0317342281341548
 70
   192
  0
VERTEX
  5
220
  8
0
 62
   134
 10
-0.3198568522930145
 20
-0.4114814102649689
 30
2.9298019409179679
 70
   192
  0
VERTEX
  5
221
  8
0
 62
   134
 10
-0.2453452944755554
 20
-0.555916965007782
 30
2.8278694152832031
 70
   192
  0
VERTEX
  5
222
  8
0
 62
   134
 10
-0.2273406982421875
 20
-0.4114553332328797
 30
2.7097516059875479
 70
   192
  0
VERTEX
  5
223
  8
0
 62
   134
 10
-0.1008805185556412
 20
-0.5468121767044069
 30
2.6836688518524161
 70
   192
  0
VERTEX
  5
224
  8
0
 62
   134
 10
-0.0041166618466377
 20
-0.4113930463790894
 30
2.6185529232025142
 70
   192
  0
VERTEX
  5
225
  8
0
 62
   134
 10
0.1033735275268555
 20
-0.5339542627334595
 30
2.6836566925048819
 70
   192
  0
VERTEX
  5
226
  8
0
 62
   134
 10
0.219109445810318
 20
-0.4113309681415558
 30
2.7097516059875479
 70
   192
  0
VERTEX
  5
227
  8
0
 62
   134
 10
0.2478403449058533
 20
-0.5248696804046631
 30
2.827857494354248
 70
   192
  0
VERTEX
  5
228
  8
0
 62
   134
 10
0.2682331800460815
 20
-0.589144766330719
 30
3.032220602035522
 70
   192
  0
VERTEX
  5
229
  8
0
 62
   134
 10
0.2727810442447662
 20
-0.5544194579124451
 30
2.9298019409179679
 70
   192
  0
VERTEX
  5
22A
  8
0
 62
   134
 10
0.1979357898235321
 20
-0.5741066336631775
 30
3.1177146434783931
 70
   192
  0
VERTEX
  5
22B
  8
0
 62
   134
 10
0.1413049846887588
 20
-0.659117877483368
 30
3.17704153060913
 70
   192
  0
VERTEX
  5
22C
  8
0
 62
   134
 10
0.0173443406820297
 20
-0.6217748522758484
 30
3.1955490112304679
 70
   192
  0
VERTEX
  5
22D
  8
0
 62
   134
 10
-0.0381531529128552
 20
-0.7589383721351624
 30
3.1769676208496089
 70
   192
  0
VERTEX
  5
22E
  8
0
 62
   134
 10
-0.1632491797208786
 20
-0.6696807742118835
 30
3.1176531314849849
 70
   192
  0
VERTEX
  5
22F
  8
0
 62
   134
 10
-0.1650834083557129
 20
-0.8301907777786254
 30
3.0321469306945801
 70
   192
  0
VERTEX
  5
230
  8
0
 62
   134
 10
-0.2380964756011963
 20
-0.689606249332428
 30
2.9298019409179679
 70
   192
  0
VERTEX
  5
231
  8
0
 62
   134
 10
-0.1650833636522293
 20
-0.830190896987915
 30
2.827456951141357
 70
   192
  0
VERTEX
  5
232
  8
0
 62
   134
 10
-0.1632491052150726
 20
-0.669680655002594
 30
2.7419507503509521
 70
   192
  0
VERTEX
  5
233
  8
0
 62
   134
 10
-0.0381530672311783
 20
-0.7589381337165833
 30
2.682636022567749
 70
   192
  0
VERTEX
  5
234
  8
0
 62
   134
 10
0.017342334613204
 20
-0.6217745542526246
 30
2.6640546321868892
 70
   192
  0
VERTEX
  5
235
  8
0
 62
   134
 10
0.141305074095726
 20
-0.6591179966926575
 30
2.6825623512268062
 70
   192
  0
VERTEX
  5
236
  8
0
 62
   134
 10
0.1979358494281769
 20
-0.5741065144538881
 30
2.7418892383575431
 70
   192
  0
VERTEX
  5
237
  8
0
 62
   134
 10
0.2682332098484039
 20
-0.5891447067260743
 30
2.827383279800415
 70
   192
  0
VERTEX
  5
238
  8
0
 62
   134
 10
0.3186434805393219
 20
-0.6309887170791626
 30
3.0317642688751221
 70
   192
  0
VERTEX
  5
239
  8
0
 62
   134
 10
0.3061731457710266
 20
-0.5987834334373475
 30
2.9298019409179679
 70
   192
  0
VERTEX
  5
23A
  8
0
 62
   134
 10
0.2490911185741425
 20
-0.6518408656120301
 30
3.119131326675415
 70
   192
  0
VERTEX
  5
23B
  8
0
 62
   134
 10
0.243493914604187
 20
-0.7508572340011597
 30
3.175907850265502
 70
   192
  0
VERTEX
  5
23C
  8
0
 62
   134
 10
0.1113568171858787
 20
-0.7810983657836914
 30
3.1974961757659912
 70
   192
  0
VERTEX
  5
23D
  8
0
 62
   134
 10
0.1372440457344055
 20
-0.9230143427848815
 30
3.1758098602294922
 70
   192
  0
VERTEX
  5
23E
  8
0
 62
   134
 10
-0.0263753514736891
 20
-0.9121831059455871
 30
3.119003057479858
 70
   192
  0
VERTEX
  5
23F
  8
0
 62
   134
 10
0.0620945282280445
 20
-1.046785116195678
 30
3.0316669940948482
 70
   192
  0
VERTEX
  5
240
  8
0
 62
   134
 10
-0.0834552198648453
 20
-0.9670696854591369
 30
2.9298019409179679
 70
   192
  0
VERTEX
  5
241
  8
0
 62
   134
 10
0.0620945617556572
 20
-1.046785116195678
 30
2.827936887741088
 70
   192
  0
VERTEX
  5
242
  8
0
 62
   134
 10
-0.0263752844184637
 20
-0.9121832251548767
 30
2.7406008243560791
 70
   192
  0
VERTEX
  5
243
  8
0
 62
   134
 10
0.1372441202402115
 20
-0.9230142831802368
 30
2.683794260025024
 70
   192
  0
VERTEX
  5
244
  8
0
 62
   134
 10
0.1113569140434265
 20
-0.7810980081558228
 30
2.6621079444885249
 70
   192
  0
VERTEX
  5
245
  8
0
 62
   134
 10
0.2434940040111542
 20
-0.7508572340011597
 30
2.6836960315704341
 70
   192
  0
VERTEX
  5
246
  8
0
 62
   134
 10
0.2490911781787872
 20
-0.6518412232398987
 30
2.740472555160522
 70
   192
  0
VERTEX
  5
247
  8
0
 62
   134
 10
0.3186435103416443
 20
-0.6309887170791626
 30
2.827839612960815
 70
   192
  0
VERTEX
  5
248
  8
0
 62
   134
 10
0.3901539146900177
 20
-0.6452503800392151
 30
3.0359392166137691
 70
   192
  0
VERTEX
  5
249
  8
0
 62
   134
 10
0.3561448156833649
 20
-0.622816026210785
 30
2.9298019409179679
 70
   192
  0
VERTEX
  5
24A
  8
0
 62
   134
 10
0.3345032036304474
 20
-0.695543110370636
 30
3.121120691299438
 70
   192
  0
VERTEX
  5
24B
  8
0
 62
   134
 10
0.3790161907672882
 20
-0.7901815176010132
 30
3.1859695911407471
 70
   192
  0
VERTEX
  5
24C
  8
0
 62
   134
 10
0.2822838127613067
 20
-0.8733837604522705
 30
3.200286626815795
 70
   192
  0
VERTEX
  5
24D
  8
0
 62
   134
 10
0.3632718920707703
 20
-0.9990584254264832
 30
3.18586254119873
 70
   192
  0
VERTEX
  5
24E
  8
0
 62
   134
 10
0.2300644814968109
 20
-1.0547631978988641
 30
3.1209759712219229
 70
   192
  0
VERTEX
  5
24F
  8
0
 62
   134
 10
0.3521342277526855
 20
-1.149792313575744
 30
3.0358335971832271
 70
   192
  0
VERTEX
  5
250
  8
0
 62
   134
 10
0.208422914147377
 20
-1.13103175163269
 30
2.9298019409179679
 70
   192
  0
VERTEX
  5
251
  8
0
 62
   134
 10
0.3521342575550079
 20
-1.1497921943664551
 30
2.8237705230712891
 70
   192
  0
VERTEX
  5
252
  8
0
 62
   134
 10
0.2300645411014557
 20
-1.054762959480285
 30
2.7386276721954341
 70
   192
  0
VERTEX
  5
253
  8
0
 62
   134
 10
0.3632719814777374
 20
-0.9990583658218383
 30
2.673741340637207
 70
   192
  0
VERTEX
  5
254
  8
0
 62
   134
 10
0.2822839319705963
 20
-0.8733837604522705
 30
2.6593172550201412
 70
   192
  0
VERTEX
  5
255
  8
0
 62
   134
 10
0.3790162801742554
 20
-0.7901811599731446
 30
2.6736340522766109
 70
   192
  0
VERTEX
  5
256
  8
0
 62
   134
 10
0.3345032632350922
 20
-0.6955432891845704
 30
2.7384834289550781
 70
   192
  0
VERTEX
  5
257
  8
0
 62
   134
 10
0.3901539444923401
 20
-0.6452503800392151
 30
2.8236651420593262
 70
   192
  0
VERTEX
  5
258
  8
0
 62
   134
 10
0.501316785812378
 20
-0.6246801614761353
 30
3.0463132858276358
 70
   192
  0
VERTEX
  5
259
  8
0
 62
   134
 10
0.4427258670330048
 20
-0.6153225302696228
 30
2.9298019409179679
 70
   192
  0
VERTEX
  5
25A
  8
0
 62
   134
 10
0.4422158598899842
 20
-0.698106050491333
 30
3.135272502899169
 70
   192
  0
VERTEX
  5
25B
  8
0
 62
   134
 10
0.501316785812378
 20
-0.7855303883552552
 30
3.210992574691772
 70
   192
  0
VERTEX
  5
25C
  8
0
 62
   134
 10
0.4409860074520111
 20
-0.9009221792221069
 30
3.2202801704406729
 70
   192
  0
VERTEX
  5
25D
  8
0
 62
   134
 10
0.501316785812378
 20
-1.0178416967391959
 30
3.2108643054962149
 70
   192
  0
VERTEX
  5
25E
  8
0
 62
   134
 10
0.4397540986537934
 20
-1.1083753108978269
 30
3.135108470916748
 70
   192
  0
VERTEX
  5
25F
  8
0
 62
   134
 10
0.501316785812378
 20
-1.1858774423599241
 30
3.0461874008178711
 70
   192
  0
VERTEX
  5
260
  8
0
 62
   134
 10
0.4392441511154175
 20
-1.1957998275756829
 30
2.9298019409179679
 70
   192
  0
VERTEX
  5
261
  8
0
 62
   134
 10
0.50131893157959
 20
-1.1858774423599241
 30
2.813416481018066
 70
   192
  0
VERTEX
  5
262
  8
0
 62
   134
 10
0.4397541880607605
 20
-1.108375430107116
 30
2.7244956493377681
 70
   192
  0
VERTEX
  5
263
  8
0
 62
   134
 10
0.5013168454170227
 20
-1.017841935157775
 30
2.6487395763397208
 70
   192
  0
VERTEX
  5
264
  8
0
 62
   134
 10
0.4409861266613007
 20
-0.9009221792221069
 30
2.6393237113952628
 70
   192
  0
VERTEX
  5
265
  8
0
 62
   134
 10
0.5013168454170227
 20
-0.7855302095413208
 30
2.6486115455627441
 70
   192
  0
VERTEX
  5
266
  8
0
 62
   134
 10
0.4422159194946289
 20
-0.6981061697006226
 30
2.7243316173553458
 70
   192
  0
VERTEX
  5
267
  8
0
 62
   134
 10
0.5013168454170227
 20
-0.6246801614761353
 30
2.813290834426879
 70
   192
  0
VERTEX
  5
268
  8
0
 62
   134
 10
0.5545414090156556
 20
-0.5963767766952515
 30
3.0584566593170162
 70
   192
  0
VERTEX
  5
269
  8
0
 62
   134
 10
0.5279952287673951
 20
-0.5824925899505616
 30
2.929802179336547
 70
   192
  0
VERTEX
  5
26A
  8
0
 62
   134
 10
0.5279952287673951
 20
-0.6746878027915955
 30
3.1595489978790279
 70
   192
  0
VERTEX
  5
26B
  8
0
 62
   134
 10
0.5545434951782227
 20
-0.7735969424247742
 30
3.2402789592742911
 70
   192
  0
VERTEX
  5
26C
  8
0
 62
   134
 10
0.5279951691627504
 20
-0.9009427428245544
 30
3.25457739830017
 70
   192
  0
VERTEX
  5
26D
  8
0
 62
   134
 10
0.5545434951782227
 20
-1.0301015377044671
 30
3.2401225566864009
 70
   192
  0
VERTEX
  5
26E
  8
0
 62
   134
 10
0.5279973149299622
 20
-1.132982969284057
 30
3.1593449115753169
 70
   192
  0
VERTEX
  5
26F
  8
0
 62
   134
 10
0.5545435547828675
 20
-1.2160800695419309
 30
3.0583040714263912
 70
   192
  0
VERTEX
  5
270
  8
0
 62
   134
 10
0.527997374534607
 20
-1.23096752166748
 30
2.9298019409179679
 70
   192
  0
VERTEX
  5
271
  8
0
 62
   134
 10
0.5545435547828675
 20
-1.2160799503326409
 30
2.801299810409545
 70
   192
  0
VERTEX
  5
272
  8
0
 62
   134
 10
0.527997374534607
 20
-1.1329828500747681
 30
2.7002592086791992
 70
   192
  0
VERTEX
  5
273
  8
0
 62
   134
 10
0.5545436143875122
 20
-1.030101895332336
 30
2.6194813251495361
 70
   192
  0
VERTEX
  5
274
  8
0
 62
   134
 10
0.5279952883720398
 20
-0.9009427428245544
 30
2.6050269603729239
 70
   192
  0
VERTEX
  5
275
  8
0
 62
   134
 10
0.5545436143875122
 20
-0.7735971212387085
 30
2.6193253993988028
 70
   192
  0
VERTEX
  5
276
  8
0
 62
   134
 10
0.5279952883720398
 20
-0.6746879816055298
 30
2.7000548839569092
 70
   192
  0
VERTEX
  5
277
  8
0
 62
   134
 10
0.5545414686203003
 20
-0.5963770151138306
 30
2.8011474609375
 70
   192
  0
VERTEX
  5
278
  8
0
 62
   134
 10
0.5808231830596924
 20
-0.6678223013877869
 30
3.1666131019592281
 70
   192
  0
VERTEX
  5
279
  8
0
 62
   134
 10
0.6070168018341065
 20
-0.6079665422439576
 30
3.05232810974121
 70
   192
  0
VERTEX
  5
27A
  8
0
 62
   134
 10
0.5808232426643372
 20
-0.5728759765625
 30
2.9298019409179679
 70
   192
  0
VERTEX
  5
27B
  8
0
 62
   134
 10
0.5808252692222596
 20
-0.9009428024291992
 30
3.264555692672729
 70
   192
  0
VERTEX
  5
27C
  8
0
 62
   134
 10
0.6070168018341065
 20
-0.7787998914718628
 30
3.2252314090728751
 70
   192
  0
VERTEX
  5
27D
  8
0
 62
   134
 10
0.5808252692222596
 20
-1.140208721160888
 30
3.1663961410522461
 70
   192
  0
VERTEX
  5
27E
  8
0
 62
   134
 10
0.6070168018341065
 20
-1.023101568222045
 30
3.22515869140625
 70
   192
  0
VERTEX
  5
27F
  8
0
 62
   134
 10
0.5808253288269043
 20
-1.2413060665130611
 30
2.9298019409179679
 70
   192
  0
VERTEX
  5
280
  8
0
 62
   134
 10
0.6070168018341065
 20
-1.1980121135711661
 30
3.0522570610046378
 70
   192
  0
VERTEX
  5
281
  8
0
 62
   134
 10
0.5808253884315491
 20
-1.1402086019515989
 30
2.693207740783691
 70
   192
  0
VERTEX
  5
282
  8
0
 62
   134
 10
0.6070168614387513
 20
-1.1980121135711661
 30
2.807830810546875
 70
   192
  0
VERTEX
  5
283
  8
0
 62
   134
 10
0.5808253884315491
 20
-0.9009427428245544
 30
2.5950486660003662
 70
   192
  0
VERTEX
  5
284
  8
0
 62
   134
 10
0.607016921043396
 20
-1.0231013298034659
 30
2.6349291801452628
 70
   192
  0
VERTEX
  5
285
  8
0
 62
   134
 10
0.5808232426643372
 20
-0.6678224802017212
 30
2.6929910182952881
 70
   192
  0
VERTEX
  5
286
  8
0
 62
   134
 10
0.607016921043396
 20
-0.7787996530532837
 30
2.6348562240600581
 70
   192
  0
VERTEX
  5
287
  8
0
 62
   134
 10
0.6070168614387513
 20
-0.6079667806625367
 30
2.8077595233917232
 70
   192
  0
VERTEX
  5
288
  8
0
 62
   134
 10
0.2620294690132141
 20
-0.2734577357769012
 30
3.1924057006835929
 70
   192
  0
VERTEX
  5
289
  8
0
 62
   134
 10
-0.0041104853153229
 20
-0.2734577655792236
 30
3.3012404441833492
 70
   192
  0
VERTEX
  5
28A
  8
0
 62
   134
 10
-0.2702545821666717
 20
-0.2734577357769012
 30
3.1924054622650142
 70
   192
  0
VERTEX
  5
28B
  8
0
 62
   134
 10
-0.3805590867996216
 20
-0.2734574973583221
 30
2.9298019409179679
 70
   192
  0
VERTEX
  5
28C
  8
0
 62
   134
 10
-0.2702544927597046
 20
-0.2734577059745789
 30
2.6671981811523429
 70
   192
  0
VERTEX
  5
28D
  8
0
 62
   134
 10
-0.0041103553958237
 20
-0.2734578549861908
 30
2.558363437652587
 70
   192
  0
VERTEX
  5
28E
  8
0
 62
   134
 10
0.2620295584201813
 20
-0.2734578847885132
 30
2.6671981811523429
 70
   192
  0
VERTEX
  5
28F
  8
0
 62
   134
 10
0.5534123778343201
 20
-1.079991817474365
 30
2.944934368133544
 70
   192
  0
VERTEX
  5
290
  8
0
 62
   134
 10
0.5530555844306946
 20
-1.0274500846862791
 30
2.8180878162384029
 70
   192
  0
VERTEX
  5
291
  8
0
 62
   134
 10
0.552904486656189
 20
-0.9006029367446899
 30
2.765546321868896
 70
   192
  0
VERTEX
  5
292
  8
0
 62
   134
 10
0.5530555844306946
 20
-0.7737559080123903
 30
2.8180878162384029
 70
   192
  0
VERTEX
  5
293
  8
0
 62
   134
 10
0.5534123778343201
 20
-0.7212141752243042
 30
2.944934368133544
 70
   192
  0
VERTEX
  5
294
  8
0
 62
   134
 10
0.5537732839584351
 20
-0.773755967617035
 30
3.0717809200286861
 70
   192
  0
VERTEX
  5
295
  8
0
 62
   134
 10
0.5539222955703737
 20
-0.9006029963493347
 30
3.1243224143981929
 70
   192
  0
VERTEX
  5
296
  8
0
 62
   134
 10
0.5537732839584351
 20
-1.0274500846862791
 30
3.0717809200286861
 70
   192
  0
VERTEX
  5
297
  8
0
 62
   134
 10
1.021963715553283
 20
-1.0799920558929439
 30
2.8199734687805171
 70
   192
  0
VERTEX
  5
298
  8
0
 62
   134
 10
0.9952118396759033
 20
-1.027450203895568
 30
2.69647192955017
 70
   192
  0
VERTEX
  5
299
  8
0
 62
   134
 10
0.9853039979934692
 20
-0.900603175163269
 30
2.644872665405273
 70
   192
  0
VERTEX
  5
29A
  8
0
 62
   134
 10
0.9952118396759033
 20
-0.7737561464309694
 30
2.69647192955017
 70
   192
  0
VERTEX
  5
29B
  8
0
 62
   134
 10
1.021963715553283
 20
-0.7212144136428833
 30
2.8199734687805171
 70
   192
  0
VERTEX
  5
29C
  8
0
 62
   134
 10
1.043040752410888
 20
-0.7737561464309694
 30
2.945616483688354
 70
   192
  0
VERTEX
  5
29D
  8
0
 62
   134
 10
1.0529485940933221
 20
-0.9006032347679138
 30
2.9972157478332511
 70
   192
  0
VERTEX
  5
29E
  8
0
 62
   134
 10
1.043040752410888
 20
-1.027450203895568
 30
2.945616483688354
 70
   192
  0
VERTEX
  5
29F
  8
0
 62
   134
 10
2.0813271999359131
 20
-1.079992175102233
 30
2.3148465156555171
 70
   192
  0
VERTEX
  5
2A0
  8
0
 62
   134
 10
2.0146186351776119
 20
-1.027450323104858
 30
2.207525253295898
 70
   192
  0
VERTEX
  5
2A1
  8
0
 62
   134
 10
1.987940192222595
 20
-0.9006032943725585
 30
2.1622586250305171
 70
   192
  0
VERTEX
  5
2A2
  8
0
 62
   134
 10
2.0146186351776119
 20
-0.7737562060356141
 30
2.207525253295898
 70
   192
  0
VERTEX
  5
2A3
  8
0
 62
   134
 10
2.0813271999359131
 20
-0.7212145328521729
 30
2.3148465156555171
 70
   192
  0
VERTEX
  5
2A4
  8
0
 62
   134
 10
2.1434144973754878
 20
-0.7737563252449036
 30
2.4260923862457271
 70
   192
  0
VERTEX
  5
2A5
  8
0
 62
   134
 10
2.1700887680053711
 20
-0.9006033539772033
 30
2.4713592529296871
 70
   192
  0
VERTEX
  5
2A6
  8
0
 62
   134
 10
2.1434144973754878
 20
-1.027450323104858
 30
2.4260923862457271
 70
   192
  0
VERTEX
  5
2A7
  8
0
 62
   134
 10
2.909244060516357
 20
-1.079992175102233
 30
1.4830086231231681
 70
   192
  0
VERTEX
  5
2A8
  8
0
 62
   134
 10
2.8103396892547599
 20
-1.0274504423141471
 30
1.4043580293655391
 70
   192
  0
VERTEX
  5
2A9
  8
0
 62
   134
 10
2.7699987888336182
 20
-0.9006033539772033
 30
1.370692610740661
 70
   192
  0
VERTEX
  5
2AA
  8
0
 62
   134
 10
2.8103396892547599
 20
-0.7737563252449036
 30
1.4043581485748291
 70
   192
  0
VERTEX
  5
2AB
  8
0
 62
   134
 10
2.909244060516357
 20
-0.7212145924568177
 30
1.483008861541748
 70
   192
  0
VERTEX
  5
2AC
  8
0
 62
   134
 10
3.005113840103149
 20
-0.7737563848495485
 30
1.5669096708297721
 70
   192
  0
VERTEX
  5
2AD
  8
0
 62
   134
 10
3.0454547405242911
 20
-0.9006034731864929
 30
1.6005753278732291
 70
   192
  0
VERTEX
  5
2AE
  8
0
 62
   134
 10
3.005113840103149
 20
-1.0274504423141471
 30
1.5669096708297721
 70
   192
  0
VERTEX
  5
2AF
  8
0
 62
   134
 10
3.4093596935272208
 20
-1.079992175102233
 30
0.4212687015533448
 70
   192
  0
VERTEX
  5
2B0
  8
0
 62
   134
 10
3.2897727489471431
 20
-1.0274504423141471
 30
0.3804399967193603
 70
   192
  0
VERTEX
  5
2B1
  8
0
 62
   134
 10
3.240464210510253
 20
-0.9006033539772033
 30
0.362293928861618
 70
   192
  0
VERTEX
  5
2B2
  8
0
 62
   134
 10
3.2897727489471431
 20
-0.7737563252449036
 30
0.3804399967193603
 70
   192
  0
VERTEX
  5
2B3
  8
0
 62
   134
 10
3.4093596935272208
 20
-0.7212145924568177
 30
0.4212686717510224
 70
   192
  0
VERTEX
  5
2B4
  8
0
 62
   134
 10
3.527857542037963
 20
-0.7737563848495485
 30
0.46805739402771
 70
   192
  0
VERTEX
  5
2B5
  8
0
 62
   134
 10
3.5771639347076412
 20
-0.9006034135818481
 30
0.4862034618854523
 70
   192
  0
VERTEX
  5
2B6
  8
0
 62
   134
 10
3.527857542037963
 20
-1.0274504423141471
 30
0.46805739402771
 70
   192
  0
VERTEX
  5
2B7
  8
0
 62
   134
 10
3.5234651565551749
 20
-1.079992175102233
 30
-0.7468103170394898
 70
   192
  0
VERTEX
  5
2B8
  8
0
 62
   134
 10
3.3971099853515621
 20
-1.027450323104858
 30
-0.7450669407844544
 70
   192
  0
VERTEX
  5
2B9
  8
0
 62
   134
 10
3.3445694446563721
 20
-0.9006032943725585
 30
-0.7455812692642212
 70
   192
  0
VERTEX
  5
2BA
  8
0
 62
   134
 10
3.3971099853515621
 20
-0.7737562656402588
 30
-0.7450667023658754
 70
   192
  0
VERTEX
  5
2BB
  8
0
 62
   134
 10
3.5234651565551749
 20
-0.7212145328521729
 30
-0.7468106150627137
 70
   192
  0
VERTEX
  5
2BC
  8
0
 62
   134
 10
3.650792121887207
 20
-0.7737563252449036
 30
-0.7425817251205445
 70
   192
  0
VERTEX
  5
2BD
  8
0
 62
   134
 10
3.703332662582397
 20
-0.9006033539772033
 30
-0.7420673370361329
 70
   192
  0
VERTEX
  5
2BE
  8
0
 62
   134
 10
3.650792121887207
 20
-1.027450323104858
 30
-0.7425816655158997
 70
   192
  0
VERTEX
  5
2BF
  8
0
 62
   134
 10
3.238269329071044
 20
-1.0799920558929439
 30
-1.8852815628051749
 70
   192
  0
VERTEX
  5
2C0
  8
0
 62
   134
 10
3.1198513507843009
 20
-1.027450203895568
 30
-1.841168045997619
 70
   192
  0
VERTEX
  5
2C1
  8
0
 62
   134
 10
3.0701987743377681
 20
-0.900603175163269
 30
-1.8239911794662469
 70
   192
  0
VERTEX
  5
2C2
  8
0
 62
   134
 10
3.1198513507843009
 20
-0.7737561464309694
 30
-1.841168045997619
 70
   192
  0
VERTEX
  5
2C3
  8
0
 62
   134
 10
3.238269329071044
 20
-0.7212144136428833
 30
-1.8852821588516231
 70
   192
  0
VERTEX
  5
2C4
  8
0
 62
   134
 10
3.3596067428588858
 20
-0.7737561464309694
 30
-1.9241048097610469
 70
   192
  0
VERTEX
  5
2C5
  8
0
 62
   134
 10
3.4092614650726309
 20
-0.9006032347679138
 30
-1.941281080245971
 70
   192
  0
VERTEX
  5
2C6
  8
0
 62
   134
 10
3.3596067428588858
 20
-1.027450203895568
 30
-1.924103736877441
 70
   192
  0
VERTEX
  5
2C7
  8
0
 62
   134
 10
2.5869567394256592
 20
-1.079991817474365
 30
-2.861635684967041
 70
   192
  0
VERTEX
  5
2C8
  8
0
 62
   134
 10
2.4902601242065421
 20
-1.0274500846862791
 30
-2.7802834510803218
 70
   192
  0
VERTEX
  5
2C9
  8
0
 62
   134
 10
2.4492685794830318
 20
-0.9006029963493347
 30
-2.7474143505096431
 70
   192
  0
VERTEX
  5
2CA
  8
0
 62
   134
 10
2.4902601242065421
 20
-0.773755967617035
 30
-2.7802836894989009
 70
   192
  0
VERTEX
  5
2CB
  8
0
 62
   134
 10
2.5869567394256592
 20
-0.7212141752243042
 30
-2.861635684967041
 70
   192
  0
VERTEX
  5
2CC
  8
0
 62
   134
 10
2.6881823539733878
 20
-0.7737560272216797
 30
-2.9389877319335929
 70
   192
  0
VERTEX
  5
2CD
  8
0
 62
   134
 10
2.729173898696899
 20
-0.9006030559539794
 30
-2.9718573093414302
 70
   192
  0
VERTEX
  5
2CE
  8
0
 62
   134
 10
2.6881823539733878
 20
-1.0274500846862791
 30
-2.9389877319335929
 70
   192
  0
VERTEX
  5
2CF
  8
0
 62
   134
 10
1.6453379392623899
 20
-1.0799915790557859
 30
-3.5622246265411368
 70
   192
  0
VERTEX
  5
2D0
  8
0
 62
   134
 10
1.5816156864166251
 20
-1.0274498462677
 30
-3.4531013965606681
 70
   192
  0
VERTEX
  5
2D1
  8
0
 62
   134
 10
1.5540578365325921
 20
-0.9006028175354003
 30
-3.408366203308105
 70
   192
  0
VERTEX
  5
2D2
  8
0
 62
   134
 10
1.5816156864166251
 20
-0.7737557291984558
 30
-3.4531013965606681
 70
   192
  0
VERTEX
  5
2D3
  8
0
 62
   134
 10
1.6453379392623899
 20
-0.7212139964103699
 30
-3.5622246265411368
 70
   192
  0
VERTEX
  5
2D4
  8
0
 62
   134
 10
1.7146699428558341
 20
-0.7737557888031006
 30
-3.6691038608551021
 70
   192
  0
VERTEX
  5
2D5
  8
0
 62
   134
 10
1.7422276735305779
 20
-0.9006028175354003
 30
-3.7138395309448242
 70
   192
  0
VERTEX
  5
2D6
  8
0
 62
   134
 10
1.7146699428558341
 20
-1.0274498462677
 30
-3.6691038608551021
 70
   192
  0
VERTEX
  5
2D7
  8
0
 62
   134
 10
0.523007869720459
 20
-1.0799914598464959
 30
-3.905509233474731
 70
   192
  0
VERTEX
  5
2D8
  8
0
 62
   134
 10
0.4996810257434845
 20
-1.02744972705841
 30
-3.7813146114349361
 70
   192
  0
VERTEX
  5
2D9
  8
0
 62
   134
 10
0.4887678921222687
 20
-0.900602638721466
 30
-3.7299187183380118
 70
   192
  0
VERTEX
  5
2DA
  8
0
 62
   134
 10
0.4996810257434845
 20
-0.7737555503845215
 30
-3.7813146114349361
 70
   192
  0
VERTEX
  5
2DB
  8
0
 62
   134
 10
0.523007869720459
 20
-0.7212138175964356
 30
-3.9055087566375728
 70
   192
  0
VERTEX
  5
2DC
  8
0
 62
   134
 10
0.5523831248283387
 20
-0.7737556099891663
 30
-4.0294742584228507
 70
   192
  0
VERTEX
  5
2DD
  8
0
 62
   134
 10
0.5632983446121216
 20
-0.900602638721466
 30
-4.0808701515197754
 70
   192
  0
VERTEX
  5
2DE
  8
0
 62
   134
 10
0.5523831248283387
 20
-1.0274496078491211
 30
-4.0294742584228507
 70
   192
  0
VERTEX
  5
2DF
  8
0
 62
   134
 10
-0.6493903994560242
 20
-1.079991221427917
 30
-3.8515372276306148
 70
   192
  0
VERTEX
  5
2E0
  8
0
 62
   134
 10
-0.6296103596687317
 20
-1.0274494886398311
 30
-3.7267296314239502
 70
   192
  0
VERTEX
  5
2E1
  8
0
 62
   134
 10
-0.6226112842559815
 20
-0.9006024599075317
 30
-3.674655437469482
 70
   192
  0
VERTEX
  5
2E2
  8
0
 62
   134
 10
-0.6296103596687317
 20
-0.773755431175232
 30
-3.7267296314239502
 70
   192
  0
VERTEX
  5
2E3
  8
0
 62
   134
 10
-0.6493903994560242
 20
-0.7212136387825013
 30
-3.8515374660491939
 70
   192
  0
VERTEX
  5
2E4
  8
0
 62
   134
 10
-0.6633948683738709
 20
-0.7737553715705872
 30
-3.978164434432983
 70
   192
  0
VERTEX
  5
2E5
  8
0
 62
   134
 10
-0.6703919172286988
 20
-0.9006024599075317
 30
-4.0302371978759757
 70
   192
  0
VERTEX
  5
2E6
  8
0
 62
   134
 10
-0.6633948683738709
 20
-1.0274494886398311
 30
-3.978164434432983
 70
   192
  0
VERTEX
  5
2E7
  8
0
 62
   134
 10
-1.7354155778884881
 20
-1.079991102218627
 30
-3.4066026210784912
 70
   192
  0
VERTEX
  5
2E8
  8
0
 62
   134
 10
-1.6748266220092769
 20
-1.0274493694305411
 30
-3.2957098484039302
 70
   192
  0
VERTEX
  5
2E9
  8
0
 62
   134
 10
-1.6507316827774039
 20
-0.9006023406982421
 30
-3.2490189075469971
 70
   192
  0
VERTEX
  5
2EA
  8
0
 62
   134
 10
-1.6748266220092769
 20
-0.7737552523612976
 30
-3.2957098484039302
 70
   192
  0
VERTEX
  5
2EB
  8
0
 62
   134
 10
-1.7354155778884881
 20
-0.7212135195732117
 30
-3.4066026210784912
 70
   192
  0
VERTEX
  5
2EC
  8
0
 62
   134
 10
-1.7911669015884391
 20
-0.7737552523612976
 30
-3.5211548805236812
 70
   192
  0
VERTEX
  5
2ED
  8
0
 62
   134
 10
-1.8152618408203121
 20
-0.9006023406982421
 30
-3.567846298217773
 70
   192
  0
VERTEX
  5
2EE
  8
0
 62
   134
 10
-1.7911669015884391
 20
-1.0274493694305411
 30
-3.5211548805236812
 70
   192
  0
VERTEX
  5
2EF
  8
0
 62
   134
 10
-2.6086702346801749
 20
-1.0799909830093379
 30
-2.6224942207336421
 70
   192
  0
VERTEX
  5
2F0
  8
0
 62
   134
 10
-2.5143303871154781
 20
-1.027449250221252
 30
-2.538421630859375
 70
   192
  0
VERTEX
  5
2F1
  8
0
 62
   134
 10
-2.4759433269500728
 20
-0.9006022810935974
 30
-2.5025470256805411
 70
   192
  0
VERTEX
  5
2F2
  8
0
 62
   134
 10
-2.5143303871154781
 20
-0.7737551927566529
 30
-2.5384221076965332
 70
   192
  0
VERTEX
  5
2F3
  8
0
 62
   134
 10
-2.6086702346801749
 20
-0.7212134003639222
 30
-2.6224942207336421
 70
   192
  0
VERTEX
  5
2F4
  8
0
 62
   134
 10
-2.6996858119964591
 20
-0.7737551331520081
 30
-2.711639404296875
 70
   192
  0
VERTEX
  5
2F5
  8
0
 62
   134
 10
-2.7380726337432861
 20
-0.9006022214889526
 30
-2.7475144863128662
 70
   192
  0
VERTEX
  5
2F6
  8
0
 62
   134
 10
-2.6996858119964591
 20
-1.027449250221252
 30
-2.711639404296875
 70
   192
  0
VERTEX
  5
2F7
  8
0
 62
   134
 10
-3.167532205581665
 20
-1.0799909830093379
 30
-1.590467095375061
 70
   192
  0
VERTEX
  5
2F8
  8
0
 62
   134
 10
-3.050419569015502
 20
-1.027449250221252
 30
-1.542997241020202
 70
   192
  0
VERTEX
  5
2F9
  8
0
 62
   134
 10
-3.0022065639495841
 20
-0.9006022214889526
 30
-1.5221147537231441
 70
   192
  0
VERTEX
  5
2FA
  8
0
 62
   134
 10
-3.050419569015502
 20
-0.7737551331520081
 30
-1.542997241020202
 70
   192
  0
VERTEX
  5
2FB
  8
0
 62
   134
 10
-3.167532205581665
 20
-0.7212134003639222
 30
-1.5904666185379019
 70
   192
  0
VERTEX
  5
2FC
  8
0
 62
   134
 10
-3.2832176685333252
 20
-0.7737551331520081
 30
-1.6438260078430169
 70
   192
  0
VERTEX
  5
2FD
  8
0
 62
   134
 10
-3.3314306735992432
 20
-0.9006022214889526
 30
-1.664708495140075
 70
   192
  0
VERTEX
  5
2FE
  8
0
 62
   134
 10
-3.2832176685333252
 20
-1.027449250221252
 30
-1.643825888633728
 70
   192
  0
VERTEX
  5
2FF
  8
0
 62
   134
 10
-3.3777444362640381
 20
-1.079991102218627
 30
-0.7213531136512758
 70
   192
  0
VERTEX
  5
300
  8
0
 62
   134
 10
-3.2511708736419669
 20
-1.0274493694305411
 30
-0.713000476360321
 70
   192
  0
VERTEX
  5
301
  8
0
 62
   134
 10
-3.1987438201904288
 20
-0.9006022810935974
 30
-0.7095410823822022
 70
   192
  0
VERTEX
  5
302
  8
0
 62
   134
 10
-3.2511708736419669
 20
-0.7737552523612976
 30
-0.7130007147789002
 70
   192
  0
VERTEX
  5
303
  8
0
 62
   134
 10
-3.3777444362640381
 20
-0.7212134599685669
 30
-0.7213531136512758
 70
   192
  0
VERTEX
  5
304
  8
0
 62
   134
 10
-3.5043137073516841
 20
-0.7737551927566529
 30
-0.7297060489654541
 70
   192
  0
VERTEX
  5
305
  8
0
 62
   134
 10
-3.5567409992218009
 20
-0.9006022214889526
 30
-0.7331653833389283
 70
   192
  0
VERTEX
  5
306
  8
0
 62
   134
 10
-3.5043137073516841
 20
-1.027449250221252
 30
-0.7297060489654541
 70
   192
  0
VERTEX
  5
307
  8
0
 62
   134
 10
-3.4374206066131592
 20
-0.9006022810935974
 30
0.0295575875788927
 70
   192
  0
VERTEX
  5
308
  8
0
 62
   134
 10
-3.3793835639953609
 20
-1.13392686843872
 30
-0.6964924335479737
 70
   192
  0
VERTEX
  5
309
  8
0
 62
   134
 10
-3.214756727218627
 20
-1.0655877590179439
 30
-0.6856280565261841
 70
   192
  0
VERTEX
  5
30A
  8
0
 62
   134
 10
-3.14656639099121
 20
-0.9006022810935974
 30
-0.68112850189209
 70
   192
  0
VERTEX
  5
30B
  8
0
 62
   134
 10
-3.214756727218627
 20
-0.7356168031692505
 30
-0.6856281161308289
 70
   192
  0
VERTEX
  5
30C
  8
0
 62
   134
 10
-3.3793835639953609
 20
-0.6672775745391846
 30
-0.6964924335479737
 70
   192
  0
VERTEX
  5
30D
  8
0
 62
   134
 10
-3.5440123081207271
 20
-0.7356167435646058
 30
-0.7073560357093811
 70
   192
  0
VERTEX
  5
30E
  8
0
 62
   134
 10
-3.6122026443481441
 20
-0.9006022214889526
 30
-0.7118561267852784
 70
   192
  0
VERTEX
  5
30F
  8
0
 62
   134
 10
-3.5440123081207271
 20
-1.0655876398086539
 30
-0.7073559761047364
 70
   192
  0
VERTEX
  5
310
  8
0
 62
   134
 10
-3.3810226917266841
 20
-1.079991102218627
 30
-0.6716312170028687
 70
   192
  0
VERTEX
  5
311
  8
0
 62
   134
 10
-3.2544531822204581
 20
-1.0274493694305411
 30
-0.6632785797119141
 70
   192
  0
VERTEX
  5
312
  8
0
 62
   134
 10
-3.20202612876892
 20
-0.9006022810935974
 30
-0.659818708896637
 70
   192
  0
VERTEX
  5
313
  8
0
 62
   134
 10
-3.2544531822204581
 20
-0.7737552523612976
 30
-0.6632785797119141
 70
   192
  0
VERTEX
  5
314
  8
0
 62
   134
 10
-3.3810226917266841
 20
-0.7212134599685669
 30
-0.6716312766075135
 70
   192
  0
VERTEX
  5
315
  8
0
 62
   134
 10
-3.5075960159301749
 20
-0.7737551927566529
 30
-0.679983675479889
 70
   192
  0
VERTEX
  5
316
  8
0
 62
   134
 10
-3.5600252151489249
 20
-0.9006022214889526
 30
-0.6834437847137452
 70
   192
  0
VERTEX
  5
317
  8
0
 62
   134
 10
-3.5075960159301749
 20
-1.027449250221252
 30
-0.6799839138984681
 70
   192
  0
VERTEX
  5
318
  8
0
 62
   134
 10
-3.4115753173828121
 20
-1.1069589853286741
 30
-0.3620820045471191
 70
   192
  0
VERTEX
  5
319
  8
0
 62
   134
 10
-3.2659749984741211
 20
-1.0465185642242429
 30
-0.3524737358093262
 70
   192
  0
VERTEX
  5
31A
  8
0
 62
   134
 10
-3.2056674957275391
 20
-0.9006022810935974
 30
-0.3484934866428375
 70
   192
  0
VERTEX
  5
31B
  8
0
 62
   134
 10
-3.2659749984741211
 20
-0.7546859979629517
 30
-0.3524737656116486
 70
   192
  0
VERTEX
  5
31C
  8
0
 62
   134
 10
-3.4115753173828121
 20
-0.6942455172538758
 30
-0.3620820343494415
 70
   192
  0
VERTEX
  5
31D
  8
0
 62
   134
 10
-3.5571753978729239
 20
-0.7546859383583069
 30
-0.3716905415058136
 70
   192
  0
VERTEX
  5
31E
  8
0
 62
   134
 10
-3.6174850463867179
 20
-0.9006022810935974
 30
-0.3756700158119202
 70
   192
  0
VERTEX
  5
31F
  8
0
 62
   134
 10
-3.5571753978729239
 20
-1.0465184450149529
 30
-0.3716905117034912
 70
   192
  0
VERTEX
  5
320
  8
0
 62
   134
 10
-3.42500901222229
 20
-1.1721022129058829
 30
-0.1585130840539932
 70
   192
  0
VERTEX
  5
321
  8
0
 62
   134
 10
-3.2334434986114502
 20
-1.0925817489624019
 30
-0.1458714306354523
 70
   192
  0
VERTEX
  5
322
  8
0
 62
   134
 10
-3.1540987491607662
 20
-0.9006022810935974
 30
-0.140635073184967
 70
   192
  0
VERTEX
  5
323
  8
0
 62
   134
 10
-3.2334434986114502
 20
-0.7086228132247925
 30
-0.1458714753389358
 70
   192
  0
VERTEX
  5
324
  8
0
 62
   134
 10
-3.42500901222229
 20
-0.6291022896766663
 30
-0.1585128605365753
 70
   192
  0
VERTEX
  5
325
  8
0
 62
   134
 10
-3.616572141647338
 20
-0.7086227536201477
 30
-0.1711542457342148
 70
   192
  0
VERTEX
  5
326
  8
0
 62
   134
 10
-3.6959190368652339
 20
-0.9006022810935974
 30
-0.1763900816440582
 70
   192
  0
VERTEX
  5
327
  8
0
 62
   134
 10
-3.616572141647338
 20
-1.0925817489624019
 30
-0.1711539477109909
 70
   192
  0
VERTEX
  5
328
  8
0
 62
   134
 10
-3.4250152111053458
 20
-1.2230788469314571
 30
-0.1584189087152481
 70
   192
  0
VERTEX
  5
329
  8
0
 62
   134
 10
-3.1974847316741939
 20
-1.1286276578903189
 30
-0.1434037983417511
 70
   192
  0
VERTEX
  5
32A
  8
0
 62
   134
 10
-3.1032392978668208
 20
-0.9006022810935974
 30
-0.1371846348047256
 70
   192
  0
VERTEX
  5
32B
  8
0
 62
   134
 10
-3.1974847316741939
 20
-0.6725768446922303
 30
-0.1434038430452347
 70
   192
  0
VERTEX
  5
32C
  8
0
 62
   134
 10
-3.4250152111053458
 20
-0.5781256556510926
 30
-0.1584187000989914
 70
   192
  0
VERTEX
  5
32D
  8
0
 62
   134
 10
-3.652545690536499
 20
-0.6725767850875855
 30
-0.1734340786933899
 70
   192
  0
VERTEX
  5
32E
  8
0
 62
   134
 10
-3.7467911243438721
 20
-0.9006022810935974
 30
-0.179652988910675
 70
   192
  0
VERTEX
  5
32F
  8
0
 62
   134
 10
-3.652545690536499
 20
-1.1286276578903189
 30
-0.1734340339899063
 70
   192
  0
VERTEX
  5
330
  8
0
 62
   134
 10
-3.4281148910522461
 20
-1.2230788469314571
 30
-0.1114245802164078
 70
   192
  0
VERTEX
  5
331
  8
0
 62
   134
 10
-3.2005865573883052
 20
-1.1286276578903189
 30
-0.0964094698429108
 70
   192
  0
VERTEX
  5
332
  8
0
 62
   134
 10
-3.1063411235809322
 20
-0.9006023406982421
 30
-0.0901902988553047
 70
   192
  0
VERTEX
  5
333
  8
0
 62
   134
 10
-3.2005865573883052
 20
-0.6725768446922303
 30
-0.0964097678661347
 70
   192
  0
VERTEX
  5
334
  8
0
 62
   134
 10
-3.4281148910522461
 20
-0.5781256556510926
 30
-0.1114249005913734
 70
   192
  0
VERTEX
  5
335
  8
0
 62
   134
 10
-3.6556475162506099
 20
-0.6725767850875855
 30
-0.126440018415451
 70
   192
  0
VERTEX
  5
336
  8
0
 62
   134
 10
-3.749892950057983
 20
-0.9006023406982421
 30
-0.1326591819524765
 70
   192
  0
VERTEX
  5
337
  8
0
 62
   134
 10
-3.6556475162506099
 20
-1.1286276578903189
 30
-0.126439705491066
 70
   192
  0
VERTEX
  5
338
  8
0
 62
   134
 10
-3.4312169551849361
 20
-1.1721022129058829
 30
-0.0644307807087898
 70
   192
  0
VERTEX
  5
339
  8
0
 62
   134
 10
-3.239655494689941
 20
-1.0925817489624019
 30
-0.0517888776957989
 70
   192
  0
VERTEX
  5
33A
  8
0
 62
   134
 10
-3.1603066921234131
 20
-0.9006022810935974
 30
-0.0465527772903443
 70
   192
  0
VERTEX
  5
33B
  8
0
 62
   134
 10
-3.239655494689941
 20
-0.7086228132247925
 30
-0.0517889112234116
 70
   192
  0
VERTEX
  5
33C
  8
0
 62
   134
 10
-3.4312169551849361
 20
-0.6291023492813112
 30
-0.0644305646419525
 70
   192
  0
VERTEX
  5
33D
  8
0
 62
   134
 10
-3.6227800846099849
 20
-0.7086227536201477
 30
-0.0770722106099129
 70
   192
  0
VERTEX
  5
33E
  8
0
 62
   134
 10
-3.7021291255950919
 20
-0.9006023406982421
 30
-0.0823085755109787
 70
   192
  0
VERTEX
  5
33F
  8
0
 62
   134
 10
-3.6227800846099849
 20
-1.0925817489624019
 30
-0.0770724415779114
 70
   192
  0
VERTEX
  5
340
  8
0
 62
   134
 10
-3.434318780899047
 20
-1.1721022129058829
 30
-0.0174367167055607
 70
   192
  0
VERTEX
  5
341
  8
0
 62
   134
 10
-3.2427575588226309
 20
-1.0925817489624019
 30
-0.0047950744628906
 70
   192
  0
VERTEX
  5
342
  8
0
 62
   134
 10
-3.163408517837524
 20
-0.9006022810935974
 30
0.0004410282417666
 70
   192
  0
VERTEX
  5
343
  8
0
 62
   134
 10
-3.242753267288208
 20
-0.7086228132247925
 30
-0.0047951079905033
 70
   192
  0
VERTEX
  5
344
  8
0
 62
   134
 10
-3.434318780899047
 20
-0.6291023492813112
 30
-0.0174367651343346
 70
   192
  0
VERTEX
  5
345
  8
0
 62
   134
 10
-3.6258819103240958
 20
-0.7086227536201477
 30
-0.0300781447440386
 70
   192
  0
VERTEX
  5
346
  8
0
 62
   134
 10
-3.7052288055419922
 20
-0.9006022810935974
 30
-0.0353139862418175
 70
   192
  0
VERTEX
  5
347
  8
0
 62
   134
 10
-3.6258819103240958
 20
-1.0925817489624019
 30
-0.0300783738493919
 70
   192
  0
VERTEX
  5
348
  8
0
 62
   134
 10
-3.4374206066131592
 20
-1.1211255788803101
 30
0.0295576080679894
 70
   192
  0
VERTEX
  5
349
  8
0
 62
   134
 10
-3.2818243503570552
 20
-1.056535840034484
 30
0.0398257784545422
 70
   192
  0
VERTEX
  5
34A
  8
0
 62
   134
 10
-3.2173738479614249
 20
-0.9006022810935974
 30
0.0440782904624939
 70
   192
  0
VERTEX
  5
34B
  8
0
 62
   134
 10
-3.2818243503570552
 20
-0.74466872215271
 30
0.0398257486522198
 70
   192
  0
VERTEX
  5
34C
  8
0
 62
   134
 10
-3.4374206066131592
 20
-0.6800789833068848
 30
0.0295578315854073
 70
   192
  0
VERTEX
  5
34D
  8
0
 62
   134
 10
-3.5930147171020499
 20
-0.74466872215271
 30
0.0192896611988545
 70
   192
  0
VERTEX
  5
34E
  8
0
 62
   134
 10
-3.6574649810791011
 20
-0.9006022810935974
 30
0.0150366220623255
 70
   192
  0
VERTEX
  5
34F
  8
0
 62
   134
 10
-3.5930147171020499
 20
-1.0565357208251951
 30
0.0192894246429205
 70
   192
  0
VERTEX
  5
350
  8
0
 62
   134
 10
0.5534123778343201
 20
-1.079991817474365
 30
2.944934368133544
 70
   192
  0
VERTEX
  5
351
  8
0
 62
   134
 10
0.5530555844306946
 20
-1.0274500846862791
 30
2.8180878162384029
 70
   192
  0
VERTEX
  5
352
  8
0
 62
   134
 10
0.552904486656189
 20
-0.9006029367446899
 30
2.765546321868896
 70
   192
  0
VERTEX
  5
353
  8
0
 62
   134
 10
0.5530555844306946
 20
-0.7737559080123903
 30
2.8180878162384029
 70
   192
  0
VERTEX
  5
354
  8
0
 62
   134
 10
0.5534123778343201
 20
-0.7212141752243042
 30
2.944934368133544
 70
   192
  0
VERTEX
  5
355
  8
0
 62
   134
 10
0.5537732839584351
 20
-0.773755967617035
 30
3.0717809200286861
 70
   192
  0
VERTEX
  5
356
  8
0
 62
   134
 10
0.5539222955703737
 20
-0.9006029963493347
 30
3.1243224143981929
 70
   192
  0
VERTEX
  5
357
  8
0
 62
   134
 10
0.5537732839584351
 20
-1.0274500846862791
 30
3.0717809200286861
 70
   192
  0
VERTEX
  5
358
  8
0
 62
   134
 10
1.5848990678787229
 20
-1.0799920558929439
 30
2.6073834896087642
 70
   192
  0
VERTEX
  5
359
  8
0
 62
   134
 10
1.5233279466629019
 20
-1.027450323104858
 30
2.4970321655273429
 70
   192
  0
VERTEX
  5
35A
  8
0
 62
   134
 10
1.496651649475097
 20
-0.9006032347679138
 30
2.4517652988433829
 70
   192
  0
VERTEX
  5
35B
  8
0
 62
   134
 10
1.5233279466629019
 20
-0.7737561464309694
 30
2.4970321655273429
 70
   192
  0
VERTEX
  5
35C
  8
0
 62
   134
 10
1.5848990678787229
 20
-0.7212144732475281
 30
2.6073834896087642
 70
   192
  0
VERTEX
  5
35D
  8
0
 62
   134
 10
1.6521260738372801
 20
-0.7737562656402588
 30
2.715599298477172
 70
   192
  0
VERTEX
  5
35E
  8
0
 62
   134
 10
1.6788002252578731
 20
-0.9006032943725585
 30
2.7608659267425528
 70
   192
  0
VERTEX
  5
35F
  8
0
 62
   134
 10
1.6521260738372801
 20
-1.027450323104858
 30
2.7155990600585929
 70
   192
  0
VERTEX
  5
360
  8
0
 62
   134
 10
2.5400631427764888
 20
-1.079992175102233
 30
1.9253745079040521
 70
   192
  0
VERTEX
  5
361
  8
0
 62
   134
 10
2.4449782371520992
 20
-1.0274504423141471
 30
1.8421437740325921
 70
   192
  0
VERTEX
  5
362
  8
0
 62
   134
 10
2.4046394824981681
 20
-0.9006033539772033
 30
1.808477878570556
 70
   192
  0
VERTEX
  5
363
  8
0
 62
   134
 10
2.4449782371520992
 20
-0.7737562656402588
 30
1.8421437740325921
 70
   192
  0
VERTEX
  5
364
  8
0
 62
   134
 10
2.5400631427764888
 20
-0.7212145328521729
 30
1.9253746271133421
 70
   192
  0
VERTEX
  5
365
  8
0
 62
   134
 10
2.6397545337677002
 20
-0.7737563252449036
 30
2.0046954154968262
 70
   192
  0
VERTEX
  5
366
  8
0
 62
   134
 10
2.68009328842163
 20
-0.9006034135818481
 30
2.0383608341217041
 70
   192
  0
VERTEX
  5
367
  8
0
 62
   134
 10
2.6397545337677002
 20
-1.0274504423141471
 30
2.0046954154968262
 70
   192
  0
VERTEX
  5
368
  8
0
 62
   134
 10
3.21037745475769
 20
-1.079992175102233
 30
0.9619678258895874
 70
   192
  0
VERTEX
  5
369
  8
0
 62
   134
 10
3.0928471088409419
 20
-1.0274504423141471
 30
0.9155426621437072
 70
   192
  0
VERTEX
  5
36A
  8
0
 62
   134
 10
3.0435388088226309
 20
-0.9006033539772033
 30
0.8973965644836425
 70
   192
  0
VERTEX
  5
36B
  8
0
 62
   134
 10
3.0928471088409419
 20
-0.7737563252449036
 30
0.9155426025390625
 70
   192
  0
VERTEX
  5
36C
  8
0
 62
   134
 10
3.21037745475769
 20
-0.7212145924568177
 30
0.961967647075653
 70
   192
  0
VERTEX
  5
36D
  8
0
 62
   134
 10
3.3309297561645499
 20
-0.7737563848495485
 30
1.0031599998474121
 70
   192
  0
VERTEX
  5
36E
  8
0
 62
   134
 10
3.38023829460144
 20
-0.9006034135818481
 30
1.021306037902832
 70
   192
  0
VERTEX
  5
36F
  8
0
 62
   134
 10
3.3309297561645499
 20
-1.0274504423141471
 30
1.0031599998474121
 70
   192
  0
VERTEX
  5
370
  8
0
 62
   134
 10
3.517819643020629
 20
-1.079992175102233
 30
-0.1706989407539368
 70
   192
  0
VERTEX
  5
371
  8
0
 62
   134
 10
3.3915252685546871
 20
-1.027450323104858
 30
-0.1749171167612076
 70
   192
  0
VERTEX
  5
372
  8
0
 62
   134
 10
3.3389847278594971
 20
-0.9006033539772033
 30
-0.1754320114850998
 70
   192
  0
VERTEX
  5
373
  8
0
 62
   134
 10
3.3915252685546871
 20
-0.7737562656402588
 30
-0.17491714656353
 70
   192
  0
VERTEX
  5
374
  8
0
 62
   134
 10
3.517819643020629
 20
-0.7212145328521729
 30
-0.1706987023353577
 70
   192
  0
VERTEX
  5
375
  8
0
 62
   134
 10
3.645207405090332
 20
-0.7737563252449036
 30
-0.1724326759576797
 70
   192
  0
VERTEX
  5
376
  8
0
 62
   134
 10
3.6977458000183101
 20
-0.9006034135818481
 30
-0.1719177812337875
 70
   192
  0
VERTEX
  5
377
  8
0
 62
   134
 10
3.645207405090332
 20
-1.0274504423141471
 30
-0.1724326610565185
 70
   192
  0
VERTEX
  5
378
  8
0
 62
   134
 10
3.426621675491333
 20
-1.0799920558929439
 30
-1.340789556503295
 70
   192
  0
VERTEX
  5
379
  8
0
 62
   134
 10
3.3062560558319092
 20
-1.027450323104858
 30
-1.302311062812805
 70
   192
  0
VERTEX
  5
37A
  8
0
 62
   134
 10
3.2566013336181641
 20
-0.9006032347679138
 30
-1.28513491153717
 70
   192
  0
VERTEX
  5
37B
  8
0
 62
   134
 10
3.3062560558319092
 20
-0.7737562060356141
 30
-1.302311062812805
 70
   192
  0
VERTEX
  5
37C
  8
0
 62
   134
 10
3.426621675491333
 20
-0.7212144732475281
 30
-1.340789556503295
 70
   192
  0
VERTEX
  5
37D
  8
0
 62
   134
 10
3.5460135936737061
 20
-0.7737562656402588
 30
-1.385247826576232
 70
   192
  0
VERTEX
  5
37E
  8
0
 62
   134
 10
3.5956661701202388
 20
-0.9006032943725585
 30
-1.402424097061157
 70
   192
  0
VERTEX
  5
37F
  8
0
 62
   134
 10
3.5460135936737061
 20
-1.027450323104858
 30
-1.3852477073669429
 70
   192
  0
VERTEX
  5
380
  8
0
 62
   134
 10
2.9474008083343501
 20
-1.0799919366836539
 30
-2.4121229648590079
 70
   192
  0
VERTEX
  5
381
  8
0
 62
   134
 10
2.8469727039337149
 20
-1.0274500846862791
 30
-2.3354256153106681
 70
   192
  0
VERTEX
  5
382
  8
0
 62
   134
 10
2.8059833049774161
 20
-0.9006031155586242
 30
-2.302556037902832
 70
   192
  0
VERTEX
  5
383
  8
0
 62
   134
 10
2.8469727039337149
 20
-0.7737560272216797
 30
-2.3354256153106681
 70
   192
  0
VERTEX
  5
384
  8
0
 62
   134
 10
2.9474008083343501
 20
-0.7212142944335938
 30
-2.412123203277587
 70
   192
  0
VERTEX
  5
385
  8
0
 62
   134
 10
3.0448949337005611
 20
-0.7737560868263245
 30
-2.4941308498382559
 70
   192
  0
VERTEX
  5
386
  8
0
 62
   134
 10
3.0858886241912842
 20
-0.9006031155586242
 30
-2.5269989967346191
 70
   192
  0
VERTEX
  5
387
  8
0
 62
   134
 10
3.0448949337005611
 20
-1.027450203895568
 30
-2.4941308498382559
 70
   192
  0
VERTEX
  5
388
  8
0
 62
   134
 10
2.1359400749206539
 20
-1.079991698265075
 30
-3.2600197792053218
 70
   192
  0
VERTEX
  5
389
  8
0
 62
   134
 10
2.0671389102935791
 20
-1.0274499654769891
 30
-3.154026746749877
 70
   192
  0
VERTEX
  5
38A
  8
0
 62
   134
 10
2.039581298828125
 20
-0.9006029367446899
 30
-3.1092908382415771
 70
   192
  0
VERTEX
  5
38B
  8
0
 62
   134
 10
2.0671389102935791
 20
-0.7737558484077454
 30
-3.154026746749877
 70
   192
  0
VERTEX
  5
38C
  8
0
 62
   134
 10
2.1359400749206539
 20
-0.7212141156196595
 30
-3.26002025604248
 70
   192
  0
VERTEX
  5
38D
  8
0
 62
   134
 10
2.2001931667327881
 20
-0.7737558484077454
 30
-3.3700292110443111
 70
   192
  0
VERTEX
  5
38E
  8
0
 62
   134
 10
2.2277510166168208
 20
-0.9006029367446899
 30
-3.414764404296875
 70
   192
  0
VERTEX
  5
38F
  8
0
 62
   134
 10
2.2001931667327881
 20
-1.0274499654769891
 30
-3.3700292110443111
 70
   192
  0
VERTEX
  5
390
  8
0
 62
   134
 10
1.086669325828552
 20
-1.0799915790557859
 30
-3.785804271697998
 70
   192
  0
VERTEX
  5
391
  8
0
 62
   134
 10
1.0575059652328489
 20
-1.02744972705841
 30
-3.6628494262695308
 70
   192
  0
VERTEX
  5
392
  8
0
 62
   134
 10
1.0465928316116331
 20
-0.9006026983261108
 30
-3.6114542484283438
 70
   192
  0
VERTEX
  5
393
  8
0
 62
   134
 10
1.0575059652328489
 20
-0.7737557291984558
 30
-3.6628494262695308
 70
   192
  0
VERTEX
  5
394
  8
0
 62
   134
 10
1.086669325828552
 20
-0.7212139368057251
 30
-3.785803794860839
 70
   192
  0
VERTEX
  5
395
  8
0
 62
   134
 10
1.11020815372467
 20
-0.7737556695938112
 30
-3.9110093116760249
 70
   192
  0
VERTEX
  5
396
  8
0
 62
   134
 10
1.1211233139038079
 20
-0.9006026983261108
 30
-3.9624052047729492
 70
   192
  0
VERTEX
  5
397
  8
0
 62
   134
 10
1.11020815372467
 20
-1.02744972705841
 30
-3.9110093116760249
 70
   192
  0
VERTEX
  5
398
  8
0
 62
   134
 10
-0.078291267156601
 20
-1.079991340637207
 30
-3.9282760620117179
 70
   192
  0
VERTEX
  5
399
  8
0
 62
   134
 10
-0.0644232109189034
 20
-1.0274496078491211
 30
-3.8026735782623291
 70
   192
  0
VERTEX
  5
39A
  8
0
 62
   134
 10
-0.0574262216687203
 20
-0.9006025195121765
 30
-3.7505998611450191
 70
   192
  0
VERTEX
  5
39B
  8
0
 62
   134
 10
-0.0644232109189034
 20
-0.7737554907798767
 30
-3.8026735782623291
 70
   192
  0
VERTEX
  5
39C
  8
0
 62
   134
 10
-0.078291267156601
 20
-0.721213698387146
 30
-3.9282765388488761
 70
   192
  0
VERTEX
  5
39D
  8
0
 62
   134
 10
-0.0982077196240425
 20
-0.7737554907798767
 30
-4.0541086196899414
 70
   192
  0
VERTEX
  5
39E
  8
0
 62
   134
 10
-0.1052047088742256
 20
-0.9006025195121765
 30
-4.1061816215515128
 70
   192
  0
VERTEX
  5
39F
  8
0
 62
   134
 10
-0.0982077196240425
 20
-1.0274496078491211
 30
-4.0541086196899414
 70
   192
  0
VERTEX
  5
3A0
  8
0
 62
   134
 10
-1.223362684249877
 20
-1.079991221427917
 30
-3.6708459854125972
 70
   192
  0
VERTEX
  5
3A1
  8
0
 62
   134
 10
-1.1680729389190669
 20
-1.0274493694305411
 30
-3.5572159290313721
 70
   192
  0
VERTEX
  5
3A2
  8
0
 62
   134
 10
-1.1439801454544061
 20
-0.9006024003028869
 30
-3.5105252265930171
 70
   192
  0
VERTEX
  5
3A3
  8
0
 62
   134
 10
-1.1680729389190669
 20
-0.7737553119659424
 30
-3.5572159290313721
 70
   192
  0
VERTEX
  5
3A4
  8
0
 62
   134
 10
-1.223362684249877
 20
-0.7212135791778565
 30
-3.670846462249755
 70
   192
  0
VERTEX
  5
3A5
  8
0
 62
   134
 10
-1.284415364265441
 20
-0.7737553119659424
 30
-3.7826621532440181
 70
   192
  0
VERTEX
  5
3A6
  8
0
 62
   134
 10
-1.308510303497314
 20
-0.9006023406982421
 30
-3.829352378845214
 70
   192
  0
VERTEX
  5
3A7
  8
0
 62
   134
 10
-1.284415364265441
 20
-1.0274493694305411
 30
-3.7826621532440181
 70
   192
  0
VERTEX
  5
3A8
  8
0
 62
   134
 10
-2.2152640819549561
 20
-1.079991102218627
 30
-3.0434687137603751
 70
   192
  0
VERTEX
  5
3A9
  8
0
 62
   134
 10
-2.1249914169311519
 20
-1.0274493694305411
 30
-2.9550364017486568
 70
   192
  0
VERTEX
  5
3AA
  8
0
 62
   134
 10
-2.0866067409515381
 20
-0.9006022810935974
 30
-2.9191625118255611
 70
   192
  0
VERTEX
  5
3AB
  8
0
 62
   134
 10
-2.1249914169311519
 20
-0.7737551927566529
 30
-2.9550364017486568
 70
   192
  0
VERTEX
  5
3AC
  8
0
 62
   134
 10
-2.2152640819549561
 20
-0.7212134003639222
 30
-3.0434682369232169
 70
   192
  0
VERTEX
  5
3AD
  8
0
 62
   134
 10
-2.3103489875793448
 20
-0.7737551927566529
 30
-3.1282541751861568
 70
   192
  0
VERTEX
  5
3AE
  8
0
 62
   134
 10
-2.3487379550933829
 20
-0.9006022214889526
 30
-3.164128303527832
 70
   192
  0
VERTEX
  5
3AF
  8
0
 62
   134
 10
-2.3103489875793448
 20
-1.027449250221252
 30
-3.1282541751861568
 70
   192
  0
VERTEX
  5
3B0
  8
0
 62
   134
 10
-2.9385406970977779
 20
-1.0799909830093379
 30
-2.11916184425354
 70
   192
  0
VERTEX
  5
3B1
  8
0
 62
   134
 10
-2.823799610137939
 20
-1.027449250221252
 30
-2.0662200450897208
 70
   192
  0
VERTEX
  5
3B2
  8
0
 62
   134
 10
-2.775586605072021
 20
-0.9006022214889526
 30
-2.0453369617462149
 70
   192
  0
VERTEX
  5
3B3
  8
0
 62
   134
 10
-2.823799610137939
 20
-0.7737551927566529
 30
-2.0662200450897208
 70
   192
  0
VERTEX
  5
3B4
  8
0
 62
   134
 10
-2.9385406970977779
 20
-0.7212134599685669
 30
-2.1191613674163809
 70
   192
  0
VERTEX
  5
3B5
  8
0
 62
   134
 10
-3.0565979480743399
 20
-0.7737551331520081
 30
-2.167048215866088
 70
   192
  0
VERTEX
  5
3B6
  8
0
 62
   134
 10
-3.1048109531402579
 20
-0.9006022214889526
 30
-2.1879308223724361
 70
   192
  0
VERTEX
  5
3B7
  8
0
 62
   134
 10
-3.0565979480743399
 20
-1.027449250221252
 30
-2.1670486927032471
 70
   192
  0
VERTEX
  5
3B8
  8
0
 62
   134
 10
0.0
 20
0.0
 30
0.0
 70
   128
 71
     1
 72
    16
 73
   -17
 74
    -1
  0
VERTEX
  5
3B9
  8
0
 62
   134
 10
0.0
 20
0.0
 30
0.0
 70
   128
 71
    17
 72
     2
 73
    -1
 74
   -17
  0
VERTEX
  5
3BA
  8
0
 62
   134
 10
0.0
 20
0.0
 30
0.0
 70
   128
 71
     2
 72
    17
 73
   -18
 74
    -2
  0
VERTEX
  5
3BB
  8
0
 62
   134
 10
0.0
 20
0.0
 30
0.0
 70
   128
 71
    18
 72
     3
 73
    -2
 74
   -18
  0
VERTEX
  5
3BC
  8
0
 62
   134
 10
0.0
 20
0.0
 30
0.0
 70
   128
 71
     3
 72
    18
 73
   -19
 74
    -3
  0
VERTEX
  5
3BD
  8
0
 62
   134
 10
0.0
 20
0.0
 30
0.0
 70
   128
 71
    19
 72
     4
 73
    -3
 74
   -19
  0
VERTEX
  5
3BE
  8
0
 62
   134
 10
0.0
 20
0.0
 30
0.0
 70
   128
 71
     4
 72
    19
 73
   -20
 74
    -4
  0
VERTEX
  5
3BF
  8
0
 62
   134
 10
0.0
 20
0.0
 30
0.0
 70
   128
 71
    20
 72
     5
 73
    -4
 74
   -20
  0
VERTEX
  5
3C0
  8
0
 62
   134
 10
0.0
 20
0.0
 30
0.0
 70
   128
 71
     5
 72
    20
 73
   -21
 74
    -5
  0
VERTEX
  5
3C1
  8
0
 62
   134
 10
0.0
 20
0.0
 30
0.0
 70
   128
 71
    21
 72
     6
 73
    -5
 74
   -21
  0
VERTEX
  5
3C2
  8
0
 62
   134
 10
0.0
 20
0.0
 30
0.0
 70
   128
 71
     6
 72
    21
 73
   -22
 74
    -6
  0
VERTEX
  5
3C3
  8
0
 62
   134
 10
0.0
 20
0.0
 30
0.0
 70
   128
 71
    22
 72
     7
 73
    -6
 74
   -22
  0
VERTEX
  5
3C4
  8
0
 62
   134
 10
0.0
 20
0.0
 30
0.0
 70
   128
 71
     7
 72
    22
 73
   -23
 74
    -7
  0
VERTEX
  5
3C5
  8
0
 62
   134
 10
0.0
 20
0.0
 30
0.0
 70
   128
 71
    23
 72
     8
 73
    -7
 74
   -23
  0
VERTEX
  5
3C6
  8
0
 62
   134
 10
0.0
 20
0.0
 30
0.0
 70
   128
 71
     8
 72
    23
 73
   -24
 74
    -8
  0
VERTEX
  5
3C7
  8
0
 62
   134
 10
0.0
 20
0.0
 30
0.0
 70
   128
 71
    24
 72
     9
 73
    -8
 74
   -24
  0
VERTEX
  5
3C8
  8
0
 62
   134
 10
0.0
 20
0.0
 30
0.0
 70
   128
 71
     9
 72
    24
 73
   -25
 74
    -9
  0
VERTEX
  5
3C9
  8
0
 62
   134
 10
0.0
 20
0.0
 30
0.0
 70
   128
 71
    25
 72
    10
 73
    -9
 74
   -25
  0
VERTEX
  5
3CA
  8
0
 62
   134
 10
0.0
 20
0.0
 30
0.0
 70
   128
 71
    10
 72
    25
 73
   -26
 74
   -10
  0
VERTEX
  5
3CB
  8
0
 62
   134
 10
0.0
 20
0.0
 30
0.0
 70
   128
 71
    26
 72
    11
 73
   -10
 74
   -26
  0
VERTEX
  5
3CC
  8
0
 62
   134
 10
0.0
 20
0.0
 30
0.0
 70
   128
 71
    11
 72
    26
 73
   -27
 74
   -11
  0
VERTEX
  5
3CD
  8
0
 62
   134
 10
0.0
 20
0.0
 30
0.0
 70
   128
 71
    27
 72
    12
 73
   -11
 74
   -27
  0
VERTEX
  5
3CE
  8
0
 62
   134
 10
0.0
 20
0.0
 30
0.0
 70
   128
 71
    12
 72
    27
 73
   -28
 74
   -12
  0
VERTEX
  5
3CF
  8
0
 62
   134
 10
0.0
 20
0.0
 30
0.0
 70
   128
 71
    28
 72
    13
 73
   -12
 74
   -28
  0
VERTEX
  5
3D0
  8
0
 62
   134
 10
0.0
 20
0.0
 30
0.0
 70
   128
 71
    13
 72
    28
 73
   -29
 74
   -13
  0
VERTEX
  5
3D1
  8
0
 62
   134
 10
0.0
 20
0.0
 30
0.0
 70
   128
 71
    29
 72
    14
 73
   -13
 74
   -29
  0
VERTEX
  5
3D2
  8
0
 62
   134
 10
0.0
 20
0.0
 30
0.0
 70
   128
 71
    14
 72
    29
 73
   -30
 74
   -14
  0
VERTEX
  5
3D3
  8
0
 62
   134
 10
0.0
 20
0.0
 30
0.0
 70
   128
 71
    30
 72
    15
 73
   -14
 74
   -30
  0
VERTEX
  5
3D4
  8
0
 62
   134
 10
0.0
 20
0.0
 30
0.0
 70
   128
 71
    16
 72
    31
 73
   -32
 74
   -16
  0
VERTEX
  5
3D5
  8
0
 62
   134
 10
0.0
 20
0.0
 30
0.0
 70
   128
 71
    32
 72
    17
 73
   -16
 74
   -32
  0
VERTEX
  5
3D6
  8
0
 62
   134
 10
0.0
 20
0.0
 30
0.0
 70
   128
 71
    17
 72
    32
 73
   -33
 74
   -17
  0
VERTEX
  5
3D7
  8
0
 62
   134
 10
0.0
 20
0.0
 30
0.0
 70
   128
 71
    33
 72
    18
 73
   -17
 74
   -33
  0
VERTEX
  5
3D8
  8
0
 62
   134
 10
0.0
 20
0.0
 30
0.0
 70
   128
 71
    18
 72
    33
 73
   -34
 74
   -18
  0
VERTEX
  5
3D9
  8
0
 62
   134
 10
0.0
 20
0.0
 30
0.0
 70
   128
 71
    34
 72
    19
 73
   -18
 74
   -34
  0
VERTEX
  5
3DA
  8
0
 62
   134
 10
0.0
 20
0.0
 30
0.0
 70
   128
 71
    19
 72
    34
 73
   -35
 74
   -19
  0
VERTEX
  5
3DB
  8
0
 62
   134
 10
0.0
 20
0.0
 30
0.0
 70
   128
 71
    35
 72
    20
 73
   -19
 74
   -35
  0
VERTEX
  5
3DC
  8
0
 62
   134
 10
0.0
 20
0.0
 30
0.0
 70
   128
 71
    20
 72
    35
 73
   -36
 74
   -20
  0
VERTEX
  5
3DD
  8
0
 62
   134
 10
0.0
 20
0.0
 30
0.0
 70
   128
 71
    36
 72
    21
 73
   -20
 74
   -36
  0
VERTEX
  5
3DE
  8
0
 62
   134
 10
0.0
 20
0.0
 30
0.0
 70
   128
 71
    21
 72
    36
 73
   -37
 74
   -21
  0
VERTEX
  5
3DF
  8
0
 62
   134
 10
0.0
 20
0.0
 30
0.0
 70
   128
 71
    37
 72
    22
 73
   -21
 74
   -37
  0
VERTEX
  5
3E0
  8
0
 62
   134
 10
0.0
 20
0.0
 30
0.0
 70
   128
 71
    22
 72
    37
 73
   -38
 74
   -22
  0
VERTEX
  5
3E1
  8
0
 62
   134
 10
0.0
 20
0.0
 30
0.0
 70
   128
 71
    38
 72
    23
 73
   -22
 74
   -38
  0
VERTEX
  5
3E2
  8
0
 62
   134
 10
0.0
 20
0.0
 30
0.0
 70
   128
 71
    23
 72
    38
 73
   -39
 74
   -23
  0
VERTEX
  5
3E3
  8
0
 62
   134
 10
0.0
 20
0.0
 30
0.0
 70
   128
 71
    39
 72
    24
 73
   -23
 74
   -39
  0
VERTEX
  5
3E4
  8
0
 62
   134
 10
0.0
 20
0.0
 30
0.0
 70
   128
 71
    24
 72
    39
 73
   -40
 74
   -24
  0
VERTEX
  5
3E5
  8
0
 62
   134
 10
0.0
 20
0.0
 30
0.0
 70
   128
 71
    40
 72
    25
 73
   -24
 74
   -40
  0
VERTEX
  5
3E6
  8
0
 62
   134
 10
0.0
 20
0.0
 30
0.0
 70
   128
 71
    25
 72
    40
 73
   -41
 74
   -25
  0
VERTEX
  5
3E7
  8
0
 62
   134
 10
0.0
 20
0.0
 30
0.0
 70
   128
 71
    41
 72
    26
 73
   -25
 74
   -41
  0
VERTEX
  5
3E8
  8
0
 62
   134
 10
0.0
 20
0.0
 30
0.0
 70
   128
 71
    26
 72
    41
 73
   -42
 74
   -26
  0
VERTEX
  5
3E9
  8
0
 62
   134
 10
0.0
 20
0.0
 30
0.0
 70
   128
 71
    42
 72
    27
 73
   -26
 74
   -42
  0
VERTEX
  5
3EA
  8
0
 62
   134
 10
0.0
 20
0.0
 30
0.0
 70
   128
 71
    27
 72
    42
 73
   -43
 74
   -27
  0
VERTEX
  5
3EB
  8
0
 62
   134
 10
0.0
 20
0.0
 30
0.0
 70
   128
 71
    43
 72
    28
 73
   -27
 74
   -43
  0
VERTEX
  5
3EC
  8
0
 62
   134
 10
0.0
 20
0.0
 30
0.0
 70
   128
 71
    28
 72
    43
 73
   -44
 74
   -28
  0
VERTEX
  5
3ED
  8
0
 62
   134
 10
0.0
 20
0.0
 30
0.0
 70
   128
 71
    44
 72
    29
 73
   -28
 74
   -44
  0
VERTEX
  5
3EE
  8
0
 62
   134
 10
0.0
 20
0.0
 30
0.0
 70
   128
 71
    29
 72
    44
 73
   -45
 74
   -29
  0
VERTEX
  5
3EF
  8
0
 62
   134
 10
0.0
 20
0.0
 30
0.0
 70
   128
 71
    45
 72
    30
 73
   -29
 74
   -45
  0
VERTEX
  5
3F0
  8
0
 62
   134
 10
0.0
 20
0.0
 30
0.0
 70
   128
 71
    31
 72
    46
 73
   -47
 74
   -31
  0
VERTEX
  5
3F1
  8
0
 62
   134
 10
0.0
 20
0.0
 30
0.0
 70
   128
 71
    47
 72
    32
 73
   -31
 74
   -47
  0
VERTEX
  5
3F2
  8
0
 62
   134
 10
0.0
 20
0.0
 30
0.0
 70
   128
 71
    32
 72
    47
 73
   -48
 74
   -32
  0
VERTEX
  5
3F3
  8
0
 62
   134
 10
0.0
 20
0.0
 30
0.0
 70
   128
 71
    48
 72
    33
 73
   -32
 74
   -48
  0
VERTEX
  5
3F4
  8
0
 62
   134
 10
0.0
 20
0.0
 30
0.0
 70
   128
 71
    33
 72
    48
 73
   -49
 74
   -33
  0
VERTEX
  5
3F5
  8
0
 62
   134
 10
0.0
 20
0.0
 30
0.0
 70
   128
 71
    49
 72
    34
 73
   -33
 74
   -49
  0
VERTEX
  5
3F6
  8
0
 62
   134
 10
0.0
 20
0.0
 30
0.0
 70
   128
 71
    34
 72
    49
 73
   -50
 74
   -34
  0
VERTEX
  5
3F7
  8
0
 62
   134
 10
0.0
 20
0.0
 30
0.0
 70
   128
 71
    50
 72
    35
 73
   -34
 74
   -50
  0
VERTEX
  5
3F8
  8
0
 62
   134
 10
0.0
 20
0.0
 30
0.0
 70
   128
 71
    35
 72
    50
 73
   -51
 74
   -35
  0
VERTEX
  5
3F9
  8
0
 62
   134
 10
0.0
 20
0.0
 30
0.0
 70
   128
 71
    51
 72
    36
 73
   -35
 74
   -51
  0
VERTEX
  5
3FA
  8
0
 62
   134
 10
0.0
 20
0.0
 30
0.0
 70
   128
 71
    36
 72
    51
 73
   -52
 74
   -36
  0
VERTEX
  5
3FB
  8
0
 62
   134
 10
0.0
 20
0.0
 30
0.0
 70
   128
 71
    52
 72
    37
 73
   -36
 74
   -52
  0
VERTEX
  5
3FC
  8
0
 62
   134
 10
0.0
 20
0.0
 30
0.0
 70
   128
 71
    37
 72
    52
 73
   -53
 74
   -37
  0
VERTEX
  5
3FD
  8
0
 62
   134
 10
0.0
 20
0.0
 30
0.0
 70
   128
 71
    53
 72
    38
 73
   -37
 74
   -53
  0
VERTEX
  5
3FE
  8
0
 62
   134
 10
0.0
 20
0.0
 30
0.0
 70
   128
 71
    38
 72
    53
 73
   -54
 74
   -38
  0
VERTEX
  5
3FF
  8
0
 62
   134
 10
0.0
 20
0.0
 30
0.0
 70
   128
 71
    54
 72
    39
 73
   -38
 74
   -54
  0
VERTEX
  5
400
  8
0
 62
   134
 10
0.0
 20
0.0
 30
0.0
 70
   128
 71
    39
 72
    54
 73
   -55
 74
   -39
  0
VERTEX
  5
401
  8
0
 62
   134
 10
0.0
 20
0.0
 30
0.0
 70
   128
 71
    55
 72
    40
 73
   -39
 74
   -55
  0
VERTEX
  5
402
  8
0
 62
   134
 10
0.0
 20
0.0
 30
0.0
 70
   128
 71
    40
 72
    55
 73
   -56
 74
   -40
  0
VERTEX
  5
403
  8
0
 62
   134
 10
0.0
 20
0.0
 30
0.0
 70
   128
 71
    56
 72
    41
 73
   -40
 74
   -56
  0
VERTEX
  5
404
  8
0
 62
   134
 10
0.0
 20
0.0
 30
0.0
 70
   128
 71
    41
 72
    56
 73
   -57
 74
   -41
  0
VERTEX
  5
405
  8
0
 62
   134
 10
0.0
 20
0.0
 30
0.0
 70
   128
 71
    57
 72
    42
 73
   -41
 74
   -57
  0
VERTEX
  5
406
  8
0
 62
   134
 10
0.0
 20
0.0
 30
0.0
 70
   128
 71
    42
 72
    57
 73
   -58
 74
   -42
  0
VERTEX
  5
407
  8
0
 62
   134
 10
0.0
 20
0.0
 30
0.0
 70
   128
 71
    58
 72
    43
 73
   -42
 74
   -58
  0
VERTEX
  5
408
  8
0
 62
   134
 10
0.0
 20
0.0
 30
0.0
 70
   128
 71
    43
 72
    58
 73
   -59
 74
   -43
  0
VERTEX
  5
409
  8
0
 62
   134
 10
0.0
 20
0.0
 30
0.0
 70
   128
 71
    59
 72
    44
 73
   -43
 74
   -59
  0
VERTEX
  5
40A
  8
0
 62
   134
 10
0.0
 20
0.0
 30
0.0
 70
   128
 71
    44
 72
    59
 73
   -60
 74
   -44
  0
VERTEX
  5
40B
  8
0
 62
   134
 10
0.0
 20
0.0
 30
0.0
 70
   128
 71
    60
 72
    45
 73
   -44
 74
   -60
  0
VERTEX
  5
40C
  8
0
 62
   134
 10
0.0
 20
0.0
 30
0.0
 70
   128
 71
    46
 72
    61
 73
   -62
 74
   -46
  0
VERTEX
  5
40D
  8
0
 62
   134
 10
0.0
 20
0.0
 30
0.0
 70
   128
 71
    62
 72
    47
 73
   -46
 74
   -62
  0
VERTEX
  5
40E
  8
0
 62
   134
 10
0.0
 20
0.0
 30
0.0
 70
   128
 71
    47
 72
    62
 73
   -63
 74
   -47
  0
VERTEX
  5
40F
  8
0
 62
   134
 10
0.0
 20
0.0
 30
0.0
 70
   128
 71
    63
 72
    48
 73
   -47
 74
   -63
  0
VERTEX
  5
410
  8
0
 62
   134
 10
0.0
 20
0.0
 30
0.0
 70
   128
 71
    48
 72
    63
 73
   -64
 74
   -48
  0
VERTEX
  5
411
  8
0
 62
   134
 10
0.0
 20
0.0
 30
0.0
 70
   128
 71
    64
 72
    49
 73
   -48
 74
   -64
  0
VERTEX
  5
412
  8
0
 62
   134
 10
0.0
 20
0.0
 30
0.0
 70
   128
 71
    49
 72
    64
 73
   -65
 74
   -49
  0
VERTEX
  5
413
  8
0
 62
   134
 10
0.0
 20
0.0
 30
0.0
 70
   128
 71
    65
 72
    50
 73
   -49
 74
   -65
  0
VERTEX
  5
414
  8
0
 62
   134
 10
0.0
 20
0.0
 30
0.0
 70
   128
 71
    50
 72
    65
 73
   -66
 74
   -50
  0
VERTEX
  5
415
  8
0
 62
   134
 10
0.0
 20
0.0
 30
0.0
 70
   128
 71
    66
 72
    51
 73
   -50
 74
   -66
  0
VERTEX
  5
416
  8
0
 62
   134
 10
0.0
 20
0.0
 30
0.0
 70
   128
 71
    51
 72
    66
 73
   -67
 74
   -51
  0
VERTEX
  5
417
  8
0
 62
   134
 10
0.0
 20
0.0
 30
0.0
 70
   128
 71
    67
 72
    52
 73
   -51
 74
   -67
  0
VERTEX
  5
418
  8
0
 62
   134
 10
0.0
 20
0.0
 30
0.0
 70
   128
 71
    52
 72
    67
 73
   -68
 74
   -52
  0
VERTEX
  5
419
  8
0
 62
   134
 10
0.0
 20
0.0
 30
0.0
 70
   128
 71
    68
 72
    53
 73
   -52
 74
   -68
  0
VERTEX
  5
41A
  8
0
 62
   134
 10
0.0
 20
0.0
 30
0.0
 70
   128
 71
    53
 72
    68
 73
   -69
 74
   -53
  0
VERTEX
  5
41B
  8
0
 62
   134
 10
0.0
 20
0.0
 30
0.0
 70
   128
 71
    69
 72
    54
 73
   -53
 74
   -69
  0
VERTEX
  5
41C
  8
0
 62
   134
 10
0.0
 20
0.0
 30
0.0
 70
   128
 71
    54
 72
    69
 73
   -70
 74
   -54
  0
VERTEX
  5
41D
  8
0
 62
   134
 10
0.0
 20
0.0
 30
0.0
 70
   128
 71
    70
 72
    55
 73
   -54
 74
   -70
  0
VERTEX
  5
41E
  8
0
 62
   134
 10
0.0
 20
0.0
 30
0.0
 70
   128
 71
    55
 72
    70
 73
   -71
 74
   -55
  0
VERTEX
  5
41F
  8
0
 62
   134
 10
0.0
 20
0.0
 30
0.0
 70
   128
 71
    71
 72
    56
 73
   -55
 74
   -71
  0
VERTEX
  5
420
  8
0
 62
   134
 10
0.0
 20
0.0
 30
0.0
 70
   128
 71
    56
 72
    71
 73
   -72
 74
   -56
  0
VERTEX
  5
421
  8
0
 62
   134
 10
0.0
 20
0.0
 30
0.0
 70
   128
 71
    72
 72
    57
 73
   -56
 74
   -72
  0
VERTEX
  5
422
  8
0
 62
   134
 10
0.0
 20
0.0
 30
0.0
 70
   128
 71
    57
 72
    72
 73
   -73
 74
   -57
  0
VERTEX
  5
423
  8
0
 62
   134
 10
0.0
 20
0.0
 30
0.0
 70
   128
 71
    73
 72
    58
 73
   -57
 74
   -73
  0
VERTEX
  5
424
  8
0
 62
   134
 10
0.0
 20
0.0
 30
0.0
 70
   128
 71
    58
 72
    73
 73
   -74
 74
   -58
  0
VERTEX
  5
425
  8
0
 62
   134
 10
0.0
 20
0.0
 30
0.0
 70
   128
 71
    74
 72
    59
 73
   -58
 74
   -74
  0
VERTEX
  5
426
  8
0
 62
   134
 10
0.0
 20
0.0
 30
0.0
 70
   128
 71
    59
 72
    74
 73
   -75
 74
   -59
  0
VERTEX
  5
427
  8
0
 62
   134
 10
0.0
 20
0.0
 30
0.0
 70
   128
 71
    75
 72
    60
 73
   -59
 74
   -75
  0
VERTEX
  5
428
  8
0
 62
   134
 10
0.0
 20
0.0
 30
0.0
 70
   128
 71
    61
 72
    76
 73
   -77
 74
   -61
  0
VERTEX
  5
429
  8
0
 62
   134
 10
0.0
 20
0.0
 30
0.0
 70
   128
 71
    77
 72
    62
 73
   -61
 74
   -77
  0
VERTEX
  5
42A
  8
0
 62
   134
 10
0.0
 20
0.0
 30
0.0
 70
   128
 71
    62
 72
    77
 73
   -78
 74
   -62
  0
VERTEX
  5
42B
  8
0
 62
   134
 10
0.0
 20
0.0
 30
0.0
 70
   128
 71
    78
 72
    63
 73
   -62
 74
   -78
  0
VERTEX
  5
42C
  8
0
 62
   134
 10
0.0
 20
0.0
 30
0.0
 70
   128
 71
    63
 72
    78
 73
   -79
 74
   -63
  0
VERTEX
  5
42D
  8
0
 62
   134
 10
0.0
 20
0.0
 30
0.0
 70
   128
 71
    79
 72
    64
 73
   -63
 74
   -79
  0
VERTEX
  5
42E
  8
0
 62
   134
 10
0.0
 20
0.0
 30
0.0
 70
   128
 71
    64
 72
    79
 73
   -80
 74
   -64
  0
VERTEX
  5
42F
  8
0
 62
   134
 10
0.0
 20
0.0
 30
0.0
 70
   128
 71
    80
 72
    65
 73
   -64
 74
   -80
  0
VERTEX
  5
430
  8
0
 62
   134
 10
0.0
 20
0.0
 30
0.0
 70
   128
 71
    65
 72
    80
 73
   -81
 74
   -65
  0
VERTEX
  5
431
  8
0
 62
   134
 10
0.0
 20
0.0
 30
0.0
 70
   128
 71
    81
 72
    66
 73
   -65
 74
   -81
  0
VERTEX
  5
432
  8
0
 62
   134
 10
0.0
 20
0.0
 30
0.0
 70
   128
 71
    66
 72
    81
 73
   -82
 74
   -66
  0
VERTEX
  5
433
  8
0
 62
   134
 10
0.0
 20
0.0
 30
0.0
 70
   128
 71
    82
 72
    67
 73
   -66
 74
   -82
  0
VERTEX
  5
434
  8
0
 62
   134
 10
0.0
 20
0.0
 30
0.0
 70
   128
 71
    67
 72
    82
 73
   -83
 74
   -67
  0
VERTEX
  5
435
  8
0
 62
   134
 10
0.0
 20
0.0
 30
0.0
 70
   128
 71
    83
 72
    68
 73
   -67
 74
   -83
  0
VERTEX
  5
436
  8
0
 62
   134
 10
0.0
 20
0.0
 30
0.0
 70
   128
 71
    68
 72
    83
 73
   -84
 74
   -68
  0
VERTEX
  5
437
  8
0
 62
   134
 10
0.0
 20
0.0
 30
0.0
 70
   128
 71
    84
 72
    69
 73
   -68
 74
   -84
  0
VERTEX
  5
438
  8
0
 62
   134
 10
0.0
 20
0.0
 30
0.0
 70
   128
 71
    69
 72
    84
 73
   -85
 74
   -69
  0
VERTEX
  5
439
  8
0
 62
   134
 10
0.0
 20
0.0
 30
0.0
 70
   128
 71
    85
 72
    70
 73
   -69
 74
   -85
  0
VERTEX
  5
43A
  8
0
 62
   134
 10
0.0
 20
0.0
 30
0.0
 70
   128
 71
    70
 72
    85
 73
   -86
 74
   -70
  0
VERTEX
  5
43B
  8
0
 62
   134
 10
0.0
 20
0.0
 30
0.0
 70
   128
 71
    86
 72
    71
 73
   -70
 74
   -86
  0
VERTEX
  5
43C
  8
0
 62
   134
 10
0.0
 20
0.0
 30
0.0
 70
   128
 71
    71
 72
    86
 73
   -87
 74
   -71
  0
VERTEX
  5
43D
  8
0
 62
   134
 10
0.0
 20
0.0
 30
0.0
 70
   128
 71
    87
 72
    72
 73
   -71
 74
   -87
  0
VERTEX
  5
43E
  8
0
 62
   134
 10
0.0
 20
0.0
 30
0.0
 70
   128
 71
    72
 72
    87
 73
   -88
 74
   -72
  0
VERTEX
  5
43F
  8
0
 62
   134
 10
0.0
 20
0.0
 30
0.0
 70
   128
 71
    88
 72
    73
 73
   -72
 74
   -88
  0
VERTEX
  5
440
  8
0
 62
   134
 10
0.0
 20
0.0
 30
0.0
 70
   128
 71
    73
 72
    88
 73
   -89
 74
   -73
  0
VERTEX
  5
441
  8
0
 62
   134
 10
0.0
 20
0.0
 30
0.0
 70
   128
 71
    89
 72
    74
 73
   -73
 74
   -89
  0
VERTEX
  5
442
  8
0
 62
   134
 10
0.0
 20
0.0
 30
0.0
 70
   128
 71
    74
 72
    89
 73
   -90
 74
   -74
  0
VERTEX
  5
443
  8
0
 62
   134
 10
0.0
 20
0.0
 30
0.0
 70
   128
 71
    90
 72
    75
 73
   -74
 74
   -90
  0
VERTEX
  5
444
  8
0
 62
   134
 10
0.0
 20
0.0
 30
0.0
 70
   128
 71
    76
 72
    91
 73
   -92
 74
   -76
  0
VERTEX
  5
445
  8
0
 62
   134
 10
0.0
 20
0.0
 30
0.0
 70
   128
 71
    92
 72
    77
 73
   -76
 74
   -92
  0
VERTEX
  5
446
  8
0
 62
   134
 10
0.0
 20
0.0
 30
0.0
 70
   128
 71
    77
 72
    92
 73
   -93
 74
   -77
  0
VERTEX
  5
447
  8
0
 62
   134
 10
0.0
 20
0.0
 30
0.0
 70
   128
 71
    93
 72
    78
 73
   -77
 74
   -93
  0
VERTEX
  5
448
  8
0
 62
   134
 10
0.0
 20
0.0
 30
0.0
 70
   128
 71
    78
 72
    93
 73
   -94
 74
   -78
  0
VERTEX
  5
449
  8
0
 62
   134
 10
0.0
 20
0.0
 30
0.0
 70
   128
 71
    94
 72
    79
 73
   -78
 74
   -94
  0
VERTEX
  5
44A
  8
0
 62
   134
 10
0.0
 20
0.0
 30
0.0
 70
   128
 71
    79
 72
    94
 73
   -95
 74
   -79
  0
VERTEX
  5
44B
  8
0
 62
   134
 10
0.0
 20
0.0
 30
0.0
 70
   128
 71
    95
 72
    80
 73
   -79
 74
   -95
  0
VERTEX
  5
44C
  8
0
 62
   134
 10
0.0
 20
0.0
 30
0.0
 70
   128
 71
    80
 72
    95
 73
   -96
 74
   -80
  0
VERTEX
  5
44D
  8
0
 62
   134
 10
0.0
 20
0.0
 30
0.0
 70
   128
 71
    96
 72
    81
 73
   -80
 74
   -96
  0
VERTEX
  5
44E
  8
0
 62
   134
 10
0.0
 20
0.0
 30
0.0
 70
   128
 71
    81
 72
    96
 73
   -97
 74
   -81
  0
VERTEX
  5
44F
  8
0
 62
   134
 10
0.0
 20
0.0
 30
0.0
 70
   128
 71
    97
 72
    82
 73
   -81
 74
   -97
  0
VERTEX
  5
450
  8
0
 62
   134
 10
0.0
 20
0.0
 30
0.0
 70
   128
 71
    82
 72
    97
 73
   -98
 74
   -82
  0
VERTEX
  5
451
  8
0
 62
   134
 10
0.0
 20
0.0
 30
0.0
 70
   128
 71
    98
 72
    83
 73
   -82
 74
   -98
  0
VERTEX
  5
452
  8
0
 62
   134
 10
0.0
 20
0.0
 30
0.0
 70
   128
 71
    83
 72
    98
 73
   -99
 74
   -83
  0
VERTEX
  5
453
  8
0
 62
   134
 10
0.0
 20
0.0
 30
0.0
 70
   128
 71
    99
 72
    84
 73
   -83
 74
   -99
  0
VERTEX
  5
454
  8
0
 62
   134
 10
0.0
 20
0.0
 30
0.0
 70
   128
 71
    84
 72
    99
 73
  -100
 74
   -84
  0
VERTEX
  5
455
  8
0
 62
   134
 10
0.0
 20
0.0
 30
0.0
 70
   128
 71
   100
 72
    85
 73
   -84
 74
  -100
  0
VERTEX
  5
456
  8
0
 62
   134
 10
0.0
 20
0.0
 30
0.0
 70
   128
 71
    85
 72
   100
 73
  -101
 74
   -85
  0
VERTEX
  5
457
  8
0
 62
   134
 10
0.0
 20
0.0
 30
0.0
 70
   128
 71
   101
 72
    86
 73
   -85
 74
  -101
  0
VERTEX
  5
458
  8
0
 62
   134
 10
0.0
 20
0.0
 30
0.0
 70
   128
 71
    86
 72
   101
 73
  -102
 74
   -86
  0
VERTEX
  5
459
  8
0
 62
   134
 10
0.0
 20
0.0
 30
0.0
 70
   128
 71
   102
 72
    87
 73
   -86
 74
  -102
  0
VERTEX
  5
45A
  8
0
 62
   134
 10
0.0
 20
0.0
 30
0.0
 70
   128
 71
    87
 72
   102
 73
  -103
 74
   -87
  0
VERTEX
  5
45B
  8
0
 62
   134
 10
0.0
 20
0.0
 30
0.0
 70
   128
 71
   103
 72
    88
 73
   -87
 74
  -103
  0
VERTEX
  5
45C
  8
0
 62
   134
 10
0.0
 20
0.0
 30
0.0
 70
   128
 71
    88
 72
   103
 73
  -104
 74
   -88
  0
VERTEX
  5
45D
  8
0
 62
   134
 10
0.0
 20
0.0
 30
0.0
 70
   128
 71
   104
 72
    89
 73
   -88
 74
  -104
  0
VERTEX
  5
45E
  8
0
 62
   134
 10
0.0
 20
0.0
 30
0.0
 70
   128
 71
    89
 72
   104
 73
  -105
 74
   -89
  0
VERTEX
  5
45F
  8
0
 62
   134
 10
0.0
 20
0.0
 30
0.0
 70
   128
 71
   105
 72
    90
 73
   -89
 74
  -105
  0
VERTEX
  5
460
  8
0
 62
   134
 10
0.0
 20
0.0
 30
0.0
 70
   128
 71
    91
 72
   106
 73
  -107
 74
   -91
  0
VERTEX
  5
461
  8
0
 62
   134
 10
0.0
 20
0.0
 30
0.0
 70
   128
 71
   107
 72
    92
 73
   -91
 74
  -107
  0
VERTEX
  5
462
  8
0
 62
   134
 10
0.0
 20
0.0
 30
0.0
 70
   128
 71
    92
 72
   107
 73
  -108
 74
   -92
  0
VERTEX
  5
463
  8
0
 62
   134
 10
0.0
 20
0.0
 30
0.0
 70
   128
 71
   108
 72
    93
 73
   -92
 74
  -108
  0
VERTEX
  5
464
  8
0
 62
   134
 10
0.0
 20
0.0
 30
0.0
 70
   128
 71
    93
 72
   108
 73
  -109
 74
   -93
  0
VERTEX
  5
465
  8
0
 62
   134
 10
0.0
 20
0.0
 30
0.0
 70
   128
 71
   109
 72
    94
 73
   -93
 74
  -109
  0
VERTEX
  5
466
  8
0
 62
   134
 10
0.0
 20
0.0
 30
0.0
 70
   128
 71
    94
 72
   109
 73
  -110
 74
   -94
  0
VERTEX
  5
467
  8
0
 62
   134
 10
0.0
 20
0.0
 30
0.0
 70
   128
 71
   110
 72
    95
 73
   -94
 74
  -110
  0
VERTEX
  5
468
  8
0
 62
   134
 10
0.0
 20
0.0
 30
0.0
 70
   128
 71
    95
 72
   110
 73
  -111
 74
   -95
  0
VERTEX
  5
469
  8
0
 62
   134
 10
0.0
 20
0.0
 30
0.0
 70
   128
 71
   111
 72
    96
 73
   -95
 74
  -111
  0
VERTEX
  5
46A
  8
0
 62
   134
 10
0.0
 20
0.0
 30
0.0
 70
   128
 71
    96
 72
   111
 73
  -112
 74
   -96
  0
VERTEX
  5
46B
  8
0
 62
   134
 10
0.0
 20
0.0
 30
0.0
 70
   128
 71
   112
 72
    97
 73
   -96
 74
  -112
  0
VERTEX
  5
46C
  8
0
 62
   134
 10
0.0
 20
0.0
 30
0.0
 70
   128
 71
    97
 72
   112
 73
  -113
 74
   -97
  0
VERTEX
  5
46D
  8
0
 62
   134
 10
0.0
 20
0.0
 30
0.0
 70
   128
 71
   113
 72
    98
 73
   -97
 74
  -113
  0
VERTEX
  5
46E
  8
0
 62
   134
 10
0.0
 20
0.0
 30
0.0
 70
   128
 71
    98
 72
   113
 73
  -114
 74
   -98
  0
VERTEX
  5
46F
  8
0
 62
   134
 10
0.0
 20
0.0
 30
0.0
 70
   128
 71
   114
 72
    99
 73
   -98
 74
  -114
  0
VERTEX
  5
470
  8
0
 62
   134
 10
0.0
 20
0.0
 30
0.0
 70
   128
 71
    99
 72
   114
 73
  -115
 74
   -99
  0
VERTEX
  5
471
  8
0
 62
   134
 10
0.0
 20
0.0
 30
0.0
 70
   128
 71
   115
 72
   100
 73
   -99
 74
  -115
  0
VERTEX
  5
472
  8
0
 62
   134
 10
0.0
 20
0.0
 30
0.0
 70
   128
 71
   100
 72
   115
 73
  -116
 74
  -100
  0
VERTEX
  5
473
  8
0
 62
   134
 10
0.0
 20
0.0
 30
0.0
 70
   128
 71
   116
 72
   101
 73
  -100
 74
  -116
  0
VERTEX
  5
474
  8
0
 62
   134
 10
0.0
 20
0.0
 30
0.0
 70
   128
 71
   101
 72
   116
 73
  -117
 74
  -101
  0
VERTEX
  5
475
  8
0
 62
   134
 10
0.0
 20
0.0
 30
0.0
 70
   128
 71
   117
 72
   102
 73
  -101
 74
  -117
  0
VERTEX
  5
476
  8
0
 62
   134
 10
0.0
 20
0.0
 30
0.0
 70
   128
 71
   102
 72
   117
 73
  -118
 74
  -102
  0
VERTEX
  5
477
  8
0
 62
   134
 10
0.0
 20
0.0
 30
0.0
 70
   128
 71
   118
 72
   103
 73
  -102
 74
  -118
  0
VERTEX
  5
478
  8
0
 62
   134
 10
0.0
 20
0.0
 30
0.0
 70
   128
 71
   103
 72
   118
 73
  -119
 74
  -103
  0
VERTEX
  5
479
  8
0
 62
   134
 10
0.0
 20
0.0
 30
0.0
 70
   128
 71
   119
 72
   104
 73
  -103
 74
  -119
  0
VERTEX
  5
47A
  8
0
 62
   134
 10
0.0
 20
0.0
 30
0.0
 70
   128
 71
   104
 72
   119
 73
  -120
 74
  -104
  0
VERTEX
  5
47B
  8
0
 62
   134
 10
0.0
 20
0.0
 30
0.0
 70
   128
 71
   120
 72
   105
 73
  -104
 74
  -120
  0
VERTEX
  5
47C
  8
0
 62
   134
 10
0.0
 20
0.0
 30
0.0
 70
   128
 71
   106
 72
   121
 73
  -122
 74
  -106
  0
VERTEX
  5
47D
  8
0
 62
   134
 10
0.0
 20
0.0
 30
0.0
 70
   128
 71
   122
 72
   107
 73
  -106
 74
  -122
  0
VERTEX
  5
47E
  8
0
 62
   134
 10
0.0
 20
0.0
 30
0.0
 70
   128
 71
   107
 72
   122
 73
  -123
 74
  -107
  0
VERTEX
  5
47F
  8
0
 62
   134
 10
0.0
 20
0.0
 30
0.0
 70
   128
 71
   123
 72
   108
 73
  -107
 74
  -123
  0
VERTEX
  5
480
  8
0
 62
   134
 10
0.0
 20
0.0
 30
0.0
 70
   128
 71
   108
 72
   123
 73
  -124
 74
  -108
  0
VERTEX
  5
481
  8
0
 62
   134
 10
0.0
 20
0.0
 30
0.0
 70
   128
 71
   124
 72
   109
 73
  -108
 74
  -124
  0
VERTEX
  5
482
  8
0
 62
   134
 10
0.0
 20
0.0
 30
0.0
 70
   128
 71
   109
 72
   124
 73
  -125
 74
  -109
  0
VERTEX
  5
483
  8
0
 62
   134
 10
0.0
 20
0.0
 30
0.0
 70
   128
 71
   125
 72
   110
 73
  -109
 74
  -125
  0
VERTEX
  5
484
  8
0
 62
   134
 10
0.0
 20
0.0
 30
0.0
 70
   128
 71
   110
 72
   125
 73
  -126
 74
  -110
  0
VERTEX
  5
485
  8
0
 62
   134
 10
0.0
 20
0.0
 30
0.0
 70
   128
 71
   126
 72
   111
 73
  -110
 74
  -126
  0
VERTEX
  5
486
  8
0
 62
   134
 10
0.0
 20
0.0
 30
0.0
 70
   128
 71
   111
 72
   126
 73
  -127
 74
  -111
  0
VERTEX
  5
487
  8
0
 62
   134
 10
0.0
 20
0.0
 30
0.0
 70
   128
 71
   127
 72
   112
 73
  -111
 74
  -127
  0
VERTEX
  5
488
  8
0
 62
   134
 10
0.0
 20
0.0
 30
0.0
 70
   128
 71
   112
 72
   127
 73
  -128
 74
  -112
  0
VERTEX
  5
489
  8
0
 62
   134
 10
0.0
 20
0.0
 30
0.0
 70
   128
 71
   128
 72
   113
 73
  -112
 74
  -128
  0
VERTEX
  5
48A
  8
0
 62
   134
 10
0.0
 20
0.0
 30
0.0
 70
   128
 71
   113
 72
   128
 73
  -129
 74
  -113
  0
VERTEX
  5
48B
  8
0
 62
   134
 10
0.0
 20
0.0
 30
0.0
 70
   128
 71
   129
 72
   114
 73
  -113
 74
  -129
  0
VERTEX
  5
48C
  8
0
 62
   134
 10
0.0
 20
0.0
 30
0.0
 70
   128
 71
   114
 72
   129
 73
  -130
 74
  -114
  0
VERTEX
  5
48D
  8
0
 62
   134
 10
0.0
 20
0.0
 30
0.0
 70
   128
 71
   130
 72
   115
 73
  -114
 74
  -130
  0
VERTEX
  5
48E
  8
0
 62
   134
 10
0.0
 20
0.0
 30
0.0
 70
   128
 71
   115
 72
   130
 73
  -131
 74
  -115
  0
VERTEX
  5
48F
  8
0
 62
   134
 10
0.0
 20
0.0
 30
0.0
 70
   128
 71
   131
 72
   116
 73
  -115
 74
  -131
  0
VERTEX
  5
490
  8
0
 62
   134
 10
0.0
 20
0.0
 30
0.0
 70
   128
 71
   116
 72
   131
 73
  -132
 74
  -116
  0
VERTEX
  5
491
  8
0
 62
   134
 10
0.0
 20
0.0
 30
0.0
 70
   128
 71
   132
 72
   117
 73
  -116
 74
  -132
  0
VERTEX
  5
492
  8
0
 62
   134
 10
0.0
 20
0.0
 30
0.0
 70
   128
 71
   117
 72
   132
 73
  -133
 74
  -117
  0
VERTEX
  5
493
  8
0
 62
   134
 10
0.0
 20
0.0
 30
0.0
 70
   128
 71
   133
 72
   118
 73
  -117
 74
  -133
  0
VERTEX
  5
494
  8
0
 62
   134
 10
0.0
 20
0.0
 30
0.0
 70
   128
 71
   118
 72
   133
 73
  -134
 74
  -118
  0
VERTEX
  5
495
  8
0
 62
   134
 10
0.0
 20
0.0
 30
0.0
 70
   128
 71
   134
 72
   119
 73
  -118
 74
  -134
  0
VERTEX
  5
496
  8
0
 62
   134
 10
0.0
 20
0.0
 30
0.0
 70
   128
 71
   119
 72
   134
 73
  -135
 74
  -119
  0
VERTEX
  5
497
  8
0
 62
   134
 10
0.0
 20
0.0
 30
0.0
 70
   128
 71
   135
 72
   120
 73
  -119
 74
  -135
  0
VERTEX
  5
498
  8
0
 62
   134
 10
0.0
 20
0.0
 30
0.0
 70
   128
 71
   121
 72
   136
 73
  -137
 74
  -121
  0
VERTEX
  5
499
  8
0
 62
   134
 10
0.0
 20
0.0
 30
0.0
 70
   128
 71
   137
 72
   122
 73
  -121
 74
  -137
  0
VERTEX
  5
49A
  8
0
 62
   134
 10
0.0
 20
0.0
 30
0.0
 70
   128
 71
   122
 72
   137
 73
  -138
 74
  -122
  0
VERTEX
  5
49B
  8
0
 62
   134
 10
0.0
 20
0.0
 30
0.0
 70
   128
 71
   138
 72
   123
 73
  -122
 74
  -138
  0
VERTEX
  5
49C
  8
0
 62
   134
 10
0.0
 20
0.0
 30
0.0
 70
   128
 71
   123
 72
   138
 73
  -139
 74
  -123
  0
VERTEX
  5
49D
  8
0
 62
   134
 10
0.0
 20
0.0
 30
0.0
 70
   128
 71
   139
 72
   124
 73
  -123
 74
  -139
  0
VERTEX
  5
49E
  8
0
 62
   134
 10
0.0
 20
0.0
 30
0.0
 70
   128
 71
   124
 72
   139
 73
  -140
 74
  -124
  0
VERTEX
  5
49F
  8
0
 62
   134
 10
0.0
 20
0.0
 30
0.0
 70
   128
 71
   140
 72
   125
 73
  -124
 74
  -140
  0
VERTEX
  5
4A0
  8
0
 62
   134
 10
0.0
 20
0.0
 30
0.0
 70
   128
 71
   125
 72
   140
 73
  -141
 74
  -125
  0
VERTEX
  5
4A1
  8
0
 62
   134
 10
0.0
 20
0.0
 30
0.0
 70
   128
 71
   141
 72
   126
 73
  -125
 74
  -141
  0
VERTEX
  5
4A2
  8
0
 62
   134
 10
0.0
 20
0.0
 30
0.0
 70
   128
 71
   126
 72
   141
 73
  -142
 74
  -126
  0
VERTEX
  5
4A3
  8
0
 62
   134
 10
0.0
 20
0.0
 30
0.0
 70
   128
 71
   142
 72
   127
 73
  -126
 74
  -142
  0
VERTEX
  5
4A4
  8
0
 62
   134
 10
0.0
 20
0.0
 30
0.0
 70
   128
 71
   127
 72
   142
 73
  -143
 74
  -127
  0
VERTEX
  5
4A5
  8
0
 62
   134
 10
0.0
 20
0.0
 30
0.0
 70
   128
 71
   143
 72
   128
 73
  -127
 74
  -143
  0
VERTEX
  5
4A6
  8
0
 62
   134
 10
0.0
 20
0.0
 30
0.0
 70
   128
 71
   128
 72
   143
 73
  -144
 74
  -128
  0
VERTEX
  5
4A7
  8
0
 62
   134
 10
0.0
 20
0.0
 30
0.0
 70
   128
 71
   144
 72
   129
 73
  -128
 74
  -144
  0
VERTEX
  5
4A8
  8
0
 62
   134
 10
0.0
 20
0.0
 30
0.0
 70
   128
 71
   129
 72
   144
 73
  -145
 74
  -129
  0
VERTEX
  5
4A9
  8
0
 62
   134
 10
0.0
 20
0.0
 30
0.0
 70
   128
 71
   145
 72
   130
 73
  -129
 74
  -145
  0
VERTEX
  5
4AA
  8
0
 62
   134
 10
0.0
 20
0.0
 30
0.0
 70
   128
 71
   130
 72
   145
 73
  -146
 74
  -130
  0
VERTEX
  5
4AB
  8
0
 62
   134
 10
0.0
 20
0.0
 30
0.0
 70
   128
 71
   146
 72
   131
 73
  -130
 74
  -146
  0
VERTEX
  5
4AC
  8
0
 62
   134
 10
0.0
 20
0.0
 30
0.0
 70
   128
 71
   131
 72
   146
 73
  -147
 74
  -131
  0
VERTEX
  5
4AD
  8
0
 62
   134
 10
0.0
 20
0.0
 30
0.0
 70
   128
 71
   147
 72
   132
 73
  -131
 74
  -147
  0
VERTEX
  5
4AE
  8
0
 62
   134
 10
0.0
 20
0.0
 30
0.0
 70
   128
 71
   132
 72
   147
 73
  -148
 74
  -132
  0
VERTEX
  5
4AF
  8
0
 62
   134
 10
0.0
 20
0.0
 30
0.0
 70
   128
 71
   148
 72
   133
 73
  -132
 74
  -148
  0
VERTEX
  5
4B0
  8
0
 62
   134
 10
0.0
 20
0.0
 30
0.0
 70
   128
 71
   133
 72
   148
 73
  -149
 74
  -133
  0
VERTEX
  5
4B1
  8
0
 62
   134
 10
0.0
 20
0.0
 30
0.0
 70
   128
 71
   149
 72
   134
 73
  -133
 74
  -149
  0
VERTEX
  5
4B2
  8
0
 62
   134
 10
0.0
 20
0.0
 30
0.0
 70
   128
 71
   134
 72
   149
 73
  -150
 74
  -134
  0
VERTEX
  5
4B3
  8
0
 62
   134
 10
0.0
 20
0.0
 30
0.0
 70
   128
 71
   150
 72
   135
 73
  -134
 74
  -150
  0
VERTEX
  5
4B4
  8
0
 62
   134
 10
0.0
 20
0.0
 30
0.0
 70
   128
 71
   136
 72
   151
 73
  -152
 74
  -136
  0
VERTEX
  5
4B5
  8
0
 62
   134
 10
0.0
 20
0.0
 30
0.0
 70
   128
 71
   152
 72
   137
 73
  -136
 74
  -152
  0
VERTEX
  5
4B6
  8
0
 62
   134
 10
0.0
 20
0.0
 30
0.0
 70
   128
 71
   137
 72
   152
 73
  -153
 74
  -137
  0
VERTEX
  5
4B7
  8
0
 62
   134
 10
0.0
 20
0.0
 30
0.0
 70
   128
 71
   153
 72
   138
 73
  -137
 74
  -153
  0
VERTEX
  5
4B8
  8
0
 62
   134
 10
0.0
 20
0.0
 30
0.0
 70
   128
 71
   138
 72
   153
 73
  -154
 74
  -138
  0
VERTEX
  5
4B9
  8
0
 62
   134
 10
0.0
 20
0.0
 30
0.0
 70
   128
 71
   154
 72
   139
 73
  -138
 74
  -154
  0
VERTEX
  5
4BA
  8
0
 62
   134
 10
0.0
 20
0.0
 30
0.0
 70
   128
 71
   139
 72
   154
 73
  -155
 74
  -139
  0
VERTEX
  5
4BB
  8
0
 62
   134
 10
0.0
 20
0.0
 30
0.0
 70
   128
 71
   155
 72
   140
 73
  -139
 74
  -155
  0
VERTEX
  5
4BC
  8
0
 62
   134
 10
0.0
 20
0.0
 30
0.0
 70
   128
 71
   140
 72
   155
 73
  -156
 74
  -140
  0
VERTEX
  5
4BD
  8
0
 62
   134
 10
0.0
 20
0.0
 30
0.0
 70
   128
 71
   156
 72
   141
 73
  -140
 74
  -156
  0
VERTEX
  5
4BE
  8
0
 62
   134
 10
0.0
 20
0.0
 30
0.0
 70
   128
 71
   141
 72
   156
 73
  -157
 74
  -141
  0
VERTEX
  5
4BF
  8
0
 62
   134
 10
0.0
 20
0.0
 30
0.0
 70
   128
 71
   157
 72
   142
 73
  -141
 74
  -157
  0
VERTEX
  5
4C0
  8
0
 62
   134
 10
0.0
 20
0.0
 30
0.0
 70
   128
 71
   142
 72
   157
 73
  -158
 74
  -142
  0
VERTEX
  5
4C1
  8
0
 62
   134
 10
0.0
 20
0.0
 30
0.0
 70
   128
 71
   158
 72
   143
 73
  -142
 74
  -158
  0
VERTEX
  5
4C2
  8
0
 62
   134
 10
0.0
 20
0.0
 30
0.0
 70
   128
 71
   143
 72
   158
 73
  -159
 74
  -143
  0
VERTEX
  5
4C3
  8
0
 62
   134
 10
0.0
 20
0.0
 30
0.0
 70
   128
 71
   159
 72
   144
 73
  -143
 74
  -159
  0
VERTEX
  5
4C4
  8
0
 62
   134
 10
0.0
 20
0.0
 30
0.0
 70
   128
 71
   144
 72
   159
 73
  -160
 74
  -144
  0
VERTEX
  5
4C5
  8
0
 62
   134
 10
0.0
 20
0.0
 30
0.0
 70
   128
 71
   160
 72
   145
 73
  -144
 74
  -160
  0
VERTEX
  5
4C6
  8
0
 62
   134
 10
0.0
 20
0.0
 30
0.0
 70
   128
 71
   145
 72
   160
 73
  -161
 74
  -145
  0
VERTEX
  5
4C7
  8
0
 62
   134
 10
0.0
 20
0.0
 30
0.0
 70
   128
 71
   161
 72
   146
 73
  -145
 74
  -161
  0
VERTEX
  5
4C8
  8
0
 62
   134
 10
0.0
 20
0.0
 30
0.0
 70
   128
 71
   146
 72
   161
 73
  -162
 74
  -146
  0
VERTEX
  5
4C9
  8
0
 62
   134
 10
0.0
 20
0.0
 30
0.0
 70
   128
 71
   162
 72
   147
 73
  -146
 74
  -162
  0
VERTEX
  5
4CA
  8
0
 62
   134
 10
0.0
 20
0.0
 30
0.0
 70
   128
 71
   147
 72
   162
 73
  -163
 74
  -147
  0
VERTEX
  5
4CB
  8
0
 62
   134
 10
0.0
 20
0.0
 30
0.0
 70
   128
 71
   163
 72
   148
 73
  -147
 74
  -163
  0
VERTEX
  5
4CC
  8
0
 62
   134
 10
0.0
 20
0.0
 30
0.0
 70
   128
 71
   148
 72
   163
 73
  -164
 74
  -148
  0
VERTEX
  5
4CD
  8
0
 62
   134
 10
0.0
 20
0.0
 30
0.0
 70
   128
 71
   164
 72
   149
 73
  -148
 74
  -164
  0
VERTEX
  5
4CE
  8
0
 62
   134
 10
0.0
 20
0.0
 30
0.0
 70
   128
 71
   149
 72
   164
 73
  -165
 74
  -149
  0
VERTEX
  5
4CF
  8
0
 62
   134
 10
0.0
 20
0.0
 30
0.0
 70
   128
 71
   165
 72
   150
 73
  -149
 74
  -165
  0
VERTEX
  5
4D0
  8
0
 62
   134
 10
0.0
 20
0.0
 30
0.0
 70
   128
 71
   151
 72
   166
 73
  -167
 74
  -151
  0
VERTEX
  5
4D1
  8
0
 62
   134
 10
0.0
 20
0.0
 30
0.0
 70
   128
 71
   167
 72
   152
 73
  -151
 74
  -167
  0
VERTEX
  5
4D2
  8
0
 62
   134
 10
0.0
 20
0.0
 30
0.0
 70
   128
 71
   152
 72
   167
 73
  -168
 74
  -152
  0
VERTEX
  5
4D3
  8
0
 62
   134
 10
0.0
 20
0.0
 30
0.0
 70
   128
 71
   168
 72
   153
 73
  -152
 74
  -168
  0
VERTEX
  5
4D4
  8
0
 62
   134
 10
0.0
 20
0.0
 30
0.0
 70
   128
 71
   153
 72
   168
 73
  -169
 74
  -153
  0
VERTEX
  5
4D5
  8
0
 62
   134
 10
0.0
 20
0.0
 30
0.0
 70
   128
 71
   169
 72
   154
 73
  -153
 74
  -169
  0
VERTEX
  5
4D6
  8
0
 62
   134
 10
0.0
 20
0.0
 30
0.0
 70
   128
 71
   154
 72
   169
 73
  -170
 74
  -154
  0
VERTEX
  5
4D7
  8
0
 62
   134
 10
0.0
 20
0.0
 30
0.0
 70
   128
 71
   170
 72
   155
 73
  -154
 74
  -170
  0
VERTEX
  5
4D8
  8
0
 62
   134
 10
0.0
 20
0.0
 30
0.0
 70
   128
 71
   155
 72
   170
 73
  -171
 74
  -155
  0
VERTEX
  5
4D9
  8
0
 62
   134
 10
0.0
 20
0.0
 30
0.0
 70
   128
 71
   171
 72
   156
 73
  -155
 74
  -171
  0
VERTEX
  5
4DA
  8
0
 62
   134
 10
0.0
 20
0.0
 30
0.0
 70
   128
 71
   156
 72
   171
 73
  -172
 74
  -156
  0
VERTEX
  5
4DB
  8
0
 62
   134
 10
0.0
 20
0.0
 30
0.0
 70
   128
 71
   172
 72
   157
 73
  -156
 74
  -172
  0
VERTEX
  5
4DC
  8
0
 62
   134
 10
0.0
 20
0.0
 30
0.0
 70
   128
 71
   157
 72
   172
 73
  -173
 74
  -157
  0
VERTEX
  5
4DD
  8
0
 62
   134
 10
0.0
 20
0.0
 30
0.0
 70
   128
 71
   173
 72
   158
 73
  -157
 74
  -173
  0
VERTEX
  5
4DE
  8
0
 62
   134
 10
0.0
 20
0.0
 30
0.0
 70
   128
 71
   158
 72
   173
 73
  -174
 74
  -158
  0
VERTEX
  5
4DF
  8
0
 62
   134
 10
0.0
 20
0.0
 30
0.0
 70
   128
 71
   174
 72
   159
 73
  -158
 74
  -174
  0
VERTEX
  5
4E0
  8
0
 62
   134
 10
0.0
 20
0.0
 30
0.0
 70
   128
 71
   159
 72
   174
 73
  -175
 74
  -159
  0
VERTEX
  5
4E1
  8
0
 62
   134
 10
0.0
 20
0.0
 30
0.0
 70
   128
 71
   175
 72
   160
 73
  -159
 74
  -175
  0
VERTEX
  5
4E2
  8
0
 62
   134
 10
0.0
 20
0.0
 30
0.0
 70
   128
 71
   160
 72
   175
 73
  -176
 74
  -160
  0
VERTEX
  5
4E3
  8
0
 62
   134
 10
0.0
 20
0.0
 30
0.0
 70
   128
 71
   176
 72
   161
 73
  -160
 74
  -176
  0
VERTEX
  5
4E4
  8
0
 62
   134
 10
0.0
 20
0.0
 30
0.0
 70
   128
 71
   161
 72
   176
 73
  -177
 74
  -161
  0
VERTEX
  5
4E5
  8
0
 62
   134
 10
0.0
 20
0.0
 30
0.0
 70
   128
 71
   177
 72
   162
 73
  -161
 74
  -177
  0
VERTEX
  5
4E6
  8
0
 62
   134
 10
0.0
 20
0.0
 30
0.0
 70
   128
 71
   162
 72
   177
 73
  -178
 74
  -162
  0
VERTEX
  5
4E7
  8
0
 62
   134
 10
0.0
 20
0.0
 30
0.0
 70
   128
 71
   178
 72
   163
 73
  -162
 74
  -178
  0
VERTEX
  5
4E8
  8
0
 62
   134
 10
0.0
 20
0.0
 30
0.0
 70
   128
 71
   163
 72
   178
 73
  -179
 74
  -163
  0
VERTEX
  5
4E9
  8
0
 62
   134
 10
0.0
 20
0.0
 30
0.0
 70
   128
 71
   179
 72
   164
 73
  -163
 74
  -179
  0
VERTEX
  5
4EA
  8
0
 62
   134
 10
0.0
 20
0.0
 30
0.0
 70
   128
 71
   164
 72
   179
 73
  -180
 74
  -164
  0
VERTEX
  5
4EB
  8
0
 62
   134
 10
0.0
 20
0.0
 30
0.0
 70
   128
 71
   180
 72
   165
 73
  -164
 74
  -180
  0
VERTEX
  5
4EC
  8
0
 62
   134
 10
0.0
 20
0.0
 30
0.0
 70
   128
 71
   166
 72
   181
 73
  -182
 74
  -166
  0
VERTEX
  5
4ED
  8
0
 62
   134
 10
0.0
 20
0.0
 30
0.0
 70
   128
 71
   182
 72
   167
 73
  -166
 74
  -182
  0
VERTEX
  5
4EE
  8
0
 62
   134
 10
0.0
 20
0.0
 30
0.0
 70
   128
 71
   167
 72
   182
 73
  -183
 74
  -167
  0
VERTEX
  5
4EF
  8
0
 62
   134
 10
0.0
 20
0.0
 30
0.0
 70
   128
 71
   183
 72
   168
 73
  -167
 74
  -183
  0
VERTEX
  5
4F0
  8
0
 62
   134
 10
0.0
 20
0.0
 30
0.0
 70
   128
 71
   168
 72
   183
 73
  -184
 74
  -168
  0
VERTEX
  5
4F1
  8
0
 62
   134
 10
0.0
 20
0.0
 30
0.0
 70
   128
 71
   184
 72
   169
 73
  -168
 74
  -184
  0
VERTEX
  5
4F2
  8
0
 62
   134
 10
0.0
 20
0.0
 30
0.0
 70
   128
 71
   169
 72
   184
 73
  -185
 74
  -169
  0
VERTEX
  5
4F3
  8
0
 62
   134
 10
0.0
 20
0.0
 30
0.0
 70
   128
 71
   185
 72
   170
 73
  -169
 74
  -185
  0
VERTEX
  5
4F4
  8
0
 62
   134
 10
0.0
 20
0.0
 30
0.0
 70
   128
 71
   170
 72
   185
 73
  -186
 74
  -170
  0
VERTEX
  5
4F5
  8
0
 62
   134
 10
0.0
 20
0.0
 30
0.0
 70
   128
 71
   186
 72
   171
 73
  -170
 74
  -186
  0
VERTEX
  5
4F6
  8
0
 62
   134
 10
0.0
 20
0.0
 30
0.0
 70
   128
 71
   171
 72
   186
 73
  -187
 74
  -171
  0
VERTEX
  5
4F7
  8
0
 62
   134
 10
0.0
 20
0.0
 30
0.0
 70
   128
 71
   187
 72
   172
 73
  -171
 74
  -187
  0
VERTEX
  5
4F8
  8
0
 62
   134
 10
0.0
 20
0.0
 30
0.0
 70
   128
 71
   172
 72
   187
 73
  -188
 74
  -172
  0
VERTEX
  5
4F9
  8
0
 62
   134
 10
0.0
 20
0.0
 30
0.0
 70
   128
 71
   188
 72
   173
 73
  -172
 74
  -188
  0
VERTEX
  5
4FA
  8
0
 62
   134
 10
0.0
 20
0.0
 30
0.0
 70
   128
 71
   173
 72
   188
 73
  -189
 74
  -173
  0
VERTEX
  5
4FB
  8
0
 62
   134
 10
0.0
 20
0.0
 30
0.0
 70
   128
 71
   189
 72
   174
 73
  -173
 74
  -189
  0
VERTEX
  5
4FC
  8
0
 62
   134
 10
0.0
 20
0.0
 30
0.0
 70
   128
 71
   174
 72
   189
 73
  -190
 74
  -174
  0
VERTEX
  5
4FD
  8
0
 62
   134
 10
0.0
 20
0.0
 30
0.0
 70
   128
 71
   190
 72
   175
 73
  -174
 74
  -190
  0
VERTEX
  5
4FE
  8
0
 62
   134
 10
0.0
 20
0.0
 30
0.0
 70
   128
 71
   175
 72
   190
 73
  -191
 74
  -175
  0
VERTEX
  5
4FF
  8
0
 62
   134
 10
0.0
 20
0.0
 30
0.0
 70
   128
 71
   191
 72
   176
 73
  -175
 74
  -191
  0
VERTEX
  5
500
  8
0
 62
   134
 10
0.0
 20
0.0
 30
0.0
 70
   128
 71
   176
 72
   191
 73
  -192
 74
  -176
  0
VERTEX
  5
501
  8
0
 62
   134
 10
0.0
 20
0.0
 30
0.0
 70
   128
 71
   192
 72
   177
 73
  -176
 74
  -192
  0
VERTEX
  5
502
  8
0
 62
   134
 10
0.0
 20
0.0
 30
0.0
 70
   128
 71
   177
 72
   192
 73
  -193
 74
  -177
  0
VERTEX
  5
503
  8
0
 62
   134
 10
0.0
 20
0.0
 30
0.0
 70
   128
 71
   193
 72
   178
 73
  -177
 74
  -193
  0
VERTEX
  5
504
  8
0
 62
   134
 10
0.0
 20
0.0
 30
0.0
 70
   128
 71
   178
 72
   193
 73
  -194
 74
  -178
  0
VERTEX
  5
505
  8
0
 62
   134
 10
0.0
 20
0.0
 30
0.0
 70
   128
 71
   194
 72
   179
 73
  -178
 74
  -194
  0
VERTEX
  5
506
  8
0
 62
   134
 10
0.0
 20
0.0
 30
0.0
 70
   128
 71
   179
 72
   194
 73
  -195
 74
  -179
  0
VERTEX
  5
507
  8
0
 62
   134
 10
0.0
 20
0.0
 30
0.0
 70
   128
 71
   195
 72
   180
 73
  -179
 74
  -195
  0
VERTEX
  5
508
  8
0
 62
   134
 10
0.0
 20
0.0
 30
0.0
 70
   128
 71
   181
 72
   196
 73
  -197
 74
  -181
  0
VERTEX
  5
509
  8
0
 62
   134
 10
0.0
 20
0.0
 30
0.0
 70
   128
 71
   197
 72
   182
 73
  -181
 74
  -197
  0
VERTEX
  5
50A
  8
0
 62
   134
 10
0.0
 20
0.0
 30
0.0
 70
   128
 71
   182
 72
   197
 73
  -198
 74
  -182
  0
VERTEX
  5
50B
  8
0
 62
   134
 10
0.0
 20
0.0
 30
0.0
 70
   128
 71
   198
 72
   183
 73
  -182
 74
  -198
  0
VERTEX
  5
50C
  8
0
 62
   134
 10
0.0
 20
0.0
 30
0.0
 70
   128
 71
   183
 72
   198
 73
  -199
 74
  -183
  0
VERTEX
  5
50D
  8
0
 62
   134
 10
0.0
 20
0.0
 30
0.0
 70
   128
 71
   199
 72
   184
 73
  -183
 74
  -199
  0
VERTEX
  5
50E
  8
0
 62
   134
 10
0.0
 20
0.0
 30
0.0
 70
   128
 71
   184
 72
   199
 73
  -200
 74
  -184
  0
VERTEX
  5
50F
  8
0
 62
   134
 10
0.0
 20
0.0
 30
0.0
 70
   128
 71
   200
 72
   185
 73
  -184
 74
  -200
  0
VERTEX
  5
510
  8
0
 62
   134
 10
0.0
 20
0.0
 30
0.0
 70
   128
 71
   185
 72
   200
 73
  -201
 74
  -185
  0
VERTEX
  5
511
  8
0
 62
   134
 10
0.0
 20
0.0
 30
0.0
 70
   128
 71
   201
 72
   186
 73
  -185
 74
  -201
  0
VERTEX
  5
512
  8
0
 62
   134
 10
0.0
 20
0.0
 30
0.0
 70
   128
 71
   186
 72
   201
 73
  -202
 74
  -186
  0
VERTEX
  5
513
  8
0
 62
   134
 10
0.0
 20
0.0
 30
0.0
 70
   128
 71
   202
 72
   187
 73
  -186
 74
  -202
  0
VERTEX
  5
514
  8
0
 62
   134
 10
0.0
 20
0.0
 30
0.0
 70
   128
 71
   187
 72
   202
 73
  -203
 74
  -187
  0
VERTEX
  5
515
  8
0
 62
   134
 10
0.0
 20
0.0
 30
0.0
 70
   128
 71
   203
 72
   188
 73
  -187
 74
  -203
  0
VERTEX
  5
516
  8
0
 62
   134
 10
0.0
 20
0.0
 30
0.0
 70
   128
 71
   188
 72
   203
 73
  -204
 74
  -188
  0
VERTEX
  5
517
  8
0
 62
   134
 10
0.0
 20
0.0
 30
0.0
 70
   128
 71
   204
 72
   189
 73
  -188
 74
  -204
  0
VERTEX
  5
518
  8
0
 62
   134
 10
0.0
 20
0.0
 30
0.0
 70
   128
 71
   189
 72
   204
 73
  -205
 74
  -189
  0
VERTEX
  5
519
  8
0
 62
   134
 10
0.0
 20
0.0
 30
0.0
 70
   128
 71
   205
 72
   190
 73
  -189
 74
  -205
  0
VERTEX
  5
51A
  8
0
 62
   134
 10
0.0
 20
0.0
 30
0.0
 70
   128
 71
   190
 72
   205
 73
  -206
 74
  -190
  0
VERTEX
  5
51B
  8
0
 62
   134
 10
0.0
 20
0.0
 30
0.0
 70
   128
 71
   206
 72
   191
 73
  -190
 74
  -206
  0
VERTEX
  5
51C
  8
0
 62
   134
 10
0.0
 20
0.0
 30
0.0
 70
   128
 71
   191
 72
   206
 73
  -207
 74
  -191
  0
VERTEX
  5
51D
  8
0
 62
   134
 10
0.0
 20
0.0
 30
0.0
 70
   128
 71
   207
 72
   192
 73
  -191
 74
  -207
  0
VERTEX
  5
51E
  8
0
 62
   134
 10
0.0
 20
0.0
 30
0.0
 70
   128
 71
   192
 72
   207
 73
  -208
 74
  -192
  0
VERTEX
  5
51F
  8
0
 62
   134
 10
0.0
 20
0.0
 30
0.0
 70
   128
 71
   208
 72
   193
 73
  -192
 74
  -208
  0
VERTEX
  5
520
  8
0
 62
   134
 10
0.0
 20
0.0
 30
0.0
 70
   128
 71
   193
 72
   208
 73
  -209
 74
  -193
  0
VERTEX
  5
521
  8
0
 62
   134
 10
0.0
 20
0.0
 30
0.0
 70
   128
 71
   209
 72
   194
 73
  -193
 74
  -209
  0
VERTEX
  5
522
  8
0
 62
   134
 10
0.0
 20
0.0
 30
0.0
 70
   128
 71
   194
 72
   209
 73
  -210
 74
  -194
  0
VERTEX
  5
523
  8
0
 62
   134
 10
0.0
 20
0.0
 30
0.0
 70
   128
 71
   210
 72
   195
 73
  -194
 74
  -210
  0
VERTEX
  5
524
  8
0
 62
   134
 10
0.0
 20
0.0
 30
0.0
 70
   128
 71
   196
 72
   211
 73
  -212
 74
  -196
  0
VERTEX
  5
525
  8
0
 62
   134
 10
0.0
 20
0.0
 30
0.0
 70
   128
 71
   212
 72
   197
 73
  -196
 74
  -212
  0
VERTEX
  5
526
  8
0
 62
   134
 10
0.0
 20
0.0
 30
0.0
 70
   128
 71
   197
 72
   212
 73
  -213
 74
  -197
  0
VERTEX
  5
527
  8
0
 62
   134
 10
0.0
 20
0.0
 30
0.0
 70
   128
 71
   213
 72
   198
 73
  -197
 74
  -213
  0
VERTEX
  5
528
  8
0
 62
   134
 10
0.0
 20
0.0
 30
0.0
 70
   128
 71
   198
 72
   213
 73
  -214
 74
  -198
  0
VERTEX
  5
529
  8
0
 62
   134
 10
0.0
 20
0.0
 30
0.0
 70
   128
 71
   214
 72
   199
 73
  -198
 74
  -214
  0
VERTEX
  5
52A
  8
0
 62
   134
 10
0.0
 20
0.0
 30
0.0
 70
   128
 71
   199
 72
   214
 73
  -215
 74
  -199
  0
VERTEX
  5
52B
  8
0
 62
   134
 10
0.0
 20
0.0
 30
0.0
 70
   128
 71
   215
 72
   200
 73
  -199
 74
  -215
  0
VERTEX
  5
52C
  8
0
 62
   134
 10
0.0
 20
0.0
 30
0.0
 70
   128
 71
   200
 72
   215
 73
  -216
 74
  -200
  0
VERTEX
  5
52D
  8
0
 62
   134
 10
0.0
 20
0.0
 30
0.0
 70
   128
 71
   216
 72
   201
 73
  -200
 74
  -216
  0
VERTEX
  5
52E
  8
0
 62
   134
 10
0.0
 20
0.0
 30
0.0
 70
   128
 71
   201
 72
   216
 73
  -217
 74
  -201
  0
VERTEX
  5
52F
  8
0
 62
   134
 10
0.0
 20
0.0
 30
0.0
 70
   128
 71
   217
 72
   202
 73
  -201
 74
  -217
  0
VERTEX
  5
530
  8
0
 62
   134
 10
0.0
 20
0.0
 30
0.0
 70
   128
 71
   202
 72
   217
 73
  -218
 74
  -202
  0
VERTEX
  5
531
  8
0
 62
   134
 10
0.0
 20
0.0
 30
0.0
 70
   128
 71
   218
 72
   203
 73
  -202
 74
  -218
  0
VERTEX
  5
532
  8
0
 62
   134
 10
0.0
 20
0.0
 30
0.0
 70
   128
 71
   203
 72
   218
 73
  -219
 74
  -203
  0
VERTEX
  5
533
  8
0
 62
   134
 10
0.0
 20
0.0
 30
0.0
 70
   128
 71
   219
 72
   204
 73
  -203
 74
  -219
  0
VERTEX
  5
534
  8
0
 62
   134
 10
0.0
 20
0.0
 30
0.0
 70
   128
 71
   204
 72
   219
 73
  -220
 74
  -204
  0
VERTEX
  5
535
  8
0
 62
   134
 10
0.0
 20
0.0
 30
0.0
 70
   128
 71
   220
 72
   205
 73
  -204
 74
  -220
  0
VERTEX
  5
536
  8
0
 62
   134
 10
0.0
 20
0.0
 30
0.0
 70
   128
 71
   205
 72
   220
 73
  -221
 74
  -205
  0
VERTEX
  5
537
  8
0
 62
   134
 10
0.0
 20
0.0
 30
0.0
 70
   128
 71
   221
 72
   206
 73
  -205
 74
  -221
  0
VERTEX
  5
538
  8
0
 62
   134
 10
0.0
 20
0.0
 30
0.0
 70
   128
 71
   206
 72
   221
 73
  -222
 74
  -206
  0
VERTEX
  5
539
  8
0
 62
   134
 10
0.0
 20
0.0
 30
0.0
 70
   128
 71
   222
 72
   207
 73
  -206
 74
  -222
  0
VERTEX
  5
53A
  8
0
 62
   134
 10
0.0
 20
0.0
 30
0.0
 70
   128
 71
   207
 72
   222
 73
  -223
 74
  -207
  0
VERTEX
  5
53B
  8
0
 62
   134
 10
0.0
 20
0.0
 30
0.0
 70
   128
 71
   223
 72
   208
 73
  -207
 74
  -223
  0
VERTEX
  5
53C
  8
0
 62
   134
 10
0.0
 20
0.0
 30
0.0
 70
   128
 71
   208
 72
   223
 73
  -224
 74
  -208
  0
VERTEX
  5
53D
  8
0
 62
   134
 10
0.0
 20
0.0
 30
0.0
 70
   128
 71
   224
 72
   209
 73
  -208
 74
  -224
  0
VERTEX
  5
53E
  8
0
 62
   134
 10
0.0
 20
0.0
 30
0.0
 70
   128
 71
   209
 72
   224
 73
  -225
 74
  -209
  0
VERTEX
  5
53F
  8
0
 62
   134
 10
0.0
 20
0.0
 30
0.0
 70
   128
 71
   225
 72
   210
 73
  -209
 74
  -225
  0
VERTEX
  5
540
  8
0
 62
   134
 10
0.0
 20
0.0
 30
0.0
 70
   128
 71
   211
 72
   226
 73
  -227
 74
  -211
  0
VERTEX
  5
541
  8
0
 62
   134
 10
0.0
 20
0.0
 30
0.0
 70
   128
 71
   227
 72
   212
 73
  -211
 74
  -227
  0
VERTEX
  5
542
  8
0
 62
   134
 10
0.0
 20
0.0
 30
0.0
 70
   128
 71
   212
 72
   227
 73
  -228
 74
  -212
  0
VERTEX
  5
543
  8
0
 62
   134
 10
0.0
 20
0.0
 30
0.0
 70
   128
 71
   228
 72
   213
 73
  -212
 74
  -228
  0
VERTEX
  5
544
  8
0
 62
   134
 10
0.0
 20
0.0
 30
0.0
 70
   128
 71
   213
 72
   228
 73
  -229
 74
  -213
  0
VERTEX
  5
545
  8
0
 62
   134
 10
0.0
 20
0.0
 30
0.0
 70
   128
 71
   229
 72
   214
 73
  -213
 74
  -229
  0
VERTEX
  5
546
  8
0
 62
   134
 10
0.0
 20
0.0
 30
0.0
 70
   128
 71
   214
 72
   229
 73
  -230
 74
  -214
  0
VERTEX
  5
547
  8
0
 62
   134
 10
0.0
 20
0.0
 30
0.0
 70
   128
 71
   230
 72
   215
 73
  -214
 74
  -230
  0
VERTEX
  5
548
  8
0
 62
   134
 10
0.0
 20
0.0
 30
0.0
 70
   128
 71
   215
 72
   230
 73
  -231
 74
  -215
  0
VERTEX
  5
549
  8
0
 62
   134
 10
0.0
 20
0.0
 30
0.0
 70
   128
 71
   231
 72
   216
 73
  -215
 74
  -231
  0
VERTEX
  5
54A
  8
0
 62
   134
 10
0.0
 20
0.0
 30
0.0
 70
   128
 71
   216
 72
   231
 73
  -232
 74
  -216
  0
VERTEX
  5
54B
  8
0
 62
   134
 10
0.0
 20
0.0
 30
0.0
 70
   128
 71
   232
 72
   217
 73
  -216
 74
  -232
  0
VERTEX
  5
54C
  8
0
 62
   134
 10
0.0
 20
0.0
 30
0.0
 70
   128
 71
   217
 72
   232
 73
  -233
 74
  -217
  0
VERTEX
  5
54D
  8
0
 62
   134
 10
0.0
 20
0.0
 30
0.0
 70
   128
 71
   233
 72
   218
 73
  -217
 74
  -233
  0
VERTEX
  5
54E
  8
0
 62
   134
 10
0.0
 20
0.0
 30
0.0
 70
   128
 71
   218
 72
   233
 73
  -234
 74
  -218
  0
VERTEX
  5
54F
  8
0
 62
   134
 10
0.0
 20
0.0
 30
0.0
 70
   128
 71
   234
 72
   219
 73
  -218
 74
  -234
  0
VERTEX
  5
550
  8
0
 62
   134
 10
0.0
 20
0.0
 30
0.0
 70
   128
 71
   219
 72
   234
 73
  -235
 74
  -219
  0
VERTEX
  5
551
  8
0
 62
   134
 10
0.0
 20
0.0
 30
0.0
 70
   128
 71
   235
 72
   220
 73
  -219
 74
  -235
  0
VERTEX
  5
552
  8
0
 62
   134
 10
0.0
 20
0.0
 30
0.0
 70
   128
 71
   220
 72
   235
 73
  -236
 74
  -220
  0
VERTEX
  5
553
  8
0
 62
   134
 10
0.0
 20
0.0
 30
0.0
 70
   128
 71
   236
 72
   221
 73
  -220
 74
  -236
  0
VERTEX
  5
554
  8
0
 62
   134
 10
0.0
 20
0.0
 30
0.0
 70
   128
 71
   221
 72
   236
 73
  -237
 74
  -221
  0
VERTEX
  5
555
  8
0
 62
   134
 10
0.0
 20
0.0
 30
0.0
 70
   128
 71
   237
 72
   222
 73
  -221
 74
  -237
  0
VERTEX
  5
556
  8
0
 62
   134
 10
0.0
 20
0.0
 30
0.0
 70
   128
 71
   222
 72
   237
 73
  -238
 74
  -222
  0
VERTEX
  5
557
  8
0
 62
   134
 10
0.0
 20
0.0
 30
0.0
 70
   128
 71
   238
 72
   223
 73
  -222
 74
  -238
  0
VERTEX
  5
558
  8
0
 62
   134
 10
0.0
 20
0.0
 30
0.0
 70
   128
 71
   223
 72
   238
 73
  -239
 74
  -223
  0
VERTEX
  5
559
  8
0
 62
   134
 10
0.0
 20
0.0
 30
0.0
 70
   128
 71
   239
 72
   224
 73
  -223
 74
  -239
  0
VERTEX
  5
55A
  8
0
 62
   134
 10
0.0
 20
0.0
 30
0.0
 70
   128
 71
   224
 72
   239
 73
  -240
 74
  -224
  0
VERTEX
  5
55B
  8
0
 62
   134
 10
0.0
 20
0.0
 30
0.0
 70
   128
 71
   240
 72
   225
 73
  -224
 74
  -240
  0
VERTEX
  5
55C
  8
0
 62
   134
 10
0.0
 20
0.0
 30
0.0
 70
   128
 71
   226
 72
     1
 73
    -2
 74
  -226
  0
VERTEX
  5
55D
  8
0
 62
   134
 10
0.0
 20
0.0
 30
0.0
 70
   128
 71
     2
 72
   227
 73
  -226
 74
    -2
  0
VERTEX
  5
55E
  8
0
 62
   134
 10
0.0
 20
0.0
 30
0.0
 70
   128
 71
   227
 72
     2
 73
    -3
 74
  -227
  0
VERTEX
  5
55F
  8
0
 62
   134
 10
0.0
 20
0.0
 30
0.0
 70
   128
 71
     3
 72
   228
 73
  -227
 74
    -3
  0
VERTEX
  5
560
  8
0
 62
   134
 10
0.0
 20
0.0
 30
0.0
 70
   128
 71
   228
 72
     3
 73
    -4
 74
  -228
  0
VERTEX
  5
561
  8
0
 62
   134
 10
0.0
 20
0.0
 30
0.0
 70
   128
 71
     4
 72
   229
 73
  -228
 74
    -4
  0
VERTEX
  5
562
  8
0
 62
   134
 10
0.0
 20
0.0
 30
0.0
 70
   128
 71
   229
 72
     4
 73
    -5
 74
  -229
  0
VERTEX
  5
563
  8
0
 62
   134
 10
0.0
 20
0.0
 30
0.0
 70
   128
 71
     5
 72
   230
 73
  -229
 74
    -5
  0
VERTEX
  5
564
  8
0
 62
   134
 10
0.0
 20
0.0
 30
0.0
 70
   128
 71
   230
 72
     5
 73
    -6
 74
  -230
  0
VERTEX
  5
565
  8
0
 62
   134
 10
0.0
 20
0.0
 30
0.0
 70
   128
 71
     6
 72
   231
 73
  -230
 74
    -6
  0
VERTEX
  5
566
  8
0
 62
   134
 10
0.0
 20
0.0
 30
0.0
 70
   128
 71
   231
 72
     6
 73
    -7
 74
  -231
  0
VERTEX
  5
567
  8
0
 62
   134
 10
0.0
 20
0.0
 30
0.0
 70
   128
 71
     7
 72
   232
 73
  -231
 74
    -7
  0
VERTEX
  5
568
  8
0
 62
   134
 10
0.0
 20
0.0
 30
0.0
 70
   128
 71
   232
 72
     7
 73
    -8
 74
  -232
  0
VERTEX
  5
569
  8
0
 62
   134
 10
0.0
 20
0.0
 30
0.0
 70
   128
 71
     8
 72
   233
 73
  -232
 74
    -8
  0
VERTEX
  5
56A
  8
0
 62
   134
 10
0.0
 20
0.0
 30
0.0
 70
   128
 71
   233
 72
     8
 73
    -9
 74
  -233
  0
VERTEX
  5
56B
  8
0
 62
   134
 10
0.0
 20
0.0
 30
0.0
 70
   128
 71
     9
 72
   234
 73
  -233
 74
    -9
  0
VERTEX
  5
56C
  8
0
 62
   134
 10
0.0
 20
0.0
 30
0.0
 70
   128
 71
   234
 72
     9
 73
   -10
 74
  -234
  0
VERTEX
  5
56D
  8
0
 62
   134
 10
0.0
 20
0.0
 30
0.0
 70
   128
 71
    10
 72
   235
 73
  -234
 74
   -10
  0
VERTEX
  5
56E
  8
0
 62
   134
 10
0.0
 20
0.0
 30
0.0
 70
   128
 71
   235
 72
    10
 73
   -11
 74
  -235
  0
VERTEX
  5
56F
  8
0
 62
   134
 10
0.0
 20
0.0
 30
0.0
 70
   128
 71
    11
 72
   236
 73
  -235
 74
   -11
  0
VERTEX
  5
570
  8
0
 62
   134
 10
0.0
 20
0.0
 30
0.0
 70
   128
 71
   236
 72
    11
 73
   -12
 74
  -236
  0
VERTEX
  5
571
  8
0
 62
   134
 10
0.0
 20
0.0
 30
0.0
 70
   128
 71
    12
 72
   237
 73
  -236
 74
   -12
  0
VERTEX
  5
572
  8
0
 62
   134
 10
0.0
 20
0.0
 30
0.0
 70
   128
 71
   237
 72
    12
 73
   -13
 74
  -237
  0
VERTEX
  5
573
  8
0
 62
   134
 10
0.0
 20
0.0
 30
0.0
 70
   128
 71
    13
 72
   238
 73
  -237
 74
   -13
  0
VERTEX
  5
574
  8
0
 62
   134
 10
0.0
 20
0.0
 30
0.0
 70
   128
 71
   238
 72
    13
 73
   -14
 74
  -238
  0
VERTEX
  5
575
  8
0
 62
   134
 10
0.0
 20
0.0
 30
0.0
 70
   128
 71
    14
 72
   239
 73
  -238
 74
   -14
  0
VERTEX
  5
576
  8
0
 62
   134
 10
0.0
 20
0.0
 30
0.0
 70
   128
 71
   239
 72
    14
 73
   -15
 74
  -239
  0
VERTEX
  5
577
  8
0
 62
   134
 10
0.0
 20
0.0
 30
0.0
 70
   128
 71
    15
 72
   240
 73
  -239
 74
   -15
  0
VERTEX
  5
578
  8
0
 62
   134
 10
0.0
 20
0.0
 30
0.0
 70
   128
 71
   243
 72
   362
 73
  -298
 74
  -243
  0
VERTEX
  5
579
  8
0
 62
   134
 10
0.0
 20
0.0
 30
0.0
 70
   128
 71
   298
 72
   364
 73
  -243
 74
  -298
  0
VERTEX
  5
57A
  8
0
 62
   134
 10
0.0
 20
0.0
 30
0.0
 70
   128
 71
   242
 72
   363
 73
  -298
 74
  -242
  0
VERTEX
  5
57B
  8
0
 62
   134
 10
0.0
 20
0.0
 30
0.0
 70
   128
 71
   298
 72
   362
 73
  -242
 74
  -298
  0
VERTEX
  5
57C
  8
0
 62
   134
 10
0.0
 20
0.0
 30
0.0
 70
   128
 71
   241
 72
   354
 73
  -298
 74
  -241
  0
VERTEX
  5
57D
  8
0
 62
   134
 10
0.0
 20
0.0
 30
0.0
 70
   128
 71
   298
 72
   363
 73
  -241
 74
  -298
  0
VERTEX
  5
57E
  8
0
 62
   134
 10
0.0
 20
0.0
 30
0.0
 70
   128
 71
   474
 72
   364
 73
  -298
 74
  -474
  0
VERTEX
  5
57F
  8
0
 62
   134
 10
0.0
 20
0.0
 30
0.0
 70
   128
 71
   298
 72
   354
 73
  -474
 74
  -298
  0
VERTEX
  5
580
  8
0
 62
   134
 10
0.0
 20
0.0
 30
0.0
 70
   128
 71
   244
 72
   365
 73
  -299
 74
  -244
  0
VERTEX
  5
581
  8
0
 62
   134
 10
0.0
 20
0.0
 30
0.0
 70
   128
 71
   299
 72
   366
 73
  -244
 74
  -299
  0
VERTEX
  5
582
  8
0
 62
   134
 10
0.0
 20
0.0
 30
0.0
 70
   128
 71
   243
 72
   364
 73
  -299
 74
  -243
  0
VERTEX
  5
583
  8
0
 62
   134
 10
0.0
 20
0.0
 30
0.0
 70
   128
 71
   299
 72
   365
 73
  -243
 74
  -299
  0
VERTEX
  5
584
  8
0
 62
   134
 10
0.0
 20
0.0
 30
0.0
 70
   128
 71
   474
 72
   355
 73
  -299
 74
  -474
  0
VERTEX
  5
585
  8
0
 62
   134
 10
0.0
 20
0.0
 30
0.0
 70
   128
 71
   299
 72
   364
 73
  -474
 74
  -299
  0
VERTEX
  5
586
  8
0
 62
   134
 10
0.0
 20
0.0
 30
0.0
 70
   128
 71
   475
 72
   366
 73
  -299
 74
  -475
  0
VERTEX
  5
587
  8
0
 62
   134
 10
0.0
 20
0.0
 30
0.0
 70
   128
 71
   299
 72
   355
 73
  -475
 74
  -299
  0
VERTEX
  5
588
  8
0
 62
   134
 10
0.0
 20
0.0
 30
0.0
 70
   128
 71
   245
 72
   367
 73
  -300
 74
  -245
  0
VERTEX
  5
589
  8
0
 62
   134
 10
0.0
 20
0.0
 30
0.0
 70
   128
 71
   300
 72
   368
 73
  -245
 74
  -300
  0
VERTEX
  5
58A
  8
0
 62
   134
 10
0.0
 20
0.0
 30
0.0
 70
   128
 71
   244
 72
   366
 73
  -300
 74
  -244
  0
VERTEX
  5
58B
  8
0
 62
   134
 10
0.0
 20
0.0
 30
0.0
 70
   128
 71
   300
 72
   367
 73
  -244
 74
  -300
  0
VERTEX
  5
58C
  8
0
 62
   134
 10
0.0
 20
0.0
 30
0.0
 70
   128
 71
   475
 72
   356
 73
  -300
 74
  -475
  0
VERTEX
  5
58D
  8
0
 62
   134
 10
0.0
 20
0.0
 30
0.0
 70
   128
 71
   300
 72
   366
 73
  -475
 74
  -300
  0
VERTEX
  5
58E
  8
0
 62
   134
 10
0.0
 20
0.0
 30
0.0
 70
   128
 71
   476
 72
   368
 73
  -300
 74
  -476
  0
VERTEX
  5
58F
  8
0
 62
   134
 10
0.0
 20
0.0
 30
0.0
 70
   128
 71
   300
 72
   356
 73
  -476
 74
  -300
  0
VERTEX
  5
590
  8
0
 62
   134
 10
0.0
 20
0.0
 30
0.0
 70
   128
 71
   246
 72
   369
 73
  -301
 74
  -246
  0
VERTEX
  5
591
  8
0
 62
   134
 10
0.0
 20
0.0
 30
0.0
 70
   128
 71
   301
 72
   370
 73
  -246
 74
  -301
  0
VERTEX
  5
592
  8
0
 62
   134
 10
0.0
 20
0.0
 30
0.0
 70
   128
 71
   245
 72
   368
 73
  -301
 74
  -245
  0
VERTEX
  5
593
  8
0
 62
   134
 10
0.0
 20
0.0
 30
0.0
 70
   128
 71
   301
 72
   369
 73
  -245
 74
  -301
  0
VERTEX
  5
594
  8
0
 62
   134
 10
0.0
 20
0.0
 30
0.0
 70
   128
 71
   476
 72
   357
 73
  -301
 74
  -476
  0
VERTEX
  5
595
  8
0
 62
   134
 10
0.0
 20
0.0
 30
0.0
 70
   128
 71
   301
 72
   368
 73
  -476
 74
  -301
  0
VERTEX
  5
596
  8
0
 62
   134
 10
0.0
 20
0.0
 30
0.0
 70
   128
 71
   477
 72
   370
 73
  -301
 74
  -477
  0
VERTEX
  5
597
  8
0
 62
   134
 10
0.0
 20
0.0
 30
0.0
 70
   128
 71
   301
 72
   357
 73
  -477
 74
  -301
  0
VERTEX
  5
598
  8
0
 62
   134
 10
0.0
 20
0.0
 30
0.0
 70
   128
 71
   247
 72
   371
 73
  -302
 74
  -247
  0
VERTEX
  5
599
  8
0
 62
   134
 10
0.0
 20
0.0
 30
0.0
 70
   128
 71
   302
 72
   372
 73
  -247
 74
  -302
  0
VERTEX
  5
59A
  8
0
 62
   134
 10
0.0
 20
0.0
 30
0.0
 70
   128
 71
   246
 72
   370
 73
  -302
 74
  -246
  0
VERTEX
  5
59B
  8
0
 62
   134
 10
0.0
 20
0.0
 30
0.0
 70
   128
 71
   302
 72
   371
 73
  -246
 74
  -302
  0
VERTEX
  5
59C
  8
0
 62
   134
 10
0.0
 20
0.0
 30
0.0
 70
   128
 71
   477
 72
   358
 73
  -302
 74
  -477
  0
VERTEX
  5
59D
  8
0
 62
   134
 10
0.0
 20
0.0
 30
0.0
 70
   128
 71
   302
 72
   370
 73
  -477
 74
  -302
  0
VERTEX
  5
59E
  8
0
 62
   134
 10
0.0
 20
0.0
 30
0.0
 70
   128
 71
   478
 72
   372
 73
  -302
 74
  -478
  0
VERTEX
  5
59F
  8
0
 62
   134
 10
0.0
 20
0.0
 30
0.0
 70
   128
 71
   302
 72
   358
 73
  -478
 74
  -302
  0
VERTEX
  5
5A0
  8
0
 62
   134
 10
0.0
 20
0.0
 30
0.0
 70
   128
 71
   248
 72
   373
 73
  -303
 74
  -248
  0
VERTEX
  5
5A1
  8
0
 62
   134
 10
0.0
 20
0.0
 30
0.0
 70
   128
 71
   303
 72
   374
 73
  -248
 74
  -303
  0
VERTEX
  5
5A2
  8
0
 62
   134
 10
0.0
 20
0.0
 30
0.0
 70
   128
 71
   247
 72
   372
 73
  -303
 74
  -247
  0
VERTEX
  5
5A3
  8
0
 62
   134
 10
0.0
 20
0.0
 30
0.0
 70
   128
 71
   303
 72
   373
 73
  -247
 74
  -303
  0
VERTEX
  5
5A4
  8
0
 62
   134
 10
0.0
 20
0.0
 30
0.0
 70
   128
 71
   478
 72
   359
 73
  -303
 74
  -478
  0
VERTEX
  5
5A5
  8
0
 62
   134
 10
0.0
 20
0.0
 30
0.0
 70
   128
 71
   303
 72
   372
 73
  -478
 74
  -303
  0
VERTEX
  5
5A6
  8
0
 62
   134
 10
0.0
 20
0.0
 30
0.0
 70
   128
 71
   479
 72
   374
 73
  -303
 74
  -479
  0
VERTEX
  5
5A7
  8
0
 62
   134
 10
0.0
 20
0.0
 30
0.0
 70
   128
 71
   303
 72
   359
 73
  -479
 74
  -303
  0
VERTEX
  5
5A8
  8
0
 62
   134
 10
0.0
 20
0.0
 30
0.0
 70
   128
 71
   249
 72
   375
 73
  -304
 74
  -249
  0
VERTEX
  5
5A9
  8
0
 62
   134
 10
0.0
 20
0.0
 30
0.0
 70
   128
 71
   304
 72
   376
 73
  -249
 74
  -304
  0
VERTEX
  5
5AA
  8
0
 62
   134
 10
0.0
 20
0.0
 30
0.0
 70
   128
 71
   248
 72
   374
 73
  -304
 74
  -248
  0
VERTEX
  5
5AB
  8
0
 62
   134
 10
0.0
 20
0.0
 30
0.0
 70
   128
 71
   304
 72
   375
 73
  -248
 74
  -304
  0
VERTEX
  5
5AC
  8
0
 62
   134
 10
0.0
 20
0.0
 30
0.0
 70
   128
 71
   479
 72
   360
 73
  -304
 74
  -479
  0
VERTEX
  5
5AD
  8
0
 62
   134
 10
0.0
 20
0.0
 30
0.0
 70
   128
 71
   304
 72
   374
 73
  -479
 74
  -304
  0
VERTEX
  5
5AE
  8
0
 62
   134
 10
0.0
 20
0.0
 30
0.0
 70
   128
 71
   480
 72
   376
 73
  -304
 74
  -480
  0
VERTEX
  5
5AF
  8
0
 62
   134
 10
0.0
 20
0.0
 30
0.0
 70
   128
 71
   304
 72
   360
 73
  -480
 74
  -304
  0
VERTEX
  5
5B0
  8
0
 62
   134
 10
0.0
 20
0.0
 30
0.0
 70
   128
 71
   242
 72
   377
 73
  -305
 74
  -242
  0
VERTEX
  5
5B1
  8
0
 62
   134
 10
0.0
 20
0.0
 30
0.0
 70
   128
 71
   305
 72
   363
 73
  -242
 74
  -305
  0
VERTEX
  5
5B2
  8
0
 62
   134
 10
0.0
 20
0.0
 30
0.0
 70
   128
 71
   249
 72
   376
 73
  -305
 74
  -249
  0
VERTEX
  5
5B3
  8
0
 62
   134
 10
0.0
 20
0.0
 30
0.0
 70
   128
 71
   305
 72
   377
 73
  -249
 74
  -305
  0
VERTEX
  5
5B4
  8
0
 62
   134
 10
0.0
 20
0.0
 30
0.0
 70
   128
 71
   480
 72
   361
 73
  -305
 74
  -480
  0
VERTEX
  5
5B5
  8
0
 62
   134
 10
0.0
 20
0.0
 30
0.0
 70
   128
 71
   305
 72
   376
 73
  -480
 74
  -305
  0
VERTEX
  5
5B6
  8
0
 62
   134
 10
0.0
 20
0.0
 30
0.0
 70
   128
 71
   241
 72
   363
 73
  -305
 74
  -241
  0
VERTEX
  5
5B7
  8
0
 62
   134
 10
0.0
 20
0.0
 30
0.0
 70
   128
 71
   305
 72
   361
 73
  -241
 74
  -305
  0
VERTEX
  5
5B8
  8
0
 62
   134
 10
0.0
 20
0.0
 30
0.0
 70
   128
 71
   251
 72
   378
 73
  -306
 74
  -251
  0
VERTEX
  5
5B9
  8
0
 62
   134
 10
0.0
 20
0.0
 30
0.0
 70
   128
 71
   306
 72
   380
 73
  -251
 74
  -306
  0
VERTEX
  5
5BA
  8
0
 62
   134
 10
0.0
 20
0.0
 30
0.0
 70
   128
 71
   250
 72
   379
 73
  -306
 74
  -250
  0
VERTEX
  5
5BB
  8
0
 62
   134
 10
0.0
 20
0.0
 30
0.0
 70
   128
 71
   306
 72
   378
 73
  -250
 74
  -306
  0
VERTEX
  5
5BC
  8
0
 62
   134
 10
0.0
 20
0.0
 30
0.0
 70
   128
 71
   242
 72
   362
 73
  -306
 74
  -242
  0
VERTEX
  5
5BD
  8
0
 62
   134
 10
0.0
 20
0.0
 30
0.0
 70
   128
 71
   306
 72
   379
 73
  -242
 74
  -306
  0
VERTEX
  5
5BE
  8
0
 62
   134
 10
0.0
 20
0.0
 30
0.0
 70
   128
 71
   243
 72
   380
 73
  -306
 74
  -243
  0
VERTEX
  5
5BF
  8
0
 62
   134
 10
0.0
 20
0.0
 30
0.0
 70
   128
 71
   306
 72
   362
 73
  -243
 74
  -306
  0
VERTEX
  5
5C0
  8
0
 62
   134
 10
0.0
 20
0.0
 30
0.0
 70
   128
 71
   252
 72
   381
 73
  -307
 74
  -252
  0
VERTEX
  5
5C1
  8
0
 62
   134
 10
0.0
 20
0.0
 30
0.0
 70
   128
 71
   307
 72
   382
 73
  -252
 74
  -307
  0
VERTEX
  5
5C2
  8
0
 62
   134
 10
0.0
 20
0.0
 30
0.0
 70
   128
 71
   251
 72
   380
 73
  -307
 74
  -251
  0
VERTEX
  5
5C3
  8
0
 62
   134
 10
0.0
 20
0.0
 30
0.0
 70
   128
 71
   307
 72
   381
 73
  -251
 74
  -307
  0
VERTEX
  5
5C4
  8
0
 62
   134
 10
0.0
 20
0.0
 30
0.0
 70
   128
 71
   243
 72
   365
 73
  -307
 74
  -243
  0
VERTEX
  5
5C5
  8
0
 62
   134
 10
0.0
 20
0.0
 30
0.0
 70
   128
 71
   307
 72
   380
 73
  -243
 74
  -307
  0
VERTEX
  5
5C6
  8
0
 62
   134
 10
0.0
 20
0.0
 30
0.0
 70
   128
 71
   244
 72
   382
 73
  -307
 74
  -244
  0
VERTEX
  5
5C7
  8
0
 62
   134
 10
0.0
 20
0.0
 30
0.0
 70
   128
 71
   307
 72
   365
 73
  -244
 74
  -307
  0
VERTEX
  5
5C8
  8
0
 62
   134
 10
0.0
 20
0.0
 30
0.0
 70
   128
 71
   253
 72
   383
 73
  -308
 74
  -253
  0
VERTEX
  5
5C9
  8
0
 62
   134
 10
0.0
 20
0.0
 30
0.0
 70
   128
 71
   308
 72
   384
 73
  -253
 74
  -308
  0
VERTEX
  5
5CA
  8
0
 62
   134
 10
0.0
 20
0.0
 30
0.0
 70
   128
 71
   252
 72
   382
 73
  -308
 74
  -252
  0
VERTEX
  5
5CB
  8
0
 62
   134
 10
0.0
 20
0.0
 30
0.0
 70
   128
 71
   308
 72
   383
 73
  -252
 74
  -308
  0
VERTEX
  5
5CC
  8
0
 62
   134
 10
0.0
 20
0.0
 30
0.0
 70
   128
 71
   244
 72
   367
 73
  -308
 74
  -244
  0
VERTEX
  5
5CD
  8
0
 62
   134
 10
0.0
 20
0.0
 30
0.0
 70
   128
 71
   308
 72
   382
 73
  -244
 74
  -308
  0
VERTEX
  5
5CE
  8
0
 62
   134
 10
0.0
 20
0.0
 30
0.0
 70
   128
 71
   245
 72
   384
 73
  -308
 74
  -245
  0
VERTEX
  5
5CF
  8
0
 62
   134
 10
0.0
 20
0.0
 30
0.0
 70
   128
 71
   308
 72
   367
 73
  -245
 74
  -308
  0
VERTEX
  5
5D0
  8
0
 62
   134
 10
0.0
 20
0.0
 30
0.0
 70
   128
 71
   254
 72
   385
 73
  -309
 74
  -254
  0
VERTEX
  5
5D1
  8
0
 62
   134
 10
0.0
 20
0.0
 30
0.0
 70
   128
 71
   309
 72
   386
 73
  -254
 74
  -309
  0
VERTEX
  5
5D2
  8
0
 62
   134
 10
0.0
 20
0.0
 30
0.0
 70
   128
 71
   253
 72
   384
 73
  -309
 74
  -253
  0
VERTEX
  5
5D3
  8
0
 62
   134
 10
0.0
 20
0.0
 30
0.0
 70
   128
 71
   309
 72
   385
 73
  -253
 74
  -309
  0
VERTEX
  5
5D4
  8
0
 62
   134
 10
0.0
 20
0.0
 30
0.0
 70
   128
 71
   245
 72
   369
 73
  -309
 74
  -245
  0
VERTEX
  5
5D5
  8
0
 62
   134
 10
0.0
 20
0.0
 30
0.0
 70
   128
 71
   309
 72
   384
 73
  -245
 74
  -309
  0
VERTEX
  5
5D6
  8
0
 62
   134
 10
0.0
 20
0.0
 30
0.0
 70
   128
 71
   246
 72
   386
 73
  -309
 74
  -246
  0
VERTEX
  5
5D7
  8
0
 62
   134
 10
0.0
 20
0.0
 30
0.0
 70
   128
 71
   309
 72
   369
 73
  -246
 74
  -309
  0
VERTEX
  5
5D8
  8
0
 62
   134
 10
0.0
 20
0.0
 30
0.0
 70
   128
 71
   255
 72
   387
 73
  -310
 74
  -255
  0
VERTEX
  5
5D9
  8
0
 62
   134
 10
0.0
 20
0.0
 30
0.0
 70
   128
 71
   310
 72
   388
 73
  -255
 74
  -310
  0
VERTEX
  5
5DA
  8
0
 62
   134
 10
0.0
 20
0.0
 30
0.0
 70
   128
 71
   254
 72
   386
 73
  -310
 74
  -254
  0
VERTEX
  5
5DB
  8
0
 62
   134
 10
0.0
 20
0.0
 30
0.0
 70
   128
 71
   310
 72
   387
 73
  -254
 74
  -310
  0
VERTEX
  5
5DC
  8
0
 62
   134
 10
0.0
 20
0.0
 30
0.0
 70
   128
 71
   246
 72
   371
 73
  -310
 74
  -246
  0
VERTEX
  5
5DD
  8
0
 62
   134
 10
0.0
 20
0.0
 30
0.0
 70
   128
 71
   310
 72
   386
 73
  -246
 74
  -310
  0
VERTEX
  5
5DE
  8
0
 62
   134
 10
0.0
 20
0.0
 30
0.0
 70
   128
 71
   247
 72
   388
 73
  -310
 74
  -247
  0
VERTEX
  5
5DF
  8
0
 62
   134
 10
0.0
 20
0.0
 30
0.0
 70
   128
 71
   310
 72
   371
 73
  -247
 74
  -310
  0
VERTEX
  5
5E0
  8
0
 62
   134
 10
0.0
 20
0.0
 30
0.0
 70
   128
 71
   256
 72
   389
 73
  -311
 74
  -256
  0
VERTEX
  5
5E1
  8
0
 62
   134
 10
0.0
 20
0.0
 30
0.0
 70
   128
 71
   311
 72
   390
 73
  -256
 74
  -311
  0
VERTEX
  5
5E2
  8
0
 62
   134
 10
0.0
 20
0.0
 30
0.0
 70
   128
 71
   255
 72
   388
 73
  -311
 74
  -255
  0
VERTEX
  5
5E3
  8
0
 62
   134
 10
0.0
 20
0.0
 30
0.0
 70
   128
 71
   311
 72
   389
 73
  -255
 74
  -311
  0
VERTEX
  5
5E4
  8
0
 62
   134
 10
0.0
 20
0.0
 30
0.0
 70
   128
 71
   247
 72
   373
 73
  -311
 74
  -247
  0
VERTEX
  5
5E5
  8
0
 62
   134
 10
0.0
 20
0.0
 30
0.0
 70
   128
 71
   311
 72
   388
 73
  -247
 74
  -311
  0
VERTEX
  5
5E6
  8
0
 62
   134
 10
0.0
 20
0.0
 30
0.0
 70
   128
 71
   248
 72
   390
 73
  -311
 74
  -248
  0
VERTEX
  5
5E7
  8
0
 62
   134
 10
0.0
 20
0.0
 30
0.0
 70
   128
 71
   311
 72
   373
 73
  -248
 74
  -311
  0
VERTEX
  5
5E8
  8
0
 62
   134
 10
0.0
 20
0.0
 30
0.0
 70
   128
 71
   257
 72
   391
 73
  -312
 74
  -257
  0
VERTEX
  5
5E9
  8
0
 62
   134
 10
0.0
 20
0.0
 30
0.0
 70
   128
 71
   312
 72
   392
 73
  -257
 74
  -312
  0
VERTEX
  5
5EA
  8
0
 62
   134
 10
0.0
 20
0.0
 30
0.0
 70
   128
 71
   256
 72
   390
 73
  -312
 74
  -256
  0
VERTEX
  5
5EB
  8
0
 62
   134
 10
0.0
 20
0.0
 30
0.0
 70
   128
 71
   312
 72
   391
 73
  -256
 74
  -312
  0
VERTEX
  5
5EC
  8
0
 62
   134
 10
0.0
 20
0.0
 30
0.0
 70
   128
 71
   248
 72
   375
 73
  -312
 74
  -248
  0
VERTEX
  5
5ED
  8
0
 62
   134
 10
0.0
 20
0.0
 30
0.0
 70
   128
 71
   312
 72
   390
 73
  -248
 74
  -312
  0
VERTEX
  5
5EE
  8
0
 62
   134
 10
0.0
 20
0.0
 30
0.0
 70
   128
 71
   249
 72
   392
 73
  -312
 74
  -249
  0
VERTEX
  5
5EF
  8
0
 62
   134
 10
0.0
 20
0.0
 30
0.0
 70
   128
 71
   312
 72
   375
 73
  -249
 74
  -312
  0
VERTEX
  5
5F0
  8
0
 62
   134
 10
0.0
 20
0.0
 30
0.0
 70
   128
 71
   250
 72
   393
 73
  -313
 74
  -250
  0
VERTEX
  5
5F1
  8
0
 62
   134
 10
0.0
 20
0.0
 30
0.0
 70
   128
 71
   313
 72
   379
 73
  -250
 74
  -313
  0
VERTEX
  5
5F2
  8
0
 62
   134
 10
0.0
 20
0.0
 30
0.0
 70
   128
 71
   257
 72
   392
 73
  -313
 74
  -257
  0
VERTEX
  5
5F3
  8
0
 62
   134
 10
0.0
 20
0.0
 30
0.0
 70
   128
 71
   313
 72
   393
 73
  -257
 74
  -313
  0
VERTEX
  5
5F4
  8
0
 62
   134
 10
0.0
 20
0.0
 30
0.0
 70
   128
 71
   249
 72
   377
 73
  -313
 74
  -249
  0
VERTEX
  5
5F5
  8
0
 62
   134
 10
0.0
 20
0.0
 30
0.0
 70
   128
 71
   313
 72
   392
 73
  -249
 74
  -313
  0
VERTEX
  5
5F6
  8
0
 62
   134
 10
0.0
 20
0.0
 30
0.0
 70
   128
 71
   242
 72
   379
 73
  -313
 74
  -242
  0
VERTEX
  5
5F7
  8
0
 62
   134
 10
0.0
 20
0.0
 30
0.0
 70
   128
 71
   313
 72
   377
 73
  -242
 74
  -313
  0
VERTEX
  5
5F8
  8
0
 62
   134
 10
0.0
 20
0.0
 30
0.0
 70
   128
 71
   259
 72
   394
 73
  -314
 74
  -259
  0
VERTEX
  5
5F9
  8
0
 62
   134
 10
0.0
 20
0.0
 30
0.0
 70
   128
 71
   314
 72
   396
 73
  -259
 74
  -314
  0
VERTEX
  5
5FA
  8
0
 62
   134
 10
0.0
 20
0.0
 30
0.0
 70
   128
 71
   258
 72
   395
 73
  -314
 74
  -258
  0
VERTEX
  5
5FB
  8
0
 62
   134
 10
0.0
 20
0.0
 30
0.0
 70
   128
 71
   314
 72
   394
 73
  -258
 74
  -314
  0
VERTEX
  5
5FC
  8
0
 62
   134
 10
0.0
 20
0.0
 30
0.0
 70
   128
 71
   250
 72
   378
 73
  -314
 74
  -250
  0
VERTEX
  5
5FD
  8
0
 62
   134
 10
0.0
 20
0.0
 30
0.0
 70
   128
 71
   314
 72
   395
 73
  -250
 74
  -314
  0
VERTEX
  5
5FE
  8
0
 62
   134
 10
0.0
 20
0.0
 30
0.0
 70
   128
 71
   251
 72
   396
 73
  -314
 74
  -251
  0
VERTEX
  5
5FF
  8
0
 62
   134
 10
0.0
 20
0.0
 30
0.0
 70
   128
 71
   314
 72
   378
 73
  -251
 74
  -314
  0
VERTEX
  5
600
  8
0
 62
   134
 10
0.0
 20
0.0
 30
0.0
 70
   128
 71
   260
 72
   397
 73
  -315
 74
  -260
  0
VERTEX
  5
601
  8
0
 62
   134
 10
0.0
 20
0.0
 30
0.0
 70
   128
 71
   315
 72
   398
 73
  -260
 74
  -315
  0
VERTEX
  5
602
  8
0
 62
   134
 10
0.0
 20
0.0
 30
0.0
 70
   128
 71
   259
 72
   396
 73
  -315
 74
  -259
  0
VERTEX
  5
603
  8
0
 62
   134
 10
0.0
 20
0.0
 30
0.0
 70
   128
 71
   315
 72
   397
 73
  -259
 74
  -315
  0
VERTEX
  5
604
  8
0
 62
   134
 10
0.0
 20
0.0
 30
0.0
 70
   128
 71
   251
 72
   381
 73
  -315
 74
  -251
  0
VERTEX
  5
605
  8
0
 62
   134
 10
0.0
 20
0.0
 30
0.0
 70
   128
 71
   315
 72
   396
 73
  -251
 74
  -315
  0
VERTEX
  5
606
  8
0
 62
   134
 10
0.0
 20
0.0
 30
0.0
 70
   128
 71
   252
 72
   398
 73
  -315
 74
  -252
  0
VERTEX
  5
607
  8
0
 62
   134
 10
0.0
 20
0.0
 30
0.0
 70
   128
 71
   315
 72
   381
 73
  -252
 74
  -315
  0
VERTEX
  5
608
  8
0
 62
   134
 10
0.0
 20
0.0
 30
0.0
 70
   128
 71
   261
 72
   399
 73
  -316
 74
  -261
  0
VERTEX
  5
609
  8
0
 62
   134
 10
0.0
 20
0.0
 30
0.0
 70
   128
 71
   316
 72
   400
 73
  -261
 74
  -316
  0
VERTEX
  5
60A
  8
0
 62
   134
 10
0.0
 20
0.0
 30
0.0
 70
   128
 71
   260
 72
   398
 73
  -316
 74
  -260
  0
VERTEX
  5
60B
  8
0
 62
   134
 10
0.0
 20
0.0
 30
0.0
 70
   128
 71
   316
 72
   399
 73
  -260
 74
  -316
  0
VERTEX
  5
60C
  8
0
 62
   134
 10
0.0
 20
0.0
 30
0.0
 70
   128
 71
   252
 72
   383
 73
  -316
 74
  -252
  0
VERTEX
  5
60D
  8
0
 62
   134
 10
0.0
 20
0.0
 30
0.0
 70
   128
 71
   316
 72
   398
 73
  -252
 74
  -316
  0
VERTEX
  5
60E
  8
0
 62
   134
 10
0.0
 20
0.0
 30
0.0
 70
   128
 71
   253
 72
   400
 73
  -316
 74
  -253
  0
VERTEX
  5
60F
  8
0
 62
   134
 10
0.0
 20
0.0
 30
0.0
 70
   128
 71
   316
 72
   383
 73
  -253
 74
  -316
  0
VERTEX
  5
610
  8
0
 62
   134
 10
0.0
 20
0.0
 30
0.0
 70
   128
 71
   262
 72
   401
 73
  -317
 74
  -262
  0
VERTEX
  5
611
  8
0
 62
   134
 10
0.0
 20
0.0
 30
0.0
 70
   128
 71
   317
 72
   402
 73
  -262
 74
  -317
  0
VERTEX
  5
612
  8
0
 62
   134
 10
0.0
 20
0.0
 30
0.0
 70
   128
 71
   261
 72
   400
 73
  -317
 74
  -261
  0
VERTEX
  5
613
  8
0
 62
   134
 10
0.0
 20
0.0
 30
0.0
 70
   128
 71
   317
 72
   401
 73
  -261
 74
  -317
  0
VERTEX
  5
614
  8
0
 62
   134
 10
0.0
 20
0.0
 30
0.0
 70
   128
 71
   253
 72
   385
 73
  -317
 74
  -253
  0
VERTEX
  5
615
  8
0
 62
   134
 10
0.0
 20
0.0
 30
0.0
 70
   128
 71
   317
 72
   400
 73
  -253
 74
  -317
  0
VERTEX
  5
616
  8
0
 62
   134
 10
0.0
 20
0.0
 30
0.0
 70
   128
 71
   254
 72
   402
 73
  -317
 74
  -254
  0
VERTEX
  5
617
  8
0
 62
   134
 10
0.0
 20
0.0
 30
0.0
 70
   128
 71
   317
 72
   385
 73
  -254
 74
  -317
  0
VERTEX
  5
618
  8
0
 62
   134
 10
0.0
 20
0.0
 30
0.0
 70
   128
 71
   263
 72
   403
 73
  -318
 74
  -263
  0
VERTEX
  5
619
  8
0
 62
   134
 10
0.0
 20
0.0
 30
0.0
 70
   128
 71
   318
 72
   404
 73
  -263
 74
  -318
  0
VERTEX
  5
61A
  8
0
 62
   134
 10
0.0
 20
0.0
 30
0.0
 70
   128
 71
   262
 72
   402
 73
  -318
 74
  -262
  0
VERTEX
  5
61B
  8
0
 62
   134
 10
0.0
 20
0.0
 30
0.0
 70
   128
 71
   318
 72
   403
 73
  -262
 74
  -318
  0
VERTEX
  5
61C
  8
0
 62
   134
 10
0.0
 20
0.0
 30
0.0
 70
   128
 71
   254
 72
   387
 73
  -318
 74
  -254
  0
VERTEX
  5
61D
  8
0
 62
   134
 10
0.0
 20
0.0
 30
0.0
 70
   128
 71
   318
 72
   402
 73
  -254
 74
  -318
  0
VERTEX
  5
61E
  8
0
 62
   134
 10
0.0
 20
0.0
 30
0.0
 70
   128
 71
   255
 72
   404
 73
  -318
 74
  -255
  0
VERTEX
  5
61F
  8
0
 62
   134
 10
0.0
 20
0.0
 30
0.0
 70
   128
 71
   318
 72
   387
 73
  -255
 74
  -318
  0
VERTEX
  5
620
  8
0
 62
   134
 10
0.0
 20
0.0
 30
0.0
 70
   128
 71
   264
 72
   405
 73
  -319
 74
  -264
  0
VERTEX
  5
621
  8
0
 62
   134
 10
0.0
 20
0.0
 30
0.0
 70
   128
 71
   319
 72
   406
 73
  -264
 74
  -319
  0
VERTEX
  5
622
  8
0
 62
   134
 10
0.0
 20
0.0
 30
0.0
 70
   128
 71
   263
 72
   404
 73
  -319
 74
  -263
  0
VERTEX
  5
623
  8
0
 62
   134
 10
0.0
 20
0.0
 30
0.0
 70
   128
 71
   319
 72
   405
 73
  -263
 74
  -319
  0
VERTEX
  5
624
  8
0
 62
   134
 10
0.0
 20
0.0
 30
0.0
 70
   128
 71
   255
 72
   389
 73
  -319
 74
  -255
  0
VERTEX
  5
625
  8
0
 62
   134
 10
0.0
 20
0.0
 30
0.0
 70
   128
 71
   319
 72
   404
 73
  -255
 74
  -319
  0
VERTEX
  5
626
  8
0
 62
   134
 10
0.0
 20
0.0
 30
0.0
 70
   128
 71
   256
 72
   406
 73
  -319
 74
  -256
  0
VERTEX
  5
627
  8
0
 62
   134
 10
0.0
 20
0.0
 30
0.0
 70
   128
 71
   319
 72
   389
 73
  -256
 74
  -319
  0
VERTEX
  5
628
  8
0
 62
   134
 10
0.0
 20
0.0
 30
0.0
 70
   128
 71
   265
 72
   407
 73
  -320
 74
  -265
  0
VERTEX
  5
629
  8
0
 62
   134
 10
0.0
 20
0.0
 30
0.0
 70
   128
 71
   320
 72
   408
 73
  -265
 74
  -320
  0
VERTEX
  5
62A
  8
0
 62
   134
 10
0.0
 20
0.0
 30
0.0
 70
   128
 71
   264
 72
   406
 73
  -320
 74
  -264
  0
VERTEX
  5
62B
  8
0
 62
   134
 10
0.0
 20
0.0
 30
0.0
 70
   128
 71
   320
 72
   407
 73
  -264
 74
  -320
  0
VERTEX
  5
62C
  8
0
 62
   134
 10
0.0
 20
0.0
 30
0.0
 70
   128
 71
   256
 72
   391
 73
  -320
 74
  -256
  0
VERTEX
  5
62D
  8
0
 62
   134
 10
0.0
 20
0.0
 30
0.0
 70
   128
 71
   320
 72
   406
 73
  -256
 74
  -320
  0
VERTEX
  5
62E
  8
0
 62
   134
 10
0.0
 20
0.0
 30
0.0
 70
   128
 71
   257
 72
   408
 73
  -320
 74
  -257
  0
VERTEX
  5
62F
  8
0
 62
   134
 10
0.0
 20
0.0
 30
0.0
 70
   128
 71
   320
 72
   391
 73
  -257
 74
  -320
  0
VERTEX
  5
630
  8
0
 62
   134
 10
0.0
 20
0.0
 30
0.0
 70
   128
 71
   258
 72
   409
 73
  -321
 74
  -258
  0
VERTEX
  5
631
  8
0
 62
   134
 10
0.0
 20
0.0
 30
0.0
 70
   128
 71
   321
 72
   395
 73
  -258
 74
  -321
  0
VERTEX
  5
632
  8
0
 62
   134
 10
0.0
 20
0.0
 30
0.0
 70
   128
 71
   265
 72
   408
 73
  -321
 74
  -265
  0
VERTEX
  5
633
  8
0
 62
   134
 10
0.0
 20
0.0
 30
0.0
 70
   128
 71
   321
 72
   409
 73
  -265
 74
  -321
  0
VERTEX
  5
634
  8
0
 62
   134
 10
0.0
 20
0.0
 30
0.0
 70
   128
 71
   257
 72
   393
 73
  -321
 74
  -257
  0
VERTEX
  5
635
  8
0
 62
   134
 10
0.0
 20
0.0
 30
0.0
 70
   128
 71
   321
 72
   408
 73
  -257
 74
  -321
  0
VERTEX
  5
636
  8
0
 62
   134
 10
0.0
 20
0.0
 30
0.0
 70
   128
 71
   250
 72
   395
 73
  -321
 74
  -250
  0
VERTEX
  5
637
  8
0
 62
   134
 10
0.0
 20
0.0
 30
0.0
 70
   128
 71
   321
 72
   393
 73
  -250
 74
  -321
  0
VERTEX
  5
638
  8
0
 62
   134
 10
0.0
 20
0.0
 30
0.0
 70
   128
 71
   267
 72
   410
 73
  -322
 74
  -267
  0
VERTEX
  5
639
  8
0
 62
   134
 10
0.0
 20
0.0
 30
0.0
 70
   128
 71
   322
 72
   412
 73
  -267
 74
  -322
  0
VERTEX
  5
63A
  8
0
 62
   134
 10
0.0
 20
0.0
 30
0.0
 70
   128
 71
   266
 72
   411
 73
  -322
 74
  -266
  0
VERTEX
  5
63B
  8
0
 62
   134
 10
0.0
 20
0.0
 30
0.0
 70
   128
 71
   322
 72
   410
 73
  -266
 74
  -322
  0
VERTEX
  5
63C
  8
0
 62
   134
 10
0.0
 20
0.0
 30
0.0
 70
   128
 71
   258
 72
   394
 73
  -322
 74
  -258
  0
VERTEX
  5
63D
  8
0
 62
   134
 10
0.0
 20
0.0
 30
0.0
 70
   128
 71
   322
 72
   411
 73
  -258
 74
  -322
  0
VERTEX
  5
63E
  8
0
 62
   134
 10
0.0
 20
0.0
 30
0.0
 70
   128
 71
   259
 72
   412
 73
  -322
 74
  -259
  0
VERTEX
  5
63F
  8
0
 62
   134
 10
0.0
 20
0.0
 30
0.0
 70
   128
 71
   322
 72
   394
 73
  -259
 74
  -322
  0
VERTEX
  5
640
  8
0
 62
   134
 10
0.0
 20
0.0
 30
0.0
 70
   128
 71
   268
 72
   413
 73
  -323
 74
  -268
  0
VERTEX
  5
641
  8
0
 62
   134
 10
0.0
 20
0.0
 30
0.0
 70
   128
 71
   323
 72
   414
 73
  -268
 74
  -323
  0
VERTEX
  5
642
  8
0
 62
   134
 10
0.0
 20
0.0
 30
0.0
 70
   128
 71
   267
 72
   412
 73
  -323
 74
  -267
  0
VERTEX
  5
643
  8
0
 62
   134
 10
0.0
 20
0.0
 30
0.0
 70
   128
 71
   323
 72
   413
 73
  -267
 74
  -323
  0
VERTEX
  5
644
  8
0
 62
   134
 10
0.0
 20
0.0
 30
0.0
 70
   128
 71
   259
 72
   397
 73
  -323
 74
  -259
  0
VERTEX
  5
645
  8
0
 62
   134
 10
0.0
 20
0.0
 30
0.0
 70
   128
 71
   323
 72
   412
 73
  -259
 74
  -323
  0
VERTEX
  5
646
  8
0
 62
   134
 10
0.0
 20
0.0
 30
0.0
 70
   128
 71
   260
 72
   414
 73
  -323
 74
  -260
  0
VERTEX
  5
647
  8
0
 62
   134
 10
0.0
 20
0.0
 30
0.0
 70
   128
 71
   323
 72
   397
 73
  -260
 74
  -323
  0
VERTEX
  5
648
  8
0
 62
   134
 10
0.0
 20
0.0
 30
0.0
 70
   128
 71
   269
 72
   415
 73
  -324
 74
  -269
  0
VERTEX
  5
649
  8
0
 62
   134
 10
0.0
 20
0.0
 30
0.0
 70
   128
 71
   324
 72
   416
 73
  -269
 74
  -324
  0
VERTEX
  5
64A
  8
0
 62
   134
 10
0.0
 20
0.0
 30
0.0
 70
   128
 71
   268
 72
   414
 73
  -324
 74
  -268
  0
VERTEX
  5
64B
  8
0
 62
   134
 10
0.0
 20
0.0
 30
0.0
 70
   128
 71
   324
 72
   415
 73
  -268
 74
  -324
  0
VERTEX
  5
64C
  8
0
 62
   134
 10
0.0
 20
0.0
 30
0.0
 70
   128
 71
   260
 72
   399
 73
  -324
 74
  -260
  0
VERTEX
  5
64D
  8
0
 62
   134
 10
0.0
 20
0.0
 30
0.0
 70
   128
 71
   324
 72
   414
 73
  -260
 74
  -324
  0
VERTEX
  5
64E
  8
0
 62
   134
 10
0.0
 20
0.0
 30
0.0
 70
   128
 71
   261
 72
   416
 73
  -324
 74
  -261
  0
VERTEX
  5
64F
  8
0
 62
   134
 10
0.0
 20
0.0
 30
0.0
 70
   128
 71
   324
 72
   399
 73
  -261
 74
  -324
  0
VERTEX
  5
650
  8
0
 62
   134
 10
0.0
 20
0.0
 30
0.0
 70
   128
 71
   270
 72
   417
 73
  -325
 74
  -270
  0
VERTEX
  5
651
  8
0
 62
   134
 10
0.0
 20
0.0
 30
0.0
 70
   128
 71
   325
 72
   418
 73
  -270
 74
  -325
  0
VERTEX
  5
652
  8
0
 62
   134
 10
0.0
 20
0.0
 30
0.0
 70
   128
 71
   269
 72
   416
 73
  -325
 74
  -269
  0
VERTEX
  5
653
  8
0
 62
   134
 10
0.0
 20
0.0
 30
0.0
 70
   128
 71
   325
 72
   417
 73
  -269
 74
  -325
  0
VERTEX
  5
654
  8
0
 62
   134
 10
0.0
 20
0.0
 30
0.0
 70
   128
 71
   261
 72
   401
 73
  -325
 74
  -261
  0
VERTEX
  5
655
  8
0
 62
   134
 10
0.0
 20
0.0
 30
0.0
 70
   128
 71
   325
 72
   416
 73
  -261
 74
  -325
  0
VERTEX
  5
656
  8
0
 62
   134
 10
0.0
 20
0.0
 30
0.0
 70
   128
 71
   262
 72
   418
 73
  -325
 74
  -262
  0
VERTEX
  5
657
  8
0
 62
   134
 10
0.0
 20
0.0
 30
0.0
 70
   128
 71
   325
 72
   401
 73
  -262
 74
  -325
  0
VERTEX
  5
658
  8
0
 62
   134
 10
0.0
 20
0.0
 30
0.0
 70
   128
 71
   271
 72
   419
 73
  -326
 74
  -271
  0
VERTEX
  5
659
  8
0
 62
   134
 10
0.0
 20
0.0
 30
0.0
 70
   128
 71
   326
 72
   420
 73
  -271
 74
  -326
  0
VERTEX
  5
65A
  8
0
 62
   134
 10
0.0
 20
0.0
 30
0.0
 70
   128
 71
   270
 72
   418
 73
  -326
 74
  -270
  0
VERTEX
  5
65B
  8
0
 62
   134
 10
0.0
 20
0.0
 30
0.0
 70
   128
 71
   326
 72
   419
 73
  -270
 74
  -326
  0
VERTEX
  5
65C
  8
0
 62
   134
 10
0.0
 20
0.0
 30
0.0
 70
   128
 71
   262
 72
   403
 73
  -326
 74
  -262
  0
VERTEX
  5
65D
  8
0
 62
   134
 10
0.0
 20
0.0
 30
0.0
 70
   128
 71
   326
 72
   418
 73
  -262
 74
  -326
  0
VERTEX
  5
65E
  8
0
 62
   134
 10
0.0
 20
0.0
 30
0.0
 70
   128
 71
   263
 72
   420
 73
  -326
 74
  -263
  0
VERTEX
  5
65F
  8
0
 62
   134
 10
0.0
 20
0.0
 30
0.0
 70
   128
 71
   326
 72
   403
 73
  -263
 74
  -326
  0
VERTEX
  5
660
  8
0
 62
   134
 10
0.0
 20
0.0
 30
0.0
 70
   128
 71
   272
 72
   421
 73
  -327
 74
  -272
  0
VERTEX
  5
661
  8
0
 62
   134
 10
0.0
 20
0.0
 30
0.0
 70
   128
 71
   327
 72
   422
 73
  -272
 74
  -327
  0
VERTEX
  5
662
  8
0
 62
   134
 10
0.0
 20
0.0
 30
0.0
 70
   128
 71
   271
 72
   420
 73
  -327
 74
  -271
  0
VERTEX
  5
663
  8
0
 62
   134
 10
0.0
 20
0.0
 30
0.0
 70
   128
 71
   327
 72
   421
 73
  -271
 74
  -327
  0
VERTEX
  5
664
  8
0
 62
   134
 10
0.0
 20
0.0
 30
0.0
 70
   128
 71
   263
 72
   405
 73
  -327
 74
  -263
  0
VERTEX
  5
665
  8
0
 62
   134
 10
0.0
 20
0.0
 30
0.0
 70
   128
 71
   327
 72
   420
 73
  -263
 74
  -327
  0
VERTEX
  5
666
  8
0
 62
   134
 10
0.0
 20
0.0
 30
0.0
 70
   128
 71
   264
 72
   422
 73
  -327
 74
  -264
  0
VERTEX
  5
667
  8
0
 62
   134
 10
0.0
 20
0.0
 30
0.0
 70
   128
 71
   327
 72
   405
 73
  -264
 74
  -327
  0
VERTEX
  5
668
  8
0
 62
   134
 10
0.0
 20
0.0
 30
0.0
 70
   128
 71
   273
 72
   423
 73
  -328
 74
  -273
  0
VERTEX
  5
669
  8
0
 62
   134
 10
0.0
 20
0.0
 30
0.0
 70
   128
 71
   328
 72
   424
 73
  -273
 74
  -328
  0
VERTEX
  5
66A
  8
0
 62
   134
 10
0.0
 20
0.0
 30
0.0
 70
   128
 71
   272
 72
   422
 73
  -328
 74
  -272
  0
VERTEX
  5
66B
  8
0
 62
   134
 10
0.0
 20
0.0
 30
0.0
 70
   128
 71
   328
 72
   423
 73
  -272
 74
  -328
  0
VERTEX
  5
66C
  8
0
 62
   134
 10
0.0
 20
0.0
 30
0.0
 70
   128
 71
   264
 72
   407
 73
  -328
 74
  -264
  0
VERTEX
  5
66D
  8
0
 62
   134
 10
0.0
 20
0.0
 30
0.0
 70
   128
 71
   328
 72
   422
 73
  -264
 74
  -328
  0
VERTEX
  5
66E
  8
0
 62
   134
 10
0.0
 20
0.0
 30
0.0
 70
   128
 71
   265
 72
   424
 73
  -328
 74
  -265
  0
VERTEX
  5
66F
  8
0
 62
   134
 10
0.0
 20
0.0
 30
0.0
 70
   128
 71
   328
 72
   407
 73
  -265
 74
  -328
  0
VERTEX
  5
670
  8
0
 62
   134
 10
0.0
 20
0.0
 30
0.0
 70
   128
 71
   266
 72
   425
 73
  -329
 74
  -266
  0
VERTEX
  5
671
  8
0
 62
   134
 10
0.0
 20
0.0
 30
0.0
 70
   128
 71
   329
 72
   411
 73
  -266
 74
  -329
  0
VERTEX
  5
672
  8
0
 62
   134
 10
0.0
 20
0.0
 30
0.0
 70
   128
 71
   273
 72
   424
 73
  -329
 74
  -273
  0
VERTEX
  5
673
  8
0
 62
   134
 10
0.0
 20
0.0
 30
0.0
 70
   128
 71
   329
 72
   425
 73
  -273
 74
  -329
  0
VERTEX
  5
674
  8
0
 62
   134
 10
0.0
 20
0.0
 30
0.0
 70
   128
 71
   265
 72
   409
 73
  -329
 74
  -265
  0
VERTEX
  5
675
  8
0
 62
   134
 10
0.0
 20
0.0
 30
0.0
 70
   128
 71
   329
 72
   424
 73
  -265
 74
  -329
  0
VERTEX
  5
676
  8
0
 62
   134
 10
0.0
 20
0.0
 30
0.0
 70
   128
 71
   258
 72
   411
 73
  -329
 74
  -258
  0
VERTEX
  5
677
  8
0
 62
   134
 10
0.0
 20
0.0
 30
0.0
 70
   128
 71
   329
 72
   409
 73
  -258
 74
  -329
  0
VERTEX
  5
678
  8
0
 62
   134
 10
0.0
 20
0.0
 30
0.0
 70
   128
 71
   275
 72
   426
 73
  -330
 74
  -275
  0
VERTEX
  5
679
  8
0
 62
   134
 10
0.0
 20
0.0
 30
0.0
 70
   128
 71
   330
 72
   428
 73
  -275
 74
  -330
  0
VERTEX
  5
67A
  8
0
 62
   134
 10
0.0
 20
0.0
 30
0.0
 70
   128
 71
   274
 72
   427
 73
  -330
 74
  -274
  0
VERTEX
  5
67B
  8
0
 62
   134
 10
0.0
 20
0.0
 30
0.0
 70
   128
 71
   330
 72
   426
 73
  -274
 74
  -330
  0
VERTEX
  5
67C
  8
0
 62
   134
 10
0.0
 20
0.0
 30
0.0
 70
   128
 71
   266
 72
   410
 73
  -330
 74
  -266
  0
VERTEX
  5
67D
  8
0
 62
   134
 10
0.0
 20
0.0
 30
0.0
 70
   128
 71
   330
 72
   427
 73
  -266
 74
  -330
  0
VERTEX
  5
67E
  8
0
 62
   134
 10
0.0
 20
0.0
 30
0.0
 70
   128
 71
   267
 72
   428
 73
  -330
 74
  -267
  0
VERTEX
  5
67F
  8
0
 62
   134
 10
0.0
 20
0.0
 30
0.0
 70
   128
 71
   330
 72
   410
 73
  -267
 74
  -330
  0
VERTEX
  5
680
  8
0
 62
   134
 10
0.0
 20
0.0
 30
0.0
 70
   128
 71
   276
 72
   429
 73
  -331
 74
  -276
  0
VERTEX
  5
681
  8
0
 62
   134
 10
0.0
 20
0.0
 30
0.0
 70
   128
 71
   331
 72
   430
 73
  -276
 74
  -331
  0
VERTEX
  5
682
  8
0
 62
   134
 10
0.0
 20
0.0
 30
0.0
 70
   128
 71
   275
 72
   428
 73
  -331
 74
  -275
  0
VERTEX
  5
683
  8
0
 62
   134
 10
0.0
 20
0.0
 30
0.0
 70
   128
 71
   331
 72
   429
 73
  -275
 74
  -331
  0
VERTEX
  5
684
  8
0
 62
   134
 10
0.0
 20
0.0
 30
0.0
 70
   128
 71
   267
 72
   413
 73
  -331
 74
  -267
  0
VERTEX
  5
685
  8
0
 62
   134
 10
0.0
 20
0.0
 30
0.0
 70
   128
 71
   331
 72
   428
 73
  -267
 74
  -331
  0
VERTEX
  5
686
  8
0
 62
   134
 10
0.0
 20
0.0
 30
0.0
 70
   128
 71
   268
 72
   430
 73
  -331
 74
  -268
  0
VERTEX
  5
687
  8
0
 62
   134
 10
0.0
 20
0.0
 30
0.0
 70
   128
 71
   331
 72
   413
 73
  -268
 74
  -331
  0
VERTEX
  5
688
  8
0
 62
   134
 10
0.0
 20
0.0
 30
0.0
 70
   128
 71
   277
 72
   431
 73
  -332
 74
  -277
  0
VERTEX
  5
689
  8
0
 62
   134
 10
0.0
 20
0.0
 30
0.0
 70
   128
 71
   332
 72
   432
 73
  -277
 74
  -332
  0
VERTEX
  5
68A
  8
0
 62
   134
 10
0.0
 20
0.0
 30
0.0
 70
   128
 71
   276
 72
   430
 73
  -332
 74
  -276
  0
VERTEX
  5
68B
  8
0
 62
   134
 10
0.0
 20
0.0
 30
0.0
 70
   128
 71
   332
 72
   431
 73
  -276
 74
  -332
  0
VERTEX
  5
68C
  8
0
 62
   134
 10
0.0
 20
0.0
 30
0.0
 70
   128
 71
   268
 72
   415
 73
  -332
 74
  -268
  0
VERTEX
  5
68D
  8
0
 62
   134
 10
0.0
 20
0.0
 30
0.0
 70
   128
 71
   332
 72
   430
 73
  -268
 74
  -332
  0
VERTEX
  5
68E
  8
0
 62
   134
 10
0.0
 20
0.0
 30
0.0
 70
   128
 71
   269
 72
   432
 73
  -332
 74
  -269
  0
VERTEX
  5
68F
  8
0
 62
   134
 10
0.0
 20
0.0
 30
0.0
 70
   128
 71
   332
 72
   415
 73
  -269
 74
  -332
  0
VERTEX
  5
690
  8
0
 62
   134
 10
0.0
 20
0.0
 30
0.0
 70
   128
 71
   278
 72
   433
 73
  -333
 74
  -278
  0
VERTEX
  5
691
  8
0
 62
   134
 10
0.0
 20
0.0
 30
0.0
 70
   128
 71
   333
 72
   434
 73
  -278
 74
  -333
  0
VERTEX
  5
692
  8
0
 62
   134
 10
0.0
 20
0.0
 30
0.0
 70
   128
 71
   277
 72
   432
 73
  -333
 74
  -277
  0
VERTEX
  5
693
  8
0
 62
   134
 10
0.0
 20
0.0
 30
0.0
 70
   128
 71
   333
 72
   433
 73
  -277
 74
  -333
  0
VERTEX
  5
694
  8
0
 62
   134
 10
0.0
 20
0.0
 30
0.0
 70
   128
 71
   269
 72
   417
 73
  -333
 74
  -269
  0
VERTEX
  5
695
  8
0
 62
   134
 10
0.0
 20
0.0
 30
0.0
 70
   128
 71
   333
 72
   432
 73
  -269
 74
  -333
  0
VERTEX
  5
696
  8
0
 62
   134
 10
0.0
 20
0.0
 30
0.0
 70
   128
 71
   270
 72
   434
 73
  -333
 74
  -270
  0
VERTEX
  5
697
  8
0
 62
   134
 10
0.0
 20
0.0
 30
0.0
 70
   128
 71
   333
 72
   417
 73
  -270
 74
  -333
  0
VERTEX
  5
698
  8
0
 62
   134
 10
0.0
 20
0.0
 30
0.0
 70
   128
 71
   279
 72
   435
 73
  -334
 74
  -279
  0
VERTEX
  5
699
  8
0
 62
   134
 10
0.0
 20
0.0
 30
0.0
 70
   128
 71
   334
 72
   436
 73
  -279
 74
  -334
  0
VERTEX
  5
69A
  8
0
 62
   134
 10
0.0
 20
0.0
 30
0.0
 70
   128
 71
   278
 72
   434
 73
  -334
 74
  -278
  0
VERTEX
  5
69B
  8
0
 62
   134
 10
0.0
 20
0.0
 30
0.0
 70
   128
 71
   334
 72
   435
 73
  -278
 74
  -334
  0
VERTEX
  5
69C
  8
0
 62
   134
 10
0.0
 20
0.0
 30
0.0
 70
   128
 71
   270
 72
   419
 73
  -334
 74
  -270
  0
VERTEX
  5
69D
  8
0
 62
   134
 10
0.0
 20
0.0
 30
0.0
 70
   128
 71
   334
 72
   434
 73
  -270
 74
  -334
  0
VERTEX
  5
69E
  8
0
 62
   134
 10
0.0
 20
0.0
 30
0.0
 70
   128
 71
   271
 72
   436
 73
  -334
 74
  -271
  0
VERTEX
  5
69F
  8
0
 62
   134
 10
0.0
 20
0.0
 30
0.0
 70
   128
 71
   334
 72
   419
 73
  -271
 74
  -334
  0
VERTEX
  5
6A0
  8
0
 62
   134
 10
0.0
 20
0.0
 30
0.0
 70
   128
 71
   280
 72
   437
 73
  -335
 74
  -280
  0
VERTEX
  5
6A1
  8
0
 62
   134
 10
0.0
 20
0.0
 30
0.0
 70
   128
 71
   335
 72
   438
 73
  -280
 74
  -335
  0
VERTEX
  5
6A2
  8
0
 62
   134
 10
0.0
 20
0.0
 30
0.0
 70
   128
 71
   279
 72
   436
 73
  -335
 74
  -279
  0
VERTEX
  5
6A3
  8
0
 62
   134
 10
0.0
 20
0.0
 30
0.0
 70
   128
 71
   335
 72
   437
 73
  -279
 74
  -335
  0
VERTEX
  5
6A4
  8
0
 62
   134
 10
0.0
 20
0.0
 30
0.0
 70
   128
 71
   271
 72
   421
 73
  -335
 74
  -271
  0
VERTEX
  5
6A5
  8
0
 62
   134
 10
0.0
 20
0.0
 30
0.0
 70
   128
 71
   335
 72
   436
 73
  -271
 74
  -335
  0
VERTEX
  5
6A6
  8
0
 62
   134
 10
0.0
 20
0.0
 30
0.0
 70
   128
 71
   272
 72
   438
 73
  -335
 74
  -272
  0
VERTEX
  5
6A7
  8
0
 62
   134
 10
0.0
 20
0.0
 30
0.0
 70
   128
 71
   335
 72
   421
 73
  -272
 74
  -335
  0
VERTEX
  5
6A8
  8
0
 62
   134
 10
0.0
 20
0.0
 30
0.0
 70
   128
 71
   281
 72
   439
 73
  -336
 74
  -281
  0
VERTEX
  5
6A9
  8
0
 62
   134
 10
0.0
 20
0.0
 30
0.0
 70
   128
 71
   336
 72
   440
 73
  -281
 74
  -336
  0
VERTEX
  5
6AA
  8
0
 62
   134
 10
0.0
 20
0.0
 30
0.0
 70
   128
 71
   280
 72
   438
 73
  -336
 74
  -280
  0
VERTEX
  5
6AB
  8
0
 62
   134
 10
0.0
 20
0.0
 30
0.0
 70
   128
 71
   336
 72
   439
 73
  -280
 74
  -336
  0
VERTEX
  5
6AC
  8
0
 62
   134
 10
0.0
 20
0.0
 30
0.0
 70
   128
 71
   272
 72
   423
 73
  -336
 74
  -272
  0
VERTEX
  5
6AD
  8
0
 62
   134
 10
0.0
 20
0.0
 30
0.0
 70
   128
 71
   336
 72
   438
 73
  -272
 74
  -336
  0
VERTEX
  5
6AE
  8
0
 62
   134
 10
0.0
 20
0.0
 30
0.0
 70
   128
 71
   273
 72
   440
 73
  -336
 74
  -273
  0
VERTEX
  5
6AF
  8
0
 62
   134
 10
0.0
 20
0.0
 30
0.0
 70
   128
 71
   336
 72
   423
 73
  -273
 74
  -336
  0
VERTEX
  5
6B0
  8
0
 62
   134
 10
0.0
 20
0.0
 30
0.0
 70
   128
 71
   274
 72
   441
 73
  -337
 74
  -274
  0
VERTEX
  5
6B1
  8
0
 62
   134
 10
0.0
 20
0.0
 30
0.0
 70
   128
 71
   337
 72
   427
 73
  -274
 74
  -337
  0
VERTEX
  5
6B2
  8
0
 62
   134
 10
0.0
 20
0.0
 30
0.0
 70
   128
 71
   281
 72
   440
 73
  -337
 74
  -281
  0
VERTEX
  5
6B3
  8
0
 62
   134
 10
0.0
 20
0.0
 30
0.0
 70
   128
 71
   337
 72
   441
 73
  -281
 74
  -337
  0
VERTEX
  5
6B4
  8
0
 62
   134
 10
0.0
 20
0.0
 30
0.0
 70
   128
 71
   273
 72
   425
 73
  -337
 74
  -273
  0
VERTEX
  5
6B5
  8
0
 62
   134
 10
0.0
 20
0.0
 30
0.0
 70
   128
 71
   337
 72
   440
 73
  -273
 74
  -337
  0
VERTEX
  5
6B6
  8
0
 62
   134
 10
0.0
 20
0.0
 30
0.0
 70
   128
 71
   266
 72
   427
 73
  -337
 74
  -266
  0
VERTEX
  5
6B7
  8
0
 62
   134
 10
0.0
 20
0.0
 30
0.0
 70
   128
 71
   337
 72
   425
 73
  -266
 74
  -337
  0
VERTEX
  5
6B8
  8
0
 62
   134
 10
0.0
 20
0.0
 30
0.0
 70
   128
 71
   283
 72
   442
 73
  -338
 74
  -283
  0
VERTEX
  5
6B9
  8
0
 62
   134
 10
0.0
 20
0.0
 30
0.0
 70
   128
 71
   338
 72
   444
 73
  -283
 74
  -338
  0
VERTEX
  5
6BA
  8
0
 62
   134
 10
0.0
 20
0.0
 30
0.0
 70
   128
 71
   282
 72
   443
 73
  -338
 74
  -282
  0
VERTEX
  5
6BB
  8
0
 62
   134
 10
0.0
 20
0.0
 30
0.0
 70
   128
 71
   338
 72
   442
 73
  -282
 74
  -338
  0
VERTEX
  5
6BC
  8
0
 62
   134
 10
0.0
 20
0.0
 30
0.0
 70
   128
 71
   274
 72
   426
 73
  -338
 74
  -274
  0
VERTEX
  5
6BD
  8
0
 62
   134
 10
0.0
 20
0.0
 30
0.0
 70
   128
 71
   338
 72
   443
 73
  -274
 74
  -338
  0
VERTEX
  5
6BE
  8
0
 62
   134
 10
0.0
 20
0.0
 30
0.0
 70
   128
 71
   275
 72
   444
 73
  -338
 74
  -275
  0
VERTEX
  5
6BF
  8
0
 62
   134
 10
0.0
 20
0.0
 30
0.0
 70
   128
 71
   338
 72
   426
 73
  -275
 74
  -338
  0
VERTEX
  5
6C0
  8
0
 62
   134
 10
0.0
 20
0.0
 30
0.0
 70
   128
 71
   284
 72
   445
 73
  -339
 74
  -284
  0
VERTEX
  5
6C1
  8
0
 62
   134
 10
0.0
 20
0.0
 30
0.0
 70
   128
 71
   339
 72
   446
 73
  -284
 74
  -339
  0
VERTEX
  5
6C2
  8
0
 62
   134
 10
0.0
 20
0.0
 30
0.0
 70
   128
 71
   283
 72
   444
 73
  -339
 74
  -283
  0
VERTEX
  5
6C3
  8
0
 62
   134
 10
0.0
 20
0.0
 30
0.0
 70
   128
 71
   339
 72
   445
 73
  -283
 74
  -339
  0
VERTEX
  5
6C4
  8
0
 62
   134
 10
0.0
 20
0.0
 30
0.0
 70
   128
 71
   275
 72
   429
 73
  -339
 74
  -275
  0
VERTEX
  5
6C5
  8
0
 62
   134
 10
0.0
 20
0.0
 30
0.0
 70
   128
 71
   339
 72
   444
 73
  -275
 74
  -339
  0
VERTEX
  5
6C6
  8
0
 62
   134
 10
0.0
 20
0.0
 30
0.0
 70
   128
 71
   276
 72
   446
 73
  -339
 74
  -276
  0
VERTEX
  5
6C7
  8
0
 62
   134
 10
0.0
 20
0.0
 30
0.0
 70
   128
 71
   339
 72
   429
 73
  -276
 74
  -339
  0
VERTEX
  5
6C8
  8
0
 62
   134
 10
0.0
 20
0.0
 30
0.0
 70
   128
 71
   285
 72
   447
 73
  -340
 74
  -285
  0
VERTEX
  5
6C9
  8
0
 62
   134
 10
0.0
 20
0.0
 30
0.0
 70
   128
 71
   340
 72
   448
 73
  -285
 74
  -340
  0
VERTEX
  5
6CA
  8
0
 62
   134
 10
0.0
 20
0.0
 30
0.0
 70
   128
 71
   284
 72
   446
 73
  -340
 74
  -284
  0
VERTEX
  5
6CB
  8
0
 62
   134
 10
0.0
 20
0.0
 30
0.0
 70
   128
 71
   340
 72
   447
 73
  -284
 74
  -340
  0
VERTEX
  5
6CC
  8
0
 62
   134
 10
0.0
 20
0.0
 30
0.0
 70
   128
 71
   276
 72
   431
 73
  -340
 74
  -276
  0
VERTEX
  5
6CD
  8
0
 62
   134
 10
0.0
 20
0.0
 30
0.0
 70
   128
 71
   340
 72
   446
 73
  -276
 74
  -340
  0
VERTEX
  5
6CE
  8
0
 62
   134
 10
0.0
 20
0.0
 30
0.0
 70
   128
 71
   277
 72
   448
 73
  -340
 74
  -277
  0
VERTEX
  5
6CF
  8
0
 62
   134
 10
0.0
 20
0.0
 30
0.0
 70
   128
 71
   340
 72
   431
 73
  -277
 74
  -340
  0
VERTEX
  5
6D0
  8
0
 62
   134
 10
0.0
 20
0.0
 30
0.0
 70
   128
 71
   286
 72
   449
 73
  -341
 74
  -286
  0
VERTEX
  5
6D1
  8
0
 62
   134
 10
0.0
 20
0.0
 30
0.0
 70
   128
 71
   341
 72
   450
 73
  -286
 74
  -341
  0
VERTEX
  5
6D2
  8
0
 62
   134
 10
0.0
 20
0.0
 30
0.0
 70
   128
 71
   285
 72
   448
 73
  -341
 74
  -285
  0
VERTEX
  5
6D3
  8
0
 62
   134
 10
0.0
 20
0.0
 30
0.0
 70
   128
 71
   341
 72
   449
 73
  -285
 74
  -341
  0
VERTEX
  5
6D4
  8
0
 62
   134
 10
0.0
 20
0.0
 30
0.0
 70
   128
 71
   277
 72
   433
 73
  -341
 74
  -277
  0
VERTEX
  5
6D5
  8
0
 62
   134
 10
0.0
 20
0.0
 30
0.0
 70
   128
 71
   341
 72
   448
 73
  -277
 74
  -341
  0
VERTEX
  5
6D6
  8
0
 62
   134
 10
0.0
 20
0.0
 30
0.0
 70
   128
 71
   278
 72
   450
 73
  -341
 74
  -278
  0
VERTEX
  5
6D7
  8
0
 62
   134
 10
0.0
 20
0.0
 30
0.0
 70
   128
 71
   341
 72
   433
 73
  -278
 74
  -341
  0
VERTEX
  5
6D8
  8
0
 62
   134
 10
0.0
 20
0.0
 30
0.0
 70
   128
 71
   287
 72
   451
 73
  -342
 74
  -287
  0
VERTEX
  5
6D9
  8
0
 62
   134
 10
0.0
 20
0.0
 30
0.0
 70
   128
 71
   342
 72
   452
 73
  -287
 74
  -342
  0
VERTEX
  5
6DA
  8
0
 62
   134
 10
0.0
 20
0.0
 30
0.0
 70
   128
 71
   286
 72
   450
 73
  -342
 74
  -286
  0
VERTEX
  5
6DB
  8
0
 62
   134
 10
0.0
 20
0.0
 30
0.0
 70
   128
 71
   342
 72
   451
 73
  -286
 74
  -342
  0
VERTEX
  5
6DC
  8
0
 62
   134
 10
0.0
 20
0.0
 30
0.0
 70
   128
 71
   278
 72
   435
 73
  -342
 74
  -278
  0
VERTEX
  5
6DD
  8
0
 62
   134
 10
0.0
 20
0.0
 30
0.0
 70
   128
 71
   342
 72
   450
 73
  -278
 74
  -342
  0
VERTEX
  5
6DE
  8
0
 62
   134
 10
0.0
 20
0.0
 30
0.0
 70
   128
 71
   279
 72
   452
 73
  -342
 74
  -279
  0
VERTEX
  5
6DF
  8
0
 62
   134
 10
0.0
 20
0.0
 30
0.0
 70
   128
 71
   342
 72
   435
 73
  -279
 74
  -342
  0
VERTEX
  5
6E0
  8
0
 62
   134
 10
0.0
 20
0.0
 30
0.0
 70
   128
 71
   288
 72
   453
 73
  -343
 74
  -288
  0
VERTEX
  5
6E1
  8
0
 62
   134
 10
0.0
 20
0.0
 30
0.0
 70
   128
 71
   343
 72
   454
 73
  -288
 74
  -343
  0
VERTEX
  5
6E2
  8
0
 62
   134
 10
0.0
 20
0.0
 30
0.0
 70
   128
 71
   287
 72
   452
 73
  -343
 74
  -287
  0
VERTEX
  5
6E3
  8
0
 62
   134
 10
0.0
 20
0.0
 30
0.0
 70
   128
 71
   343
 72
   453
 73
  -287
 74
  -343
  0
VERTEX
  5
6E4
  8
0
 62
   134
 10
0.0
 20
0.0
 30
0.0
 70
   128
 71
   279
 72
   437
 73
  -343
 74
  -279
  0
VERTEX
  5
6E5
  8
0
 62
   134
 10
0.0
 20
0.0
 30
0.0
 70
   128
 71
   343
 72
   452
 73
  -279
 74
  -343
  0
VERTEX
  5
6E6
  8
0
 62
   134
 10
0.0
 20
0.0
 30
0.0
 70
   128
 71
   280
 72
   454
 73
  -343
 74
  -280
  0
VERTEX
  5
6E7
  8
0
 62
   134
 10
0.0
 20
0.0
 30
0.0
 70
   128
 71
   343
 72
   437
 73
  -280
 74
  -343
  0
VERTEX
  5
6E8
  8
0
 62
   134
 10
0.0
 20
0.0
 30
0.0
 70
   128
 71
   289
 72
   455
 73
  -344
 74
  -289
  0
VERTEX
  5
6E9
  8
0
 62
   134
 10
0.0
 20
0.0
 30
0.0
 70
   128
 71
   344
 72
   456
 73
  -289
 74
  -344
  0
VERTEX
  5
6EA
  8
0
 62
   134
 10
0.0
 20
0.0
 30
0.0
 70
   128
 71
   288
 72
   454
 73
  -344
 74
  -288
  0
VERTEX
  5
6EB
  8
0
 62
   134
 10
0.0
 20
0.0
 30
0.0
 70
   128
 71
   344
 72
   455
 73
  -288
 74
  -344
  0
VERTEX
  5
6EC
  8
0
 62
   134
 10
0.0
 20
0.0
 30
0.0
 70
   128
 71
   280
 72
   439
 73
  -344
 74
  -280
  0
VERTEX
  5
6ED
  8
0
 62
   134
 10
0.0
 20
0.0
 30
0.0
 70
   128
 71
   344
 72
   454
 73
  -280
 74
  -344
  0
VERTEX
  5
6EE
  8
0
 62
   134
 10
0.0
 20
0.0
 30
0.0
 70
   128
 71
   281
 72
   456
 73
  -344
 74
  -281
  0
VERTEX
  5
6EF
  8
0
 62
   134
 10
0.0
 20
0.0
 30
0.0
 70
   128
 71
   344
 72
   439
 73
  -281
 74
  -344
  0
VERTEX
  5
6F0
  8
0
 62
   134
 10
0.0
 20
0.0
 30
0.0
 70
   128
 71
   282
 72
   457
 73
  -345
 74
  -282
  0
VERTEX
  5
6F1
  8
0
 62
   134
 10
0.0
 20
0.0
 30
0.0
 70
   128
 71
   345
 72
   443
 73
  -282
 74
  -345
  0
VERTEX
  5
6F2
  8
0
 62
   134
 10
0.0
 20
0.0
 30
0.0
 70
   128
 71
   289
 72
   456
 73
  -345
 74
  -289
  0
VERTEX
  5
6F3
  8
0
 62
   134
 10
0.0
 20
0.0
 30
0.0
 70
   128
 71
   345
 72
   457
 73
  -289
 74
  -345
  0
VERTEX
  5
6F4
  8
0
 62
   134
 10
0.0
 20
0.0
 30
0.0
 70
   128
 71
   281
 72
   441
 73
  -345
 74
  -281
  0
VERTEX
  5
6F5
  8
0
 62
   134
 10
0.0
 20
0.0
 30
0.0
 70
   128
 71
   345
 72
   456
 73
  -281
 74
  -345
  0
VERTEX
  5
6F6
  8
0
 62
   134
 10
0.0
 20
0.0
 30
0.0
 70
   128
 71
   274
 72
   443
 73
  -345
 74
  -274
  0
VERTEX
  5
6F7
  8
0
 62
   134
 10
0.0
 20
0.0
 30
0.0
 70
   128
 71
   345
 72
   441
 73
  -274
 74
  -345
  0
VERTEX
  5
6F8
  8
0
 62
   134
 10
0.0
 20
0.0
 30
0.0
 70
   128
 71
   282
 72
   442
 73
  -346
 74
  -282
  0
VERTEX
  5
6F9
  8
0
 62
   134
 10
0.0
 20
0.0
 30
0.0
 70
   128
 71
   346
 72
   460
 73
  -282
 74
  -346
  0
VERTEX
  5
6FA
  8
0
 62
   134
 10
0.0
 20
0.0
 30
0.0
 70
   128
 71
   283
 72
   458
 73
  -346
 74
  -283
  0
VERTEX
  5
6FB
  8
0
 62
   134
 10
0.0
 20
0.0
 30
0.0
 70
   128
 71
   346
 72
   442
 73
  -283
 74
  -346
  0
VERTEX
  5
6FC
  8
0
 62
   134
 10
0.0
 20
0.0
 30
0.0
 70
   128
 71
   291
 72
   459
 73
  -346
 74
  -291
  0
VERTEX
  5
6FD
  8
0
 62
   134
 10
0.0
 20
0.0
 30
0.0
 70
   128
 71
   346
 72
   458
 73
  -291
 74
  -346
  0
VERTEX
  5
6FE
  8
0
 62
   134
 10
0.0
 20
0.0
 30
0.0
 70
   128
 71
   290
 72
   460
 73
  -346
 74
  -290
  0
VERTEX
  5
6FF
  8
0
 62
   134
 10
0.0
 20
0.0
 30
0.0
 70
   128
 71
   346
 72
   459
 73
  -290
 74
  -346
  0
VERTEX
  5
700
  8
0
 62
   134
 10
0.0
 20
0.0
 30
0.0
 70
   128
 71
   283
 72
   445
 73
  -347
 74
  -283
  0
VERTEX
  5
701
  8
0
 62
   134
 10
0.0
 20
0.0
 30
0.0
 70
   128
 71
   347
 72
   458
 73
  -283
 74
  -347
  0
VERTEX
  5
702
  8
0
 62
   134
 10
0.0
 20
0.0
 30
0.0
 70
   128
 71
   284
 72
   461
 73
  -347
 74
  -284
  0
VERTEX
  5
703
  8
0
 62
   134
 10
0.0
 20
0.0
 30
0.0
 70
   128
 71
   347
 72
   445
 73
  -284
 74
  -347
  0
VERTEX
  5
704
  8
0
 62
   134
 10
0.0
 20
0.0
 30
0.0
 70
   128
 71
   292
 72
   462
 73
  -347
 74
  -292
  0
VERTEX
  5
705
  8
0
 62
   134
 10
0.0
 20
0.0
 30
0.0
 70
   128
 71
   347
 72
   461
 73
  -292
 74
  -347
  0
VERTEX
  5
706
  8
0
 62
   134
 10
0.0
 20
0.0
 30
0.0
 70
   128
 71
   291
 72
   458
 73
  -347
 74
  -291
  0
VERTEX
  5
707
  8
0
 62
   134
 10
0.0
 20
0.0
 30
0.0
 70
   128
 71
   347
 72
   462
 73
  -291
 74
  -347
  0
VERTEX
  5
708
  8
0
 62
   134
 10
0.0
 20
0.0
 30
0.0
 70
   128
 71
   284
 72
   447
 73
  -348
 74
  -284
  0
VERTEX
  5
709
  8
0
 62
   134
 10
0.0
 20
0.0
 30
0.0
 70
   128
 71
   348
 72
   461
 73
  -284
 74
  -348
  0
VERTEX
  5
70A
  8
0
 62
   134
 10
0.0
 20
0.0
 30
0.0
 70
   128
 71
   285
 72
   463
 73
  -348
 74
  -285
  0
VERTEX
  5
70B
  8
0
 62
   134
 10
0.0
 20
0.0
 30
0.0
 70
   128
 71
   348
 72
   447
 73
  -285
 74
  -348
  0
VERTEX
  5
70C
  8
0
 62
   134
 10
0.0
 20
0.0
 30
0.0
 70
   128
 71
   293
 72
   464
 73
  -348
 74
  -293
  0
VERTEX
  5
70D
  8
0
 62
   134
 10
0.0
 20
0.0
 30
0.0
 70
   128
 71
   348
 72
   463
 73
  -293
 74
  -348
  0
VERTEX
  5
70E
  8
0
 62
   134
 10
0.0
 20
0.0
 30
0.0
 70
   128
 71
   292
 72
   461
 73
  -348
 74
  -292
  0
VERTEX
  5
70F
  8
0
 62
   134
 10
0.0
 20
0.0
 30
0.0
 70
   128
 71
   348
 72
   464
 73
  -292
 74
  -348
  0
VERTEX
  5
710
  8
0
 62
   134
 10
0.0
 20
0.0
 30
0.0
 70
   128
 71
   285
 72
   449
 73
  -349
 74
  -285
  0
VERTEX
  5
711
  8
0
 62
   134
 10
0.0
 20
0.0
 30
0.0
 70
   128
 71
   349
 72
   463
 73
  -285
 74
  -349
  0
VERTEX
  5
712
  8
0
 62
   134
 10
0.0
 20
0.0
 30
0.0
 70
   128
 71
   286
 72
   465
 73
  -349
 74
  -286
  0
VERTEX
  5
713
  8
0
 62
   134
 10
0.0
 20
0.0
 30
0.0
 70
   128
 71
   349
 72
   449
 73
  -286
 74
  -349
  0
VERTEX
  5
714
  8
0
 62
   134
 10
0.0
 20
0.0
 30
0.0
 70
   128
 71
   294
 72
   466
 73
  -349
 74
  -294
  0
VERTEX
  5
715
  8
0
 62
   134
 10
0.0
 20
0.0
 30
0.0
 70
   128
 71
   349
 72
   465
 73
  -294
 74
  -349
  0
VERTEX
  5
716
  8
0
 62
   134
 10
0.0
 20
0.0
 30
0.0
 70
   128
 71
   293
 72
   463
 73
  -349
 74
  -293
  0
VERTEX
  5
717
  8
0
 62
   134
 10
0.0
 20
0.0
 30
0.0
 70
   128
 71
   349
 72
   466
 73
  -293
 74
  -349
  0
VERTEX
  5
718
  8
0
 62
   134
 10
0.0
 20
0.0
 30
0.0
 70
   128
 71
   286
 72
   451
 73
  -350
 74
  -286
  0
VERTEX
  5
719
  8
0
 62
   134
 10
0.0
 20
0.0
 30
0.0
 70
   128
 71
   350
 72
   465
 73
  -286
 74
  -350
  0
VERTEX
  5
71A
  8
0
 62
   134
 10
0.0
 20
0.0
 30
0.0
 70
   128
 71
   287
 72
   467
 73
  -350
 74
  -287
  0
VERTEX
  5
71B
  8
0
 62
   134
 10
0.0
 20
0.0
 30
0.0
 70
   128
 71
   350
 72
   451
 73
  -287
 74
  -350
  0
VERTEX
  5
71C
  8
0
 62
   134
 10
0.0
 20
0.0
 30
0.0
 70
   128
 71
   295
 72
   468
 73
  -350
 74
  -295
  0
VERTEX
  5
71D
  8
0
 62
   134
 10
0.0
 20
0.0
 30
0.0
 70
   128
 71
   350
 72
   467
 73
  -295
 74
  -350
  0
VERTEX
  5
71E
  8
0
 62
   134
 10
0.0
 20
0.0
 30
0.0
 70
   128
 71
   294
 72
   465
 73
  -350
 74
  -294
  0
VERTEX
  5
71F
  8
0
 62
   134
 10
0.0
 20
0.0
 30
0.0
 70
   128
 71
   350
 72
   468
 73
  -294
 74
  -350
  0
VERTEX
  5
720
  8
0
 62
   134
 10
0.0
 20
0.0
 30
0.0
 70
   128
 71
   287
 72
   453
 73
  -351
 74
  -287
  0
VERTEX
  5
721
  8
0
 62
   134
 10
0.0
 20
0.0
 30
0.0
 70
   128
 71
   351
 72
   467
 73
  -287
 74
  -351
  0
VERTEX
  5
722
  8
0
 62
   134
 10
0.0
 20
0.0
 30
0.0
 70
   128
 71
   288
 72
   469
 73
  -351
 74
  -288
  0
VERTEX
  5
723
  8
0
 62
   134
 10
0.0
 20
0.0
 30
0.0
 70
   128
 71
   351
 72
   453
 73
  -288
 74
  -351
  0
VERTEX
  5
724
  8
0
 62
   134
 10
0.0
 20
0.0
 30
0.0
 70
   128
 71
   296
 72
   470
 73
  -351
 74
  -296
  0
VERTEX
  5
725
  8
0
 62
   134
 10
0.0
 20
0.0
 30
0.0
 70
   128
 71
   351
 72
   469
 73
  -296
 74
  -351
  0
VERTEX
  5
726
  8
0
 62
   134
 10
0.0
 20
0.0
 30
0.0
 70
   128
 71
   295
 72
   467
 73
  -351
 74
  -295
  0
VERTEX
  5
727
  8
0
 62
   134
 10
0.0
 20
0.0
 30
0.0
 70
   128
 71
   351
 72
   470
 73
  -295
 74
  -351
  0
VERTEX
  5
728
  8
0
 62
   134
 10
0.0
 20
0.0
 30
0.0
 70
   128
 71
   288
 72
   455
 73
  -352
 74
  -288
  0
VERTEX
  5
729
  8
0
 62
   134
 10
0.0
 20
0.0
 30
0.0
 70
   128
 71
   352
 72
   469
 73
  -288
 74
  -352
  0
VERTEX
  5
72A
  8
0
 62
   134
 10
0.0
 20
0.0
 30
0.0
 70
   128
 71
   289
 72
   471
 73
  -352
 74
  -289
  0
VERTEX
  5
72B
  8
0
 62
   134
 10
0.0
 20
0.0
 30
0.0
 70
   128
 71
   352
 72
   455
 73
  -289
 74
  -352
  0
VERTEX
  5
72C
  8
0
 62
   134
 10
0.0
 20
0.0
 30
0.0
 70
   128
 71
   297
 72
   472
 73
  -352
 74
  -297
  0
VERTEX
  5
72D
  8
0
 62
   134
 10
0.0
 20
0.0
 30
0.0
 70
   128
 71
   352
 72
   471
 73
  -297
 74
  -352
  0
VERTEX
  5
72E
  8
0
 62
   134
 10
0.0
 20
0.0
 30
0.0
 70
   128
 71
   296
 72
   469
 73
  -352
 74
  -296
  0
VERTEX
  5
72F
  8
0
 62
   134
 10
0.0
 20
0.0
 30
0.0
 70
   128
 71
   352
 72
   472
 73
  -296
 74
  -352
  0
VERTEX
  5
730
  8
0
 62
   134
 10
0.0
 20
0.0
 30
0.0
 70
   128
 71
   289
 72
   457
 73
  -353
 74
  -289
  0
VERTEX
  5
731
  8
0
 62
   134
 10
0.0
 20
0.0
 30
0.0
 70
   128
 71
   353
 72
   471
 73
  -289
 74
  -353
  0
VERTEX
  5
732
  8
0
 62
   134
 10
0.0
 20
0.0
 30
0.0
 70
   128
 71
   282
 72
   460
 73
  -353
 74
  -282
  0
VERTEX
  5
733
  8
0
 62
   134
 10
0.0
 20
0.0
 30
0.0
 70
   128
 71
   353
 72
   457
 73
  -282
 74
  -353
  0
VERTEX
  5
734
  8
0
 62
   134
 10
0.0
 20
0.0
 30
0.0
 70
   128
 71
   290
 72
   473
 73
  -353
 74
  -290
  0
VERTEX
  5
735
  8
0
 62
   134
 10
0.0
 20
0.0
 30
0.0
 70
   128
 71
   353
 72
   460
 73
  -290
 74
  -353
  0
VERTEX
  5
736
  8
0
 62
   134
 10
0.0
 20
0.0
 30
0.0
 70
   128
 71
   297
 72
   471
 73
  -353
 74
  -297
  0
VERTEX
  5
737
  8
0
 62
   134
 10
0.0
 20
0.0
 30
0.0
 70
   128
 71
   353
 72
   473
 73
  -297
 74
  -353
  0
VERTEX
  5
738
  8
0
 62
   134
 10
0.0
 20
0.0
 30
0.0
 70
   128
 71
   462
 72
   292
 73
  -464
 74
  -462
  0
VERTEX
  5
739
  8
0
 62
   134
 10
0.0
 20
0.0
 30
0.0
 70
   128
 71
   464
 72
   293
 73
  -466
 74
  -464
  0
VERTEX
  5
73A
  8
0
 62
   134
 10
0.0
 20
0.0
 30
0.0
 70
   128
 71
   466
 72
   294
 73
  -468
 74
  -466
  0
VERTEX
  5
73B
  8
0
 62
   134
 10
0.0
 20
0.0
 30
0.0
 70
   128
 71
  -464
 72
  -466
 73
  -468
 74
  -464
  0
VERTEX
  5
73C
  8
0
 62
   134
 10
0.0
 20
0.0
 30
0.0
 70
   128
 71
   468
 72
   295
 73
  -470
 74
  -468
  0
VERTEX
  5
73D
  8
0
 62
   134
 10
0.0
 20
0.0
 30
0.0
 70
   128
 71
   470
 72
   296
 73
  -472
 74
  -470
  0
VERTEX
  5
73E
  8
0
 62
   134
 10
0.0
 20
0.0
 30
0.0
 70
   128
 71
  -468
 72
  -470
 73
  -472
 74
  -468
  0
VERTEX
  5
73F
  8
0
 62
   134
 10
0.0
 20
0.0
 30
0.0
 70
   128
 71
  -464
 72
  -468
 73
  -472
 74
  -464
  0
VERTEX
  5
740
  8
0
 62
   134
 10
0.0
 20
0.0
 30
0.0
 70
   128
 71
   472
 72
   297
 73
  -473
 74
  -472
  0
VERTEX
  5
741
  8
0
 62
   134
 10
0.0
 20
0.0
 30
0.0
 70
   128
 71
   473
 72
   290
 73
  -459
 74
  -473
  0
VERTEX
  5
742
  8
0
 62
   134
 10
0.0
 20
0.0
 30
0.0
 70
   128
 71
  -472
 72
  -473
 73
  -459
 74
  -472
  0
VERTEX
  5
743
  8
0
 62
   134
 10
0.0
 20
0.0
 30
0.0
 70
   128
 71
  -464
 72
  -472
 73
  -459
 74
  -464
  0
VERTEX
  5
744
  8
0
 62
   134
 10
0.0
 20
0.0
 30
0.0
 70
   128
 71
  -462
 72
  -464
 73
  -459
 74
  -462
  0
VERTEX
  5
745
  8
0
 62
   134
 10
0.0
 20
0.0
 30
0.0
 70
   128
 71
   291
 72
  -462
 73
   459
 74
  -291
  0
VERTEX
  5
746
  8
0
 62
   134
 10
0.0
 20
0.0
 30
0.0
 70
   128
 71
  -481
 72
   675
 73
   674
 74
  -481
  0
VERTEX
  5
747
  8
0
 62
   134
 10
0.0
 20
0.0
 30
0.0
 70
   128
 71
   481
 72
   482
 73
  -675
 74
  -481
  0
VERTEX
  5
748
  8
0
 62
   134
 10
0.0
 20
0.0
 30
0.0
 70
   128
 71
  -482
 72
   676
 73
   675
 74
  -482
  0
VERTEX
  5
749
  8
0
 62
   134
 10
0.0
 20
0.0
 30
0.0
 70
   128
 71
   482
 72
   483
 73
  -676
 74
  -482
  0
VERTEX
  5
74A
  8
0
 62
   134
 10
0.0
 20
0.0
 30
0.0
 70
   128
 71
  -483
 72
   677
 73
   676
 74
  -483
  0
VERTEX
  5
74B
  8
0
 62
   134
 10
0.0
 20
0.0
 30
0.0
 70
   128
 71
   483
 72
   484
 73
  -677
 74
  -483
  0
VERTEX
  5
74C
  8
0
 62
   134
 10
0.0
 20
0.0
 30
0.0
 70
   128
 71
  -484
 72
   678
 73
   677
 74
  -484
  0
VERTEX
  5
74D
  8
0
 62
   134
 10
0.0
 20
0.0
 30
0.0
 70
   128
 71
   484
 72
   485
 73
  -678
 74
  -484
  0
VERTEX
  5
74E
  8
0
 62
   134
 10
0.0
 20
0.0
 30
0.0
 70
   128
 71
  -485
 72
   679
 73
   678
 74
  -485
  0
VERTEX
  5
74F
  8
0
 62
   134
 10
0.0
 20
0.0
 30
0.0
 70
   128
 71
   485
 72
   486
 73
  -679
 74
  -485
  0
VERTEX
  5
750
  8
0
 62
   134
 10
0.0
 20
0.0
 30
0.0
 70
   128
 71
  -486
 72
   680
 73
   679
 74
  -486
  0
VERTEX
  5
751
  8
0
 62
   134
 10
0.0
 20
0.0
 30
0.0
 70
   128
 71
   486
 72
   487
 73
  -680
 74
  -486
  0
VERTEX
  5
752
  8
0
 62
   134
 10
0.0
 20
0.0
 30
0.0
 70
   128
 71
  -487
 72
   681
 73
   680
 74
  -487
  0
VERTEX
  5
753
  8
0
 62
   134
 10
0.0
 20
0.0
 30
0.0
 70
   128
 71
   487
 72
   488
 73
  -681
 74
  -487
  0
VERTEX
  5
754
  8
0
 62
   134
 10
0.0
 20
0.0
 30
0.0
 70
   128
 71
  -488
 72
   674
 73
   681
 74
  -488
  0
VERTEX
  5
755
  8
0
 62
   134
 10
0.0
 20
0.0
 30
0.0
 70
   128
 71
   488
 72
   481
 73
  -674
 74
  -488
  0
VERTEX
  5
756
  8
0
 62
   134
 10
0.0
 20
0.0
 30
0.0
 70
   128
 71
  -489
 72
   683
 73
   682
 74
  -489
  0
VERTEX
  5
757
  8
0
 62
   134
 10
0.0
 20
0.0
 30
0.0
 70
   128
 71
   489
 72
   490
 73
  -683
 74
  -489
  0
VERTEX
  5
758
  8
0
 62
   134
 10
0.0
 20
0.0
 30
0.0
 70
   128
 71
  -490
 72
   684
 73
   683
 74
  -490
  0
VERTEX
  5
759
  8
0
 62
   134
 10
0.0
 20
0.0
 30
0.0
 70
   128
 71
   490
 72
   491
 73
  -684
 74
  -490
  0
VERTEX
  5
75A
  8
0
 62
   134
 10
0.0
 20
0.0
 30
0.0
 70
   128
 71
  -491
 72
   685
 73
   684
 74
  -491
  0
VERTEX
  5
75B
  8
0
 62
   134
 10
0.0
 20
0.0
 30
0.0
 70
   128
 71
   491
 72
   492
 73
  -685
 74
  -491
  0
VERTEX
  5
75C
  8
0
 62
   134
 10
0.0
 20
0.0
 30
0.0
 70
   128
 71
  -492
 72
   686
 73
   685
 74
  -492
  0
VERTEX
  5
75D
  8
0
 62
   134
 10
0.0
 20
0.0
 30
0.0
 70
   128
 71
   492
 72
   493
 73
  -686
 74
  -492
  0
VERTEX
  5
75E
  8
0
 62
   134
 10
0.0
 20
0.0
 30
0.0
 70
   128
 71
  -493
 72
   687
 73
   686
 74
  -493
  0
VERTEX
  5
75F
  8
0
 62
   134
 10
0.0
 20
0.0
 30
0.0
 70
   128
 71
   493
 72
   494
 73
  -687
 74
  -493
  0
VERTEX
  5
760
  8
0
 62
   134
 10
0.0
 20
0.0
 30
0.0
 70
   128
 71
  -494
 72
   688
 73
   687
 74
  -494
  0
VERTEX
  5
761
  8
0
 62
   134
 10
0.0
 20
0.0
 30
0.0
 70
   128
 71
   494
 72
   495
 73
  -688
 74
  -494
  0
VERTEX
  5
762
  8
0
 62
   134
 10
0.0
 20
0.0
 30
0.0
 70
   128
 71
  -495
 72
   689
 73
   688
 74
  -495
  0
VERTEX
  5
763
  8
0
 62
   134
 10
0.0
 20
0.0
 30
0.0
 70
   128
 71
   495
 72
   496
 73
  -689
 74
  -495
  0
VERTEX
  5
764
  8
0
 62
   134
 10
0.0
 20
0.0
 30
0.0
 70
   128
 71
  -496
 72
   682
 73
   689
 74
  -496
  0
VERTEX
  5
765
  8
0
 62
   134
 10
0.0
 20
0.0
 30
0.0
 70
   128
 71
   496
 72
   489
 73
  -682
 74
  -496
  0
VERTEX
  5
766
  8
0
 62
   134
 10
0.0
 20
0.0
 30
0.0
 70
   128
 71
  -497
 72
   691
 73
   690
 74
  -497
  0
VERTEX
  5
767
  8
0
 62
   134
 10
0.0
 20
0.0
 30
0.0
 70
   128
 71
   497
 72
   498
 73
  -691
 74
  -497
  0
VERTEX
  5
768
  8
0
 62
   134
 10
0.0
 20
0.0
 30
0.0
 70
   128
 71
  -498
 72
   692
 73
   691
 74
  -498
  0
VERTEX
  5
769
  8
0
 62
   134
 10
0.0
 20
0.0
 30
0.0
 70
   128
 71
   498
 72
   499
 73
  -692
 74
  -498
  0
VERTEX
  5
76A
  8
0
 62
   134
 10
0.0
 20
0.0
 30
0.0
 70
   128
 71
  -499
 72
   693
 73
   692
 74
  -499
  0
VERTEX
  5
76B
  8
0
 62
   134
 10
0.0
 20
0.0
 30
0.0
 70
   128
 71
   499
 72
   500
 73
  -693
 74
  -499
  0
VERTEX
  5
76C
  8
0
 62
   134
 10
0.0
 20
0.0
 30
0.0
 70
   128
 71
  -500
 72
   694
 73
   693
 74
  -500
  0
VERTEX
  5
76D
  8
0
 62
   134
 10
0.0
 20
0.0
 30
0.0
 70
   128
 71
   500
 72
   501
 73
  -694
 74
  -500
  0
VERTEX
  5
76E
  8
0
 62
   134
 10
0.0
 20
0.0
 30
0.0
 70
   128
 71
  -501
 72
   695
 73
   694
 74
  -501
  0
VERTEX
  5
76F
  8
0
 62
   134
 10
0.0
 20
0.0
 30
0.0
 70
   128
 71
   501
 72
   502
 73
  -695
 74
  -501
  0
VERTEX
  5
770
  8
0
 62
   134
 10
0.0
 20
0.0
 30
0.0
 70
   128
 71
  -502
 72
   696
 73
   695
 74
  -502
  0
VERTEX
  5
771
  8
0
 62
   134
 10
0.0
 20
0.0
 30
0.0
 70
   128
 71
   502
 72
   503
 73
  -696
 74
  -502
  0
VERTEX
  5
772
  8
0
 62
   134
 10
0.0
 20
0.0
 30
0.0
 70
   128
 71
  -503
 72
   697
 73
   696
 74
  -503
  0
VERTEX
  5
773
  8
0
 62
   134
 10
0.0
 20
0.0
 30
0.0
 70
   128
 71
   503
 72
   504
 73
  -697
 74
  -503
  0
VERTEX
  5
774
  8
0
 62
   134
 10
0.0
 20
0.0
 30
0.0
 70
   128
 71
  -504
 72
   690
 73
   697
 74
  -504
  0
VERTEX
  5
775
  8
0
 62
   134
 10
0.0
 20
0.0
 30
0.0
 70
   128
 71
   504
 72
   497
 73
  -690
 74
  -504
  0
VERTEX
  5
776
  8
0
 62
   134
 10
0.0
 20
0.0
 30
0.0
 70
   128
 71
  -505
 72
   699
 73
   698
 74
  -505
  0
VERTEX
  5
777
  8
0
 62
   134
 10
0.0
 20
0.0
 30
0.0
 70
   128
 71
   505
 72
   506
 73
  -699
 74
  -505
  0
VERTEX
  5
778
  8
0
 62
   134
 10
0.0
 20
0.0
 30
0.0
 70
   128
 71
  -506
 72
   700
 73
   699
 74
  -506
  0
VERTEX
  5
779
  8
0
 62
   134
 10
0.0
 20
0.0
 30
0.0
 70
   128
 71
   506
 72
   507
 73
  -700
 74
  -506
  0
VERTEX
  5
77A
  8
0
 62
   134
 10
0.0
 20
0.0
 30
0.0
 70
   128
 71
  -507
 72
   701
 73
   700
 74
  -507
  0
VERTEX
  5
77B
  8
0
 62
   134
 10
0.0
 20
0.0
 30
0.0
 70
   128
 71
   507
 72
   508
 73
  -701
 74
  -507
  0
VERTEX
  5
77C
  8
0
 62
   134
 10
0.0
 20
0.0
 30
0.0
 70
   128
 71
  -508
 72
   702
 73
   701
 74
  -508
  0
VERTEX
  5
77D
  8
0
 62
   134
 10
0.0
 20
0.0
 30
0.0
 70
   128
 71
   508
 72
   509
 73
  -702
 74
  -508
  0
VERTEX
  5
77E
  8
0
 62
   134
 10
0.0
 20
0.0
 30
0.0
 70
   128
 71
  -509
 72
   703
 73
   702
 74
  -509
  0
VERTEX
  5
77F
  8
0
 62
   134
 10
0.0
 20
0.0
 30
0.0
 70
   128
 71
   509
 72
   510
 73
  -703
 74
  -509
  0
VERTEX
  5
780
  8
0
 62
   134
 10
0.0
 20
0.0
 30
0.0
 70
   128
 71
  -510
 72
   704
 73
   703
 74
  -510
  0
VERTEX
  5
781
  8
0
 62
   134
 10
0.0
 20
0.0
 30
0.0
 70
   128
 71
   510
 72
   511
 73
  -704
 74
  -510
  0
VERTEX
  5
782
  8
0
 62
   134
 10
0.0
 20
0.0
 30
0.0
 70
   128
 71
  -511
 72
   705
 73
   704
 74
  -511
  0
VERTEX
  5
783
  8
0
 62
   134
 10
0.0
 20
0.0
 30
0.0
 70
   128
 71
   511
 72
   512
 73
  -705
 74
  -511
  0
VERTEX
  5
784
  8
0
 62
   134
 10
0.0
 20
0.0
 30
0.0
 70
   128
 71
  -512
 72
   698
 73
   705
 74
  -512
  0
VERTEX
  5
785
  8
0
 62
   134
 10
0.0
 20
0.0
 30
0.0
 70
   128
 71
   512
 72
   505
 73
  -698
 74
  -512
  0
VERTEX
  5
786
  8
0
 62
   134
 10
0.0
 20
0.0
 30
0.0
 70
   128
 71
  -513
 72
   707
 73
   706
 74
  -513
  0
VERTEX
  5
787
  8
0
 62
   134
 10
0.0
 20
0.0
 30
0.0
 70
   128
 71
   513
 72
   514
 73
  -707
 74
  -513
  0
VERTEX
  5
788
  8
0
 62
   134
 10
0.0
 20
0.0
 30
0.0
 70
   128
 71
  -514
 72
   708
 73
   707
 74
  -514
  0
VERTEX
  5
789
  8
0
 62
   134
 10
0.0
 20
0.0
 30
0.0
 70
   128
 71
   514
 72
   515
 73
  -708
 74
  -514
  0
VERTEX
  5
78A
  8
0
 62
   134
 10
0.0
 20
0.0
 30
0.0
 70
   128
 71
  -515
 72
   709
 73
   708
 74
  -515
  0
VERTEX
  5
78B
  8
0
 62
   134
 10
0.0
 20
0.0
 30
0.0
 70
   128
 71
   515
 72
   516
 73
  -709
 74
  -515
  0
VERTEX
  5
78C
  8
0
 62
   134
 10
0.0
 20
0.0
 30
0.0
 70
   128
 71
  -516
 72
   710
 73
   709
 74
  -516
  0
VERTEX
  5
78D
  8
0
 62
   134
 10
0.0
 20
0.0
 30
0.0
 70
   128
 71
   516
 72
   517
 73
  -710
 74
  -516
  0
VERTEX
  5
78E
  8
0
 62
   134
 10
0.0
 20
0.0
 30
0.0
 70
   128
 71
  -517
 72
   711
 73
   710
 74
  -517
  0
VERTEX
  5
78F
  8
0
 62
   134
 10
0.0
 20
0.0
 30
0.0
 70
   128
 71
   517
 72
   518
 73
  -711
 74
  -517
  0
VERTEX
  5
790
  8
0
 62
   134
 10
0.0
 20
0.0
 30
0.0
 70
   128
 71
  -518
 72
   712
 73
   711
 74
  -518
  0
VERTEX
  5
791
  8
0
 62
   134
 10
0.0
 20
0.0
 30
0.0
 70
   128
 71
   518
 72
   519
 73
  -712
 74
  -518
  0
VERTEX
  5
792
  8
0
 62
   134
 10
0.0
 20
0.0
 30
0.0
 70
   128
 71
  -519
 72
   713
 73
   712
 74
  -519
  0
VERTEX
  5
793
  8
0
 62
   134
 10
0.0
 20
0.0
 30
0.0
 70
   128
 71
   519
 72
   520
 73
  -713
 74
  -519
  0
VERTEX
  5
794
  8
0
 62
   134
 10
0.0
 20
0.0
 30
0.0
 70
   128
 71
  -520
 72
   706
 73
   713
 74
  -520
  0
VERTEX
  5
795
  8
0
 62
   134
 10
0.0
 20
0.0
 30
0.0
 70
   128
 71
   520
 72
   513
 73
  -706
 74
  -520
  0
VERTEX
  5
796
  8
0
 62
   134
 10
0.0
 20
0.0
 30
0.0
 70
   128
 71
  -521
 72
   715
 73
   714
 74
  -521
  0
VERTEX
  5
797
  8
0
 62
   134
 10
0.0
 20
0.0
 30
0.0
 70
   128
 71
   521
 72
   522
 73
  -715
 74
  -521
  0
VERTEX
  5
798
  8
0
 62
   134
 10
0.0
 20
0.0
 30
0.0
 70
   128
 71
  -522
 72
   716
 73
   715
 74
  -522
  0
VERTEX
  5
799
  8
0
 62
   134
 10
0.0
 20
0.0
 30
0.0
 70
   128
 71
   522
 72
   523
 73
  -716
 74
  -522
  0
VERTEX
  5
79A
  8
0
 62
   134
 10
0.0
 20
0.0
 30
0.0
 70
   128
 71
  -523
 72
   717
 73
   716
 74
  -523
  0
VERTEX
  5
79B
  8
0
 62
   134
 10
0.0
 20
0.0
 30
0.0
 70
   128
 71
   523
 72
   524
 73
  -717
 74
  -523
  0
VERTEX
  5
79C
  8
0
 62
   134
 10
0.0
 20
0.0
 30
0.0
 70
   128
 71
  -524
 72
   718
 73
   717
 74
  -524
  0
VERTEX
  5
79D
  8
0
 62
   134
 10
0.0
 20
0.0
 30
0.0
 70
   128
 71
   524
 72
   525
 73
  -718
 74
  -524
  0
VERTEX
  5
79E
  8
0
 62
   134
 10
0.0
 20
0.0
 30
0.0
 70
   128
 71
  -525
 72
   719
 73
   718
 74
  -525
  0
VERTEX
  5
79F
  8
0
 62
   134
 10
0.0
 20
0.0
 30
0.0
 70
   128
 71
   525
 72
   526
 73
  -719
 74
  -525
  0
VERTEX
  5
7A0
  8
0
 62
   134
 10
0.0
 20
0.0
 30
0.0
 70
   128
 71
  -526
 72
   720
 73
   719
 74
  -526
  0
VERTEX
  5
7A1
  8
0
 62
   134
 10
0.0
 20
0.0
 30
0.0
 70
   128
 71
   526
 72
   527
 73
  -720
 74
  -526
  0
VERTEX
  5
7A2
  8
0
 62
   134
 10
0.0
 20
0.0
 30
0.0
 70
   128
 71
  -527
 72
   721
 73
   720
 74
  -527
  0
VERTEX
  5
7A3
  8
0
 62
   134
 10
0.0
 20
0.0
 30
0.0
 70
   128
 71
   527
 72
   528
 73
  -721
 74
  -527
  0
VERTEX
  5
7A4
  8
0
 62
   134
 10
0.0
 20
0.0
 30
0.0
 70
   128
 71
  -528
 72
   714
 73
   721
 74
  -528
  0
VERTEX
  5
7A5
  8
0
 62
   134
 10
0.0
 20
0.0
 30
0.0
 70
   128
 71
   528
 72
   521
 73
  -714
 74
  -528
  0
VERTEX
  5
7A6
  8
0
 62
   134
 10
0.0
 20
0.0
 30
0.0
 70
   128
 71
  -529
 72
   723
 73
   722
 74
  -529
  0
VERTEX
  5
7A7
  8
0
 62
   134
 10
0.0
 20
0.0
 30
0.0
 70
   128
 71
   529
 72
   530
 73
  -723
 74
  -529
  0
VERTEX
  5
7A8
  8
0
 62
   134
 10
0.0
 20
0.0
 30
0.0
 70
   128
 71
  -530
 72
   724
 73
   723
 74
  -530
  0
VERTEX
  5
7A9
  8
0
 62
   134
 10
0.0
 20
0.0
 30
0.0
 70
   128
 71
   530
 72
   531
 73
  -724
 74
  -530
  0
VERTEX
  5
7AA
  8
0
 62
   134
 10
0.0
 20
0.0
 30
0.0
 70
   128
 71
  -531
 72
   725
 73
   724
 74
  -531
  0
VERTEX
  5
7AB
  8
0
 62
   134
 10
0.0
 20
0.0
 30
0.0
 70
   128
 71
   531
 72
   532
 73
  -725
 74
  -531
  0
VERTEX
  5
7AC
  8
0
 62
   134
 10
0.0
 20
0.0
 30
0.0
 70
   128
 71
  -532
 72
   726
 73
   725
 74
  -532
  0
VERTEX
  5
7AD
  8
0
 62
   134
 10
0.0
 20
0.0
 30
0.0
 70
   128
 71
   532
 72
   533
 73
  -726
 74
  -532
  0
VERTEX
  5
7AE
  8
0
 62
   134
 10
0.0
 20
0.0
 30
0.0
 70
   128
 71
  -533
 72
   727
 73
   726
 74
  -533
  0
VERTEX
  5
7AF
  8
0
 62
   134
 10
0.0
 20
0.0
 30
0.0
 70
   128
 71
   533
 72
   534
 73
  -727
 74
  -533
  0
VERTEX
  5
7B0
  8
0
 62
   134
 10
0.0
 20
0.0
 30
0.0
 70
   128
 71
  -534
 72
   728
 73
   727
 74
  -534
  0
VERTEX
  5
7B1
  8
0
 62
   134
 10
0.0
 20
0.0
 30
0.0
 70
   128
 71
   534
 72
   535
 73
  -728
 74
  -534
  0
VERTEX
  5
7B2
  8
0
 62
   134
 10
0.0
 20
0.0
 30
0.0
 70
   128
 71
  -535
 72
   729
 73
   728
 74
  -535
  0
VERTEX
  5
7B3
  8
0
 62
   134
 10
0.0
 20
0.0
 30
0.0
 70
   128
 71
   535
 72
   536
 73
  -729
 74
  -535
  0
VERTEX
  5
7B4
  8
0
 62
   134
 10
0.0
 20
0.0
 30
0.0
 70
   128
 71
  -536
 72
   722
 73
   729
 74
  -536
  0
VERTEX
  5
7B5
  8
0
 62
   134
 10
0.0
 20
0.0
 30
0.0
 70
   128
 71
   536
 72
   529
 73
  -722
 74
  -536
  0
VERTEX
  5
7B6
  8
0
 62
   134
 10
0.0
 20
0.0
 30
0.0
 70
   128
 71
  -537
 72
   731
 73
   730
 74
  -537
  0
VERTEX
  5
7B7
  8
0
 62
   134
 10
0.0
 20
0.0
 30
0.0
 70
   128
 71
   537
 72
   538
 73
  -731
 74
  -537
  0
VERTEX
  5
7B8
  8
0
 62
   134
 10
0.0
 20
0.0
 30
0.0
 70
   128
 71
  -538
 72
   732
 73
   731
 74
  -538
  0
VERTEX
  5
7B9
  8
0
 62
   134
 10
0.0
 20
0.0
 30
0.0
 70
   128
 71
   538
 72
   539
 73
  -732
 74
  -538
  0
VERTEX
  5
7BA
  8
0
 62
   134
 10
0.0
 20
0.0
 30
0.0
 70
   128
 71
  -539
 72
   733
 73
   732
 74
  -539
  0
VERTEX
  5
7BB
  8
0
 62
   134
 10
0.0
 20
0.0
 30
0.0
 70
   128
 71
   539
 72
   540
 73
  -733
 74
  -539
  0
VERTEX
  5
7BC
  8
0
 62
   134
 10
0.0
 20
0.0
 30
0.0
 70
   128
 71
  -540
 72
   734
 73
   733
 74
  -540
  0
VERTEX
  5
7BD
  8
0
 62
   134
 10
0.0
 20
0.0
 30
0.0
 70
   128
 71
   540
 72
   541
 73
  -734
 74
  -540
  0
VERTEX
  5
7BE
  8
0
 62
   134
 10
0.0
 20
0.0
 30
0.0
 70
   128
 71
  -541
 72
   735
 73
   734
 74
  -541
  0
VERTEX
  5
7BF
  8
0
 62
   134
 10
0.0
 20
0.0
 30
0.0
 70
   128
 71
   541
 72
   542
 73
  -735
 74
  -541
  0
VERTEX
  5
7C0
  8
0
 62
   134
 10
0.0
 20
0.0
 30
0.0
 70
   128
 71
  -542
 72
   736
 73
   735
 74
  -542
  0
VERTEX
  5
7C1
  8
0
 62
   134
 10
0.0
 20
0.0
 30
0.0
 70
   128
 71
   542
 72
   543
 73
  -736
 74
  -542
  0
VERTEX
  5
7C2
  8
0
 62
   134
 10
0.0
 20
0.0
 30
0.0
 70
   128
 71
  -543
 72
   737
 73
   736
 74
  -543
  0
VERTEX
  5
7C3
  8
0
 62
   134
 10
0.0
 20
0.0
 30
0.0
 70
   128
 71
   543
 72
   544
 73
  -737
 74
  -543
  0
VERTEX
  5
7C4
  8
0
 62
   134
 10
0.0
 20
0.0
 30
0.0
 70
   128
 71
  -544
 72
   730
 73
   737
 74
  -544
  0
VERTEX
  5
7C5
  8
0
 62
   134
 10
0.0
 20
0.0
 30
0.0
 70
   128
 71
   544
 72
   537
 73
  -730
 74
  -544
  0
VERTEX
  5
7C6
  8
0
 62
   134
 10
0.0
 20
0.0
 30
0.0
 70
   128
 71
  -545
 72
   739
 73
   738
 74
  -545
  0
VERTEX
  5
7C7
  8
0
 62
   134
 10
0.0
 20
0.0
 30
0.0
 70
   128
 71
   545
 72
   546
 73
  -739
 74
  -545
  0
VERTEX
  5
7C8
  8
0
 62
   134
 10
0.0
 20
0.0
 30
0.0
 70
   128
 71
  -546
 72
   740
 73
   739
 74
  -546
  0
VERTEX
  5
7C9
  8
0
 62
   134
 10
0.0
 20
0.0
 30
0.0
 70
   128
 71
   546
 72
   547
 73
  -740
 74
  -546
  0
VERTEX
  5
7CA
  8
0
 62
   134
 10
0.0
 20
0.0
 30
0.0
 70
   128
 71
  -547
 72
   741
 73
   740
 74
  -547
  0
VERTEX
  5
7CB
  8
0
 62
   134
 10
0.0
 20
0.0
 30
0.0
 70
   128
 71
   547
 72
   548
 73
  -741
 74
  -547
  0
VERTEX
  5
7CC
  8
0
 62
   134
 10
0.0
 20
0.0
 30
0.0
 70
   128
 71
  -548
 72
   742
 73
   741
 74
  -548
  0
VERTEX
  5
7CD
  8
0
 62
   134
 10
0.0
 20
0.0
 30
0.0
 70
   128
 71
   548
 72
   549
 73
  -742
 74
  -548
  0
VERTEX
  5
7CE
  8
0
 62
   134
 10
0.0
 20
0.0
 30
0.0
 70
   128
 71
  -549
 72
   743
 73
   742
 74
  -549
  0
VERTEX
  5
7CF
  8
0
 62
   134
 10
0.0
 20
0.0
 30
0.0
 70
   128
 71
   549
 72
   550
 73
  -743
 74
  -549
  0
VERTEX
  5
7D0
  8
0
 62
   134
 10
0.0
 20
0.0
 30
0.0
 70
   128
 71
  -550
 72
   744
 73
   743
 74
  -550
  0
VERTEX
  5
7D1
  8
0
 62
   134
 10
0.0
 20
0.0
 30
0.0
 70
   128
 71
   550
 72
   551
 73
  -744
 74
  -550
  0
VERTEX
  5
7D2
  8
0
 62
   134
 10
0.0
 20
0.0
 30
0.0
 70
   128
 71
  -551
 72
   745
 73
   744
 74
  -551
  0
VERTEX
  5
7D3
  8
0
 62
   134
 10
0.0
 20
0.0
 30
0.0
 70
   128
 71
   551
 72
   552
 73
  -745
 74
  -551
  0
VERTEX
  5
7D4
  8
0
 62
   134
 10
0.0
 20
0.0
 30
0.0
 70
   128
 71
  -552
 72
   738
 73
   745
 74
  -552
  0
VERTEX
  5
7D5
  8
0
 62
   134
 10
0.0
 20
0.0
 30
0.0
 70
   128
 71
   552
 72
   545
 73
  -738
 74
  -552
  0
VERTEX
  5
7D6
  8
0
 62
   134
 10
0.0
 20
0.0
 30
0.0
 70
   128
 71
  -553
 72
   747
 73
   746
 74
  -553
  0
VERTEX
  5
7D7
  8
0
 62
   134
 10
0.0
 20
0.0
 30
0.0
 70
   128
 71
   553
 72
   554
 73
  -747
 74
  -553
  0
VERTEX
  5
7D8
  8
0
 62
   134
 10
0.0
 20
0.0
 30
0.0
 70
   128
 71
  -554
 72
   748
 73
   747
 74
  -554
  0
VERTEX
  5
7D9
  8
0
 62
   134
 10
0.0
 20
0.0
 30
0.0
 70
   128
 71
   554
 72
   555
 73
  -748
 74
  -554
  0
VERTEX
  5
7DA
  8
0
 62
   134
 10
0.0
 20
0.0
 30
0.0
 70
   128
 71
  -555
 72
   749
 73
   748
 74
  -555
  0
VERTEX
  5
7DB
  8
0
 62
   134
 10
0.0
 20
0.0
 30
0.0
 70
   128
 71
   555
 72
   556
 73
  -749
 74
  -555
  0
VERTEX
  5
7DC
  8
0
 62
   134
 10
0.0
 20
0.0
 30
0.0
 70
   128
 71
  -556
 72
   750
 73
   749
 74
  -556
  0
VERTEX
  5
7DD
  8
0
 62
   134
 10
0.0
 20
0.0
 30
0.0
 70
   128
 71
   556
 72
   557
 73
  -750
 74
  -556
  0
VERTEX
  5
7DE
  8
0
 62
   134
 10
0.0
 20
0.0
 30
0.0
 70
   128
 71
  -557
 72
   751
 73
   750
 74
  -557
  0
VERTEX
  5
7DF
  8
0
 62
   134
 10
0.0
 20
0.0
 30
0.0
 70
   128
 71
   557
 72
   558
 73
  -751
 74
  -557
  0
VERTEX
  5
7E0
  8
0
 62
   134
 10
0.0
 20
0.0
 30
0.0
 70
   128
 71
  -558
 72
   752
 73
   751
 74
  -558
  0
VERTEX
  5
7E1
  8
0
 62
   134
 10
0.0
 20
0.0
 30
0.0
 70
   128
 71
   558
 72
   559
 73
  -752
 74
  -558
  0
VERTEX
  5
7E2
  8
0
 62
   134
 10
0.0
 20
0.0
 30
0.0
 70
   128
 71
  -559
 72
   753
 73
   752
 74
  -559
  0
VERTEX
  5
7E3
  8
0
 62
   134
 10
0.0
 20
0.0
 30
0.0
 70
   128
 71
   559
 72
   560
 73
  -753
 74
  -559
  0
VERTEX
  5
7E4
  8
0
 62
   134
 10
0.0
 20
0.0
 30
0.0
 70
   128
 71
  -560
 72
   746
 73
   753
 74
  -560
  0
VERTEX
  5
7E5
  8
0
 62
   134
 10
0.0
 20
0.0
 30
0.0
 70
   128
 71
   560
 72
   553
 73
  -746
 74
  -560
  0
VERTEX
  5
7E6
  8
0
 62
   134
 10
0.0
 20
0.0
 30
0.0
 70
   128
 71
  -561
 72
   755
 73
   754
 74
  -561
  0
VERTEX
  5
7E7
  8
0
 62
   134
 10
0.0
 20
0.0
 30
0.0
 70
   128
 71
   561
 72
   562
 73
  -755
 74
  -561
  0
VERTEX
  5
7E8
  8
0
 62
   134
 10
0.0
 20
0.0
 30
0.0
 70
   128
 71
  -562
 72
   756
 73
   755
 74
  -562
  0
VERTEX
  5
7E9
  8
0
 62
   134
 10
0.0
 20
0.0
 30
0.0
 70
   128
 71
   562
 72
   563
 73
  -756
 74
  -562
  0
VERTEX
  5
7EA
  8
0
 62
   134
 10
0.0
 20
0.0
 30
0.0
 70
   128
 71
  -563
 72
   757
 73
   756
 74
  -563
  0
VERTEX
  5
7EB
  8
0
 62
   134
 10
0.0
 20
0.0
 30
0.0
 70
   128
 71
   563
 72
   564
 73
  -757
 74
  -563
  0
VERTEX
  5
7EC
  8
0
 62
   134
 10
0.0
 20
0.0
 30
0.0
 70
   128
 71
  -564
 72
   758
 73
   757
 74
  -564
  0
VERTEX
  5
7ED
  8
0
 62
   134
 10
0.0
 20
0.0
 30
0.0
 70
   128
 71
   564
 72
   565
 73
  -758
 74
  -564
  0
VERTEX
  5
7EE
  8
0
 62
   134
 10
0.0
 20
0.0
 30
0.0
 70
   128
 71
  -565
 72
   759
 73
   758
 74
  -565
  0
VERTEX
  5
7EF
  8
0
 62
   134
 10
0.0
 20
0.0
 30
0.0
 70
   128
 71
   565
 72
   566
 73
  -759
 74
  -565
  0
VERTEX
  5
7F0
  8
0
 62
   134
 10
0.0
 20
0.0
 30
0.0
 70
   128
 71
  -566
 72
   760
 73
   759
 74
  -566
  0
VERTEX
  5
7F1
  8
0
 62
   134
 10
0.0
 20
0.0
 30
0.0
 70
   128
 71
   566
 72
   567
 73
  -760
 74
  -566
  0
VERTEX
  5
7F2
  8
0
 62
   134
 10
0.0
 20
0.0
 30
0.0
 70
   128
 71
  -567
 72
   761
 73
   760
 74
  -567
  0
VERTEX
  5
7F3
  8
0
 62
   134
 10
0.0
 20
0.0
 30
0.0
 70
   128
 71
   567
 72
   568
 73
  -761
 74
  -567
  0
VERTEX
  5
7F4
  8
0
 62
   134
 10
0.0
 20
0.0
 30
0.0
 70
   128
 71
  -568
 72
   754
 73
   761
 74
  -568
  0
VERTEX
  5
7F5
  8
0
 62
   134
 10
0.0
 20
0.0
 30
0.0
 70
   128
 71
   568
 72
   561
 73
  -754
 74
  -568
  0
VERTEX
  5
7F6
  8
0
 62
   134
 10
0.0
 20
0.0
 30
0.0
 70
   128
 71
  -569
 72
   763
 73
   762
 74
  -569
  0
VERTEX
  5
7F7
  8
0
 62
   134
 10
0.0
 20
0.0
 30
0.0
 70
   128
 71
   569
 72
   570
 73
  -763
 74
  -569
  0
VERTEX
  5
7F8
  8
0
 62
   134
 10
0.0
 20
0.0
 30
0.0
 70
   128
 71
  -570
 72
   764
 73
   763
 74
  -570
  0
VERTEX
  5
7F9
  8
0
 62
   134
 10
0.0
 20
0.0
 30
0.0
 70
   128
 71
   570
 72
   571
 73
  -764
 74
  -570
  0
VERTEX
  5
7FA
  8
0
 62
   134
 10
0.0
 20
0.0
 30
0.0
 70
   128
 71
  -571
 72
   765
 73
   764
 74
  -571
  0
VERTEX
  5
7FB
  8
0
 62
   134
 10
0.0
 20
0.0
 30
0.0
 70
   128
 71
   571
 72
   572
 73
  -765
 74
  -571
  0
VERTEX
  5
7FC
  8
0
 62
   134
 10
0.0
 20
0.0
 30
0.0
 70
   128
 71
  -572
 72
   766
 73
   765
 74
  -572
  0
VERTEX
  5
7FD
  8
0
 62
   134
 10
0.0
 20
0.0
 30
0.0
 70
   128
 71
   572
 72
   573
 73
  -766
 74
  -572
  0
VERTEX
  5
7FE
  8
0
 62
   134
 10
0.0
 20
0.0
 30
0.0
 70
   128
 71
  -573
 72
   767
 73
   766
 74
  -573
  0
VERTEX
  5
7FF
  8
0
 62
   134
 10
0.0
 20
0.0
 30
0.0
 70
   128
 71
   573
 72
   574
 73
  -767
 74
  -573
  0
VERTEX
  5
800
  8
0
 62
   134
 10
0.0
 20
0.0
 30
0.0
 70
   128
 71
  -574
 72
   768
 73
   767
 74
  -574
  0
VERTEX
  5
801
  8
0
 62
   134
 10
0.0
 20
0.0
 30
0.0
 70
   128
 71
   574
 72
   575
 73
  -768
 74
  -574
  0
VERTEX
  5
802
  8
0
 62
   134
 10
0.0
 20
0.0
 30
0.0
 70
   128
 71
  -575
 72
   769
 73
   768
 74
  -575
  0
VERTEX
  5
803
  8
0
 62
   134
 10
0.0
 20
0.0
 30
0.0
 70
   128
 71
   575
 72
   576
 73
  -769
 74
  -575
  0
VERTEX
  5
804
  8
0
 62
   134
 10
0.0
 20
0.0
 30
0.0
 70
   128
 71
  -576
 72
   762
 73
   769
 74
  -576
  0
VERTEX
  5
805
  8
0
 62
   134
 10
0.0
 20
0.0
 30
0.0
 70
   128
 71
   576
 72
   569
 73
  -762
 74
  -576
  0
VERTEX
  5
806
  8
0
 62
   134
 10
0.0
 20
0.0
 30
0.0
 70
   128
 71
  -577
 72
   771
 73
   770
 74
  -577
  0
VERTEX
  5
807
  8
0
 62
   134
 10
0.0
 20
0.0
 30
0.0
 70
   128
 71
   577
 72
   578
 73
  -771
 74
  -577
  0
VERTEX
  5
808
  8
0
 62
   134
 10
0.0
 20
0.0
 30
0.0
 70
   128
 71
  -578
 72
   772
 73
   771
 74
  -578
  0
VERTEX
  5
809
  8
0
 62
   134
 10
0.0
 20
0.0
 30
0.0
 70
   128
 71
   578
 72
   579
 73
  -772
 74
  -578
  0
VERTEX
  5
80A
  8
0
 62
   134
 10
0.0
 20
0.0
 30
0.0
 70
   128
 71
  -579
 72
   773
 73
   772
 74
  -579
  0
VERTEX
  5
80B
  8
0
 62
   134
 10
0.0
 20
0.0
 30
0.0
 70
   128
 71
   579
 72
   580
 73
  -773
 74
  -579
  0
VERTEX
  5
80C
  8
0
 62
   134
 10
0.0
 20
0.0
 30
0.0
 70
   128
 71
  -580
 72
   774
 73
   773
 74
  -580
  0
VERTEX
  5
80D
  8
0
 62
   134
 10
0.0
 20
0.0
 30
0.0
 70
   128
 71
   580
 72
   581
 73
  -774
 74
  -580
  0
VERTEX
  5
80E
  8
0
 62
   134
 10
0.0
 20
0.0
 30
0.0
 70
   128
 71
  -581
 72
   775
 73
   774
 74
  -581
  0
VERTEX
  5
80F
  8
0
 62
   134
 10
0.0
 20
0.0
 30
0.0
 70
   128
 71
   581
 72
   582
 73
  -775
 74
  -581
  0
VERTEX
  5
810
  8
0
 62
   134
 10
0.0
 20
0.0
 30
0.0
 70
   128
 71
  -582
 72
   776
 73
   775
 74
  -582
  0
VERTEX
  5
811
  8
0
 62
   134
 10
0.0
 20
0.0
 30
0.0
 70
   128
 71
   582
 72
   583
 73
  -776
 74
  -582
  0
VERTEX
  5
812
  8
0
 62
   134
 10
0.0
 20
0.0
 30
0.0
 70
   128
 71
  -583
 72
   777
 73
   776
 74
  -583
  0
VERTEX
  5
813
  8
0
 62
   134
 10
0.0
 20
0.0
 30
0.0
 70
   128
 71
   583
 72
   584
 73
  -777
 74
  -583
  0
VERTEX
  5
814
  8
0
 62
   134
 10
0.0
 20
0.0
 30
0.0
 70
   128
 71
  -584
 72
   770
 73
   777
 74
  -584
  0
VERTEX
  5
815
  8
0
 62
   134
 10
0.0
 20
0.0
 30
0.0
 70
   128
 71
   584
 72
   577
 73
  -770
 74
  -584
  0
VERTEX
  5
816
  8
0
 62
   134
 10
0.0
 20
0.0
 30
0.0
 70
   128
 71
  -585
 72
   594
 73
   593
 74
  -585
  0
VERTEX
  5
817
  8
0
 62
   134
 10
0.0
 20
0.0
 30
0.0
 70
   128
 71
   585
 72
   586
 73
  -594
 74
  -585
  0
VERTEX
  5
818
  8
0
 62
   134
 10
0.0
 20
0.0
 30
0.0
 70
   128
 71
  -586
 72
   595
 73
   594
 74
  -586
  0
VERTEX
  5
819
  8
0
 62
   134
 10
0.0
 20
0.0
 30
0.0
 70
   128
 71
   586
 72
   587
 73
  -595
 74
  -586
  0
VERTEX
  5
81A
  8
0
 62
   134
 10
0.0
 20
0.0
 30
0.0
 70
   128
 71
  -587
 72
   596
 73
   595
 74
  -587
  0
VERTEX
  5
81B
  8
0
 62
   134
 10
0.0
 20
0.0
 30
0.0
 70
   128
 71
   587
 72
   588
 73
  -596
 74
  -587
  0
VERTEX
  5
81C
  8
0
 62
   134
 10
0.0
 20
0.0
 30
0.0
 70
   128
 71
  -588
 72
   597
 73
   596
 74
  -588
  0
VERTEX
  5
81D
  8
0
 62
   134
 10
0.0
 20
0.0
 30
0.0
 70
   128
 71
   588
 72
   589
 73
  -597
 74
  -588
  0
VERTEX
  5
81E
  8
0
 62
   134
 10
0.0
 20
0.0
 30
0.0
 70
   128
 71
  -589
 72
   598
 73
   597
 74
  -589
  0
VERTEX
  5
81F
  8
0
 62
   134
 10
0.0
 20
0.0
 30
0.0
 70
   128
 71
   589
 72
   590
 73
  -598
 74
  -589
  0
VERTEX
  5
820
  8
0
 62
   134
 10
0.0
 20
0.0
 30
0.0
 70
   128
 71
  -590
 72
   599
 73
   598
 74
  -590
  0
VERTEX
  5
821
  8
0
 62
   134
 10
0.0
 20
0.0
 30
0.0
 70
   128
 71
   590
 72
   591
 73
  -599
 74
  -590
  0
VERTEX
  5
822
  8
0
 62
   134
 10
0.0
 20
0.0
 30
0.0
 70
   128
 71
  -591
 72
   600
 73
   599
 74
  -591
  0
VERTEX
  5
823
  8
0
 62
   134
 10
0.0
 20
0.0
 30
0.0
 70
   128
 71
   591
 72
   592
 73
  -600
 74
  -591
  0
VERTEX
  5
824
  8
0
 62
   134
 10
0.0
 20
0.0
 30
0.0
 70
   128
 71
  -592
 72
   593
 73
   600
 74
  -592
  0
VERTEX
  5
825
  8
0
 62
   134
 10
0.0
 20
0.0
 30
0.0
 70
   128
 71
   592
 72
   585
 73
  -593
 74
  -592
  0
VERTEX
  5
826
  8
0
 62
   134
 10
0.0
 20
0.0
 30
0.0
 70
   128
 71
  -601
 72
   666
 73
  -667
 74
  -601
  0
VERTEX
  5
827
  8
0
 62
   134
 10
0.0
 20
0.0
 30
0.0
 70
   128
 71
  -601
 72
   667
 73
  -668
 74
  -601
  0
VERTEX
  5
828
  8
0
 62
   134
 10
0.0
 20
0.0
 30
0.0
 70
   128
 71
  -601
 72
   668
 73
  -669
 74
  -601
  0
VERTEX
  5
829
  8
0
 62
   134
 10
0.0
 20
0.0
 30
0.0
 70
   128
 71
  -601
 72
   669
 73
  -670
 74
  -601
  0
VERTEX
  5
82A
  8
0
 62
   134
 10
0.0
 20
0.0
 30
0.0
 70
   128
 71
  -601
 72
   670
 73
  -671
 74
  -601
  0
VERTEX
  5
82B
  8
0
 62
   134
 10
0.0
 20
0.0
 30
0.0
 70
   128
 71
  -601
 72
   671
 73
  -672
 74
  -601
  0
VERTEX
  5
82C
  8
0
 62
   134
 10
0.0
 20
0.0
 30
0.0
 70
   128
 71
  -601
 72
   672
 73
  -673
 74
  -601
  0
VERTEX
  5
82D
  8
0
 62
   134
 10
0.0
 20
0.0
 30
0.0
 70
   128
 71
  -601
 72
   673
 73
  -666
 74
  -601
  0
VERTEX
  5
82E
  8
0
 62
   134
 10
0.0
 20
0.0
 30
0.0
 70
   128
 71
   593
 72
   594
 73
  -603
 74
  -593
  0
VERTEX
  5
82F
  8
0
 62
   134
 10
0.0
 20
0.0
 30
0.0
 70
   128
 71
   603
 72
   602
 73
  -593
 74
  -603
  0
VERTEX
  5
830
  8
0
 62
   134
 10
0.0
 20
0.0
 30
0.0
 70
   128
 71
   594
 72
   595
 73
  -604
 74
  -594
  0
VERTEX
  5
831
  8
0
 62
   134
 10
0.0
 20
0.0
 30
0.0
 70
   128
 71
   604
 72
   603
 73
  -594
 74
  -604
  0
VERTEX
  5
832
  8
0
 62
   134
 10
0.0
 20
0.0
 30
0.0
 70
   128
 71
   595
 72
   596
 73
  -605
 74
  -595
  0
VERTEX
  5
833
  8
0
 62
   134
 10
0.0
 20
0.0
 30
0.0
 70
   128
 71
   605
 72
   604
 73
  -595
 74
  -605
  0
VERTEX
  5
834
  8
0
 62
   134
 10
0.0
 20
0.0
 30
0.0
 70
   128
 71
   596
 72
   597
 73
  -606
 74
  -596
  0
VERTEX
  5
835
  8
0
 62
   134
 10
0.0
 20
0.0
 30
0.0
 70
   128
 71
   606
 72
   605
 73
  -596
 74
  -606
  0
VERTEX
  5
836
  8
0
 62
   134
 10
0.0
 20
0.0
 30
0.0
 70
   128
 71
   597
 72
   598
 73
  -607
 74
  -597
  0
VERTEX
  5
837
  8
0
 62
   134
 10
0.0
 20
0.0
 30
0.0
 70
   128
 71
   607
 72
   606
 73
  -597
 74
  -607
  0
VERTEX
  5
838
  8
0
 62
   134
 10
0.0
 20
0.0
 30
0.0
 70
   128
 71
   598
 72
   599
 73
  -608
 74
  -598
  0
VERTEX
  5
839
  8
0
 62
   134
 10
0.0
 20
0.0
 30
0.0
 70
   128
 71
   608
 72
   607
 73
  -598
 74
  -608
  0
VERTEX
  5
83A
  8
0
 62
   134
 10
0.0
 20
0.0
 30
0.0
 70
   128
 71
   599
 72
   600
 73
  -609
 74
  -599
  0
VERTEX
  5
83B
  8
0
 62
   134
 10
0.0
 20
0.0
 30
0.0
 70
   128
 71
   609
 72
   608
 73
  -599
 74
  -609
  0
VERTEX
  5
83C
  8
0
 62
   134
 10
0.0
 20
0.0
 30
0.0
 70
   128
 71
   600
 72
   593
 73
  -602
 74
  -600
  0
VERTEX
  5
83D
  8
0
 62
   134
 10
0.0
 20
0.0
 30
0.0
 70
   128
 71
   602
 72
   609
 73
  -600
 74
  -602
  0
VERTEX
  5
83E
  8
0
 62
   134
 10
0.0
 20
0.0
 30
0.0
 70
   128
 71
   602
 72
   603
 73
  -611
 74
  -602
  0
VERTEX
  5
83F
  8
0
 62
   134
 10
0.0
 20
0.0
 30
0.0
 70
   128
 71
   611
 72
   610
 73
  -602
 74
  -611
  0
VERTEX
  5
840
  8
0
 62
   134
 10
0.0
 20
0.0
 30
0.0
 70
   128
 71
   603
 72
   604
 73
  -612
 74
  -603
  0
VERTEX
  5
841
  8
0
 62
   134
 10
0.0
 20
0.0
 30
0.0
 70
   128
 71
   612
 72
   611
 73
  -603
 74
  -612
  0
VERTEX
  5
842
  8
0
 62
   134
 10
0.0
 20
0.0
 30
0.0
 70
   128
 71
   604
 72
   605
 73
  -613
 74
  -604
  0
VERTEX
  5
843
  8
0
 62
   134
 10
0.0
 20
0.0
 30
0.0
 70
   128
 71
   613
 72
   612
 73
  -604
 74
  -613
  0
VERTEX
  5
844
  8
0
 62
   134
 10
0.0
 20
0.0
 30
0.0
 70
   128
 71
   605
 72
   606
 73
  -614
 74
  -605
  0
VERTEX
  5
845
  8
0
 62
   134
 10
0.0
 20
0.0
 30
0.0
 70
   128
 71
   614
 72
   613
 73
  -605
 74
  -614
  0
VERTEX
  5
846
  8
0
 62
   134
 10
0.0
 20
0.0
 30
0.0
 70
   128
 71
   606
 72
   607
 73
  -615
 74
  -606
  0
VERTEX
  5
847
  8
0
 62
   134
 10
0.0
 20
0.0
 30
0.0
 70
   128
 71
   615
 72
   614
 73
  -606
 74
  -615
  0
VERTEX
  5
848
  8
0
 62
   134
 10
0.0
 20
0.0
 30
0.0
 70
   128
 71
   607
 72
   608
 73
  -616
 74
  -607
  0
VERTEX
  5
849
  8
0
 62
   134
 10
0.0
 20
0.0
 30
0.0
 70
   128
 71
   616
 72
   615
 73
  -607
 74
  -616
  0
VERTEX
  5
84A
  8
0
 62
   134
 10
0.0
 20
0.0
 30
0.0
 70
   128
 71
   608
 72
   609
 73
  -617
 74
  -608
  0
VERTEX
  5
84B
  8
0
 62
   134
 10
0.0
 20
0.0
 30
0.0
 70
   128
 71
   617
 72
   616
 73
  -608
 74
  -617
  0
VERTEX
  5
84C
  8
0
 62
   134
 10
0.0
 20
0.0
 30
0.0
 70
   128
 71
   609
 72
   602
 73
  -610
 74
  -609
  0
VERTEX
  5
84D
  8
0
 62
   134
 10
0.0
 20
0.0
 30
0.0
 70
   128
 71
   610
 72
   617
 73
  -609
 74
  -610
  0
VERTEX
  5
84E
  8
0
 62
   134
 10
0.0
 20
0.0
 30
0.0
 70
   128
 71
   610
 72
   611
 73
  -619
 74
  -610
  0
VERTEX
  5
84F
  8
0
 62
   134
 10
0.0
 20
0.0
 30
0.0
 70
   128
 71
   619
 72
   618
 73
  -610
 74
  -619
  0
VERTEX
  5
850
  8
0
 62
   134
 10
0.0
 20
0.0
 30
0.0
 70
   128
 71
   611
 72
   612
 73
  -620
 74
  -611
  0
VERTEX
  5
851
  8
0
 62
   134
 10
0.0
 20
0.0
 30
0.0
 70
   128
 71
   620
 72
   619
 73
  -611
 74
  -620
  0
VERTEX
  5
852
  8
0
 62
   134
 10
0.0
 20
0.0
 30
0.0
 70
   128
 71
   612
 72
   613
 73
  -621
 74
  -612
  0
VERTEX
  5
853
  8
0
 62
   134
 10
0.0
 20
0.0
 30
0.0
 70
   128
 71
   621
 72
   620
 73
  -612
 74
  -621
  0
VERTEX
  5
854
  8
0
 62
   134
 10
0.0
 20
0.0
 30
0.0
 70
   128
 71
   613
 72
   614
 73
  -622
 74
  -613
  0
VERTEX
  5
855
  8
0
 62
   134
 10
0.0
 20
0.0
 30
0.0
 70
   128
 71
   622
 72
   621
 73
  -613
 74
  -622
  0
VERTEX
  5
856
  8
0
 62
   134
 10
0.0
 20
0.0
 30
0.0
 70
   128
 71
   614
 72
   615
 73
  -623
 74
  -614
  0
VERTEX
  5
857
  8
0
 62
   134
 10
0.0
 20
0.0
 30
0.0
 70
   128
 71
   623
 72
   622
 73
  -614
 74
  -623
  0
VERTEX
  5
858
  8
0
 62
   134
 10
0.0
 20
0.0
 30
0.0
 70
   128
 71
   615
 72
   616
 73
  -624
 74
  -615
  0
VERTEX
  5
859
  8
0
 62
   134
 10
0.0
 20
0.0
 30
0.0
 70
   128
 71
   624
 72
   623
 73
  -615
 74
  -624
  0
VERTEX
  5
85A
  8
0
 62
   134
 10
0.0
 20
0.0
 30
0.0
 70
   128
 71
   616
 72
   617
 73
  -625
 74
  -616
  0
VERTEX
  5
85B
  8
0
 62
   134
 10
0.0
 20
0.0
 30
0.0
 70
   128
 71
   625
 72
   624
 73
  -616
 74
  -625
  0
VERTEX
  5
85C
  8
0
 62
   134
 10
0.0
 20
0.0
 30
0.0
 70
   128
 71
   617
 72
   610
 73
  -618
 74
  -617
  0
VERTEX
  5
85D
  8
0
 62
   134
 10
0.0
 20
0.0
 30
0.0
 70
   128
 71
   618
 72
   625
 73
  -617
 74
  -618
  0
VERTEX
  5
85E
  8
0
 62
   134
 10
0.0
 20
0.0
 30
0.0
 70
   128
 71
   618
 72
   619
 73
  -627
 74
  -618
  0
VERTEX
  5
85F
  8
0
 62
   134
 10
0.0
 20
0.0
 30
0.0
 70
   128
 71
   627
 72
   626
 73
  -618
 74
  -627
  0
VERTEX
  5
860
  8
0
 62
   134
 10
0.0
 20
0.0
 30
0.0
 70
   128
 71
   619
 72
   620
 73
  -628
 74
  -619
  0
VERTEX
  5
861
  8
0
 62
   134
 10
0.0
 20
0.0
 30
0.0
 70
   128
 71
   628
 72
   627
 73
  -619
 74
  -628
  0
VERTEX
  5
862
  8
0
 62
   134
 10
0.0
 20
0.0
 30
0.0
 70
   128
 71
   620
 72
   621
 73
  -629
 74
  -620
  0
VERTEX
  5
863
  8
0
 62
   134
 10
0.0
 20
0.0
 30
0.0
 70
   128
 71
   629
 72
   628
 73
  -620
 74
  -629
  0
VERTEX
  5
864
  8
0
 62
   134
 10
0.0
 20
0.0
 30
0.0
 70
   128
 71
   621
 72
   622
 73
  -630
 74
  -621
  0
VERTEX
  5
865
  8
0
 62
   134
 10
0.0
 20
0.0
 30
0.0
 70
   128
 71
   630
 72
   629
 73
  -621
 74
  -630
  0
VERTEX
  5
866
  8
0
 62
   134
 10
0.0
 20
0.0
 30
0.0
 70
   128
 71
   622
 72
   623
 73
  -631
 74
  -622
  0
VERTEX
  5
867
  8
0
 62
   134
 10
0.0
 20
0.0
 30
0.0
 70
   128
 71
   631
 72
   630
 73
  -622
 74
  -631
  0
VERTEX
  5
868
  8
0
 62
   134
 10
0.0
 20
0.0
 30
0.0
 70
   128
 71
   623
 72
   624
 73
  -632
 74
  -623
  0
VERTEX
  5
869
  8
0
 62
   134
 10
0.0
 20
0.0
 30
0.0
 70
   128
 71
   632
 72
   631
 73
  -623
 74
  -632
  0
VERTEX
  5
86A
  8
0
 62
   134
 10
0.0
 20
0.0
 30
0.0
 70
   128
 71
   624
 72
   625
 73
  -633
 74
  -624
  0
VERTEX
  5
86B
  8
0
 62
   134
 10
0.0
 20
0.0
 30
0.0
 70
   128
 71
   633
 72
   632
 73
  -624
 74
  -633
  0
VERTEX
  5
86C
  8
0
 62
   134
 10
0.0
 20
0.0
 30
0.0
 70
   128
 71
   625
 72
   618
 73
  -626
 74
  -625
  0
VERTEX
  5
86D
  8
0
 62
   134
 10
0.0
 20
0.0
 30
0.0
 70
   128
 71
   626
 72
   633
 73
  -625
 74
  -626
  0
VERTEX
  5
86E
  8
0
 62
   134
 10
0.0
 20
0.0
 30
0.0
 70
   128
 71
   626
 72
   627
 73
  -635
 74
  -626
  0
VERTEX
  5
86F
  8
0
 62
   134
 10
0.0
 20
0.0
 30
0.0
 70
   128
 71
   635
 72
   634
 73
  -626
 74
  -635
  0
VERTEX
  5
870
  8
0
 62
   134
 10
0.0
 20
0.0
 30
0.0
 70
   128
 71
   627
 72
   628
 73
  -636
 74
  -627
  0
VERTEX
  5
871
  8
0
 62
   134
 10
0.0
 20
0.0
 30
0.0
 70
   128
 71
   636
 72
   635
 73
  -627
 74
  -636
  0
VERTEX
  5
872
  8
0
 62
   134
 10
0.0
 20
0.0
 30
0.0
 70
   128
 71
   628
 72
   629
 73
  -637
 74
  -628
  0
VERTEX
  5
873
  8
0
 62
   134
 10
0.0
 20
0.0
 30
0.0
 70
   128
 71
   637
 72
   636
 73
  -628
 74
  -637
  0
VERTEX
  5
874
  8
0
 62
   134
 10
0.0
 20
0.0
 30
0.0
 70
   128
 71
   629
 72
   630
 73
  -638
 74
  -629
  0
VERTEX
  5
875
  8
0
 62
   134
 10
0.0
 20
0.0
 30
0.0
 70
   128
 71
   638
 72
   637
 73
  -629
 74
  -638
  0
VERTEX
  5
876
  8
0
 62
   134
 10
0.0
 20
0.0
 30
0.0
 70
   128
 71
   630
 72
   631
 73
  -639
 74
  -630
  0
VERTEX
  5
877
  8
0
 62
   134
 10
0.0
 20
0.0
 30
0.0
 70
   128
 71
   639
 72
   638
 73
  -630
 74
  -639
  0
VERTEX
  5
878
  8
0
 62
   134
 10
0.0
 20
0.0
 30
0.0
 70
   128
 71
   631
 72
   632
 73
  -640
 74
  -631
  0
VERTEX
  5
879
  8
0
 62
   134
 10
0.0
 20
0.0
 30
0.0
 70
   128
 71
   640
 72
   639
 73
  -631
 74
  -640
  0
VERTEX
  5
87A
  8
0
 62
   134
 10
0.0
 20
0.0
 30
0.0
 70
   128
 71
   632
 72
   633
 73
  -641
 74
  -632
  0
VERTEX
  5
87B
  8
0
 62
   134
 10
0.0
 20
0.0
 30
0.0
 70
   128
 71
   641
 72
   640
 73
  -632
 74
  -641
  0
VERTEX
  5
87C
  8
0
 62
   134
 10
0.0
 20
0.0
 30
0.0
 70
   128
 71
   633
 72
   626
 73
  -634
 74
  -633
  0
VERTEX
  5
87D
  8
0
 62
   134
 10
0.0
 20
0.0
 30
0.0
 70
   128
 71
   634
 72
   641
 73
  -633
 74
  -634
  0
VERTEX
  5
87E
  8
0
 62
   134
 10
0.0
 20
0.0
 30
0.0
 70
   128
 71
   634
 72
   635
 73
  -643
 74
  -634
  0
VERTEX
  5
87F
  8
0
 62
   134
 10
0.0
 20
0.0
 30
0.0
 70
   128
 71
   643
 72
   642
 73
  -634
 74
  -643
  0
VERTEX
  5
880
  8
0
 62
   134
 10
0.0
 20
0.0
 30
0.0
 70
   128
 71
   635
 72
   636
 73
  -644
 74
  -635
  0
VERTEX
  5
881
  8
0
 62
   134
 10
0.0
 20
0.0
 30
0.0
 70
   128
 71
   644
 72
   643
 73
  -635
 74
  -644
  0
VERTEX
  5
882
  8
0
 62
   134
 10
0.0
 20
0.0
 30
0.0
 70
   128
 71
   636
 72
   637
 73
  -645
 74
  -636
  0
VERTEX
  5
883
  8
0
 62
   134
 10
0.0
 20
0.0
 30
0.0
 70
   128
 71
   645
 72
   644
 73
  -636
 74
  -645
  0
VERTEX
  5
884
  8
0
 62
   134
 10
0.0
 20
0.0
 30
0.0
 70
   128
 71
   637
 72
   638
 73
  -646
 74
  -637
  0
VERTEX
  5
885
  8
0
 62
   134
 10
0.0
 20
0.0
 30
0.0
 70
   128
 71
   646
 72
   645
 73
  -637
 74
  -646
  0
VERTEX
  5
886
  8
0
 62
   134
 10
0.0
 20
0.0
 30
0.0
 70
   128
 71
   638
 72
   639
 73
  -647
 74
  -638
  0
VERTEX
  5
887
  8
0
 62
   134
 10
0.0
 20
0.0
 30
0.0
 70
   128
 71
   647
 72
   646
 73
  -638
 74
  -647
  0
VERTEX
  5
888
  8
0
 62
   134
 10
0.0
 20
0.0
 30
0.0
 70
   128
 71
   639
 72
   640
 73
  -648
 74
  -639
  0
VERTEX
  5
889
  8
0
 62
   134
 10
0.0
 20
0.0
 30
0.0
 70
   128
 71
   648
 72
   647
 73
  -639
 74
  -648
  0
VERTEX
  5
88A
  8
0
 62
   134
 10
0.0
 20
0.0
 30
0.0
 70
   128
 71
   640
 72
   641
 73
  -649
 74
  -640
  0
VERTEX
  5
88B
  8
0
 62
   134
 10
0.0
 20
0.0
 30
0.0
 70
   128
 71
   649
 72
   648
 73
  -640
 74
  -649
  0
VERTEX
  5
88C
  8
0
 62
   134
 10
0.0
 20
0.0
 30
0.0
 70
   128
 71
   641
 72
   634
 73
  -642
 74
  -641
  0
VERTEX
  5
88D
  8
0
 62
   134
 10
0.0
 20
0.0
 30
0.0
 70
   128
 71
   642
 72
   649
 73
  -641
 74
  -642
  0
VERTEX
  5
88E
  8
0
 62
   134
 10
0.0
 20
0.0
 30
0.0
 70
   128
 71
   642
 72
   643
 73
  -651
 74
  -642
  0
VERTEX
  5
88F
  8
0
 62
   134
 10
0.0
 20
0.0
 30
0.0
 70
   128
 71
   651
 72
   650
 73
  -642
 74
  -651
  0
VERTEX
  5
890
  8
0
 62
   134
 10
0.0
 20
0.0
 30
0.0
 70
   128
 71
   643
 72
   644
 73
  -652
 74
  -643
  0
VERTEX
  5
891
  8
0
 62
   134
 10
0.0
 20
0.0
 30
0.0
 70
   128
 71
   652
 72
   651
 73
  -643
 74
  -652
  0
VERTEX
  5
892
  8
0
 62
   134
 10
0.0
 20
0.0
 30
0.0
 70
   128
 71
   644
 72
   645
 73
  -653
 74
  -644
  0
VERTEX
  5
893
  8
0
 62
   134
 10
0.0
 20
0.0
 30
0.0
 70
   128
 71
   653
 72
   652
 73
  -644
 74
  -653
  0
VERTEX
  5
894
  8
0
 62
   134
 10
0.0
 20
0.0
 30
0.0
 70
   128
 71
   645
 72
   646
 73
  -654
 74
  -645
  0
VERTEX
  5
895
  8
0
 62
   134
 10
0.0
 20
0.0
 30
0.0
 70
   128
 71
   654
 72
   653
 73
  -645
 74
  -654
  0
VERTEX
  5
896
  8
0
 62
   134
 10
0.0
 20
0.0
 30
0.0
 70
   128
 71
   646
 72
   647
 73
  -655
 74
  -646
  0
VERTEX
  5
897
  8
0
 62
   134
 10
0.0
 20
0.0
 30
0.0
 70
   128
 71
   655
 72
   654
 73
  -646
 74
  -655
  0
VERTEX
  5
898
  8
0
 62
   134
 10
0.0
 20
0.0
 30
0.0
 70
   128
 71
   647
 72
   648
 73
  -656
 74
  -647
  0
VERTEX
  5
899
  8
0
 62
   134
 10
0.0
 20
0.0
 30
0.0
 70
   128
 71
   656
 72
   655
 73
  -647
 74
  -656
  0
VERTEX
  5
89A
  8
0
 62
   134
 10
0.0
 20
0.0
 30
0.0
 70
   128
 71
   648
 72
   649
 73
  -657
 74
  -648
  0
VERTEX
  5
89B
  8
0
 62
   134
 10
0.0
 20
0.0
 30
0.0
 70
   128
 71
   657
 72
   656
 73
  -648
 74
  -657
  0
VERTEX
  5
89C
  8
0
 62
   134
 10
0.0
 20
0.0
 30
0.0
 70
   128
 71
   649
 72
   642
 73
  -650
 74
  -649
  0
VERTEX
  5
89D
  8
0
 62
   134
 10
0.0
 20
0.0
 30
0.0
 70
   128
 71
   650
 72
   657
 73
  -649
 74
  -650
  0
VERTEX
  5
89E
  8
0
 62
   134
 10
0.0
 20
0.0
 30
0.0
 70
   128
 71
   650
 72
   651
 73
  -659
 74
  -650
  0
VERTEX
  5
89F
  8
0
 62
   134
 10
0.0
 20
0.0
 30
0.0
 70
   128
 71
   659
 72
   658
 73
  -650
 74
  -659
  0
VERTEX
  5
8A0
  8
0
 62
   134
 10
0.0
 20
0.0
 30
0.0
 70
   128
 71
   651
 72
   652
 73
  -660
 74
  -651
  0
VERTEX
  5
8A1
  8
0
 62
   134
 10
0.0
 20
0.0
 30
0.0
 70
   128
 71
   660
 72
   659
 73
  -651
 74
  -660
  0
VERTEX
  5
8A2
  8
0
 62
   134
 10
0.0
 20
0.0
 30
0.0
 70
   128
 71
   652
 72
   653
 73
  -661
 74
  -652
  0
VERTEX
  5
8A3
  8
0
 62
   134
 10
0.0
 20
0.0
 30
0.0
 70
   128
 71
   661
 72
   660
 73
  -652
 74
  -661
  0
VERTEX
  5
8A4
  8
0
 62
   134
 10
0.0
 20
0.0
 30
0.0
 70
   128
 71
   653
 72
   654
 73
  -662
 74
  -653
  0
VERTEX
  5
8A5
  8
0
 62
   134
 10
0.0
 20
0.0
 30
0.0
 70
   128
 71
   662
 72
   661
 73
  -653
 74
  -662
  0
VERTEX
  5
8A6
  8
0
 62
   134
 10
0.0
 20
0.0
 30
0.0
 70
   128
 71
   654
 72
   655
 73
  -663
 74
  -654
  0
VERTEX
  5
8A7
  8
0
 62
   134
 10
0.0
 20
0.0
 30
0.0
 70
   128
 71
   663
 72
   662
 73
  -654
 74
  -663
  0
VERTEX
  5
8A8
  8
0
 62
   134
 10
0.0
 20
0.0
 30
0.0
 70
   128
 71
   655
 72
   656
 73
  -664
 74
  -655
  0
VERTEX
  5
8A9
  8
0
 62
   134
 10
0.0
 20
0.0
 30
0.0
 70
   128
 71
   664
 72
   663
 73
  -655
 74
  -664
  0
VERTEX
  5
8AA
  8
0
 62
   134
 10
0.0
 20
0.0
 30
0.0
 70
   128
 71
   656
 72
   657
 73
  -665
 74
  -656
  0
VERTEX
  5
8AB
  8
0
 62
   134
 10
0.0
 20
0.0
 30
0.0
 70
   128
 71
   665
 72
   664
 73
  -656
 74
  -665
  0
VERTEX
  5
8AC
  8
0
 62
   134
 10
0.0
 20
0.0
 30
0.0
 70
   128
 71
   657
 72
   650
 73
  -658
 74
  -657
  0
VERTEX
  5
8AD
  8
0
 62
   134
 10
0.0
 20
0.0
 30
0.0
 70
   128
 71
   658
 72
   665
 73
  -657
 74
  -658
  0
VERTEX
  5
8AE
  8
0
 62
   134
 10
0.0
 20
0.0
 30
0.0
 70
   128
 71
   658
 72
   659
 73
  -667
 74
  -658
  0
VERTEX
  5
8AF
  8
0
 62
   134
 10
0.0
 20
0.0
 30
0.0
 70
   128
 71
   667
 72
   666
 73
  -658
 74
  -667
  0
VERTEX
  5
8B0
  8
0
 62
   134
 10
0.0
 20
0.0
 30
0.0
 70
   128
 71
   659
 72
   660
 73
  -668
 74
  -659
  0
VERTEX
  5
8B1
  8
0
 62
   134
 10
0.0
 20
0.0
 30
0.0
 70
   128
 71
   668
 72
   667
 73
  -659
 74
  -668
  0
VERTEX
  5
8B2
  8
0
 62
   134
 10
0.0
 20
0.0
 30
0.0
 70
   128
 71
   660
 72
   661
 73
  -669
 74
  -660
  0
VERTEX
  5
8B3
  8
0
 62
   134
 10
0.0
 20
0.0
 30
0.0
 70
   128
 71
   669
 72
   668
 73
  -660
 74
  -669
  0
VERTEX
  5
8B4
  8
0
 62
   134
 10
0.0
 20
0.0
 30
0.0
 70
   128
 71
   661
 72
   662
 73
  -670
 74
  -661
  0
VERTEX
  5
8B5
  8
0
 62
   134
 10
0.0
 20
0.0
 30
0.0
 70
   128
 71
   670
 72
   669
 73
  -661
 74
  -670
  0
VERTEX
  5
8B6
  8
0
 62
   134
 10
0.0
 20
0.0
 30
0.0
 70
   128
 71
   662
 72
   663
 73
  -671
 74
  -662
  0
VERTEX
  5
8B7
  8
0
 62
   134
 10
0.0
 20
0.0
 30
0.0
 70
   128
 71
   671
 72
   670
 73
  -662
 74
  -671
  0
VERTEX
  5
8B8
  8
0
 62
   134
 10
0.0
 20
0.0
 30
0.0
 70
   128
 71
   663
 72
   664
 73
  -672
 74
  -663
  0
VERTEX
  5
8B9
  8
0
 62
   134
 10
0.0
 20
0.0
 30
0.0
 70
   128
 71
   672
 72
   671
 73
  -663
 74
  -672
  0
VERTEX
  5
8BA
  8
0
 62
   134
 10
0.0
 20
0.0
 30
0.0
 70
   128
 71
   664
 72
   665
 73
  -673
 74
  -664
  0
VERTEX
  5
8BB
  8
0
 62
   134
 10
0.0
 20
0.0
 30
0.0
 70
   128
 71
   673
 72
   672
 73
  -664
 74
  -673
  0
VERTEX
  5
8BC
  8
0
 62
   134
 10
0.0
 20
0.0
 30
0.0
 70
   128
 71
   665
 72
   658
 73
  -666
 74
  -665
  0
VERTEX
  5
8BD
  8
0
 62
   134
 10
0.0
 20
0.0
 30
0.0
 70
   128
 71
   666
 72
   673
 73
  -665
 74
  -666
  0
VERTEX
  5
8BE
  8
0
 62
   134
 10
0.0
 20
0.0
 30
0.0
 70
   128
 71
   489
 72
  -674
 73
   490
 74
  -489
  0
VERTEX
  5
8BF
  8
0
 62
   134
 10
0.0
 20
0.0
 30
0.0
 70
   128
 71
   675
 72
  -490
 73
   674
 74
  -675
  0
VERTEX
  5
8C0
  8
0
 62
   134
 10
0.0
 20
0.0
 30
0.0
 70
   128
 71
   490
 72
  -675
 73
   491
 74
  -490
  0
VERTEX
  5
8C1
  8
0
 62
   134
 10
0.0
 20
0.0
 30
0.0
 70
   128
 71
   676
 72
  -491
 73
   675
 74
  -676
  0
VERTEX
  5
8C2
  8
0
 62
   134
 10
0.0
 20
0.0
 30
0.0
 70
   128
 71
   491
 72
  -676
 73
   492
 74
  -491
  0
VERTEX
  5
8C3
  8
0
 62
   134
 10
0.0
 20
0.0
 30
0.0
 70
   128
 71
   677
 72
  -492
 73
   676
 74
  -677
  0
VERTEX
  5
8C4
  8
0
 62
   134
 10
0.0
 20
0.0
 30
0.0
 70
   128
 71
   492
 72
  -677
 73
   493
 74
  -492
  0
VERTEX
  5
8C5
  8
0
 62
   134
 10
0.0
 20
0.0
 30
0.0
 70
   128
 71
   678
 72
  -493
 73
   677
 74
  -678
  0
VERTEX
  5
8C6
  8
0
 62
   134
 10
0.0
 20
0.0
 30
0.0
 70
   128
 71
   493
 72
  -678
 73
   494
 74
  -493
  0
VERTEX
  5
8C7
  8
0
 62
   134
 10
0.0
 20
0.0
 30
0.0
 70
   128
 71
   679
 72
  -494
 73
   678
 74
  -679
  0
VERTEX
  5
8C8
  8
0
 62
   134
 10
0.0
 20
0.0
 30
0.0
 70
   128
 71
   494
 72
  -679
 73
   495
 74
  -494
  0
VERTEX
  5
8C9
  8
0
 62
   134
 10
0.0
 20
0.0
 30
0.0
 70
   128
 71
   680
 72
  -495
 73
   679
 74
  -680
  0
VERTEX
  5
8CA
  8
0
 62
   134
 10
0.0
 20
0.0
 30
0.0
 70
   128
 71
   495
 72
  -680
 73
   496
 74
  -495
  0
VERTEX
  5
8CB
  8
0
 62
   134
 10
0.0
 20
0.0
 30
0.0
 70
   128
 71
   681
 72
  -496
 73
   680
 74
  -681
  0
VERTEX
  5
8CC
  8
0
 62
   134
 10
0.0
 20
0.0
 30
0.0
 70
   128
 71
   674
 72
  -489
 73
   681
 74
  -674
  0
VERTEX
  5
8CD
  8
0
 62
   134
 10
0.0
 20
0.0
 30
0.0
 70
   128
 71
   496
 72
  -681
 73
   489
 74
  -496
  0
VERTEX
  5
8CE
  8
0
 62
   134
 10
0.0
 20
0.0
 30
0.0
 70
   128
 71
   497
 72
  -682
 73
   498
 74
  -497
  0
VERTEX
  5
8CF
  8
0
 62
   134
 10
0.0
 20
0.0
 30
0.0
 70
   128
 71
   683
 72
  -498
 73
   682
 74
  -683
  0
VERTEX
  5
8D0
  8
0
 62
   134
 10
0.0
 20
0.0
 30
0.0
 70
   128
 71
   498
 72
  -683
 73
   499
 74
  -498
  0
VERTEX
  5
8D1
  8
0
 62
   134
 10
0.0
 20
0.0
 30
0.0
 70
   128
 71
   684
 72
  -499
 73
   683
 74
  -684
  0
VERTEX
  5
8D2
  8
0
 62
   134
 10
0.0
 20
0.0
 30
0.0
 70
   128
 71
   499
 72
  -684
 73
   500
 74
  -499
  0
VERTEX
  5
8D3
  8
0
 62
   134
 10
0.0
 20
0.0
 30
0.0
 70
   128
 71
   685
 72
  -500
 73
   684
 74
  -685
  0
VERTEX
  5
8D4
  8
0
 62
   134
 10
0.0
 20
0.0
 30
0.0
 70
   128
 71
   500
 72
  -685
 73
   501
 74
  -500
  0
VERTEX
  5
8D5
  8
0
 62
   134
 10
0.0
 20
0.0
 30
0.0
 70
   128
 71
   686
 72
  -501
 73
   685
 74
  -686
  0
VERTEX
  5
8D6
  8
0
 62
   134
 10
0.0
 20
0.0
 30
0.0
 70
   128
 71
   501
 72
  -686
 73
   502
 74
  -501
  0
VERTEX
  5
8D7
  8
0
 62
   134
 10
0.0
 20
0.0
 30
0.0
 70
   128
 71
   687
 72
  -502
 73
   686
 74
  -687
  0
VERTEX
  5
8D8
  8
0
 62
   134
 10
0.0
 20
0.0
 30
0.0
 70
   128
 71
   502
 72
  -687
 73
   503
 74
  -502
  0
VERTEX
  5
8D9
  8
0
 62
   134
 10
0.0
 20
0.0
 30
0.0
 70
   128
 71
   688
 72
  -503
 73
   687
 74
  -688
  0
VERTEX
  5
8DA
  8
0
 62
   134
 10
0.0
 20
0.0
 30
0.0
 70
   128
 71
   503
 72
  -688
 73
   504
 74
  -503
  0
VERTEX
  5
8DB
  8
0
 62
   134
 10
0.0
 20
0.0
 30
0.0
 70
   128
 71
   689
 72
  -504
 73
   688
 74
  -689
  0
VERTEX
  5
8DC
  8
0
 62
   134
 10
0.0
 20
0.0
 30
0.0
 70
   128
 71
   682
 72
  -497
 73
   689
 74
  -682
  0
VERTEX
  5
8DD
  8
0
 62
   134
 10
0.0
 20
0.0
 30
0.0
 70
   128
 71
   504
 72
  -689
 73
   497
 74
  -504
  0
VERTEX
  5
8DE
  8
0
 62
   134
 10
0.0
 20
0.0
 30
0.0
 70
   128
 71
   505
 72
  -690
 73
   506
 74
  -505
  0
VERTEX
  5
8DF
  8
0
 62
   134
 10
0.0
 20
0.0
 30
0.0
 70
   128
 71
   691
 72
  -506
 73
   690
 74
  -691
  0
VERTEX
  5
8E0
  8
0
 62
   134
 10
0.0
 20
0.0
 30
0.0
 70
   128
 71
   506
 72
  -691
 73
   507
 74
  -506
  0
VERTEX
  5
8E1
  8
0
 62
   134
 10
0.0
 20
0.0
 30
0.0
 70
   128
 71
   692
 72
  -507
 73
   691
 74
  -692
  0
VERTEX
  5
8E2
  8
0
 62
   134
 10
0.0
 20
0.0
 30
0.0
 70
   128
 71
   507
 72
  -692
 73
   508
 74
  -507
  0
VERTEX
  5
8E3
  8
0
 62
   134
 10
0.0
 20
0.0
 30
0.0
 70
   128
 71
   693
 72
  -508
 73
   692
 74
  -693
  0
VERTEX
  5
8E4
  8
0
 62
   134
 10
0.0
 20
0.0
 30
0.0
 70
   128
 71
   508
 72
  -693
 73
   509
 74
  -508
  0
VERTEX
  5
8E5
  8
0
 62
   134
 10
0.0
 20
0.0
 30
0.0
 70
   128
 71
   694
 72
  -509
 73
   693
 74
  -694
  0
VERTEX
  5
8E6
  8
0
 62
   134
 10
0.0
 20
0.0
 30
0.0
 70
   128
 71
   509
 72
  -694
 73
   510
 74
  -509
  0
VERTEX
  5
8E7
  8
0
 62
   134
 10
0.0
 20
0.0
 30
0.0
 70
   128
 71
   695
 72
  -510
 73
   694
 74
  -695
  0
VERTEX
  5
8E8
  8
0
 62
   134
 10
0.0
 20
0.0
 30
0.0
 70
   128
 71
   510
 72
  -695
 73
   511
 74
  -510
  0
VERTEX
  5
8E9
  8
0
 62
   134
 10
0.0
 20
0.0
 30
0.0
 70
   128
 71
   696
 72
  -511
 73
   695
 74
  -696
  0
VERTEX
  5
8EA
  8
0
 62
   134
 10
0.0
 20
0.0
 30
0.0
 70
   128
 71
   511
 72
  -696
 73
   512
 74
  -511
  0
VERTEX
  5
8EB
  8
0
 62
   134
 10
0.0
 20
0.0
 30
0.0
 70
   128
 71
   697
 72
  -512
 73
   696
 74
  -697
  0
VERTEX
  5
8EC
  8
0
 62
   134
 10
0.0
 20
0.0
 30
0.0
 70
   128
 71
   690
 72
  -505
 73
   697
 74
  -690
  0
VERTEX
  5
8ED
  8
0
 62
   134
 10
0.0
 20
0.0
 30
0.0
 70
   128
 71
   512
 72
  -697
 73
   505
 74
  -512
  0
VERTEX
  5
8EE
  8
0
 62
   134
 10
0.0
 20
0.0
 30
0.0
 70
   128
 71
   513
 72
  -698
 73
   514
 74
  -513
  0
VERTEX
  5
8EF
  8
0
 62
   134
 10
0.0
 20
0.0
 30
0.0
 70
   128
 71
   699
 72
  -514
 73
   698
 74
  -699
  0
VERTEX
  5
8F0
  8
0
 62
   134
 10
0.0
 20
0.0
 30
0.0
 70
   128
 71
   514
 72
  -699
 73
   515
 74
  -514
  0
VERTEX
  5
8F1
  8
0
 62
   134
 10
0.0
 20
0.0
 30
0.0
 70
   128
 71
   700
 72
  -515
 73
   699
 74
  -700
  0
VERTEX
  5
8F2
  8
0
 62
   134
 10
0.0
 20
0.0
 30
0.0
 70
   128
 71
   515
 72
  -700
 73
   516
 74
  -515
  0
VERTEX
  5
8F3
  8
0
 62
   134
 10
0.0
 20
0.0
 30
0.0
 70
   128
 71
   701
 72
  -516
 73
   700
 74
  -701
  0
VERTEX
  5
8F4
  8
0
 62
   134
 10
0.0
 20
0.0
 30
0.0
 70
   128
 71
   516
 72
  -701
 73
   517
 74
  -516
  0
VERTEX
  5
8F5
  8
0
 62
   134
 10
0.0
 20
0.0
 30
0.0
 70
   128
 71
   702
 72
  -517
 73
   701
 74
  -702
  0
VERTEX
  5
8F6
  8
0
 62
   134
 10
0.0
 20
0.0
 30
0.0
 70
   128
 71
   517
 72
  -702
 73
   518
 74
  -517
  0
VERTEX
  5
8F7
  8
0
 62
   134
 10
0.0
 20
0.0
 30
0.0
 70
   128
 71
   703
 72
  -518
 73
   702
 74
  -703
  0
VERTEX
  5
8F8
  8
0
 62
   134
 10
0.0
 20
0.0
 30
0.0
 70
   128
 71
   518
 72
  -703
 73
   519
 74
  -518
  0
VERTEX
  5
8F9
  8
0
 62
   134
 10
0.0
 20
0.0
 30
0.0
 70
   128
 71
   704
 72
  -519
 73
   703
 74
  -704
  0
VERTEX
  5
8FA
  8
0
 62
   134
 10
0.0
 20
0.0
 30
0.0
 70
   128
 71
   519
 72
  -704
 73
   520
 74
  -519
  0
VERTEX
  5
8FB
  8
0
 62
   134
 10
0.0
 20
0.0
 30
0.0
 70
   128
 71
   705
 72
  -520
 73
   704
 74
  -705
  0
VERTEX
  5
8FC
  8
0
 62
   134
 10
0.0
 20
0.0
 30
0.0
 70
   128
 71
   698
 72
  -513
 73
   705
 74
  -698
  0
VERTEX
  5
8FD
  8
0
 62
   134
 10
0.0
 20
0.0
 30
0.0
 70
   128
 71
   520
 72
  -705
 73
   513
 74
  -520
  0
VERTEX
  5
8FE
  8
0
 62
   134
 10
0.0
 20
0.0
 30
0.0
 70
   128
 71
   521
 72
  -706
 73
   522
 74
  -521
  0
VERTEX
  5
8FF
  8
0
 62
   134
 10
0.0
 20
0.0
 30
0.0
 70
   128
 71
   707
 72
  -522
 73
   706
 74
  -707
  0
VERTEX
  5
900
  8
0
 62
   134
 10
0.0
 20
0.0
 30
0.0
 70
   128
 71
   522
 72
  -707
 73
   523
 74
  -522
  0
VERTEX
  5
901
  8
0
 62
   134
 10
0.0
 20
0.0
 30
0.0
 70
   128
 71
   708
 72
  -523
 73
   707
 74
  -708
  0
VERTEX
  5
902
  8
0
 62
   134
 10
0.0
 20
0.0
 30
0.0
 70
   128
 71
   523
 72
  -708
 73
   524
 74
  -523
  0
VERTEX
  5
903
  8
0
 62
   134
 10
0.0
 20
0.0
 30
0.0
 70
   128
 71
   709
 72
  -524
 73
   708
 74
  -709
  0
VERTEX
  5
904
  8
0
 62
   134
 10
0.0
 20
0.0
 30
0.0
 70
   128
 71
   524
 72
  -709
 73
   525
 74
  -524
  0
VERTEX
  5
905
  8
0
 62
   134
 10
0.0
 20
0.0
 30
0.0
 70
   128
 71
   710
 72
  -525
 73
   709
 74
  -710
  0
VERTEX
  5
906
  8
0
 62
   134
 10
0.0
 20
0.0
 30
0.0
 70
   128
 71
   525
 72
  -710
 73
   526
 74
  -525
  0
VERTEX
  5
907
  8
0
 62
   134
 10
0.0
 20
0.0
 30
0.0
 70
   128
 71
   711
 72
  -526
 73
   710
 74
  -711
  0
VERTEX
  5
908
  8
0
 62
   134
 10
0.0
 20
0.0
 30
0.0
 70
   128
 71
   526
 72
  -711
 73
   527
 74
  -526
  0
VERTEX
  5
909
  8
0
 62
   134
 10
0.0
 20
0.0
 30
0.0
 70
   128
 71
   712
 72
  -527
 73
   711
 74
  -712
  0
VERTEX
  5
90A
  8
0
 62
   134
 10
0.0
 20
0.0
 30
0.0
 70
   128
 71
   527
 72
  -712
 73
   528
 74
  -527
  0
VERTEX
  5
90B
  8
0
 62
   134
 10
0.0
 20
0.0
 30
0.0
 70
   128
 71
   713
 72
  -528
 73
   712
 74
  -713
  0
VERTEX
  5
90C
  8
0
 62
   134
 10
0.0
 20
0.0
 30
0.0
 70
   128
 71
   706
 72
  -521
 73
   713
 74
  -706
  0
VERTEX
  5
90D
  8
0
 62
   134
 10
0.0
 20
0.0
 30
0.0
 70
   128
 71
   528
 72
  -713
 73
   521
 74
  -528
  0
VERTEX
  5
90E
  8
0
 62
   134
 10
0.0
 20
0.0
 30
0.0
 70
   128
 71
   529
 72
  -714
 73
   530
 74
  -529
  0
VERTEX
  5
90F
  8
0
 62
   134
 10
0.0
 20
0.0
 30
0.0
 70
   128
 71
   715
 72
  -530
 73
   714
 74
  -715
  0
VERTEX
  5
910
  8
0
 62
   134
 10
0.0
 20
0.0
 30
0.0
 70
   128
 71
   530
 72
  -715
 73
   531
 74
  -530
  0
VERTEX
  5
911
  8
0
 62
   134
 10
0.0
 20
0.0
 30
0.0
 70
   128
 71
   716
 72
  -531
 73
   715
 74
  -716
  0
VERTEX
  5
912
  8
0
 62
   134
 10
0.0
 20
0.0
 30
0.0
 70
   128
 71
   531
 72
  -716
 73
   532
 74
  -531
  0
VERTEX
  5
913
  8
0
 62
   134
 10
0.0
 20
0.0
 30
0.0
 70
   128
 71
   717
 72
  -532
 73
   716
 74
  -717
  0
VERTEX
  5
914
  8
0
 62
   134
 10
0.0
 20
0.0
 30
0.0
 70
   128
 71
   532
 72
  -717
 73
   533
 74
  -532
  0
VERTEX
  5
915
  8
0
 62
   134
 10
0.0
 20
0.0
 30
0.0
 70
   128
 71
   718
 72
  -533
 73
   717
 74
  -718
  0
VERTEX
  5
916
  8
0
 62
   134
 10
0.0
 20
0.0
 30
0.0
 70
   128
 71
   533
 72
  -718
 73
   534
 74
  -533
  0
VERTEX
  5
917
  8
0
 62
   134
 10
0.0
 20
0.0
 30
0.0
 70
   128
 71
   719
 72
  -534
 73
   718
 74
  -719
  0
VERTEX
  5
918
  8
0
 62
   134
 10
0.0
 20
0.0
 30
0.0
 70
   128
 71
   534
 72
  -719
 73
   535
 74
  -534
  0
VERTEX
  5
919
  8
0
 62
   134
 10
0.0
 20
0.0
 30
0.0
 70
   128
 71
   720
 72
  -535
 73
   719
 74
  -720
  0
VERTEX
  5
91A
  8
0
 62
   134
 10
0.0
 20
0.0
 30
0.0
 70
   128
 71
   535
 72
  -720
 73
   536
 74
  -535
  0
VERTEX
  5
91B
  8
0
 62
   134
 10
0.0
 20
0.0
 30
0.0
 70
   128
 71
   721
 72
  -536
 73
   720
 74
  -721
  0
VERTEX
  5
91C
  8
0
 62
   134
 10
0.0
 20
0.0
 30
0.0
 70
   128
 71
   714
 72
  -529
 73
   721
 74
  -714
  0
VERTEX
  5
91D
  8
0
 62
   134
 10
0.0
 20
0.0
 30
0.0
 70
   128
 71
   536
 72
  -721
 73
   529
 74
  -536
  0
VERTEX
  5
91E
  8
0
 62
   134
 10
0.0
 20
0.0
 30
0.0
 70
   128
 71
   537
 72
  -722
 73
   538
 74
  -537
  0
VERTEX
  5
91F
  8
0
 62
   134
 10
0.0
 20
0.0
 30
0.0
 70
   128
 71
   723
 72
  -538
 73
   722
 74
  -723
  0
VERTEX
  5
920
  8
0
 62
   134
 10
0.0
 20
0.0
 30
0.0
 70
   128
 71
   538
 72
  -723
 73
   539
 74
  -538
  0
VERTEX
  5
921
  8
0
 62
   134
 10
0.0
 20
0.0
 30
0.0
 70
   128
 71
   724
 72
  -539
 73
   723
 74
  -724
  0
VERTEX
  5
922
  8
0
 62
   134
 10
0.0
 20
0.0
 30
0.0
 70
   128
 71
   539
 72
  -724
 73
   540
 74
  -539
  0
VERTEX
  5
923
  8
0
 62
   134
 10
0.0
 20
0.0
 30
0.0
 70
   128
 71
   725
 72
  -540
 73
   724
 74
  -725
  0
VERTEX
  5
924
  8
0
 62
   134
 10
0.0
 20
0.0
 30
0.0
 70
   128
 71
   540
 72
  -725
 73
   541
 74
  -540
  0
VERTEX
  5
925
  8
0
 62
   134
 10
0.0
 20
0.0
 30
0.0
 70
   128
 71
   726
 72
  -541
 73
   725
 74
  -726
  0
VERTEX
  5
926
  8
0
 62
   134
 10
0.0
 20
0.0
 30
0.0
 70
   128
 71
   541
 72
  -726
 73
   542
 74
  -541
  0
VERTEX
  5
927
  8
0
 62
   134
 10
0.0
 20
0.0
 30
0.0
 70
   128
 71
   727
 72
  -542
 73
   726
 74
  -727
  0
VERTEX
  5
928
  8
0
 62
   134
 10
0.0
 20
0.0
 30
0.0
 70
   128
 71
   542
 72
  -727
 73
   543
 74
  -542
  0
VERTEX
  5
929
  8
0
 62
   134
 10
0.0
 20
0.0
 30
0.0
 70
   128
 71
   728
 72
  -543
 73
   727
 74
  -728
  0
VERTEX
  5
92A
  8
0
 62
   134
 10
0.0
 20
0.0
 30
0.0
 70
   128
 71
   543
 72
  -728
 73
   544
 74
  -543
  0
VERTEX
  5
92B
  8
0
 62
   134
 10
0.0
 20
0.0
 30
0.0
 70
   128
 71
   729
 72
  -544
 73
   728
 74
  -729
  0
VERTEX
  5
92C
  8
0
 62
   134
 10
0.0
 20
0.0
 30
0.0
 70
   128
 71
   722
 72
  -537
 73
   729
 74
  -722
  0
VERTEX
  5
92D
  8
0
 62
   134
 10
0.0
 20
0.0
 30
0.0
 70
   128
 71
   544
 72
  -729
 73
   537
 74
  -544
  0
VERTEX
  5
92E
  8
0
 62
   134
 10
0.0
 20
0.0
 30
0.0
 70
   128
 71
   545
 72
  -730
 73
   546
 74
  -545
  0
VERTEX
  5
92F
  8
0
 62
   134
 10
0.0
 20
0.0
 30
0.0
 70
   128
 71
   731
 72
  -546
 73
   730
 74
  -731
  0
VERTEX
  5
930
  8
0
 62
   134
 10
0.0
 20
0.0
 30
0.0
 70
   128
 71
   546
 72
  -731
 73
   547
 74
  -546
  0
VERTEX
  5
931
  8
0
 62
   134
 10
0.0
 20
0.0
 30
0.0
 70
   128
 71
   732
 72
  -547
 73
   731
 74
  -732
  0
VERTEX
  5
932
  8
0
 62
   134
 10
0.0
 20
0.0
 30
0.0
 70
   128
 71
   547
 72
  -732
 73
   548
 74
  -547
  0
VERTEX
  5
933
  8
0
 62
   134
 10
0.0
 20
0.0
 30
0.0
 70
   128
 71
   733
 72
  -548
 73
   732
 74
  -733
  0
VERTEX
  5
934
  8
0
 62
   134
 10
0.0
 20
0.0
 30
0.0
 70
   128
 71
   548
 72
  -733
 73
   549
 74
  -548
  0
VERTEX
  5
935
  8
0
 62
   134
 10
0.0
 20
0.0
 30
0.0
 70
   128
 71
   734
 72
  -549
 73
   733
 74
  -734
  0
VERTEX
  5
936
  8
0
 62
   134
 10
0.0
 20
0.0
 30
0.0
 70
   128
 71
   549
 72
  -734
 73
   550
 74
  -549
  0
VERTEX
  5
937
  8
0
 62
   134
 10
0.0
 20
0.0
 30
0.0
 70
   128
 71
   735
 72
  -550
 73
   734
 74
  -735
  0
VERTEX
  5
938
  8
0
 62
   134
 10
0.0
 20
0.0
 30
0.0
 70
   128
 71
   550
 72
  -735
 73
   551
 74
  -550
  0
VERTEX
  5
939
  8
0
 62
   134
 10
0.0
 20
0.0
 30
0.0
 70
   128
 71
   736
 72
  -551
 73
   735
 74
  -736
  0
VERTEX
  5
93A
  8
0
 62
   134
 10
0.0
 20
0.0
 30
0.0
 70
   128
 71
   551
 72
  -736
 73
   552
 74
  -551
  0
VERTEX
  5
93B
  8
0
 62
   134
 10
0.0
 20
0.0
 30
0.0
 70
   128
 71
   737
 72
  -552
 73
   736
 74
  -737
  0
VERTEX
  5
93C
  8
0
 62
   134
 10
0.0
 20
0.0
 30
0.0
 70
   128
 71
   730
 72
  -545
 73
   737
 74
  -730
  0
VERTEX
  5
93D
  8
0
 62
   134
 10
0.0
 20
0.0
 30
0.0
 70
   128
 71
   552
 72
  -737
 73
   545
 74
  -552
  0
VERTEX
  5
93E
  8
0
 62
   134
 10
0.0
 20
0.0
 30
0.0
 70
   128
 71
   553
 72
  -738
 73
   554
 74
  -553
  0
VERTEX
  5
93F
  8
0
 62
   134
 10
0.0
 20
0.0
 30
0.0
 70
   128
 71
   739
 72
  -554
 73
   738
 74
  -739
  0
VERTEX
  5
940
  8
0
 62
   134
 10
0.0
 20
0.0
 30
0.0
 70
   128
 71
   554
 72
  -739
 73
   555
 74
  -554
  0
VERTEX
  5
941
  8
0
 62
   134
 10
0.0
 20
0.0
 30
0.0
 70
   128
 71
   740
 72
  -555
 73
   739
 74
  -740
  0
VERTEX
  5
942
  8
0
 62
   134
 10
0.0
 20
0.0
 30
0.0
 70
   128
 71
   555
 72
  -740
 73
   556
 74
  -555
  0
VERTEX
  5
943
  8
0
 62
   134
 10
0.0
 20
0.0
 30
0.0
 70
   128
 71
   741
 72
  -556
 73
   740
 74
  -741
  0
VERTEX
  5
944
  8
0
 62
   134
 10
0.0
 20
0.0
 30
0.0
 70
   128
 71
   556
 72
  -741
 73
   557
 74
  -556
  0
VERTEX
  5
945
  8
0
 62
   134
 10
0.0
 20
0.0
 30
0.0
 70
   128
 71
   742
 72
  -557
 73
   741
 74
  -742
  0
VERTEX
  5
946
  8
0
 62
   134
 10
0.0
 20
0.0
 30
0.0
 70
   128
 71
   557
 72
  -742
 73
   558
 74
  -557
  0
VERTEX
  5
947
  8
0
 62
   134
 10
0.0
 20
0.0
 30
0.0
 70
   128
 71
   743
 72
  -558
 73
   742
 74
  -743
  0
VERTEX
  5
948
  8
0
 62
   134
 10
0.0
 20
0.0
 30
0.0
 70
   128
 71
   558
 72
  -743
 73
   559
 74
  -558
  0
VERTEX
  5
949
  8
0
 62
   134
 10
0.0
 20
0.0
 30
0.0
 70
   128
 71
   744
 72
  -559
 73
   743
 74
  -744
  0
VERTEX
  5
94A
  8
0
 62
   134
 10
0.0
 20
0.0
 30
0.0
 70
   128
 71
   559
 72
  -744
 73
   560
 74
  -559
  0
VERTEX
  5
94B
  8
0
 62
   134
 10
0.0
 20
0.0
 30
0.0
 70
   128
 71
   745
 72
  -560
 73
   744
 74
  -745
  0
VERTEX
  5
94C
  8
0
 62
   134
 10
0.0
 20
0.0
 30
0.0
 70
   128
 71
   738
 72
  -553
 73
   745
 74
  -738
  0
VERTEX
  5
94D
  8
0
 62
   134
 10
0.0
 20
0.0
 30
0.0
 70
   128
 71
   560
 72
  -745
 73
   553
 74
  -560
  0
VERTEX
  5
94E
  8
0
 62
   134
 10
0.0
 20
0.0
 30
0.0
 70
   128
 71
   561
 72
  -746
 73
   562
 74
  -561
  0
VERTEX
  5
94F
  8
0
 62
   134
 10
0.0
 20
0.0
 30
0.0
 70
   128
 71
   747
 72
  -562
 73
   746
 74
  -747
  0
VERTEX
  5
950
  8
0
 62
   134
 10
0.0
 20
0.0
 30
0.0
 70
   128
 71
   562
 72
  -747
 73
   563
 74
  -562
  0
VERTEX
  5
951
  8
0
 62
   134
 10
0.0
 20
0.0
 30
0.0
 70
   128
 71
   748
 72
  -563
 73
   747
 74
  -748
  0
VERTEX
  5
952
  8
0
 62
   134
 10
0.0
 20
0.0
 30
0.0
 70
   128
 71
   563
 72
  -748
 73
   564
 74
  -563
  0
VERTEX
  5
953
  8
0
 62
   134
 10
0.0
 20
0.0
 30
0.0
 70
   128
 71
   749
 72
  -564
 73
   748
 74
  -749
  0
VERTEX
  5
954
  8
0
 62
   134
 10
0.0
 20
0.0
 30
0.0
 70
   128
 71
   564
 72
  -749
 73
   565
 74
  -564
  0
VERTEX
  5
955
  8
0
 62
   134
 10
0.0
 20
0.0
 30
0.0
 70
   128
 71
   750
 72
  -565
 73
   749
 74
  -750
  0
VERTEX
  5
956
  8
0
 62
   134
 10
0.0
 20
0.0
 30
0.0
 70
   128
 71
   565
 72
  -750
 73
   566
 74
  -565
  0
VERTEX
  5
957
  8
0
 62
   134
 10
0.0
 20
0.0
 30
0.0
 70
   128
 71
   751
 72
  -566
 73
   750
 74
  -751
  0
VERTEX
  5
958
  8
0
 62
   134
 10
0.0
 20
0.0
 30
0.0
 70
   128
 71
   566
 72
  -751
 73
   567
 74
  -566
  0
VERTEX
  5
959
  8
0
 62
   134
 10
0.0
 20
0.0
 30
0.0
 70
   128
 71
   752
 72
  -567
 73
   751
 74
  -752
  0
VERTEX
  5
95A
  8
0
 62
   134
 10
0.0
 20
0.0
 30
0.0
 70
   128
 71
   567
 72
  -752
 73
   568
 74
  -567
  0
VERTEX
  5
95B
  8
0
 62
   134
 10
0.0
 20
0.0
 30
0.0
 70
   128
 71
   753
 72
  -568
 73
   752
 74
  -753
  0
VERTEX
  5
95C
  8
0
 62
   134
 10
0.0
 20
0.0
 30
0.0
 70
   128
 71
   746
 72
  -561
 73
   753
 74
  -746
  0
VERTEX
  5
95D
  8
0
 62
   134
 10
0.0
 20
0.0
 30
0.0
 70
   128
 71
   568
 72
  -753
 73
   561
 74
  -568
  0
VERTEX
  5
95E
  8
0
 62
   134
 10
0.0
 20
0.0
 30
0.0
 70
   128
 71
   569
 72
  -754
 73
   570
 74
  -569
  0
VERTEX
  5
95F
  8
0
 62
   134
 10
0.0
 20
0.0
 30
0.0
 70
   128
 71
   755
 72
  -570
 73
   754
 74
  -755
  0
VERTEX
  5
960
  8
0
 62
   134
 10
0.0
 20
0.0
 30
0.0
 70
   128
 71
   570
 72
  -755
 73
   571
 74
  -570
  0
VERTEX
  5
961
  8
0
 62
   134
 10
0.0
 20
0.0
 30
0.0
 70
   128
 71
   756
 72
  -571
 73
   755
 74
  -756
  0
VERTEX
  5
962
  8
0
 62
   134
 10
0.0
 20
0.0
 30
0.0
 70
   128
 71
   571
 72
  -756
 73
   572
 74
  -571
  0
VERTEX
  5
963
  8
0
 62
   134
 10
0.0
 20
0.0
 30
0.0
 70
   128
 71
   757
 72
  -572
 73
   756
 74
  -757
  0
VERTEX
  5
964
  8
0
 62
   134
 10
0.0
 20
0.0
 30
0.0
 70
   128
 71
   572
 72
  -757
 73
   573
 74
  -572
  0
VERTEX
  5
965
  8
0
 62
   134
 10
0.0
 20
0.0
 30
0.0
 70
   128
 71
   758
 72
  -573
 73
   757
 74
  -758
  0
VERTEX
  5
966
  8
0
 62
   134
 10
0.0
 20
0.0
 30
0.0
 70
   128
 71
   573
 72
  -758
 73
   574
 74
  -573
  0
VERTEX
  5
967
  8
0
 62
   134
 10
0.0
 20
0.0
 30
0.0
 70
   128
 71
   759
 72
  -574
 73
   758
 74
  -759
  0
VERTEX
  5
968
  8
0
 62
   134
 10
0.0
 20
0.0
 30
0.0
 70
   128
 71
   574
 72
  -759
 73
   575
 74
  -574
  0
VERTEX
  5
969
  8
0
 62
   134
 10
0.0
 20
0.0
 30
0.0
 70
   128
 71
   760
 72
  -575
 73
   759
 74
  -760
  0
VERTEX
  5
96A
  8
0
 62
   134
 10
0.0
 20
0.0
 30
0.0
 70
   128
 71
   575
 72
  -760
 73
   576
 74
  -575
  0
VERTEX
  5
96B
  8
0
 62
   134
 10
0.0
 20
0.0
 30
0.0
 70
   128
 71
   761
 72
  -576
 73
   760
 74
  -761
  0
VERTEX
  5
96C
  8
0
 62
   134
 10
0.0
 20
0.0
 30
0.0
 70
   128
 71
   754
 72
  -569
 73
   761
 74
  -754
  0
VERTEX
  5
96D
  8
0
 62
   134
 10
0.0
 20
0.0
 30
0.0
 70
   128
 71
   576
 72
  -761
 73
   569
 74
  -576
  0
VERTEX
  5
96E
  8
0
 62
   134
 10
0.0
 20
0.0
 30
0.0
 70
   128
 71
   577
 72
  -762
 73
   578
 74
  -577
  0
VERTEX
  5
96F
  8
0
 62
   134
 10
0.0
 20
0.0
 30
0.0
 70
   128
 71
   763
 72
  -578
 73
   762
 74
  -763
  0
VERTEX
  5
970
  8
0
 62
   134
 10
0.0
 20
0.0
 30
0.0
 70
   128
 71
   578
 72
  -763
 73
   579
 74
  -578
  0
VERTEX
  5
971
  8
0
 62
   134
 10
0.0
 20
0.0
 30
0.0
 70
   128
 71
   764
 72
  -579
 73
   763
 74
  -764
  0
VERTEX
  5
972
  8
0
 62
   134
 10
0.0
 20
0.0
 30
0.0
 70
   128
 71
   579
 72
  -764
 73
   580
 74
  -579
  0
VERTEX
  5
973
  8
0
 62
   134
 10
0.0
 20
0.0
 30
0.0
 70
   128
 71
   765
 72
  -580
 73
   764
 74
  -765
  0
VERTEX
  5
974
  8
0
 62
   134
 10
0.0
 20
0.0
 30
0.0
 70
   128
 71
   580
 72
  -765
 73
   581
 74
  -580
  0
VERTEX
  5
975
  8
0
 62
   134
 10
0.0
 20
0.0
 30
0.0
 70
   128
 71
   766
 72
  -581
 73
   765
 74
  -766
  0
VERTEX
  5
976
  8
0
 62
   134
 10
0.0
 20
0.0
 30
0.0
 70
   128
 71
   581
 72
  -766
 73
   582
 74
  -581
  0
VERTEX
  5
977
  8
0
 62
   134
 10
0.0
 20
0.0
 30
0.0
 70
   128
 71
   767
 72
  -582
 73
   766
 74
  -767
  0
VERTEX
  5
978
  8
0
 62
   134
 10
0.0
 20
0.0
 30
0.0
 70
   128
 71
   582
 72
  -767
 73
   583
 74
  -582
  0
VERTEX
  5
979
  8
0
 62
   134
 10
0.0
 20
0.0
 30
0.0
 70
   128
 71
   768
 72
  -583
 73
   767
 74
  -768
  0
VERTEX
  5
97A
  8
0
 62
   134
 10
0.0
 20
0.0
 30
0.0
 70
   128
 71
   583
 72
  -768
 73
   584
 74
  -583
  0
VERTEX
  5
97B
  8
0
 62
   134
 10
0.0
 20
0.0
 30
0.0
 70
   128
 71
   769
 72
  -584
 73
   768
 74
  -769
  0
VERTEX
  5
97C
  8
0
 62
   134
 10
0.0
 20
0.0
 30
0.0
 70
   128
 71
   762
 72
  -577
 73
   769
 74
  -762
  0
VERTEX
  5
97D
  8
0
 62
   134
 10
0.0
 20
0.0
 30
0.0
 70
   128
 71
   584
 72
  -769
 73
   577
 74
  -584
  0
VERTEX
  5
97E
  8
0
 62
   134
 10
0.0
 20
0.0
 30
0.0
 70
   128
 71
   585
 72
  -770
 73
   586
 74
  -585
  0
VERTEX
  5
97F
  8
0
 62
   134
 10
0.0
 20
0.0
 30
0.0
 70
   128
 71
   771
 72
  -586
 73
   770
 74
  -771
  0
VERTEX
  5
980
  8
0
 62
   134
 10
0.0
 20
0.0
 30
0.0
 70
   128
 71
   586
 72
  -771
 73
   587
 74
  -586
  0
VERTEX
  5
981
  8
0
 62
   134
 10
0.0
 20
0.0
 30
0.0
 70
   128
 71
   772
 72
  -587
 73
   771
 74
  -772
  0
VERTEX
  5
982
  8
0
 62
   134
 10
0.0
 20
0.0
 30
0.0
 70
   128
 71
   587
 72
  -772
 73
   588
 74
  -587
  0
VERTEX
  5
983
  8
0
 62
   134
 10
0.0
 20
0.0
 30
0.0
 70
   128
 71
   773
 72
  -588
 73
   772
 74
  -773
  0
VERTEX
  5
984
  8
0
 62
   134
 10
0.0
 20
0.0
 30
0.0
 70
   128
 71
   588
 72
  -773
 73
   589
 74
  -588
  0
VERTEX
  5
985
  8
0
 62
   134
 10
0.0
 20
0.0
 30
0.0
 70
   128
 71
   774
 72
  -589
 73
   773
 74
  -774
  0
VERTEX
  5
986
  8
0
 62
   134
 10
0.0
 20
0.0
 30
0.0
 70
   128
 71
   589
 72
  -774
 73
   590
 74
  -589
  0
VERTEX
  5
987
  8
0
 62
   134
 10
0.0
 20
0.0
 30
0.0
 70
   128
 71
   775
 72
  -590
 73
   774
 74
  -775
  0
VERTEX
  5
988
  8
0
 62
   134
 10
0.0
 20
0.0
 30
0.0
 70
   128
 71
   590
 72
  -775
 73
   591
 74
  -590
  0
VERTEX
  5
989
  8
0
 62
   134
 10
0.0
 20
0.0
 30
0.0
 70
   128
 71
   776
 72
  -591
 73
   775
 74
  -776
  0
VERTEX
  5
98A
  8
0
 62
   134
 10
0.0
 20
0.0
 30
0.0
 70
   128
 71
   591
 72
  -776
 73
   592
 74
  -591
  0
VERTEX
  5
98B
  8
0
 62
   134
 10
0.0
 20
0.0
 30
0.0
 70
   128
 71
   777
 72
  -592
 73
   776
 74
  -777
  0
VERTEX
  5
98C
  8
0
 62
   134
 10
0.0
 20
0.0
 30
0.0
 70
   128
 71
   770
 72
  -585
 73
   777
 74
  -770
  0
VERTEX
  5
98D
  8
0
 62
   134
 10
0.0
 20
0.0
 30
0.0
 70
   128
 71
   592
 72
  -777
 73
   585
 74
  -592
  0
SEQEND
  5
98E
  8
0
 62
   134
  0
ENDSEC
  0
EOF
