  0
SECTION
  2
HEADER
  9
$ACADVER
  1
AC1009
  9
$INSBASE
 10
0.0
 20
0.0
 30
0.0
  9
$EXTMIN
 10
-3.7499999999999991
 20
-2.494233686131992
 30
0.0
  9
$EXTMAX
 10
3.7499999999999991
 20
0.001
 30
0.0
  9
$LIMMIN
 10
0.0
 20
0.0
  9
$LIMMAX
 10
12.0
 20
9.0
  9
$ORTHOMODE
 70
     0
  9
$REGENMODE
 70
     1
  9
$FILLMODE
 70
     1
  9
$QTEXTMODE
 70
     0
  9
$MIRRTEXT
 70
     1
  9
$DRAGMODE
 70
     2
  9
$LTSCALE
 40
1.0
  9
$OSMODE
 70
    37
  9
$ATTMODE
 70
     1
  9
$TEXTSIZE
 40
0.001
  9
$TRACEWID
 40
0.05
  9
$TEXTSTYLE
  7
STANDARD
  9
$CLAYER
  8
0
  9
$CELTYPE
  6
BYLAYER
  9
$CECOLOR
 62
   256
  9
$DIMSCALE
 40
1.0
  9
$DIMASZ
 40
0.18
  9
$DIMEXO
 40
0.0625
  9
$DIMDLI
 40
0.38
  9
$DIMRND
 40
0.0
  9
$DIMDLE
 40
0.0
  9
$DIMEXE
 40
0.18
  9
$DIMTP
 40
0.0
  9
$DIMTM
 40
0.0
  9
$DIMTXT
 40
0.18
  9
$DIMCEN
 40
0.09
  9
$DIMTSZ
 40
0.0
  9
$DIMTOL
 70
     0
  9
$DIMLIM
 70
     0
  9
$DIMTIH
 70
     1
  9
$DIMTOH
 70
     1
  9
$DIMSE1
 70
     0
  9
$DIMSE2
 70
     0
  9
$DIMTAD
 70
     0
  9
$DIMZIN
 70
     0
  9
$DIMBLK
  1

  9
$DIMASO
 70
     1
  9
$DIMSHO
 70
     1
  9
$DIMPOST
  1

  9
$DIMAPOST
  1

  9
$DIMALT
 70
     0
  9
$DIMALTD
 70
     2
  9
$DIMALTF
 40
25.399999999999999
  9
$DIMLFAC
 40
1.0
  9
$DIMTOFL
 70
     0
  9
$DIMTVP
 40
0.0
  9
$DIMTIX
 70
     0
  9
$DIMSOXD
 70
     0
  9
$DIMSAH
 70
     0
  9
$DIMBLK1
  1

  9
$DIMBLK2
  1

  9
$DIMSTYLE
  2
STANDARD
  9
$DIMCLRD
 70
     0
  9
$DIMCLRE
 70
     0
  9
$DIMCLRT
 70
     0
  9
$DIMTFAC
 40
1.0
  9
$DIMGAP
 40
0.09
  9
$LUNITS
 70
     2
  9
$LUPREC
 70
     4
  9
$SKETCHINC
 40
0.1
  9
$FILLETRAD
 40
1.0
  9
$AUNITS
 70
     0
  9
$AUPREC
 70
     0
  9
$MENU
  1
.
  9
$ELEVATION
 40
0.0
  9
$PELEVATION
 40
0.0
  9
$THICKNESS
 40
0.0
  9
$LIMCHECK
 70
     0
  9
$BLIPMODE
 70
     0
  9
$CHAMFERA
 40
0.5
  9
$CHAMFERB
 40
0.5
  9
$SKPOLY
 70
     0
  9
$TDCREATE
 40
2451380.555432396
  9
$TDUPDATE
 40
2456700.4977971758
  9
$TDINDWG
 40
0.0382574306
  9
$TDUSRTIMER
 40
0.0382483912
  9
$USRTIMER
 70
     1
  9
$ANGBASE
 50
0.0
  9
$ANGDIR
 70
     0
  9
$PDMODE
 70
     0
  9
$PDSIZE
 40
0.0
  9
$PLINEWID
 40
0.0
  9
$COORDS
 70
     1
  9
$SPLFRAME
 70
     0
  9
$SPLINETYPE
 70
     6
  9
$SPLINESEGS
 70
     8
  9
$ATTDIA
 70
     0
  9
$ATTREQ
 70
     1
  9
$HANDLING
 70
     1
  9
$HANDSEED
  5
1DC
  9
$SURFTAB1
 70
     6
  9
$SURFTAB2
 70
     6
  9
$SURFTYPE
 70
     6
  9
$SURFU
 70
     6
  9
$SURFV
 70
     6
  9
$UCSNAME
  2

  9
$UCSORG
 10
0.0
 20
0.0
 30
0.0
  9
$UCSXDIR
 10
1.0
 20
0.0
 30
0.0
  9
$UCSYDIR
 10
0.0
 20
1.0
 30
0.0
  9
$PUCSNAME
  2

  9
$PUCSORG
 10
0.0
 20
0.0
 30
0.0
  9
$PUCSXDIR
 10
1.0
 20
0.0
 30
0.0
  9
$PUCSYDIR
 10
0.0
 20
1.0
 30
0.0
  9
$USERI1
 70
     0
  9
$USERI2
 70
     0
  9
$USERI3
 70
     0
  9
$USERI4
 70
     0
  9
$USERI5
 70
     0
  9
$USERR1
 40
0.0
  9
$USERR2
 40
0.0
  9
$USERR3
 40
0.0
  9
$USERR4
 40
0.0
  9
$USERR5
 40
0.0
  9
$WORLDVIEW
 70
     1
  9
$SHADEDGE
 70
     3
  9
$SHADEDIF
 70
    70
  9
$TILEMODE
 70
     1
  9
$MAXACTVP
 70
    64
  9
$PLIMCHECK
 70
     0
  9
$PEXTMIN
 10
1.0000000000000000E+020
 20
1.0000000000000000E+020
 30
1.0000000000000000E+020
  9
$PEXTMAX
 10
-1.0000000000000000E+020
 20
-1.0000000000000000E+020
 30
-1.0000000000000000E+020
  9
$PLIMMIN
 10
0.0
 20
0.0
  9
$PLIMMAX
 10
12.0
 20
9.0
  9
$UNITMODE
 70
     0
  9
$VISRETAIN
 70
     1
  9
$PLINEGEN
 70
     0
  9
$PSLTSCALE
 70
     1
  0
ENDSEC
  0
SECTION
  2
TABLES
  0
TABLE
  2
VPORT
 70
     1
  0
VPORT
  2
*ACTIVE
 70
     0
 10
0.0
 20
0.0
 11
1.0
 21
1.0
 12
-0.0001996631556618
 22
-0.3681566488549293
 13
0.0
 23
0.0
 14
0.5
 24
0.5
 15
0.5
 25
0.5
 16
0.0
 26
0.0
 36
1.0
 17
0.0
 27
0.0
 37
0.0
 40
6.37223772057028
 41
1.1829652996845419
 42
50.0
 43
0.0
 44
0.0
 50
0.0
 51
0.0
 71
     0
 72
  5000
 73
     1
 74
     1
 75
     0
 76
     0
 77
     0
 78
     0
  0
ENDTAB
  0
TABLE
  2
LTYPE
 70
     2
  0
LTYPE
  2
CONTINUOUS
 70
     0
  3
Solid line
 72
    65
 73
     0
 40
0.0
  0
LTYPE
  2
PHANTOM2
 70
     0
  3
Phantom (.5x) ___ _ _ ___ _ _ ___ _ _ ___ _ _
 72
    65
 73
     6
 40
1.25
 49
0.625
 49
-0.125
 49
0.125
 49
-0.125
 49
0.125
 49
-0.125
  0
ENDTAB
  0
TABLE
  2
LAYER
 70
     2
  0
LAYER
  2
0
 70
     0
 62
     7
  6
CONTINUOUS
  0
LAYER
  2
DEFPOINTS
 70
     0
 62
     7
  6
CONTINUOUS
  0
ENDTAB
  0
TABLE
  2
STYLE
 70
     1
  0
STYLE
  2
STANDARD
 70
     0
 40
0.0
 41
1.0
 50
0.0
 71
     0
 42
0.001
  3
txt
  4

  0
ENDTAB
  0
TABLE
  2
VIEW
 70
     0
  0
ENDTAB
  0
TABLE
  2
UCS
 70
     0
  0
ENDTAB
  0
TABLE
  2
APPID
 70
     5
  0
APPID
  2
ACAD
 70
     0
  0
APPID
  2
ACAD_MLEADERVER
 70
     0
  0
APPID
  2
ACAD_EXEMPT_FROM_CAD_STANDARDS
 70
     0
  0
APPID
  2
ACAD_NAV_VCDISPLAY
 70
     0
  0
APPID
  2
AcDbAttr
 70
     0
  0
ENDTAB
  0
TABLE
  2
DIMSTYLE
 70
     1
  0
DIMSTYLE
  2
STANDARD
 70
     0
  3

  4

  5

  6

  7

 40
1.0
 41
0.18
 42
0.0625
 43
0.38
 44
0.18
 45
0.0
 46
0.0
 47
0.0
 48
0.0
140
0.18
141
0.09
142
0.0
143
25.399999999999999
144
1.0
145
0.0
146
1.0
147
0.09
 71
     0
 72
     0
 73
     1
 74
     1
 75
     0
 76
     0
 77
     0
 78
     0
170
     0
171
     2
172
     0
173
     0
174
     0
175
     0
176
     0
177
     0
178
     0
  0
ENDTAB
  0
ENDSEC
  0
SECTION
  2
BLOCKS
  0
BLOCK
  8
0
  2
$MODEL_SPACE
 70
     2
 10
0.0
 20
0.0
 30
0.0
  3
$MODEL_SPACE
  1

  0
ENDBLK
  5
14
  8
0
  0
BLOCK
 67
     1
  8
0
  2
$PAPER_SPACE
 70
     0
 10
0.0
 20
0.0
 30
0.0
  3
$PAPER_SPACE
  1

  0
ENDBLK
  5
19
 67
     1
  8
0
  0
ENDSEC
  0
SECTION
  2
ENTITIES
  0
LINE
  5
72
  8
0
 10
-0.3668197926502374
 20
-1.405985978615218
 30
0.0
 11
0.3604791176172308
 21
-1.405985978615218
 31
0.0
  0
LINE
  5
73
  8
0
 10
-0.4095606391690234
 20
-1.430644159299133
 30
0.0
 11
0.4032199641360168
 21
-1.430644159299133
 31
0.0
  0
LINE
  5
74
  8
0
 10
-0.4095606391690234
 20
-1.4978083466857961
 30
0.0
 11
0.4032199641360168
 21
-1.4978083466857961
 31
0.0
  0
LINE
  5
75
  8
0
 10
-0.3790314630841762
 20
-1.5222316875536741
 30
0.0
 11
0.3726907880511701
 21
-1.5222316875536741
 31
0.0
  0
ARC
  5
76
  8
0
 10
3.5696171846385671
 20
-2.1487843167411471
 30
0.0
 40
0.1803828153614321
 50
269.030242178783
 51
90.969757821216945
  0
LINE
  5
77
  8
0
 10
3.566564267030083
 20
-1.968427338024513
 30
0.0
 11
0.6110532013290128
 21
-1.968427338024513
 31
0.0
  0
LINE
  5
78
  8
0
 10
3.5665642670301239
 20
-2.3291412954577821
 30
0.0
 11
0.6110532013290128
 21
-2.3291412954577821
 31
0.0
  0
CIRCLE
  5
79
  8
0
 10
-3.4322459127554801
 20
-2.1489017366491661
 30
0.0
 40
0.2200677450525518
  0
CIRCLE
  5
7A
  8
0
 10
-3.4322459127554801
 20
-2.1489017366491661
 30
0.0
 40
0.2689102784758555
  0
CIRCLE
  5
7B
  8
0
 10
-3.4322459127554801
 20
-2.1489017366491661
 30
0.0
 40
0.3177540872445195
  0
LINE
  5
7C
  8
0
 10
-3.1707183780642589
 20
-1.968427338024513
 30
0.0
 11
-0.2273887923809856
 21
-1.968427338024513
 31
0.0
  0
LINE
  5
7D
  8
0
 10
-3.170556475824843
 20
-2.3291412954577821
 30
0.0
 11
0.0964381569286492
 21
-2.3291412954577821
 31
0.0
  0
ATTDEF
  5
7E
  8
DEFPOINTS
 10
0.0
 20
0.0
 30
0.0
 40
0.001
  1
K-10557
  3

  2
MODELNUMBER
 70
     8
1001
AcDbAttr
1070
     0
1070
     1
  0
ATTDEF
  5
7F
  8
DEFPOINTS
 10
0.0
 20
-0.0016666666666667
 30
0.0
 40
0.001
  1
DEVONSHIRE
  3

  2
TRADENAME
 70
     8
1001
AcDbAttr
1070
     0
1070
     1
  0
ATTDEF
  5
80
  8
DEFPOINTS
 10
0.0
 20
-0.0033333333333333
 30
0.0
 40
0.001
  1
TOWEL RING
  3

  2
PRODUCT
 70
     8
1001
AcDbAttr
1070
     0
1070
     1
  0
ATTDEF
  5
81
  8
DEFPOINTS
 10
0.0
 20
-0.005
 30
0.0
 40
0.001
  1
METAL
  3

  2
MATERIAL
 70
     8
1001
AcDbAttr
1070
     0
1070
     1
  0
LINE
  5
EF
  8
0
 10
0.5558658445602515
 20
-1.8157814576002791
 30
0.0
 11
0.5558658445602515
 21
-2.494233686131992
 31
0.0
  0
LINE
  5
108
  8
0
 10
0.3604791176172308
 20
-1.405985978615218
 30
0.0
 11
0.4032199641360168
 21
-1.430644159299133
 31
0.0
  0
LINE
  5
109
  8
0
 10
0.4032199641360168
 20
-1.430644159299133
 30
0.0
 11
0.4032199641360168
 21
-1.4978083466857961
 31
0.0
  0
LINE
  5
10A
  8
0
 10
0.4032199641360168
 20
-1.4978083466857961
 30
0.0
 11
0.3787966232681392
 21
-1.5222316875536741
 31
0.0
  0
LINE
  5
10B
  8
0
 10
0.3787966232681392
 20
-1.5222316875536741
 30
0.0
 11
0.3726907880511701
 21
-1.5222316875536741
 31
0.0
  0
LINE
  5
10C
  8
0
 10
0.3726907880511701
 20
-1.5222316875536741
 30
0.0
 11
0.3116324358814757
 21
-1.6567949021430379
 31
0.0
  0
LINE
  5
10D
  8
0
 10
0.3116324358814757
 20
-1.6567949021430379
 30
0.0
 11
0.2686567495466527
 21
-1.7728057712654559
 31
0.0
  0
LINE
  5
10E
  8
0
 10
0.2686567495466527
 20
-1.7728057712654559
 30
0.0
 11
0.2747625847636219
 21
-1.8035697871663401
 31
0.0
  0
LINE
  5
10F
  8
0
 10
0.2747625847636219
 20
-1.8035697871663401
 30
0.0
 11
0.2872090950135982
 21
-1.8279931280342181
 31
0.0
  0
LINE
  5
110
  8
0
 10
0.2872090950135982
 20
-1.8279931280342181
 30
0.0
 11
0.3055266006645065
 21
-1.846310633685126
 31
0.0
  0
LINE
  5
111
  8
0
 10
0.3055266006645065
 20
-1.846310633685126
 30
0.0
 11
0.3299499415323841
 21
-1.858522304119065
 31
0.0
  0
LINE
  5
112
  8
0
 10
0.3299499415323841
 20
-1.858522304119065
 30
0.0
 11
0.3604791176172308
 21
-1.8707339745530041
 31
0.0
  0
LINE
  5
113
  8
0
 10
0.3604791176172308
 20
-1.8707339745530041
 30
0.0
 11
0.3910082937020776
 21
-1.8707339745530041
 31
0.0
  0
LINE
  5
114
  8
0
 10
0.3910082937020776
 20
-1.8707339745530041
 30
0.0
 11
0.4459608106548019
 21
-1.864628139336034
 31
0.0
  0
LINE
  5
115
  8
0
 10
0.4459608106548019
 20
-1.864628139336034
 30
0.0
 11
0.5009133276075271
 21
-1.846310633685126
 31
0.0
  0
LINE
  5
116
  8
0
 10
0.5009133276075271
 20
-1.846310633685126
 30
0.0
 11
0.5314425036923738
 21
-1.8279931280342181
 31
0.0
  0
LINE
  5
117
  8
0
 10
0.5314425036923738
 20
-1.8279931280342181
 30
0.0
 11
0.5558658445602515
 21
-1.8157814576002791
 31
0.0
  0
LINE
  5
118
  8
0
 10
0.5558658445602515
 20
-1.8157814576002791
 30
0.0
 11
0.5805240252441659
 21
-1.821887292817248
 31
0.0
  0
LINE
  5
119
  8
0
 10
0.5805240252441659
 20
-1.821887292817248
 30
0.0
 11
0.6110532013290128
 21
-1.8279931280342181
 31
0.0
  0
LINE
  5
11A
  8
0
 10
0.6110532013290128
 20
-1.8279931280342181
 30
0.0
 11
0.6110532013290128
 21
-2.4698103452641149
 31
0.0
  0
LINE
  5
11B
  8
0
 10
0.6110532013290128
 20
-2.4698103452641149
 30
0.0
 11
0.5805240252441659
 21
-2.4881278509150229
 31
0.0
  0
LINE
  5
11C
  8
0
 10
0.5805240252441659
 20
-2.4881278509150229
 30
0.0
 11
0.5558658445602515
 21
-2.494233686131992
 31
0.0
  0
LINE
  5
11D
  8
0
 10
0.5558658445602515
 20
-2.494233686131992
 30
0.0
 11
0.5314425036923738
 21
-2.4820220156980541
 31
0.0
  0
LINE
  5
11E
  8
0
 10
0.5314425036923738
 20
-2.4820220156980541
 30
0.0
 11
0.5009133276075271
 21
-2.4575986748301761
 31
0.0
  0
LINE
  5
11F
  8
0
 10
0.5009133276075271
 20
-2.4575986748301761
 30
0.0
 11
0.4398549754378327
 21
-2.4453870043962369
 31
0.0
  0
LINE
  5
120
  8
0
 10
0.4398549754378327
 20
-2.4453870043962369
 30
0.0
 11
0.3543732824002602
 21
-2.4209636635283589
 31
0.0
  0
LINE
  5
121
  8
0
 10
0.3543732824002602
 20
-2.4209636635283589
 30
0.0
 11
0.2075983973769589
 21
-2.3782228170095738
 31
0.0
  0
LINE
  5
122
  8
0
 10
0.2075983973769589
 20
-2.3782228170095738
 30
0.0
 11
0.0549525169527243
 21
-2.3108237898068729
 31
0.0
  0
LINE
  5
123
  8
0
 10
0.0549525169527243
 20
-2.3108237898068729
 30
0.0
 11
-0.0796106976366393
 21
-2.2131304263353631
 31
0.0
  0
LINE
  5
124
  8
0
 10
-0.0796106976366393
 20
-2.2131304263353631
 30
0.0
 11
-0.1834098963251187
 21
-2.0907788821799391
 31
0.0
  0
LINE
  5
125
  8
0
 10
-0.1834098963251187
 20
-2.0907788821799391
 30
0.0
 11
-0.238362413277843
 21
-1.9378981619396669
 31
0.0
  0
LINE
  5
126
  8
0
 10
-0.238362413277843
 20
-1.9378981619396669
 30
0.0
 11
-0.2627857541457206
 21
-1.8035697871663401
 31
0.0
  0
LINE
  5
127
  8
0
 10
-0.2627857541457206
 20
-1.8035697871663401
 30
0.0
 11
-0.3177382710984453
 21
-1.6567949021430379
 31
0.0
  0
LINE
  5
128
  8
0
 10
-0.3177382710984453
 20
-1.6567949021430379
 30
0.0
 11
-0.3790314630841762
 21
-1.5222316875536741
 31
0.0
  0
LINE
  5
129
  8
0
 10
-0.3790314630841762
 20
-1.5222316875536741
 30
0.0
 11
-0.3851372983011458
 21
-1.5222316875536741
 31
0.0
  0
LINE
  5
12A
  8
0
 10
-0.3851372983011458
 20
-1.5222316875536741
 30
0.0
 11
-0.4095606391690234
 21
-1.4978083466857961
 31
0.0
  0
LINE
  5
12B
  8
0
 10
-0.4095606391690234
 20
-1.4978083466857961
 30
0.0
 11
-0.4095606391690234
 21
-1.430644159299133
 31
0.0
  0
LINE
  5
12C
  8
0
 10
-0.4095606391690234
 20
-1.430644159299133
 30
0.0
 11
-0.3668197926502374
 21
-1.405985978615218
 31
0.0
  0
LINE
  5
130
  8
0
 10
-0.8860506259086725
 20
-0.2505740837117818
 30
0.0
 11
-0.9233191602307416
 21
-0.2505740837117818
 31
0.0
  0
LINE
  5
131
  8
0
 10
-0.9497332932284068
 20
-0.2347970784028323
 30
0.0
 11
-0.9839788291962197
 21
-0.1711982258911799
 31
0.0
  0
LINE
  5
132
  8
0
 10
-0.9839788291962197
 20
-0.1711982258911799
 30
0.0
 11
-1.03613460607508
 21
-0.1711982258911799
 31
0.0
  0
LINE
  5
133
  8
0
 10
-1.0625662442607831
 20
-0.1553886629112329
 30
0.0
 11
-1.0968193608021339
 21
-0.0915875282545407
 31
0.0
  0
LINE
  5
134
  8
0
 10
-1.0968193608021339
 20
-0.0915875282545407
 30
0.0
 11
-1.1574999999999991
 21
-0.0915875282545407
 31
0.0
  0
LINE
  5
136
  8
0
 10
-1.1875
 20
-0.0615875282545407
 30
0.0
 11
-1.1875
 21
0.0
 31
0.0
  0
ARC
  5
13B
  8
0
 10
-1.03613460607508
 20
-0.1411982258911799
 30
0.0
 40
0.03
 50
208.23015723518159
 51
270.0
  0
ARC
  5
13C
  8
0
 10
-1.1574999999999991
 20
-0.0615875282545407
 30
0.0
 40
0.03
 50
180.0
 51
270.0
  0
ARC
  5
13E
  8
0
 10
-0.9233191602307416
 20
-0.2205740837117818
 30
0.0
 40
0.03
 50
208.30075576600629
 51
270.0
  0
POLYLINE
  5
14F
  8
0
 66
     1
 10
0.0
 20
0.0
 30
0.0
  0
VERTEX
  5
1C0
  8
0
 10
-0.3668197926502374
 20
-1.405985978615218
 30
0.0
  0
VERTEX
  5
1C1
  8
0
 10
-0.4156581653334359
 20
-1.146477939150649
 30
0.0
 42
0.0820012655676653
  0
VERTEX
  5
1C2
  8
0
 10
-0.5272740482794255
 20
-0.840378608019273
 30
0.0
  0
VERTEX
  5
1C3
  8
0
 10
-0.8494156146068561
 20
-0.26889158936269
 30
0.0
  0
VERTEX
  5
1C4
  8
0
 10
-0.8860506259086725
 20
-0.2505740837117818
 30
0.0
  0
SEQEND
  5
1C5
  8
0
  0
POLYLINE
  5
150
  8
0
 66
     1
 10
0.0
 20
0.0
 30
0.0
  0
VERTEX
  5
1C6
  8
0
 10
0.3668197926502374
 20
-1.405985978615218
 30
0.0
  0
VERTEX
  5
1C7
  8
0
 10
0.4156581653334359
 20
-1.146477939150649
 30
0.0
 42
-0.0820012655676653
  0
VERTEX
  5
1C8
  8
0
 10
0.5272740482794255
 20
-0.840378608019273
 30
0.0
  0
VERTEX
  5
1C9
  8
0
 10
0.8494156146068561
 20
-0.26889158936269
 30
0.0
  0
VERTEX
  5
1CA
  8
0
 10
0.8860506259086725
 20
-0.2505740837117818
 30
0.0
  0
SEQEND
  5
1CB
  8
0
  0
LINE
  5
151
  8
0
 10
0.8860506259086725
 20
-0.2505740837117818
 30
0.0
 11
0.9233191602307416
 21
-0.2505740837117818
 31
0.0
  0
ARC
  5
152
  8
0
 10
0.9233191602307416
 20
-0.2205740837117818
 30
0.0
 40
0.03
 50
270.0
 51
331.69924423399368
  0
LINE
  5
153
  8
0
 10
0.9497332932284068
 20
-0.2347970784028323
 30
0.0
 11
0.9839788291962197
 21
-0.1711982258911799
 31
0.0
  0
LINE
  5
154
  8
0
 10
0.9839788291962197
 20
-0.1711982258911799
 30
0.0
 11
1.03613460607508
 21
-0.1711982258911799
 31
0.0
  0
ARC
  5
155
  8
0
 10
1.03613460607508
 20
-0.1411982258911799
 30
0.0
 40
0.03
 50
270.0
 51
331.76984276481841
  0
LINE
  5
156
  8
0
 10
1.0625662442607831
 20
-0.1553886629112329
 30
0.0
 11
1.0968193608021339
 21
-0.0915875282545407
 31
0.0
  0
LINE
  5
157
  8
0
 10
1.0968193608021339
 20
-0.0915875282545407
 30
0.0
 11
1.1574999999999991
 21
-0.0915875282545407
 31
0.0
  0
ARC
  5
158
  8
0
 10
1.1574999999999991
 20
-0.0615875282545407
 30
0.0
 40
0.03
 50
270.0
 51
0.000000000000007
  0
LINE
  5
159
  8
0
 10
1.1875
 20
-0.0615875282545407
 30
0.0
 11
1.1875
 21
0.0
 31
0.0
  0
POLYLINE
  5
15E
  8
0
 66
     1
 10
0.0
 20
0.0
 30
0.0
  0
VERTEX
  5
1CC
  8
0
 10
1.0968193608021339
 20
-0.0915875282545407
 30
0.0
  0
VERTEX
  5
1CD
  8
0
 10
0.0
 20
-0.0915875282545407
 30
0.0
  0
VERTEX
  5
1CE
  8
0
 10
-1.0968193608021339
 20
-0.0915875282545407
 30
0.0
  0
SEQEND
  5
1CF
  8
0
  0
POLYLINE
  5
15F
  8
0
 66
     1
 10
0.0
 20
0.0
 30
0.0
  0
VERTEX
  5
1D0
  8
0
 10
0.8860506259086725
 20
-0.2505740837117818
 30
0.0
  0
VERTEX
  5
1D1
  8
0
 10
0.0
 20
-0.2505740837117818
 30
0.0
  0
VERTEX
  5
1D2
  8
0
 10
-0.8860506259086725
 20
-0.2505740837117818
 30
0.0
  0
SEQEND
  5
1D3
  8
0
  0
POLYLINE
  5
160
  8
0
 66
     1
 10
0.0
 20
0.0
 30
0.0
  0
VERTEX
  5
1D4
  8
0
 10
-0.9839788291962195
 20
-0.1711982258911799
 30
0.0
  0
VERTEX
  5
1D5
  8
0
 10
0.0
 20
-0.1711982258911799
 30
0.0
  0
VERTEX
  5
1D6
  8
0
 10
0.9839788291962195
 20
-0.1711982258911799
 30
0.0
  0
SEQEND
  5
1D7
  8
0
  0
POLYLINE
  5
161
  8
0
 66
     1
 10
0.0
 20
0.0
 30
0.0
  0
VERTEX
  5
1D8
  8
0
 10
1.1875
 20
0.0
 30
0.0
  0
VERTEX
  5
1D9
  8
0
 10
0.0
 20
0.0
 30
0.0
  0
VERTEX
  5
1DA
  8
0
 10
-1.1875
 20
0.0
 30
0.0
  0
SEQEND
  5
1DB
  8
0
  0
LINE
  5
165
  8
0
 10
0.5009133276075271
 20
-2.4575986748301761
 30
0.0
 11
0.5009133276075271
 21
-1.846310633685126
 31
0.0
  0
ENDSEC
  0
EOF
