  0
SECTION
  2
HEADER
  9
$ACADVER
  1
AC1009
  9
$INSBASE
 10
0.0
 20
0.0
 30
0.0
  9
$EXTMIN
 10
0.0
 20
-7.0507116821840494
 30
0.0
  9
$EXTMAX
 10
2.4855438891051689
 20
1.1875
 30
0.0
  9
$LIMMIN
 10
0.0
 20
0.0
  9
$LIMMAX
 10
12.0
 20
9.0
  9
$ORTHOMODE
 70
     0
  9
$REGENMODE
 70
     1
  9
$FILLMODE
 70
     1
  9
$QTEXTMODE
 70
     0
  9
$MIRRTEXT
 70
     1
  9
$DRAGMODE
 70
     2
  9
$LTSCALE
 40
1.0
  9
$OSMODE
 70
    37
  9
$ATTMODE
 70
     1
  9
$TEXTSIZE
 40
0.001
  9
$TRACEWID
 40
0.05
  9
$TEXTSTYLE
  7
STANDARD
  9
$CLAYER
  8
0
  9
$CELTYPE
  6
BYLAYER
  9
$CECOLOR
 62
   256
  9
$DIMSCALE
 40
1.0
  9
$DIMASZ
 40
0.18
  9
$DIMEXO
 40
0.0625
  9
$DIMDLI
 40
0.38
  9
$DIMRND
 40
0.0
  9
$DIMDLE
 40
0.0
  9
$DIMEXE
 40
0.18
  9
$DIMTP
 40
0.0
  9
$DIMTM
 40
0.0
  9
$DIMTXT
 40
0.18
  9
$DIMCEN
 40
0.09
  9
$DIMTSZ
 40
0.0
  9
$DIMTOL
 70
     0
  9
$DIMLIM
 70
     0
  9
$DIMTIH
 70
     1
  9
$DIMTOH
 70
     1
  9
$DIMSE1
 70
     0
  9
$DIMSE2
 70
     0
  9
$DIMTAD
 70
     0
  9
$DIMZIN
 70
     0
  9
$DIMBLK
  1

  9
$DIMASO
 70
     1
  9
$DIMSHO
 70
     1
  9
$DIMPOST
  1

  9
$DIMAPOST
  1

  9
$DIMALT
 70
     0
  9
$DIMALTD
 70
     2
  9
$DIMALTF
 40
25.399999999999999
  9
$DIMLFAC
 40
1.0
  9
$DIMTOFL
 70
     0
  9
$DIMTVP
 40
0.0
  9
$DIMTIX
 70
     0
  9
$DIMSOXD
 70
     0
  9
$DIMSAH
 70
     0
  9
$DIMBLK1
  1

  9
$DIMBLK2
  1

  9
$DIMSTYLE
  2
STANDARD
  9
$DIMCLRD
 70
     0
  9
$DIMCLRE
 70
     0
  9
$DIMCLRT
 70
     0
  9
$DIMTFAC
 40
1.0
  9
$DIMGAP
 40
0.09
  9
$LUNITS
 70
     2
  9
$LUPREC
 70
     4
  9
$SKETCHINC
 40
0.1
  9
$FILLETRAD
 40
0.125
  9
$AUNITS
 70
     0
  9
$AUPREC
 70
     0
  9
$MENU
  1
.
  9
$ELEVATION
 40
0.0
  9
$PELEVATION
 40
0.0
  9
$THICKNESS
 40
0.0
  9
$LIMCHECK
 70
     0
  9
$BLIPMODE
 70
     0
  9
$CHAMFERA
 40
0.5
  9
$CHAMFERB
 40
0.5
  9
$SKPOLY
 70
     0
  9
$TDCREATE
 40
2451380.555432396
  9
$TDUPDATE
 40
2456700.4977360531
  9
$TDINDWG
 40
0.078709294
  9
$TDUSRTIMER
 40
0.0787002546
  9
$USRTIMER
 70
     1
  9
$ANGBASE
 50
0.0
  9
$ANGDIR
 70
     0
  9
$PDMODE
 70
     0
  9
$PDSIZE
 40
0.0
  9
$PLINEWID
 40
0.0
  9
$COORDS
 70
     1
  9
$SPLFRAME
 70
     0
  9
$SPLINETYPE
 70
     6
  9
$SPLINESEGS
 70
     8
  9
$ATTDIA
 70
     0
  9
$ATTREQ
 70
     1
  9
$HANDLING
 70
     1
  9
$HANDSEED
  5
27E
  9
$SURFTAB1
 70
     6
  9
$SURFTAB2
 70
     6
  9
$SURFTYPE
 70
     6
  9
$SURFU
 70
     6
  9
$SURFV
 70
     6
  9
$UCSNAME
  2

  9
$UCSORG
 10
0.0
 20
0.0
 30
0.0
  9
$UCSXDIR
 10
1.0
 20
0.0
 30
0.0
  9
$UCSYDIR
 10
0.0
 20
1.0
 30
0.0
  9
$PUCSNAME
  2

  9
$PUCSORG
 10
0.0
 20
0.0
 30
0.0
  9
$PUCSXDIR
 10
1.0
 20
0.0
 30
0.0
  9
$PUCSYDIR
 10
0.0
 20
1.0
 30
0.0
  9
$USERI1
 70
     0
  9
$USERI2
 70
     0
  9
$USERI3
 70
     0
  9
$USERI4
 70
     0
  9
$USERI5
 70
     0
  9
$USERR1
 40
0.0
  9
$USERR2
 40
0.0
  9
$USERR3
 40
0.0
  9
$USERR4
 40
0.0
  9
$USERR5
 40
0.0
  9
$WORLDVIEW
 70
     1
  9
$SHADEDGE
 70
     3
  9
$SHADEDIF
 70
    70
  9
$TILEMODE
 70
     1
  9
$MAXACTVP
 70
    64
  9
$PLIMCHECK
 70
     0
  9
$PEXTMIN
 10
1.0000000000000000E+020
 20
1.0000000000000000E+020
 30
1.0000000000000000E+020
  9
$PEXTMAX
 10
-1.0000000000000000E+020
 20
-1.0000000000000000E+020
 30
-1.0000000000000000E+020
  9
$PLIMMIN
 10
0.0
 20
0.0
  9
$PLIMMAX
 10
12.0
 20
9.0
  9
$UNITMODE
 70
     0
  9
$VISRETAIN
 70
     1
  9
$PLINEGEN
 70
     0
  9
$PSLTSCALE
 70
     1
  0
ENDSEC
  0
SECTION
  2
TABLES
  0
TABLE
  2
VPORT
 70
     1
  0
VPORT
  2
*ACTIVE
 70
     0
 10
0.0
 20
0.0
 11
1.0
 21
1.0
 12
1.2436092289639049
 22
-1.3508695926438381
 13
0.0
 23
0.0
 14
0.5
 24
0.5
 15
0.5
 25
0.5
 16
0.0
 26
0.0
 36
1.0
 17
0.0
 27
0.0
 37
0.0
 40
11.46876977924094
 41
1.1829652996845419
 42
50.0
 43
0.0
 44
0.0
 50
0.0
 51
0.0
 71
     0
 72
  5000
 73
     1
 74
     1
 75
     0
 76
     0
 77
     0
 78
     0
  0
ENDTAB
  0
TABLE
  2
LTYPE
 70
     2
  0
LTYPE
  2
CONTINUOUS
 70
     0
  3
Solid line
 72
    65
 73
     0
 40
0.0
  0
LTYPE
  2
PHANTOM2
 70
     0
  3
Phantom (.5x) ___ _ _ ___ _ _ ___ _ _ ___ _ _
 72
    65
 73
     6
 40
1.25
 49
0.625
 49
-0.125
 49
0.125
 49
-0.125
 49
0.125
 49
-0.125
  0
ENDTAB
  0
TABLE
  2
LAYER
 70
     2
  0
LAYER
  2
0
 70
     0
 62
     7
  6
CONTINUOUS
  0
LAYER
  2
DEFPOINTS
 70
     0
 62
     7
  6
CONTINUOUS
  0
ENDTAB
  0
TABLE
  2
STYLE
 70
     1
  0
STYLE
  2
STANDARD
 70
     0
 40
0.0
 41
1.0
 50
0.0
 71
     0
 42
0.001
  3
txt
  4

  0
ENDTAB
  0
TABLE
  2
VIEW
 70
     0
  0
ENDTAB
  0
TABLE
  2
UCS
 70
     0
  0
ENDTAB
  0
TABLE
  2
APPID
 70
     6
  0
APPID
  2
ACAD
 70
     0
  0
APPID
  2
ACAD_NAV_VCDISPLAY
 70
     0
  0
APPID
  2
ACAECLAYERSTANDARD
 70
     0
  0
APPID
  2
ACCMTRANSPARENCY
 70
     0
  0
APPID
  2
AcDbAttr
 70
     0
  0
APPID
  2
ACAD_MLEADERVER
 70
     0
  0
ENDTAB
  0
TABLE
  2
DIMSTYLE
 70
     1
  0
DIMSTYLE
  2
STANDARD
 70
     0
  3

  4

  5

  6

  7

 40
1.0
 41
0.18
 42
0.0625
 43
0.38
 44
0.18
 45
0.0
 46
0.0
 47
0.0
 48
0.0
140
0.18
141
0.09
142
0.0
143
25.399999999999999
144
1.0
145
0.0
146
1.0
147
0.09
 71
     0
 72
     0
 73
     1
 74
     1
 75
     0
 76
     0
 77
     0
 78
     0
170
     0
171
     2
172
     0
173
     0
174
     0
175
     0
176
     0
177
     0
178
     0
  0
ENDTAB
  0
ENDSEC
  0
SECTION
  2
BLOCKS
  0
BLOCK
  8
0
  2
$MODEL_SPACE
 70
     2
 10
0.0
 20
0.0
 30
0.0
  3
$MODEL_SPACE
  1

  0
ENDBLK
  5
16
  8
0
  0
BLOCK
 67
     1
  8
0
  2
$PAPER_SPACE
 70
     0
 10
0.0
 20
0.0
 30
0.0
  3
$PAPER_SPACE
  1

  0
ENDBLK
  5
1D
 67
     1
  8
0
  0
ENDSEC
  0
SECTION
  2
ENTITIES
  0
ATTDEF
  5
8E
  8
DEFPOINTS
 10
0.0
 20
-0.005
 30
0.0
 40
0.001
  1
METAL
  3

  2
MATERIAL
 70
     8
1001
AcDbAttr
1070
     0
1070
     1
  0
ATTDEF
  5
90
  8
DEFPOINTS
 10
0.0
 20
-0.0033333333333333
 30
0.0
 40
0.001
  1
TOWEL RING
  3

  2
PRODUCT
 70
     8
1001
AcDbAttr
1070
     0
1070
     1
  0
ATTDEF
  5
91
  8
DEFPOINTS
 10
0.0
 20
-0.0016666666666667
 30
0.0
 40
0.001
  1
DEVONSHIRE
  3

  2
TRADENAME
 70
     8
1001
AcDbAttr
1070
     0
1070
     1
  0
ATTDEF
  5
92
  8
DEFPOINTS
 10
0.0
 20
0.0
 30
0.0
 40
0.001
  1
K-10557
  3

  2
MODELNUMBER
 70
     8
1001
AcDbAttr
1070
     0
1070
     1
  0
ARC
  5
F9
  8
0
 10
2.1473623531647399
 20
-0.0044282468570103
 30
0.0
 40
0.3381815359404295
 50
230.48462327344461
 51
127.0944431915987
  0
LINE
  5
FA
  8
0
 10
2.319530894783167
 20
-0.2955033995719263
 30
0.0
 11
2.319530894783167
 21
-2.899558052955741
 31
0.0
  0
ARC
  5
FB
  8
0
 10
2.1429341063077301
 20
-6.8741148937086098
 30
0.0
 40
0.1765967884754387
 50
180.0
 51
0.0
  0
LINE
  5
FC
  8
0
 10
1.966337317832292
 20
-0.2900795864896368
 30
0.0
 11
1.966337317832292
 21
-2.8995862513848469
 31
0.0
  0
POLYLINE
  5
FD
  8
0
 10
1.9221881207134315
 20
-2.9062058026510931
 30
0.0
 66
     1
 70
     8
  0
VERTEX
  8
0
  5
1FC
 10
1.92219
 20
-2.90621
 30
0.000000
  70
    32
  0
VERTEX
  8
0
  5
1FD
 10
1.92245
 20
-2.90675
 30
0.000000
  70
    32
  0
VERTEX
  8
0
  5
1FE
 10
1.92325
 20
-2.90729
 30
0.000000
  70
    32
  0
VERTEX
  8
0
  5
1FF
 10
1.92458
 20
-2.90783
 30
0.000000
  70
    32
  0
VERTEX
  8
0
  5
200
 10
1.92643
 20
-2.90836
 30
0.000000
  70
    32
  0
VERTEX
  8
0
  5
201
 10
1.92881
 20
-2.90889
 30
0.000000
  70
    32
  0
VERTEX
  8
0
  5
202
 10
1.93170
 20
-2.90941
 30
0.000000
  70
    32
  0
VERTEX
  8
0
  5
203
 10
1.93510
 20
-2.90992
 30
0.000000
  70
    32
  0
VERTEX
  8
0
  5
204
 10
1.93901
 20
-2.91043
 30
0.000000
  70
    32
  0
VERTEX
  8
0
  5
205
 10
1.94340
 20
-2.91092
 30
0.000000
  70
    32
  0
VERTEX
  8
0
  5
206
 10
1.94828
 20
-2.91141
 30
0.000000
  70
    32
  0
VERTEX
  8
0
  5
207
 10
1.95362
 20
-2.91188
 30
0.000000
  70
    32
  0
VERTEX
  8
0
  5
208
 10
1.95943
 20
-2.91234
 30
0.000000
  70
    32
  0
VERTEX
  8
0
  5
209
 10
1.96567
 20
-2.91278
 30
0.000000
  70
    32
  0
VERTEX
  8
0
  5
20A
 10
1.97234
 20
-2.91321
 30
0.000000
  70
    32
  0
VERTEX
  8
0
  5
20B
 10
1.97943
 20
-2.91362
 30
0.000000
  70
    32
  0
VERTEX
  8
0
  5
20C
 10
1.98691
 20
-2.91401
 30
0.000000
  70
    32
  0
VERTEX
  8
0
  5
20D
 10
1.99476
 20
-2.91438
 30
0.000000
  70
    32
  0
VERTEX
  8
0
  5
20E
 10
2.00297
 20
-2.91474
 30
0.000000
  70
    32
  0
VERTEX
  8
0
  5
20F
 10
2.01152
 20
-2.91507
 30
0.000000
  70
    32
  0
VERTEX
  8
0
  5
210
 10
2.02039
 20
-2.91538
 30
0.000000
  70
    32
  0
VERTEX
  8
0
  5
211
 10
2.02955
 20
-2.91567
 30
0.000000
  70
    32
  0
VERTEX
  8
0
  5
212
 10
2.03899
 20
-2.91594
 30
0.000000
  70
    32
  0
VERTEX
  8
0
  5
213
 10
2.04867
 20
-2.91618
 30
0.000000
  70
    32
  0
VERTEX
  8
0
  5
214
 10
2.05859
 20
-2.91640
 30
0.000000
  70
    32
  0
VERTEX
  8
0
  5
215
 10
2.06871
 20
-2.91660
 30
0.000000
  70
    32
  0
VERTEX
  8
0
  5
216
 10
2.07901
 20
-2.91677
 30
0.000000
  70
    32
  0
VERTEX
  8
0
  5
217
 10
2.08946
 20
-2.91691
 30
0.000000
  70
    32
  0
VERTEX
  8
0
  5
218
 10
2.10004
 20
-2.91703
 30
0.000000
  70
    32
  0
VERTEX
  8
0
  5
219
 10
2.11073
 20
-2.91712
 30
0.000000
  70
    32
  0
VERTEX
  8
0
  5
21A
 10
2.12149
 20
-2.91719
 30
0.000000
  70
    32
  0
VERTEX
  8
0
  5
21B
 10
2.13230
 20
-2.91723
 30
0.000000
  70
    32
  0
VERTEX
  8
0
  5
21C
 10
2.14315
 20
-2.91724
 30
0.000000
  70
    32
  0
VERTEX
  8
0
  5
21D
 10
2.15399
 20
-2.91723
 30
0.000000
  70
    32
  0
VERTEX
  8
0
  5
21E
 10
2.16480
 20
-2.91719
 30
0.000000
  70
    32
  0
VERTEX
  8
0
  5
21F
 10
2.17557
 20
-2.91712
 30
0.000000
  70
    32
  0
VERTEX
  8
0
  5
220
 10
2.18625
 20
-2.91703
 30
0.000000
  70
    32
  0
VERTEX
  8
0
  5
221
 10
2.19683
 20
-2.91691
 30
0.000000
  70
    32
  0
VERTEX
  8
0
  5
222
 10
2.20729
 20
-2.91677
 30
0.000000
  70
    32
  0
VERTEX
  8
0
  5
223
 10
2.21758
 20
-2.91660
 30
0.000000
  70
    32
  0
VERTEX
  8
0
  5
224
 10
2.22770
 20
-2.91640
 30
0.000000
  70
    32
  0
VERTEX
  8
0
  5
225
 10
2.23762
 20
-2.91618
 30
0.000000
  70
    32
  0
VERTEX
  8
0
  5
226
 10
2.24731
 20
-2.91594
 30
0.000000
  70
    32
  0
VERTEX
  8
0
  5
227
 10
2.25674
 20
-2.91567
 30
0.000000
  70
    32
  0
VERTEX
  8
0
  5
228
 10
2.26590
 20
-2.91538
 30
0.000000
  70
    32
  0
VERTEX
  8
0
  5
229
 10
2.27477
 20
-2.91507
 30
0.000000
  70
    32
  0
VERTEX
  8
0
  5
22A
 10
2.28332
 20
-2.91474
 30
0.000000
  70
    32
  0
VERTEX
  8
0
  5
22B
 10
2.29153
 20
-2.91438
 30
0.000000
  70
    32
  0
VERTEX
  8
0
  5
22C
 10
2.29939
 20
-2.91401
 30
0.000000
  70
    32
  0
VERTEX
  8
0
  5
22D
 10
2.30687
 20
-2.91362
 30
0.000000
  70
    32
  0
VERTEX
  8
0
  5
22E
 10
2.31395
 20
-2.91321
 30
0.000000
  70
    32
  0
VERTEX
  8
0
  5
22F
 10
2.32062
 20
-2.91278
 30
0.000000
  70
    32
  0
VERTEX
  8
0
  5
230
 10
2.32687
 20
-2.91234
 30
0.000000
  70
    32
  0
VERTEX
  8
0
  5
231
 10
2.33267
 20
-2.91188
 30
0.000000
  70
    32
  0
VERTEX
  8
0
  5
232
 10
2.33801
 20
-2.91141
 30
0.000000
  70
    32
  0
VERTEX
  8
0
  5
233
 10
2.34289
 20
-2.91092
 30
0.000000
  70
    32
  0
VERTEX
  8
0
  5
234
 10
2.34729
 20
-2.91043
 30
0.000000
  70
    32
  0
VERTEX
  8
0
  5
235
 10
2.35119
 20
-2.90992
 30
0.000000
  70
    32
  0
VERTEX
  8
0
  5
236
 10
2.35459
 20
-2.90941
 30
0.000000
  70
    32
  0
VERTEX
  8
0
  5
237
 10
2.35748
 20
-2.90889
 30
0.000000
  70
    32
  0
VERTEX
  8
0
  5
238
 10
2.35986
 20
-2.90836
 30
0.000000
  70
    32
  0
VERTEX
  8
0
  5
239
 10
2.36171
 20
-2.90783
 30
0.000000
  70
    32
  0
VERTEX
  8
0
  5
23A
 10
2.36304
 20
-2.90729
 30
0.000000
  70
    32
  0
VERTEX
  8
0
  5
23B
 10
2.36384
 20
-2.90675
 30
0.000000
  70
    32
  0
VERTEX
  8
0
  5
23C
 10
2.36410
 20
-2.90621
 30
0.000000
  70
    32
  0
VERTEX
  8
0
  5
23D
 10
2.36384
 20
-2.90566
 30
0.000000
  70
    32
  0
VERTEX
  8
0
  5
23E
 10
2.36304
 20
-2.90512
 30
0.000000
  70
    32
  0
VERTEX
  8
0
  5
23F
 10
2.36171
 20
-2.90459
 30
0.000000
  70
    32
  0
VERTEX
  8
0
  5
240
 10
2.35986
 20
-2.90405
 30
0.000000
  70
    32
  0
VERTEX
  8
0
  5
241
 10
2.35748
 20
-2.90352
 30
0.000000
  70
    32
  0
VERTEX
  8
0
  5
242
 10
2.35459
 20
-2.90300
 30
0.000000
  70
    32
  0
VERTEX
  8
0
  5
243
 10
2.35119
 20
-2.90249
 30
0.000000
  70
    32
  0
VERTEX
  8
0
  5
244
 10
2.34729
 20
-2.90198
 30
0.000000
  70
    32
  0
VERTEX
  8
0
  5
245
 10
2.34289
 20
-2.90149
 30
0.000000
  70
    32
  0
VERTEX
  8
0
  5
246
 10
2.33801
 20
-2.90100
 30
0.000000
  70
    32
  0
VERTEX
  8
0
  5
247
 10
2.33267
 20
-2.90053
 30
0.000000
  70
    32
  0
VERTEX
  8
0
  5
248
 10
2.32687
 20
-2.90007
 30
0.000000
  70
    32
  0
VERTEX
  8
0
  5
249
 10
2.32062
 20
-2.89963
 30
0.000000
  70
    32
  0
VERTEX
  8
0
  5
24A
 10
2.31395
 20
-2.89920
 30
0.000000
  70
    32
  0
VERTEX
  8
0
  5
24B
 10
2.30687
 20
-2.89879
 30
0.000000
  70
    32
  0
VERTEX
  8
0
  5
24C
 10
2.29939
 20
-2.89840
 30
0.000000
  70
    32
  0
VERTEX
  8
0
  5
24D
 10
2.29153
 20
-2.89803
 30
0.000000
  70
    32
  0
VERTEX
  8
0
  5
24E
 10
2.28332
 20
-2.89767
 30
0.000000
  70
    32
  0
VERTEX
  8
0
  5
24F
 10
2.27477
 20
-2.89734
 30
0.000000
  70
    32
  0
VERTEX
  8
0
  5
250
 10
2.26590
 20
-2.89703
 30
0.000000
  70
    32
  0
VERTEX
  8
0
  5
251
 10
2.25674
 20
-2.89674
 30
0.000000
  70
    32
  0
VERTEX
  8
0
  5
252
 10
2.24731
 20
-2.89647
 30
0.000000
  70
    32
  0
VERTEX
  8
0
  5
253
 10
2.23762
 20
-2.89623
 30
0.000000
  70
    32
  0
VERTEX
  8
0
  5
254
 10
2.22770
 20
-2.89601
 30
0.000000
  70
    32
  0
VERTEX
  8
0
  5
255
 10
2.21758
 20
-2.89581
 30
0.000000
  70
    32
  0
VERTEX
  8
0
  5
256
 10
2.20729
 20
-2.89564
 30
0.000000
  70
    32
  0
VERTEX
  8
0
  5
257
 10
2.19683
 20
-2.89550
 30
0.000000
  70
    32
  0
VERTEX
  8
0
  5
258
 10
2.18625
 20
-2.89538
 30
0.000000
  70
    32
  0
VERTEX
  8
0
  5
259
 10
2.17557
 20
-2.89529
 30
0.000000
  70
    32
  0
VERTEX
  8
0
  5
25A
 10
2.16480
 20
-2.89522
 30
0.000000
  70
    32
  0
VERTEX
  8
0
  5
25B
 10
2.15399
 20
-2.89518
 30
0.000000
  70
    32
  0
VERTEX
  8
0
  5
25C
 10
2.14315
 20
-2.89517
 30
0.000000
  70
    32
  0
VERTEX
  8
0
  5
25D
 10
2.13230
 20
-2.89518
 30
0.000000
  70
    32
  0
VERTEX
  8
0
  5
25E
 10
2.12149
 20
-2.89522
 30
0.000000
  70
    32
  0
VERTEX
  8
0
  5
25F
 10
2.11073
 20
-2.89529
 30
0.000000
  70
    32
  0
VERTEX
  8
0
  5
260
 10
2.10004
 20
-2.89538
 30
0.000000
  70
    32
  0
VERTEX
  8
0
  5
261
 10
2.08946
 20
-2.89550
 30
0.000000
  70
    32
  0
VERTEX
  8
0
  5
262
 10
2.07901
 20
-2.89564
 30
0.000000
  70
    32
  0
VERTEX
  8
0
  5
263
 10
2.06871
 20
-2.89581
 30
0.000000
  70
    32
  0
VERTEX
  8
0
  5
264
 10
2.05859
 20
-2.89601
 30
0.000000
  70
    32
  0
VERTEX
  8
0
  5
265
 10
2.04867
 20
-2.89623
 30
0.000000
  70
    32
  0
VERTEX
  8
0
  5
266
 10
2.03899
 20
-2.89647
 30
0.000000
  70
    32
  0
VERTEX
  8
0
  5
267
 10
2.02955
 20
-2.89674
 30
0.000000
  70
    32
  0
VERTEX
  8
0
  5
268
 10
2.02039
 20
-2.89703
 30
0.000000
  70
    32
  0
VERTEX
  8
0
  5
269
 10
2.01152
 20
-2.89734
 30
0.000000
  70
    32
  0
VERTEX
  8
0
  5
26A
 10
2.00297
 20
-2.89767
 30
0.000000
  70
    32
  0
VERTEX
  8
0
  5
26B
 10
1.99476
 20
-2.89803
 30
0.000000
  70
    32
  0
VERTEX
  8
0
  5
26C
 10
1.98691
 20
-2.89840
 30
0.000000
  70
    32
  0
VERTEX
  8
0
  5
26D
 10
1.97943
 20
-2.89879
 30
0.000000
  70
    32
  0
VERTEX
  8
0
  5
26E
 10
1.97234
 20
-2.89920
 30
0.000000
  70
    32
  0
VERTEX
  8
0
  5
26F
 10
1.96567
 20
-2.89963
 30
0.000000
  70
    32
  0
VERTEX
  8
0
  5
270
 10
1.95943
 20
-2.90007
 30
0.000000
  70
    32
  0
VERTEX
  8
0
  5
271
 10
1.95362
 20
-2.90053
 30
0.000000
  70
    32
  0
VERTEX
  8
0
  5
272
 10
1.94828
 20
-2.90100
 30
0.000000
  70
    32
  0
VERTEX
  8
0
  5
273
 10
1.94340
 20
-2.90149
 30
0.000000
  70
    32
  0
VERTEX
  8
0
  5
274
 10
1.93901
 20
-2.90198
 30
0.000000
  70
    32
  0
VERTEX
  8
0
  5
275
 10
1.93510
 20
-2.90249
 30
0.000000
  70
    32
  0
VERTEX
  8
0
  5
276
 10
1.93170
 20
-2.90300
 30
0.000000
  70
    32
  0
VERTEX
  8
0
  5
277
 10
1.92881
 20
-2.90352
 30
0.000000
  70
    32
  0
VERTEX
  8
0
  5
278
 10
1.92643
 20
-2.90405
 30
0.000000
  70
    32
  0
VERTEX
  8
0
  5
279
 10
1.92458
 20
-2.90459
 30
0.000000
  70
    32
  0
VERTEX
  8
0
  5
27A
 10
1.92325
 20
-2.90512
 30
0.000000
  70
    32
  0
VERTEX
  8
0
  5
27B
 10
1.92245
 20
-2.90566
 30
0.000000
  70
    32
  0
VERTEX
  8
0
  5
27C
 10
1.92219
 20
-2.90621
 30
0.000000
  70
    32
  0
SEQEND
  8
0
  5
27D
  0
ARC
  5
FE
  8
0
 10
2.143146362063109
 20
-1.278734798281562
 30
0.0
 40
1.7382685216364551
 50
260.85915372895943
 51
279.14084627104052
  0
ARC
  5
FF
  8
0
 10
2.143146362063109
 20
-0.7816318191836214
 30
0.0
 40
2.33470719094124
 50
262.11483648590922
 51
277.88516351409061
  0
ARC
  5
100
  8
0
 10
2.143146362063109
 20
-0.7374826220647625
 30
0.0
 40
2.3347071909412391
 50
262.11483648590922
 51
277.88516351409061
  0
ARC
  5
101
  8
0
 10
2.143146362063109
 20
-1.2345856011627721
 30
0.0
 40
1.738268521636386
 50
260.85915372895909
 51
279.14084627104103
  0
LINE
  5
102
  8
0
 10
2.3641046034127862
 20
-2.9062058026510931
 30
0.0
 11
2.4192910998113608
 21
-2.95077951128071
 31
0.0
  0
LINE
  5
103
  8
0
 10
2.4192910998113608
 20
-2.95077951128071
 30
0.0
 11
2.419291099811359
 21
-2.9949287083995699
 31
0.0
  0
LINE
  5
104
  8
0
 10
2.419291099811359
 20
-2.9949287083995699
 30
0.0
 11
2.4634402969302198
 21
-3.050115204798145
 31
0.0
  0
LINE
  5
105
  8
0
 10
2.4634402969302198
 20
-3.050115204798145
 30
0.0
 11
2.46344029693023
 21
-3.094264401917004
 31
0.0
  0
LINE
  5
106
  8
0
 10
1.922188120713431
 20
-2.9062058026510931
 30
0.0
 11
1.8670016243148631
 21
-2.9507795112807118
 31
0.0
  0
LINE
  5
107
  8
0
 10
1.8670016243148631
 20
-2.9507795112807118
 30
0.0
 11
1.867001624314867
 21
-2.9949287083995721
 31
0.0
  0
LINE
  5
108
  8
0
 10
1.867001624314867
 20
-2.9949287083995721
 30
0.0
 11
1.8228524271960029
 21
-3.0501152047981459
 31
0.0
  0
LINE
  5
109
  8
0
 10
1.8228524271960029
 20
-3.0501152047981459
 30
0.0
 11
1.822852427196044
 21
-3.0942644019170111
 31
0.0
  0
ARC
  5
10A
  8
0
 10
2.142934106307731
 20
-2.1955735336417068
 30
0.0
 40
1.418292957443416
 50
262.84733125000548
 51
277.15266874999429
  0
ARC
  5
10B
  8
0
 10
2.142934106307731
 20
-2.2507600300403361
 30
0.0
 40
1.4182929574433609
 50
262.8473312500052
 51
277.15266874999458
  0
ARC
  5
10C
  8
0
 10
2.143146362063109
 20
-1.203277877244264
 30
0.0
 40
2.4437005208980942
 50
264.55235462813209
 51
275.44764537186802
  0
LINE
  5
10D
  8
0
 10
2.3195308947831621
 20
-3.6028291918054101
 30
0.0
 11
2.3751419026924978
 21
-3.6359410896445539
 31
0.0
  0
LINE
  5
10E
  8
0
 10
2.3751419026924978
 20
-3.6359410896445539
 30
0.0
 11
2.319530894783167
 21
-3.6580156882039829
 31
0.0
  0
LINE
  5
10F
  8
0
 10
1.966337317832294
 20
-3.6028291918054078
 30
0.0
 11
1.9111508214337221
 21
-3.6359410896445539
 31
0.0
  0
LINE
  5
110
  8
0
 10
1.9111508214337221
 20
-3.6359410896445539
 30
0.0
 11
1.9663373178322809
 21
-3.6580156882039812
 31
0.0
  0
LINE
  5
111
  8
0
 10
2.4082538005316469
 20
-3.1053017011967201
 30
0.0
 11
2.3530673041330701
 21
-3.293360300462632
 31
0.0
  0
LINE
  5
112
  8
0
 10
2.3530673041330701
 20
-3.293360300462632
 30
0.0
 11
2.319530894783167
 21
-3.6028291918054141
 31
0.0
  0
LINE
  5
113
  8
0
 10
1.87803892359457
 20
-3.1053017011967201
 30
0.0
 11
1.9332254199931469
 21
-3.293360300462632
 31
0.0
  0
LINE
  5
114
  8
0
 10
1.9332254199931469
 20
-3.293360300462632
 30
0.0
 11
1.96633731783229
 21
-3.6028291918054078
 31
0.0
  0
LINE
  5
115
  8
0
 10
0.0882983942377189
 20
1.094390674734812
 30
0.0
 11
0.0882983942377189
 21
-1.0943906747348111
 31
0.0
  0
LINE
  5
116
  8
0
 10
0.1659840007064828
 20
-0.9835931704269036
 30
0.0
 11
0.1659840007064828
 21
0.9835931704269036
 31
0.0
  0
LINE
  5
117
  8
0
 10
0.2432450956644869
 20
0.8842574769094699
 30
0.0
 11
0.2432450956644869
 21
-0.8842574769094699
 31
0.0
  0
LINE
  5
118
  8
0
 10
1.4913089372937911
 20
0.4092290963709698
 30
0.0
 11
1.4913089372937911
 21
-0.4092290963709698
 31
0.0
  0
LINE
  5
119
  8
0
 10
1.425085141615501
 20
-0.4092290963709698
 30
0.0
 11
1.425085141615501
 21
0.4092290963709698
 31
0.0
  0
LINE
  5
11A
  8
0
 10
1.40301054305607
 20
0.3536180884616362
 30
0.0
 11
1.40301054305607
 21
-0.3536180884616362
 31
0.0
  0
LINE
  5
11B
  8
0
 10
1.5133835358532191
 20
-0.3756926870210666
 30
0.0
 11
1.5133835358532191
 21
0.3756926870210666
 31
0.0
  0
POLYLINE
  5
11C
  8
0
 66
     1
 10
0.0
 20
0.0
 30
0.0
  0
VERTEX
  5
1C1
  8
0
 10
2.087747609909155
 20
0.2653196942239173
 30
0.0
  0
VERTEX
  5
1C2
  8
0
 10
2.131896807028014
 20
0.2763569935036312
 30
0.0
  0
VERTEX
  5
1C3
  8
0
 10
2.1429341063077301
 20
0.2873942927833468
 30
0.0
  0
VERTEX
  5
1C4
  8
0
 10
2.1429341063077301
 20
0.3094688913427763
 30
0.0
  0
SEQEND
  5
1C5
  8
0
  0
POLYLINE
  5
11D
  8
0
 66
     1
 10
0.0
 20
0.0
 30
0.0
  0
VERTEX
  5
1C6
  8
0
 10
2.087747609909155
 20
-0.2653196942239173
 30
0.0
  0
VERTEX
  5
1C7
  8
0
 10
2.131896807028014
 20
-0.2763569935036312
 30
0.0
  0
VERTEX
  5
1C8
  8
0
 10
2.1429341063077301
 20
-0.2873942927833468
 30
0.0
  0
VERTEX
  5
1C9
  8
0
 10
2.1429341063077301
 20
-0.3094688913427763
 30
0.0
  0
SEQEND
  5
1CA
  8
0
  0
LINE
  5
120
  8
0
 10
1.966337317832292
 20
-3.6580156882039829
 30
0.0
 11
1.966337317832292
 21
-6.8741148937086098
 31
0.0
  0
LINE
  5
121
  8
0
 10
2.319530894783167
 20
-3.6580156882039829
 30
0.0
 11
2.319530894783167
 21
-6.8741148937086098
 31
0.0
  0
LINE
  5
12E
  8
0
 10
1.40301054305607
 20
0.3536180884616362
 30
0.0
 11
1.425085141615501
 21
0.4092290963709698
 31
0.0
  0
LINE
  5
12F
  8
0
 10
1.425085141615501
 20
0.4092290963709698
 30
0.0
 11
1.4913089372937911
 21
0.4092290963709698
 31
0.0
  0
LINE
  5
130
  8
0
 10
1.4913089372937911
 20
0.4092290963709698
 30
0.0
 11
1.5133835358532191
 21
0.3756926870210666
 31
0.0
  0
LINE
  5
145
  8
0
 10
1.40301054305607
 20
-0.3536180884616362
 30
0.0
 11
1.425085141615501
 21
-0.4092290963709698
 31
0.0
  0
LINE
  5
146
  8
0
 10
1.425085141615501
 20
-0.4092290963709698
 30
0.0
 11
1.4913089372937911
 21
-0.4092290963709698
 31
0.0
  0
LINE
  5
147
  8
0
 10
1.4913089372937911
 20
-0.4092290963709698
 30
0.0
 11
1.5133835358532191
 21
-0.3756926870210666
 31
0.0
  0
POLYLINE
  5
155
  8
0
 66
     1
 10
0.0
 20
0.0
 30
0.0
  0
VERTEX
  5
1CB
  8
0
 10
1.5133835358532191
 20
0.3756926870210666
 30
0.0
  0
VERTEX
  5
1CC
  8
0
 10
1.6568684264895139
 20
0.3094688913427763
 30
0.0
  0
VERTEX
  5
1CD
  8
0
 10
1.6954946758629801
 20
0.2954229824796981
 30
0.0
 42
0.08741438809204
  0
VERTEX
  5
1CE
  8
0
 10
1.8663662074063281
 20
0.2653196942239173
 30
0.0
  0
VERTEX
  5
1CF
  8
0
 10
2.1208595077483001
 20
0.2653196942239173
 30
0.0
  0
VERTEX
  5
1D0
  8
0
 10
2.223157659312577
 20
0.2560198622635277
 30
0.0
 42
-0.0903174556022781
  0
VERTEX
  5
1D1
  8
0
 10
2.2663185302402269
 20
0.2440372782169158
 30
0.0
 42
-0.626840992035571
  0
VERTEX
  5
1D2
  8
0
 10
2.2663185302402198
 20
-0.2440372782168971
 30
0.0
 42
-0.090317455602279
  0
VERTEX
  5
1D3
  8
0
 10
2.2231576593125788
 20
-0.2560198622635278
 30
0.0
  0
VERTEX
  5
1D4
  8
0
 10
2.1208595077483001
 20
-0.2653196942239173
 30
0.0
  0
VERTEX
  5
1D5
  8
0
 10
1.8663662074063301
 20
-0.2653196942239173
 30
0.0
 42
0.0874143880920399
  0
VERTEX
  5
1D6
  8
0
 10
1.6954946758629801
 20
-0.2954229824796975
 30
0.0
  0
VERTEX
  5
1D7
  8
0
 10
1.6568684264895139
 20
-0.3094688913427763
 30
0.0
  0
VERTEX
  5
1D8
  8
0
 10
1.5133835358532191
 20
-0.3756926870210666
 30
0.0
  0
SEQEND
  5
1D9
  8
0
  0
POLYLINE
  5
156
  8
0
 66
     1
 10
0.0
 20
0.0
 30
0.0
  0
VERTEX
  5
1DA
  8
0
 10
0.2432450956644869
 20
0.8842574769094699
 30
0.0
  0
VERTEX
  5
1DB
  8
0
 10
0.2653196942239164
 20
0.8511455790703248
 30
0.0
  0
VERTEX
  5
1DC
  8
0
 10
0.9019952070079773
 20
0.4829062284330571
 30
0.0
 42
0.0804973210607262
  0
VERTEX
  5
1DD
  8
0
 10
1.0514887982550101
 20
0.4260003984748596
 30
0.0
  0
VERTEX
  5
1DE
  8
0
 10
1.40301054305607
 20
0.3536180884616362
 30
0.0
  0
SEQEND
  5
1DF
  8
0
  0
POLYLINE
  5
157
  8
0
 66
     1
 10
0.0
 20
0.0
 30
0.0
  0
VERTEX
  5
1E0
  8
0
 10
0.2432450956644869
 20
-0.8842574769094699
 30
0.0
  0
VERTEX
  5
1E1
  8
0
 10
0.2653196942239164
 20
-0.8511455790703248
 30
0.0
  0
VERTEX
  5
1E2
  8
0
 10
0.9019952070079773
 20
-0.4829062284330572
 30
0.0
 42
-0.0804973210607263
  0
VERTEX
  5
1E3
  8
0
 10
1.0514887982550101
 20
-0.4260003984748597
 30
0.0
  0
VERTEX
  5
1E4
  8
0
 10
1.40301054305607
 20
-0.3536180884616362
 30
0.0
  0
SEQEND
  5
1E5
  8
0
  0
POLYLINE
  5
158
  8
0
 66
     1
 10
0.0
 20
0.0
 30
0.0
  0
VERTEX
  5
1E6
  8
0
 10
0.0
 20
1.1875
 30
0.0
  0
VERTEX
  5
1E7
  8
0
 10
0.0662237956782894
 20
1.1875
 30
0.0
  0
VERTEX
  5
1E8
  8
0
 10
0.0882983942377189
 20
1.154388102160854
 30
0.0
  0
VERTEX
  5
1E9
  8
0
 10
0.0882983942377189
 20
1.094390674734812
 30
0.0
  0
VERTEX
  5
1EA
  8
0
 10
0.1659840007064828
 20
1.049816966105193
 30
0.0
  0
VERTEX
  5
1EB
  8
0
 10
0.1659840007064828
 20
0.9835931704269036
 30
0.0
  0
VERTEX
  5
1EC
  8
0
 10
0.2432450956644869
 20
0.9394439733080446
 30
0.0
  0
VERTEX
  5
1ED
  8
0
 10
0.2432450956644869
 20
0.8842574769094699
 30
0.0
  0
SEQEND
  5
1EE
  8
0
  0
POLYLINE
  5
159
  8
0
 66
     1
 10
0.0
 20
0.0
 30
0.0
  0
VERTEX
  5
1EF
  8
0
 10
0.0
 20
-1.1875
 30
0.0
  0
VERTEX
  5
1F0
  8
0
 10
0.0662237956782894
 20
-1.1875
 30
0.0
  0
VERTEX
  5
1F1
  8
0
 10
0.0882983942377189
 20
-1.1543881021608551
 30
0.0
  0
VERTEX
  5
1F2
  8
0
 10
0.0882983942377189
 20
-1.0943906747348111
 30
0.0
  0
VERTEX
  5
1F3
  8
0
 10
0.1659840007064828
 20
-1.049816966105193
 30
0.0
  0
VERTEX
  5
1F4
  8
0
 10
0.1659840007064828
 20
-0.9835931704269036
 30
0.0
  0
VERTEX
  5
1F5
  8
0
 10
0.2432450956644869
 20
-0.9394439733080446
 30
0.0
  0
VERTEX
  5
1F6
  8
0
 10
0.2432450956644869
 20
-0.8842574769094699
 30
0.0
  0
SEQEND
  5
1F7
  8
0
  0
POLYLINE
  5
15A
  8
0
 66
     1
 10
0.0
 20
0.0
 30
0.0
  0
VERTEX
  5
1F8
  8
0
 10
0.0
 20
1.1875
 30
0.0
  0
VERTEX
  5
1F9
  8
0
 10
0.0
 20
0.0
 30
0.0
  0
VERTEX
  5
1FA
  8
0
 10
0.0
 20
-1.1875
 30
0.0
  0
SEQEND
  5
1FB
  8
0
  0
ENDSEC
  0
EOF
