  0
SECTION
  2
HEADER
  9
$ACADVER
  1
AC1018
  9
$ACADMAINTVER
 70
    39
  9
$DWGCODEPAGE
  3
ANSI_1252
  9
$INSBASE
 10
0.0
 20
0.0
 30
0.0
  9
$EXTMIN
 10
-36.20306268601084
 20
-48.69723436002036
 30
0.0
  9
$EXTMAX
 10
48.61013030190822
 20
5.0
 30
0.0
  9
$LIMMIN
 10
0.0
 20
0.0
  9
$LIMMAX
 10
12.0
 20
9.0
  9
$ORTHOMODE
 70
     0
  9
$REGENMODE
 70
     1
  9
$FILLMODE
 70
     1
  9
$QTEXTMODE
 70
     0
  9
$MIRRTEXT
 70
     1
  9
$LTSCALE
 40
1.0
  9
$ATTMODE
 70
     1
  9
$TEXTSIZE
 40
0.001
  9
$TRACEWID
 40
0.05
  9
$TEXTSTYLE
  7
STANDARD
  9
$CLAYER
  8
0
  9
$CELTYPE
  6
ByLayer
  9
$CECOLOR
 62
   256
  9
$CELTSCALE
 40
1.0
  9
$DISPSILH
 70
     0
  9
$DIMSCALE
 40
1.0
  9
$DIMASZ
 40
0.18
  9
$DIMEXO
 40
0.0625
  9
$DIMDLI
 40
0.38
  9
$DIMRND
 40
0.0
  9
$DIMDLE
 40
0.0
  9
$DIMEXE
 40
0.18
  9
$DIMTP
 40
0.0
  9
$DIMTM
 40
0.0
  9
$DIMTXT
 40
0.18
  9
$DIMCEN
 40
0.09
  9
$DIMTSZ
 40
0.0
  9
$DIMTOL
 70
     0
  9
$DIMLIM
 70
     0
  9
$DIMTIH
 70
     1
  9
$DIMTOH
 70
     1
  9
$DIMSE1
 70
     0
  9
$DIMSE2
 70
     0
  9
$DIMTAD
 70
     0
  9
$DIMZIN
 70
     0
  9
$DIMBLK
  1

  9
$DIMASO
 70
     1
  9
$DIMSHO
 70
     1
  9
$DIMPOST
  1

  9
$DIMAPOST
  1

  9
$DIMALT
 70
     0
  9
$DIMALTD
 70
     2
  9
$DIMALTF
 40
25.4
  9
$DIMLFAC
 40
1.0
  9
$DIMTOFL
 70
     0
  9
$DIMTVP
 40
0.0
  9
$DIMTIX
 70
     0
  9
$DIMSOXD
 70
     0
  9
$DIMSAH
 70
     0
  9
$DIMBLK1
  1

  9
$DIMBLK2
  1

  9
$DIMSTYLE
  2
STANDARD
  9
$DIMCLRD
 70
     0
  9
$DIMCLRE
 70
     0
  9
$DIMCLRT
 70
     0
  9
$DIMTFAC
 40
1.0
  9
$DIMGAP
 40
0.09
  9
$DIMJUST
 70
     0
  9
$DIMSD1
 70
     0
  9
$DIMSD2
 70
     0
  9
$DIMTOLJ
 70
     1
  9
$DIMTZIN
 70
     0
  9
$DIMALTZ
 70
     0
  9
$DIMALTTZ
 70
     0
  9
$DIMUPT
 70
     0
  9
$DIMDEC
 70
     4
  9
$DIMTDEC
 70
     4
  9
$DIMALTU
 70
     2
  9
$DIMALTTD
 70
     2
  9
$DIMTXSTY
  7
STANDARD
  9
$DIMAUNIT
 70
     0
  9
$DIMADEC
 70
     0
  9
$DIMALTRND
 40
0.0
  9
$DIMAZIN
 70
     0
  9
$DIMDSEP
 70
    46
  9
$DIMATFIT
 70
     3
  9
$DIMFRAC
 70
     0
  9
$DIMLDRBLK
  1

  9
$DIMLUNIT
 70
     2
  9
$DIMLWD
 70
    -2
  9
$DIMLWE
 70
    -2
  9
$DIMTMOVE
 70
     0
  9
$LUNITS
 70
     2
  9
$LUPREC
 70
     4
  9
$SKETCHINC
 40
0.1
  9
$FILLETRAD
 40
0.5
  9
$AUNITS
 70
     0
  9
$AUPREC
 70
     0
  9
$MENU
  1
acad
  9
$ELEVATION
 40
0.0
  9
$PELEVATION
 40
0.0
  9
$THICKNESS
 40
0.0
  9
$LIMCHECK
 70
     0
  9
$CHAMFERA
 40
0.5
  9
$CHAMFERB
 40
0.5
  9
$CHAMFERC
 40
0.0
  9
$CHAMFERD
 40
0.0
  9
$SKPOLY
 70
     0
  9
$TDCREATE
 40
2451108.657902431
  9
$TDUCREATE
 40
2451108.866235764
  9
$TDUPDATE
 40
2454175.440546516
  9
$TDUUPDATE
 40
2454175.648879850
  9
$TDINDWG
 40
0.0456668171
  9
$TDUSRTIMER
 40
0.0456668171
  9
$USRTIMER
 70
     1
  9
$ANGBASE
 50
0.0
  9
$ANGDIR
 70
     0
  9
$PDMODE
 70
     0
  9
$PDSIZE
 40
0.0
  9
$PLINEWID
 40
0.0
  9
$SPLFRAME
 70
     0
  9
$SPLINETYPE
 70
     6
  9
$SPLINESEGS
 70
     8
  9
$HANDSEED
  5
7F07
  9
$SURFTAB1
 70
     6
  9
$SURFTAB2
 70
     6
  9
$SURFTYPE
 70
     6
  9
$SURFU
 70
     6
  9
$SURFV
 70
     6
  9
$UCSBASE
  2

  9
$UCSNAME
  2

  9
$UCSORG
 10
0.0
 20
0.0
 30
0.0
  9
$UCSXDIR
 10
1.0
 20
0.0
 30
0.0
  9
$UCSYDIR
 10
0.0
 20
1.0
 30
0.0
  9
$UCSORTHOREF
  2

  9
$UCSORTHOVIEW
 70
     0
  9
$UCSORGTOP
 10
0.0
 20
0.0
 30
0.0
  9
$UCSORGBOTTOM
 10
0.0
 20
0.0
 30
0.0
  9
$UCSORGLEFT
 10
0.0
 20
0.0
 30
0.0
  9
$UCSORGRIGHT
 10
0.0
 20
0.0
 30
0.0
  9
$UCSORGFRONT
 10
0.0
 20
0.0
 30
0.0
  9
$UCSORGBACK
 10
0.0
 20
0.0
 30
0.0
  9
$PUCSBASE
  2

  9
$PUCSNAME
  2

  9
$PUCSORG
 10
0.0
 20
0.0
 30
0.0
  9
$PUCSXDIR
 10
1.0
 20
0.0
 30
0.0
  9
$PUCSYDIR
 10
0.0
 20
1.0
 30
0.0
  9
$PUCSORTHOREF
  2

  9
$PUCSORTHOVIEW
 70
     0
  9
$PUCSORGTOP
 10
0.0
 20
0.0
 30
0.0
  9
$PUCSORGBOTTOM
 10
0.0
 20
0.0
 30
0.0
  9
$PUCSORGLEFT
 10
0.0
 20
0.0
 30
0.0
  9
$PUCSORGRIGHT
 10
0.0
 20
0.0
 30
0.0
  9
$PUCSORGFRONT
 10
0.0
 20
0.0
 30
0.0
  9
$PUCSORGBACK
 10
0.0
 20
0.0
 30
0.0
  9
$USERI1
 70
     0
  9
$USERI2
 70
     0
  9
$USERI3
 70
     0
  9
$USERI4
 70
     0
  9
$USERI5
 70
     0
  9
$USERR1
 40
0.0
  9
$USERR2
 40
0.0
  9
$USERR3
 40
0.0
  9
$USERR4
 40
0.0
  9
$USERR5
 40
0.0
  9
$WORLDVIEW
 70
     1
  9
$SHADEDGE
 70
     3
  9
$SHADEDIF
 70
    70
  9
$TILEMODE
 70
     1
  9
$MAXACTVP
 70
    48
  9
$PINSBASE
 10
0.0
 20
0.0
 30
0.0
  9
$PLIMCHECK
 70
     0
  9
$PEXTMIN
 10
1.000000000000000E+20
 20
1.000000000000000E+20
 30
1.000000000000000E+20
  9
$PEXTMAX
 10
-1.000000000000000E+20
 20
-1.000000000000000E+20
 30
-1.000000000000000E+20
  9
$PLIMMIN
 10
0.0
 20
0.0
  9
$PLIMMAX
 10
12.0
 20
9.0
  9
$UNITMODE
 70
     0
  9
$VISRETAIN
 70
     1
  9
$PLINEGEN
 70
     0
  9
$PSLTSCALE
 70
     1
  9
$TREEDEPTH
 70
  3020
  9
$CMLSTYLE
  2
Standard
  9
$CMLJUST
 70
     0
  9
$CMLSCALE
 40
1.0
  9
$PROXYGRAPHICS
 70
     1
  9
$MEASUREMENT
 70
     0
  9
$CELWEIGHT
370
    -1
  9
$ENDCAPS
280
     0
  9
$JOINSTYLE
280
     0
  9
$LWDISPLAY
290
     0
  9
$INSUNITS
 70
     0
  9
$HYPERLINKBASE
  1

  9
$STYLESHEET
  1

  9
$XEDIT
290
     1
  9
$CEPSNTYPE
380
     0
  9
$PSTYLEMODE
290
     1
  9
$FINGERPRINTGUID
  2
{149B5C73-B5F7-4E93-8628-FAF6A46BE737}
  9
$VERSIONGUID
  2
{035D172D-CEC2-4810-AF58-7E276E8B51CA}
  9
$EXTNAMES
290
     1
  9
$PSVPSCALE
 40
0.0
  9
$OLESTARTUP
290
     0
  9
$SORTENTS
280
   127
  9
$INDEXCTL
280
     0
  9
$HIDETEXT
280
     0
  9
$XCLIPFRAME
290
     0
  9
$HALOGAP
280
     0
  9
$OBSCOLOR
 70
   257
  9
$OBSLTYPE
280
     0
  9
$INTERSECTIONDISPLAY
280
     0
  9
$INTERSECTIONCOLOR
 70
   257
  9
$DIMASSOC
280
     1
  9
$PROJECTNAME
  1

  0
ENDSEC
  0
SECTION
  2
CLASSES
  0
CLASS
  1
ACDBDICTIONARYWDFLT
  2
AcDbDictionaryWithDefault
  3
ObjectDBX Classes
 90
        0
 91
        1
280
     0
281
     0
  0
CLASS
  1
TABLESTYLE
  2
AcDbTableStyle
  3
ObjectDBX Classes
 90
     2047
 91
        1
280
     0
281
     0
  0
CLASS
  1
DICTIONARYVAR
  2
AcDbDictionaryVar
  3
ObjectDBX Classes
 90
        0
 91
        1
280
     0
281
     0
  0
ENDSEC
  0
SECTION
  2
TABLES
  0
TABLE
  2
VPORT
  5
7D20
330
0
100
AcDbSymbolTable
 70
     4
  0
VPORT
  5
7F06
330
7D20
100
AcDbSymbolTableRecord
100
AcDbViewportTableRecord
  2
*Active
 70
     0
 10
0.0
 20
0.0
 11
1.0
 21
1.0
 12
13.41090091541292
 22
-8.689624594134855
 13
0.0
 23
0.0
 14
0.5
 24
0.5
 15
0.5
 25
0.5
 16
0.0
 26
0.0
 36
1.0
 17
0.0
 27
0.0
 37
0.0
 40
74.91764635661022
 41
1.61422708618331
 42
50.0
 43
0.0
 44
0.0
 50
0.0
 51
0.0
 71
     0
 72
   100
 73
     1
 74
     1
 75
     0
 76
     0
 77
     0
 78
     0
281
     0
 65
     1
110
0.0
120
0.0
130
0.0
111
1.0
121
0.0
131
0.0
112
0.0
122
1.0
132
0.0
 79
     0
146
0.0
  0
ENDTAB
  0
TABLE
  2
LTYPE
  5
7D1D
330
0
100
AcDbSymbolTable
 70
     1
  0
LTYPE
  5
7D2B
330
7D1D
100
AcDbSymbolTableRecord
100
AcDbLinetypeTableRecord
  2
ByBlock
 70
     0
  3

 72
    65
 73
     0
 40
0.0
  0
LTYPE
  5
7D2C
330
7D1D
100
AcDbSymbolTableRecord
100
AcDbLinetypeTableRecord
  2
ByLayer
 70
     0
  3

 72
    65
 73
     0
 40
0.0
  0
LTYPE
  5
7D2D
330
7D1D
100
AcDbSymbolTableRecord
100
AcDbLinetypeTableRecord
  2
CONTINUOUS
 70
     0
  3
Solid line
 72
    65
 73
     0
 40
0.0
  0
ENDTAB
  0
TABLE
  2
LAYER
  5
7D1A
102
{ACAD_XDICTIONARY
360
7E7A
102
}
330
0
100
AcDbSymbolTable
 70
     1
  0
LAYER
  5
7D28
330
7D1A
100
AcDbSymbolTableRecord
100
AcDbLayerTableRecord
  2
0
 70
     0
 62
     7
  6
CONTINUOUS
370
    -3
390
7D27
  0
ENDTAB
  0
TABLE
  2
STYLE
  5
7D1B
330
0
100
AcDbSymbolTable
 70
     1
  0
STYLE
  5
7D29
330
7D1B
100
AcDbSymbolTableRecord
100
AcDbTextStyleTableRecord
  2
STANDARD
 70
     0
 40
0.0
 41
1.0
 50
0.0
 71
     0
 42
0.001
  3
txt
  4

  0
ENDTAB
  0
TABLE
  2
VIEW
  5
7D1E
330
0
100
AcDbSymbolTable
 70
     0
  0
ENDTAB
  0
TABLE
  2
UCS
  5
7D1F
330
0
100
AcDbSymbolTable
 70
     0
  0
ENDTAB
  0
TABLE
  2
APPID
  5
7D21
330
0
100
AcDbSymbolTable
 70
     2
  0
APPID
  5
7D2A
330
7D21
100
AcDbSymbolTableRecord
100
AcDbRegAppTableRecord
  2
ACAD
 70
     0
  0
APPID
  5
7D40
330
7D21
100
AcDbSymbolTableRecord
100
AcDbRegAppTableRecord
  2
DCO15
 70
     0
  0
ENDTAB
  0
TABLE
  2
DIMSTYLE
  5
7D22
330
0
100
AcDbSymbolTable
 70
     1
100
AcDbDimStyleTable
 71
     0
  0
DIMSTYLE
105
7D41
330
7D22
100
AcDbSymbolTableRecord
100
AcDbDimStyleTableRecord
  2
STANDARD
 70
     0
279
     2
340
7D29
  0
ENDTAB
  0
TABLE
  2
BLOCK_RECORD
  5
7D19
330
0
100
AcDbSymbolTable
 70
     3
  0
BLOCK_RECORD
  5
7D3A
330
7D19
100
AcDbSymbolTableRecord
100
AcDbBlockTableRecord
  2
*Model_Space
340
7D3D
  0
BLOCK_RECORD
  5
7D36
330
7D19
100
AcDbSymbolTableRecord
100
AcDbBlockTableRecord
  2
*Paper_Space
340
7D39
  0
BLOCK_RECORD
  5
7D43
330
7D19
100
AcDbSymbolTableRecord
100
AcDbBlockTableRecord
  2
$MODEL_SPACE
340
0
  0
BLOCK_RECORD
  5
7D45
330
7D19
100
AcDbSymbolTableRecord
100
AcDbBlockTableRecord
  2
$PAPER_SPACE
340
0
  0
ENDTAB
  0
ENDSEC
  0
SECTION
  2
BLOCKS
  0
BLOCK
  5
7D3B
330
7D3A
100
AcDbEntity
  8
0
100
AcDbBlockBegin
  2
*Model_Space
 70
     0
 10
0.0
 20
0.0
 30
0.0
  3
*Model_Space
  1

  0
ENDBLK
  5
7D3C
330
7D3A
100
AcDbEntity
  8
0
100
AcDbBlockEnd
  0
BLOCK
  5
7D37
330
7D36
100
AcDbEntity
 67
     1
  8
0
100
AcDbBlockBegin
  2
*Paper_Space
 70
     0
 10
0.0
 20
0.0
 30
0.0
  3
*Paper_Space
  1

  0
ENDBLK
  5
7D38
330
7D36
100
AcDbEntity
 67
     1
  8
0
100
AcDbBlockEnd
  0
BLOCK
  5
7D44
330
7D43
100
AcDbEntity
  8
0
100
AcDbBlockBegin
  2
$MODEL_SPACE
 70
     0
 10
0.0
 20
0.0
 30
0.0
  3
$MODEL_SPACE
  1

  0
ENDBLK
  5
7B15
330
7D43
100
AcDbEntity
  8
0
100
AcDbBlockEnd
  0
BLOCK
  5
7D46
330
7D45
100
AcDbEntity
  8
0
100
AcDbBlockBegin
  2
$PAPER_SPACE
 70
     0
 10
0.0
 20
0.0
 30
0.0
  3
$PAPER_SPACE
  1

  0
ENDBLK
  5
7B13
330
7D45
100
AcDbEntity
  8
0
100
AcDbBlockEnd
  0
ENDSEC
  0
SECTION
  2
ENTITIES
  0
ATTDEF
  5
7AE6
330
7D3A
100
AcDbEntity
  8
0
100
AcDbText
 10
0.0
 20
0.0
 30
0.0
 40
0.001
  1
K-1125
100
AcDbAttributeDefinition
  3

  2
MODELNUMBER
 70
     8
  0
ATTDEF
  5
7AE7
330
7D3A
100
AcDbEntity
  8
0
100
AcDbText
 10
0.0
 20
-0.0017
 30
0.0
 40
0.001
  1
ARCHER
100
AcDbAttributeDefinition
  3

  2
TRADENAME
 70
     8
  0
ATTDEF
  5
7AE8
330
7D3A
100
AcDbEntity
  8
0
100
AcDbText
 10
0.0
 20
-0.0034
 30
0.0
 40
0.001
  1
BATHING
100
AcDbAttributeDefinition
  3

  2
PRODUCT
 70
     8
  0
ATTDEF
  5
7AE9
330
7D3A
100
AcDbEntity
  8
0
100
AcDbText
 10
0.0
 20
-0.0051
 30
0.0
 40
0.001
  1
ACRYLIC
100
AcDbAttributeDefinition
  3

  2
MATERIAL
 70
     8
  0
LINE
  5
7EDE
330
7D3A
100
AcDbEntity
  8
0
  6
Continuous
 62
     7
100
AcDbLine
 10
-36.00000000004999
 20
-35.0195266185
 30
0.0
 11
-36.00000000004999
 21
-0.9804733813999888
 31
0.0
  0
LINE
  5
7EDF
330
7D3A
100
AcDbEntity
  8
0
  6
Continuous
 62
     7
100
AcDbLine
 10
32.63047841534999
 20
-31.13882046809546
 30
0.0
 11
32.63047841534999
 21
-4.86117954219938
 31
0.0
  0
LINE
  5
7EE0
330
7D3A
100
AcDbEntity
  8
0
  6
Continuous
 62
     7
100
AcDbLine
 10
35.99999999994999
 20
-0.9804733813999888
 30
0.0
 11
35.99999999994999
 21
-35.0195266185
 31
0.0
  0
LINE
  5
7EE1
330
7D3A
100
AcDbEntity
  8
0
  6
Continuous
 62
     7
100
AcDbLine
 10
-35.01952661855
 20
-36.0
 30
0.0
 11
35.01952661854998
 21
-36.0
 31
0.0
  0
LINE
  5
7EE2
330
7D3A
100
AcDbEntity
  8
0
  6
Continuous
 62
     7
100
AcDbLine
 10
-29.88533206574999
 20
-33.53851910579999
 30
0.0
 11
30.23077961885003
 21
-33.5385192585
 31
0.0
  0
LINE
  5
7EE3
330
7D3A
100
AcDbEntity
  8
0
  6
Continuous
 62
     7
100
AcDbLine
 10
30.23077961885003
 20
-2.461480751395868
 30
0.0
 11
-29.88533206574999
 21
-2.461480894099992
 31
0.0
  0
LINE
  5
7EE4
330
7D3A
100
AcDbEntity
  8
0
  6
Continuous
 62
     7
100
AcDbLine
 10
-35.01952661855
 20
0.0
 30
0.0
 11
35.01952661854998
 21
0.0
 31
0.0
  0
ARC
  5
7EE5
330
7D3A
100
AcDbEntity
  8
0
  6
Continuous
 62
     7
100
AcDbCircle
 10
35.01952661854998
 20
-0.9804733813999888
 30
0.0
 40
0.9804733813999998
100
AcDbArc
 50
0.0
 51
90.0
  0
ARC
  5
7EE6
330
7D3A
100
AcDbEntity
  8
0
  6
Continuous
 62
     7
100
AcDbCircle
 10
35.01952661854998
 20
-35.0195266185
 30
0.0
 40
0.9804733813999998
100
AcDbArc
 50
270.0
 51
0.0
  0
ARC
  5
7EE7
330
7D3A
100
AcDbEntity
  8
0
  6
Continuous
 62
     7
100
AcDbCircle
 10
-35.01952661855
 20
-35.0195266185
 30
0.0
 40
0.9804733813999998
100
AcDbArc
 50
180.0
 51
270.0
  0
ARC
  5
7EE8
330
7D3A
100
AcDbEntity
  8
0
  6
Continuous
 62
     7
100
AcDbCircle
 10
-35.01952661855
 20
-0.9804733813999888
 30
0.0
 40
0.9804733813999998
100
AcDbArc
 50
90.0
 51
180.0
  0
CIRCLE
  5
7EE9
330
7D3A
100
AcDbEntity
  8
0
  6
Continuous
 62
     7
100
AcDbCircle
 10
24.74999999994999
 20
-18.0
 30
0.0
 40
1.125
  0
ARC
  5
7EEA
330
7D3A
100
AcDbEntity
  8
0
100
AcDbCircle
 10
-15.32201192490022
 20
-11.99749423531332
 30
0.0
 40
4.576040502123294
100
AcDbArc
 50
89.34414858399483
 51
174.8906383038864
  0
ARC
  5
7EEB
330
7D3A
100
AcDbEntity
  8
0
100
AcDbCircle
 10
37.91531348244096
 20
-17.99999206335759
 30
0.0
 40
58.1495626220915
100
AcDbArc
 50
173.6712273352325
 51
180.0000078194224
  0
ARC
  5
7EEC
330
7D3A
100
AcDbEntity
  8
0
100
AcDbCircle
 10
-15.32201192490022
 20
-24.00250576468665
 30
0.0
 40
4.576040502123294
100
AcDbArc
 50
185.1093616961135
 51
270.6558514160052
  0
ARC
  5
7EED
330
7D3A
100
AcDbEntity
  8
0
100
AcDbCircle
 10
37.91531348244096
 20
-18.00000793664237
 30
0.0
 40
58.1495626220915
100
AcDbArc
 50
179.9999921805775
 51
186.3287726647674
  0
ARC
  5
7EEE
330
7D3A
100
AcDbEntity
  8
0
100
AcDbCircle
 10
-14.13335027059939
 20
-13.66914071531256
 30
0.0
 40
3.285011779264883
100
AcDbArc
 50
94.29161090008204
 51
170.5628744561962
  0
ARC
  5
7EEF
330
7D3A
100
AcDbEntity
  8
0
100
AcDbCircle
 10
37.95172348536777
 20
-17.9999962018932
 30
0.0
 40
55.5395068735179
100
AcDbArc
 50
174.9700755984802
 51
180.0000039182105
  0
ARC
  5
7EF0
330
7D3A
100
AcDbEntity
  8
0
100
AcDbCircle
 10
-14.13335027059939
 20
-22.3308592846874
 30
0.0
 40
3.285011779264883
100
AcDbArc
 50
189.4371255438038
 51
265.708389099918
  0
ARC
  5
7EF1
330
7D3A
100
AcDbEntity
  8
0
100
AcDbCircle
 10
37.95172348536777
 20
-18.00000379810677
 30
0.0
 40
55.5395068735179
100
AcDbArc
 50
179.9999960817895
 51
185.0299244015198
  0
LINE
  5
7EF2
330
7D3A
100
AcDbEntity
  8
0
100
AcDbLine
 10
-15.26963220115001
 20
-7.421753525699998
 30
0.0
 11
26.48763863915
 21
-7.522712589299999
 31
0.0
  0
LINE
  5
7EF3
330
7D3A
100
AcDbEntity
  8
0
100
AcDbLine
 10
25.16456767604999
 20
-10.40732947369999
 30
0.0
 11
-14.37917663974999
 21
-10.39333977719998
 31
0.0
  0
LINE
  5
7EF4
330
7D3A
100
AcDbEntity
  8
0
100
AcDbLine
 10
-14.37917663974999
 20
-25.60666022279999
 30
0.0
 11
25.16456767604999
 21
-25.59267052629998
 31
0.0
  0
LINE
  5
7EF5
330
7D3A
100
AcDbEntity
  8
0
100
AcDbLine
 10
26.48763863915
 20
-28.47728741059999
 30
0.0
 11
-15.26963220115001
 21
-28.57824647429998
 31
0.0
  0
ARC
  5
7EF6
330
7D3A
100
AcDbEntity
  8
0
100
AcDbCircle
 10
25.02875611181492
 20
-13.54228752046978
 30
0.0
 40
3.137898458520713
100
AcDbArc
 50
2.834429228359794
 51
87.51940318659331
  0
ARC
  5
7EF7
330
7D3A
100
AcDbEntity
  8
0
100
AcDbCircle
 10
-1287.326122699849
 20
-25.79937188485454
 30
0.0
 40
1315.547494778352
100
AcDbArc
 50
0.339686489065987
 51
0.5405964297361354
  0
ARC
  5
7EF8
330
7D3A
100
AcDbEntity
  8
0
100
AcDbCircle
 10
26.51681658376347
 20
-12.09853539046425
 30
0.0
 40
4.575915827471754
100
AcDbArc
 50
359.4936679344786
 51
90.36534422247694
  0
ARC
  5
7EF9
330
7D3A
100
AcDbEntity
  8
0
100
AcDbCircle
 10
2375.050443537343
 20
-19.23506363349931
 30
0.0
 40
2343.968631120731
100
AcDbArc
 50
179.8265434692437
 51
179.9698102029697
  0
ARC
  5
7EFA
330
7D3A
100
AcDbEntity
  8
0
100
AcDbCircle
 10
25.02875611181492
 20
-22.45771247953022
 30
0.0
 40
3.137898458520713
100
AcDbArc
 50
272.4805968134067
 51
357.1655707716402
  0
ARC
  5
7EFB
330
7D3A
100
AcDbEntity
  8
0
100
AcDbCircle
 10
-1287.326122699849
 20
-10.20062811514546
 30
0.0
 40
1315.547494778352
100
AcDbArc
 50
359.4594035702639
 51
359.6603135109341
  0
ARC
  5
7EFC
330
7D3A
100
AcDbEntity
  8
0
100
AcDbCircle
 10
26.51681658376347
 20
-23.90146460953575
 30
0.0
 40
4.575915827471754
100
AcDbArc
 50
269.6346557775231
 51
0.5063320655214273
  0
ARC
  5
7EFD
330
7D3A
100
AcDbEntity
  8
0
100
AcDbCircle
 10
2375.050443537343
 20
-16.76493636650069
 30
0.0
 40
2343.968631120731
100
AcDbArc
 50
180.0301897970302
 51
180.1734565307563
  0
ARC
  5
7EFE
330
7D3A
100
AcDbEntity
  8
0
100
AcDbCircle
 10
-29.94795346559268
 20
-3.481144536360517
 30
0.0
 40
1.021584741010876
100
AcDbArc
 50
86.48566338269976
 51
174.066537270368
  0
ARC
  5
7EFF
330
7D3A
100
AcDbEntity
  8
0
100
AcDbCircle
 10
41.24532195739318
 20
-18.28286163302023
 30
0.0
 40
73.73210858001335
100
AcDbArc
 50
168.3354012384533
 51
179.7801932180623
  0
ARC
  5
7F00
330
7D3A
100
AcDbEntity
  8
0
100
AcDbCircle
 10
-29.94795346559268
 20
-32.51885546363946
 30
0.0
 40
1.021584741010876
100
AcDbArc
 50
185.9334627296319
 51
273.5143366173003
  0
ARC
  5
7F01
330
7D3A
100
AcDbEntity
  8
0
100
AcDbCircle
 10
41.24532195739318
 20
-17.71713836697974
 30
0.0
 40
73.73210858001335
100
AcDbArc
 50
180.2198067819376
 51
191.6645987615466
  0
ARC
  5
7F02
330
7D3A
100
AcDbEntity
  8
0
100
AcDbCircle
 10
30.23077961885003
 20
-4.861179542199394
 30
0.0
 40
2.39969879080354
100
AcDbArc
 50
0.0
 51
90.00000013600926
  0
ARC
  5
7F03
330
7D3A
100
AcDbEntity
  8
0
100
AcDbCircle
 10
30.23077961885003
 20
-31.13882046809546
 30
0.0
 40
2.399698790404556
100
AcDbArc
 50
269.9999998544639
 51
0.0
  0
ENDSEC
  0
SECTION
  2
OBJECTS
  0
DICTIONARY
  5
7D24
330
0
100
AcDbDictionary
281
     1
  3
ACAD_COLOR
350
7D33
  3
ACAD_GROUP
350
7D25
  3
ACAD_LAYOUT
350
7D31
  3
ACAD_MATERIAL
350
7D32
  3
ACAD_MLINESTYLE
350
7D2E
  3
ACAD_PLOTSETTINGS
350
7D30
  3
ACAD_PLOTSTYLENAME
350
7D26
  3
ACAD_TABLESTYLE
350
7D34
  3
AcDbVariableDictionary
350
7D76
  0
DICTIONARY
  5
7E7A
330
7D1A
100
AcDbDictionary
280
     1
281
     1
  3
ACAD_LAYERFILTERS
360
7E7E
  3
ACLYDICTIONARY
360
7E7D
  0
DICTIONARY
  5
7D33
102
{ACAD_REACTORS
330
7D24
102
}
330
7D24
100
AcDbDictionary
281
     1
  0
DICTIONARY
  5
7D25
102
{ACAD_REACTORS
330
7D24
102
}
330
7D24
100
AcDbDictionary
281
     1
  0
DICTIONARY
  5
7D31
102
{ACAD_REACTORS
330
7D24
102
}
330
7D24
100
AcDbDictionary
281
     1
  3
Layout1
350
7D39
  3
Model
350
7D3D
  0
DICTIONARY
  5
7D32
102
{ACAD_REACTORS
330
7D24
102
}
330
7D24
100
AcDbDictionary
281
     1
  0
DICTIONARY
  5
7D2E
102
{ACAD_REACTORS
330
7D24
102
}
330
7D24
100
AcDbDictionary
281
     1
  3
Standard
350
7D2F
  0
DICTIONARY
  5
7D30
102
{ACAD_REACTORS
330
7D24
102
}
330
7D24
100
AcDbDictionary
281
     1
  0
ACDBDICTIONARYWDFLT
  5
7D26
102
{ACAD_REACTORS
330
7D24
102
}
330
7D24
100
AcDbDictionary
281
     1
  3
Normal
350
7D27
100
AcDbDictionaryWithDefault
340
7D27
  0
DICTIONARY
  5
7D34
102
{ACAD_REACTORS
330
7D24
102
}
330
7D24
100
AcDbDictionary
281
     1
  3
Standard
350
7D35
  0
DICTIONARY
  5
7D76
102
{ACAD_REACTORS
330
7D24
102
}
330
7D24
100
AcDbDictionary
281
     1
  3
CTABLESTYLE
350
7D77
  0
DICTIONARY
  5
7E7E
102
{ACAD_REACTORS
330
7E7A
102
}
330
7E7A
100
AcDbDictionary
281
     1
  0
DICTIONARY
  5
7E7D
102
{ACAD_REACTORS
330
7E7A
102
}
330
7E7A
100
AcDbDictionary
281
     1
1001
ACAD
1000
<All
  0
LAYOUT
  5
7D39
102
{ACAD_REACTORS
330
7D31
102
}
330
7D31
100
AcDbPlotSettings
  1

  2
qi46
  4

  6

 40
0.0
 41
0.0
 42
0.0
 43
0.0
 44
0.0
 45
0.0
 46
0.0
 47
0.0
 48
0.0
 49
0.0
140
0.0
141
0.0
142
1.0
143
1.0
 70
   688
 72
     0
 73
     0
 74
     5
  7

 75
    16
147
1.0
 76
     0
 77
     2
 78
   300
148
0.0
149
0.0
100
AcDbLayout
  1
Layout1
 70
     1
 71
     1
 10
0.0
 20
0.0
 11
12.0
 21
9.0
 12
0.0
 22
0.0
 32
0.0
 14
1.000000000000000E+20
 24
1.000000000000000E+20
 34
1.000000000000000E+20
 15
-1.000000000000000E+20
 25
-1.000000000000000E+20
 35
-1.000000000000000E+20
146
0.0
 13
0.0
 23
0.0
 33
0.0
 16
1.0
 26
0.0
 36
0.0
 17
0.0
 27
1.0
 37
0.0
 76
     0
330
7D36
  0
LAYOUT
  5
7D3D
102
{ACAD_REACTORS
330
7D31
102
}
330
7D31
100
AcDbPlotSettings
  1

  2
qi46
  4

  6

 40
0.0
 41
0.0
 42
0.0
 43
0.0
 44
0.0
 45
0.0
 46
0.0
 47
0.0
 48
0.0
 49
0.0
140
0.0
141
0.0
142
1.0
143
1.0
 70
  1712
 72
     0
 73
     0
 74
     0
  7

 75
     0
147
1.0
 76
     0
 77
     2
 78
   300
148
0.0
149
0.0
100
AcDbLayout
  1
Model
 70
     1
 71
     0
 10
0.0
 20
0.0
 11
12.0
 21
9.0
 12
0.0
 22
0.0
 32
0.0
 14
0.0
 24
0.0
 34
0.0
 15
0.0
 25
0.0
 35
0.0
146
0.0
 13
0.0
 23
0.0
 33
0.0
 16
1.0
 26
0.0
 36
0.0
 17
0.0
 27
1.0
 37
0.0
 76
     0
330
7D3A
  0
MLINESTYLE
  5
7D2F
102
{ACAD_REACTORS
330
7D2E
102
}
330
7D2E
100
AcDbMlineStyle
  2
STANDARD
 70
     0
  3

 62
   256
 51
90.0
 52
90.0
 71
     2
 49
0.5
 62
   256
  6
BYLAYER
 49
-0.5
 62
   256
  6
BYLAYER
  0
ACDBPLACEHOLDER
  5
7D27
102
{ACAD_REACTORS
330
7D26
102
}
330
7D26
  0
TABLESTYLE
  5
7D35
102
{ACAD_REACTORS
330
7D34
102
}
330
7D34
100
AcDbTableStyle
  3
Standard
 70
     0
 71
     0
 40
0.06
 41
0.06
280
     0
281
     0
  7
STANDARD
140
0.18
170
     2
 62
     0
 63
     7
283
     0
274
    -2
284
     1
 64
     0
275
    -2
285
     1
 65
     0
276
    -2
286
     1
 66
     0
277
    -2
287
     1
 67
     0
278
    -2
288
     1
 68
     0
279
    -2
289
     1
 69
     0
  7
STANDARD
140
0.25
170
     5
 62
     0
 63
     7
283
     0
274
    -2
284
     1
 64
     0
275
    -2
285
     1
 65
     0
276
    -2
286
     1
 66
     0
277
    -2
287
     1
 67
     0
278
    -2
288
     1
 68
     0
279
    -2
289
     1
 69
     0
  7
STANDARD
140
0.18
170
     5
 62
     0
 63
     7
283
     0
274
    -2
284
     1
 64
     0
275
    -2
285
     1
 65
     0
276
    -2
286
     1
 66
     0
277
    -2
287
     1
 67
     0
278
    -2
288
     1
 68
     0
279
    -2
289
     1
 69
     0
  0
DICTIONARYVAR
  5
7D77
102
{ACAD_REACTORS
330
7D76
102
}
330
7D76
100
DictionaryVariables
280
     0
  1
STANDARD
  0
ENDSEC
  0
EOF
