  0
SECTION
  2
HEADER
  9
$ACADVER
  1
AC1018
  9
$ACADMAINTVER
 70
    39
  9
$DWGCODEPAGE
  3
ANSI_1252
  9
$INSBASE
 10
0.0
 20
0.0
 30
0.0
  9
$EXTMIN
 10
-18.00000000000001
 20
-22.43622351549444
 30
0.0
  9
$EXTMAX
 10
63.73365695658712
 20
5.0
 30
0.0
  9
$LIMMIN
 10
0.0
 20
0.0
  9
$LIMMAX
 10
12.0
 20
9.0
  9
$ORTHOMODE
 70
     0
  9
$REGENMODE
 70
     1
  9
$FILLMODE
 70
     1
  9
$QTEXTMODE
 70
     0
  9
$MIRRTEXT
 70
     1
  9
$LTSCALE
 40
1.0
  9
$ATTMODE
 70
     1
  9
$TEXTSIZE
 40
0.001
  9
$TRACEWID
 40
0.05
  9
$TEXTSTYLE
  7
STANDARD
  9
$CLAYER
  8
0
  9
$CELTYPE
  6
ByLayer
  9
$CECOLOR
 62
   256
  9
$CELTSCALE
 40
1.0
  9
$DISPSILH
 70
     0
  9
$DIMSCALE
 40
1.0
  9
$DIMASZ
 40
0.18
  9
$DIMEXO
 40
0.0625
  9
$DIMDLI
 40
0.38
  9
$DIMRND
 40
0.0
  9
$DIMDLE
 40
0.0
  9
$DIMEXE
 40
0.18
  9
$DIMTP
 40
0.0
  9
$DIMTM
 40
0.0
  9
$DIMTXT
 40
0.18
  9
$DIMCEN
 40
0.09
  9
$DIMTSZ
 40
0.0
  9
$DIMTOL
 70
     0
  9
$DIMLIM
 70
     0
  9
$DIMTIH
 70
     1
  9
$DIMTOH
 70
     1
  9
$DIMSE1
 70
     0
  9
$DIMSE2
 70
     0
  9
$DIMTAD
 70
     0
  9
$DIMZIN
 70
     0
  9
$DIMBLK
  1

  9
$DIMASO
 70
     1
  9
$DIMSHO
 70
     1
  9
$DIMPOST
  1

  9
$DIMAPOST
  1

  9
$DIMALT
 70
     0
  9
$DIMALTD
 70
     2
  9
$DIMALTF
 40
25.4
  9
$DIMLFAC
 40
1.0
  9
$DIMTOFL
 70
     0
  9
$DIMTVP
 40
0.0
  9
$DIMTIX
 70
     0
  9
$DIMSOXD
 70
     0
  9
$DIMSAH
 70
     0
  9
$DIMBLK1
  1

  9
$DIMBLK2
  1

  9
$DIMSTYLE
  2
STANDARD
  9
$DIMCLRD
 70
     0
  9
$DIMCLRE
 70
     0
  9
$DIMCLRT
 70
     0
  9
$DIMTFAC
 40
1.0
  9
$DIMGAP
 40
0.09
  9
$DIMJUST
 70
     0
  9
$DIMSD1
 70
     0
  9
$DIMSD2
 70
     0
  9
$DIMTOLJ
 70
     1
  9
$DIMTZIN
 70
     0
  9
$DIMALTZ
 70
     0
  9
$DIMALTTZ
 70
     0
  9
$DIMUPT
 70
     0
  9
$DIMDEC
 70
     4
  9
$DIMTDEC
 70
     4
  9
$DIMALTU
 70
     2
  9
$DIMALTTD
 70
     2
  9
$DIMTXSTY
  7
STANDARD
  9
$DIMAUNIT
 70
     0
  9
$DIMADEC
 70
     0
  9
$DIMALTRND
 40
0.0
  9
$DIMAZIN
 70
     0
  9
$DIMDSEP
 70
    46
  9
$DIMATFIT
 70
     3
  9
$DIMFRAC
 70
     0
  9
$DIMLDRBLK
  1

  9
$DIMLUNIT
 70
     2
  9
$DIMLWD
 70
    -2
  9
$DIMLWE
 70
    -2
  9
$DIMTMOVE
 70
     0
  9
$LUNITS
 70
     2
  9
$LUPREC
 70
     4
  9
$SKETCHINC
 40
0.1
  9
$FILLETRAD
 40
0.5
  9
$AUNITS
 70
     0
  9
$AUPREC
 70
     0
  9
$MENU
  1
acad
  9
$ELEVATION
 40
0.0
  9
$PELEVATION
 40
0.0
  9
$THICKNESS
 40
0.0
  9
$LIMCHECK
 70
     0
  9
$CHAMFERA
 40
0.5
  9
$CHAMFERB
 40
0.5
  9
$CHAMFERC
 40
0.0
  9
$CHAMFERD
 40
0.0
  9
$SKPOLY
 70
     0
  9
$TDCREATE
 40
2451108.657902431
  9
$TDUCREATE
 40
2451108.866235764
  9
$TDUPDATE
 40
2454175.446454399
  9
$TDUUPDATE
 40
2454175.654787732
  9
$TDINDWG
 40
0.0156199769
  9
$TDUSRTIMER
 40
0.0156199769
  9
$USRTIMER
 70
     1
  9
$ANGBASE
 50
0.0
  9
$ANGDIR
 70
     0
  9
$PDMODE
 70
     0
  9
$PDSIZE
 40
0.0
  9
$PLINEWID
 40
0.0
  9
$SPLFRAME
 70
     0
  9
$SPLINETYPE
 70
     6
  9
$SPLINESEGS
 70
     8
  9
$HANDSEED
  5
7E28
  9
$SURFTAB1
 70
     6
  9
$SURFTAB2
 70
     6
  9
$SURFTYPE
 70
     6
  9
$SURFU
 70
     6
  9
$SURFV
 70
     6
  9
$UCSBASE
  2

  9
$UCSNAME
  2

  9
$UCSORG
 10
0.0
 20
0.0
 30
0.0
  9
$UCSXDIR
 10
1.0
 20
0.0
 30
0.0
  9
$UCSYDIR
 10
0.0
 20
1.0
 30
0.0
  9
$UCSORTHOREF
  2

  9
$UCSORTHOVIEW
 70
     0
  9
$UCSORGTOP
 10
0.0
 20
0.0
 30
0.0
  9
$UCSORGBOTTOM
 10
0.0
 20
0.0
 30
0.0
  9
$UCSORGLEFT
 10
0.0
 20
0.0
 30
0.0
  9
$UCSORGRIGHT
 10
0.0
 20
0.0
 30
0.0
  9
$UCSORGFRONT
 10
0.0
 20
0.0
 30
0.0
  9
$UCSORGBACK
 10
0.0
 20
0.0
 30
0.0
  9
$PUCSBASE
  2

  9
$PUCSNAME
  2

  9
$PUCSORG
 10
0.0
 20
0.0
 30
0.0
  9
$PUCSXDIR
 10
1.0
 20
0.0
 30
0.0
  9
$PUCSYDIR
 10
0.0
 20
1.0
 30
0.0
  9
$PUCSORTHOREF
  2

  9
$PUCSORTHOVIEW
 70
     0
  9
$PUCSORGTOP
 10
0.0
 20
0.0
 30
0.0
  9
$PUCSORGBOTTOM
 10
0.0
 20
0.0
 30
0.0
  9
$PUCSORGLEFT
 10
0.0
 20
0.0
 30
0.0
  9
$PUCSORGRIGHT
 10
0.0
 20
0.0
 30
0.0
  9
$PUCSORGFRONT
 10
0.0
 20
0.0
 30
0.0
  9
$PUCSORGBACK
 10
0.0
 20
0.0
 30
0.0
  9
$USERI1
 70
     0
  9
$USERI2
 70
     0
  9
$USERI3
 70
     0
  9
$USERI4
 70
     0
  9
$USERI5
 70
     0
  9
$USERR1
 40
0.0
  9
$USERR2
 40
0.0
  9
$USERR3
 40
0.0
  9
$USERR4
 40
0.0
  9
$USERR5
 40
0.0
  9
$WORLDVIEW
 70
     1
  9
$SHADEDGE
 70
     3
  9
$SHADEDIF
 70
    70
  9
$TILEMODE
 70
     1
  9
$MAXACTVP
 70
    48
  9
$PINSBASE
 10
0.0
 20
0.0
 30
0.0
  9
$PLIMCHECK
 70
     0
  9
$PEXTMIN
 10
1.000000000000000E+20
 20
1.000000000000000E+20
 30
1.000000000000000E+20
  9
$PEXTMAX
 10
-1.000000000000000E+20
 20
-1.000000000000000E+20
 30
-1.000000000000000E+20
  9
$PLIMMIN
 10
0.0
 20
0.0
  9
$PLIMMAX
 10
12.0
 20
9.0
  9
$UNITMODE
 70
     0
  9
$VISRETAIN
 70
     1
  9
$PLINEGEN
 70
     0
  9
$PSLTSCALE
 70
     1
  9
$TREEDEPTH
 70
  3020
  9
$CMLSTYLE
  2
Standard
  9
$CMLJUST
 70
     0
  9
$CMLSCALE
 40
1.0
  9
$PROXYGRAPHICS
 70
     1
  9
$MEASUREMENT
 70
     0
  9
$CELWEIGHT
370
    -1
  9
$ENDCAPS
280
     0
  9
$JOINSTYLE
280
     0
  9
$LWDISPLAY
290
     0
  9
$INSUNITS
 70
     0
  9
$HYPERLINKBASE
  1

  9
$STYLESHEET
  1

  9
$XEDIT
290
     1
  9
$CEPSNTYPE
380
     0
  9
$PSTYLEMODE
290
     1
  9
$FINGERPRINTGUID
  2
{149B5C73-B5F7-4E93-8628-FAF6A46BE737}
  9
$VERSIONGUID
  2
{5BC6A7BC-EB01-42E5-9211-5CEBA0882C73}
  9
$EXTNAMES
290
     1
  9
$PSVPSCALE
 40
0.0
  9
$OLESTARTUP
290
     0
  9
$SORTENTS
280
   127
  9
$INDEXCTL
280
     0
  9
$HIDETEXT
280
     0
  9
$XCLIPFRAME
290
     0
  9
$HALOGAP
280
     0
  9
$OBSCOLOR
 70
   257
  9
$OBSLTYPE
280
     0
  9
$INTERSECTIONDISPLAY
280
     0
  9
$INTERSECTIONCOLOR
 70
   257
  9
$DIMASSOC
280
     1
  9
$PROJECTNAME
  1

  0
ENDSEC
  0
SECTION
  2
CLASSES
  0
CLASS
  1
ACDBDICTIONARYWDFLT
  2
AcDbDictionaryWithDefault
  3
ObjectDBX Classes
 90
        0
 91
        1
280
     0
281
     0
  0
CLASS
  1
TABLESTYLE
  2
AcDbTableStyle
  3
ObjectDBX Classes
 90
     2047
 91
        1
280
     0
281
     0
  0
CLASS
  1
DICTIONARYVAR
  2
AcDbDictionaryVar
  3
ObjectDBX Classes
 90
        0
 91
        1
280
     0
281
     0
  0
ENDSEC
  0
SECTION
  2
TABLES
  0
TABLE
  2
VPORT
  5
7D20
330
0
100
AcDbSymbolTable
 70
     3
  0
VPORT
  5
7E27
330
7D20
100
AcDbSymbolTableRecord
100
AcDbViewportTableRecord
  2
*Active
 70
     0
 10
0.0
 20
0.0
 11
1.0
 21
1.0
 12
7.131364045582323
 22
-4.483311297153246
 13
0.0
 23
0.0
 14
0.5
 24
0.5
 15
0.5
 25
0.5
 16
0.0
 26
0.0
 36
1.0
 17
0.0
 27
0.0
 37
0.0
 40
59.06658146503873
 41
1.61422708618331
 42
50.0
 43
0.0
 44
0.0
 50
0.0
 51
0.0
 71
     0
 72
   100
 73
     1
 74
     1
 75
     0
 76
     0
 77
     0
 78
     0
281
     0
 65
     1
110
0.0
120
0.0
130
0.0
111
1.0
121
0.0
131
0.0
112
0.0
122
1.0
132
0.0
 79
     0
146
0.0
  0
ENDTAB
  0
TABLE
  2
LTYPE
  5
7D1D
330
0
100
AcDbSymbolTable
 70
     1
  0
LTYPE
  5
7D2B
330
7D1D
100
AcDbSymbolTableRecord
100
AcDbLinetypeTableRecord
  2
ByBlock
 70
     0
  3

 72
    65
 73
     0
 40
0.0
  0
LTYPE
  5
7D2C
330
7D1D
100
AcDbSymbolTableRecord
100
AcDbLinetypeTableRecord
  2
ByLayer
 70
     0
  3

 72
    65
 73
     0
 40
0.0
  0
LTYPE
  5
7D2D
330
7D1D
100
AcDbSymbolTableRecord
100
AcDbLinetypeTableRecord
  2
CONTINUOUS
 70
     0
  3
Solid line
 72
    65
 73
     0
 40
0.0
  0
ENDTAB
  0
TABLE
  2
LAYER
  5
7D1A
330
0
100
AcDbSymbolTable
 70
     2
  0
LAYER
  5
7D28
330
7D1A
100
AcDbSymbolTableRecord
100
AcDbLayerTableRecord
  2
0
 70
     0
 62
     7
  6
CONTINUOUS
370
    -3
390
7D27
  0
LAYER
  5
7D3F
330
7D1A
100
AcDbSymbolTableRecord
100
AcDbLayerTableRecord
  2
1007946_MAIN_VIEW_BL0
 70
     0
 62
     7
  6
CONTINUOUS
370
    -3
390
7D27
  0
ENDTAB
  0
TABLE
  2
STYLE
  5
7D1B
330
0
100
AcDbSymbolTable
 70
     1
  0
STYLE
  5
7D29
330
7D1B
100
AcDbSymbolTableRecord
100
AcDbTextStyleTableRecord
  2
STANDARD
 70
     0
 40
0.0
 41
1.0
 50
0.0
 71
     0
 42
0.001
  3
txt
  4

  0
ENDTAB
  0
TABLE
  2
VIEW
  5
7D1E
330
0
100
AcDbSymbolTable
 70
     1
  0
ENDTAB
  0
TABLE
  2
UCS
  5
7D1F
330
0
100
AcDbSymbolTable
 70
     0
  0
ENDTAB
  0
TABLE
  2
APPID
  5
7D21
330
0
100
AcDbSymbolTable
 70
     2
  0
APPID
  5
7D2A
330
7D21
100
AcDbSymbolTableRecord
100
AcDbRegAppTableRecord
  2
ACAD
 70
     0
  0
APPID
  5
7D40
330
7D21
100
AcDbSymbolTableRecord
100
AcDbRegAppTableRecord
  2
DCO15
 70
     0
  0
ENDTAB
  0
TABLE
  2
DIMSTYLE
  5
7D22
330
0
100
AcDbSymbolTable
 70
     1
100
AcDbDimStyleTable
 71
     0
  0
DIMSTYLE
105
7D41
330
7D22
100
AcDbSymbolTableRecord
100
AcDbDimStyleTableRecord
  2
STANDARD
 70
     0
279
     2
340
7D29
  0
ENDTAB
  0
TABLE
  2
BLOCK_RECORD
  5
7D19
330
0
100
AcDbSymbolTable
 70
     3
  0
BLOCK_RECORD
  5
7D3A
330
7D19
100
AcDbSymbolTableRecord
100
AcDbBlockTableRecord
  2
*Model_Space
340
7D3D
  0
BLOCK_RECORD
  5
7D36
330
7D19
100
AcDbSymbolTableRecord
100
AcDbBlockTableRecord
  2
*Paper_Space
340
7D39
  0
BLOCK_RECORD
  5
7D43
330
7D19
100
AcDbSymbolTableRecord
100
AcDbBlockTableRecord
  2
$MODEL_SPACE
340
0
  0
BLOCK_RECORD
  5
7D45
330
7D19
100
AcDbSymbolTableRecord
100
AcDbBlockTableRecord
  2
$PAPER_SPACE
340
0
  0
ENDTAB
  0
ENDSEC
  0
SECTION
  2
BLOCKS
  0
BLOCK
  5
7D3B
330
7D3A
100
AcDbEntity
  8
0
100
AcDbBlockBegin
  2
*Model_Space
 70
     0
 10
0.0
 20
0.0
 30
0.0
  3
*Model_Space
  1

  0
ENDBLK
  5
7D3C
330
7D3A
100
AcDbEntity
  8
0
100
AcDbBlockEnd
  0
BLOCK
  5
7D37
330
7D36
100
AcDbEntity
 67
     1
  8
0
100
AcDbBlockBegin
  2
*Paper_Space
 70
     0
 10
0.0
 20
0.0
 30
0.0
  3
*Paper_Space
  1

  0
ENDBLK
  5
7D38
330
7D36
100
AcDbEntity
 67
     1
  8
0
100
AcDbBlockEnd
  0
BLOCK
  5
7D44
330
7D43
100
AcDbEntity
  8
0
100
AcDbBlockBegin
  2
$MODEL_SPACE
 70
     0
 10
0.0
 20
0.0
 30
0.0
  3
$MODEL_SPACE
  1

  0
ENDBLK
  5
7B15
330
7D43
100
AcDbEntity
  8
0
100
AcDbBlockEnd
  0
BLOCK
  5
7D46
330
7D45
100
AcDbEntity
  8
0
100
AcDbBlockBegin
  2
$PAPER_SPACE
 70
     0
 10
0.0
 20
0.0
 30
0.0
  3
$PAPER_SPACE
  1

  0
ENDBLK
  5
7B13
330
7D45
100
AcDbEntity
  8
0
100
AcDbBlockEnd
  0
ENDSEC
  0
SECTION
  2
ENTITIES
  0
ATTDEF
  5
7AE6
330
7D3A
100
AcDbEntity
  8
0
100
AcDbText
 10
0.0
 20
0.0
 30
0.0
 40
0.001
  1
K-1125
100
AcDbAttributeDefinition
  3

  2
MODELNUMBER
 70
     8
  0
ATTDEF
  5
7AE7
330
7D3A
100
AcDbEntity
  8
0
100
AcDbText
 10
0.0
 20
-0.0017
 30
0.0
 40
0.001
  1
ARCHER
100
AcDbAttributeDefinition
  3

  2
TRADENAME
 70
     8
  0
ATTDEF
  5
7AE8
330
7D3A
100
AcDbEntity
  8
0
100
AcDbText
 10
0.0
 20
-0.0034
 30
0.0
 40
0.001
  1
BATHING
100
AcDbAttributeDefinition
  3

  2
PRODUCT
 70
     8
  0
ATTDEF
  5
7AE9
330
7D3A
100
AcDbEntity
  8
0
100
AcDbText
 10
0.0
 20
-0.0051
 30
0.0
 40
0.001
  1
ACRYLIC
100
AcDbAttributeDefinition
  3

  2
MATERIAL
 70
     8
  0
LINE
  5
7DFF
330
7D3A
100
AcDbEntity
  8
0
  6
Continuous
 62
     7
100
AcDbLine
 10
2.054261912799963
 20
-17.8079279713
 30
0.0
 11
7.5961552843
 21
-17.6140056742
 31
0.0
  0
LINE
  5
7E00
330
7D3A
100
AcDbEntity
  8
0
  6
Continuous
 62
     7
100
AcDbLine
 10
-1.341299423100035
 20
-18.245
 30
0.0
 11
1.341299423199974
 21
-18.245
 31
0.0
  0
LINE
  5
7E01
330
7D3A
100
AcDbEntity
  8
0
  6
Continuous
 62
     7
100
AcDbLine
 10
10.76954860869997
 20
-5.7716629799
 30
0.0
 11
12.12985201819997
 21
-5.700372499099998
 31
0.0
  0
LINE
  5
7E02
330
7D3A
100
AcDbEntity
  8
0
  6
Continuous
 62
     7
100
AcDbLine
 10
-7.59615528430002
 20
-17.6140056742
 30
0.0
 11
-2.054261912800011
 21
-17.8079279713
 31
0.0
  0
LINE
  5
7E03
330
7D3A
100
AcDbEntity
  8
0
  6
Continuous
 62
     7
100
AcDbLine
 10
-12.93213195150003
 20
-4.925619744000002
 30
0.0
 11
-13.12485871500002
 21
-2.722742756999998
 31
0.0
  0
LINE
  5
7E04
330
7D3A
100
AcDbEntity
  8
0
  6
Continuous
 62
     7
100
AcDbLine
 10
-10.57690688040001
 20
-14.7794987059
 30
0.0
 11
-11.33742778200003
 21
-6.086705023600003
 31
0.0
  0
LINE
  5
7E05
330
7D3A
100
AcDbEntity
  8
0
  6
Continuous
 62
     7
100
AcDbLine
 10
17.93380457310001
 20
-0.2369160109000035
 30
0.0
 11
17.99999999999999
 21
-1.5
 31
0.0
  0
LINE
  5
7E06
330
7D3A
100
AcDbEntity
  8
0
  6
Continuous
 62
     7
100
AcDbLine
 10
-3.750000000000009
 20
-2.965026417400004
 30
0.0
 11
-3.750000000000009
 21
-2.342404731100003
 31
0.0
  0
LINE
  5
7E07
330
7D3A
100
AcDbEntity
  8
0
  6
Continuous
 62
     7
100
AcDbLine
 10
3.74999999999999
 20
-2.342404731100003
 30
0.0
 11
3.74999999999999
 21
-2.965026417400004
 31
0.0
  0
LINE
  5
7E08
330
7D3A
100
AcDbEntity
  8
0
  6
Continuous
 62
     7
100
AcDbLine
 10
-17.93380457310003
 20
-0.2369160109000035
 30
0.0
 11
-18.00000000000001
 21
-1.5
 31
0.0
  0
LINE
  5
7E09
330
7D3A
100
AcDbEntity
  8
0
  6
Continuous
 62
     7
100
AcDbLine
 10
10.57690688049998
 20
-14.7794987059
 30
0.0
 11
11.33742778199998
 21
-6.086705023600003
 31
0.0
  0
LINE
  5
7E0A
330
7D3A
100
AcDbEntity
  8
0
  6
Continuous
 62
     7
100
AcDbLine
 10
12.93213195149996
 20
-4.925619744000002
 30
0.0
 11
13.12485871499998
 21
-2.722742756999998
 31
0.0
  0
LINE
  5
7E0B
330
7D3A
100
AcDbEntity
  8
0
  6
Continuous
 62
     7
100
AcDbLine
 10
13.24049089749998
 20
-2.474770689999999
 30
0.0
 11
14.2152615875
 21
-1.5
 31
0.0
  0
LINE
  5
7E0C
330
7D3A
100
AcDbEntity
  8
0
  6
Continuous
 62
     7
100
AcDbLine
 10
1.77865692619999
 20
-17.9277644301
 30
0.0
 11
1.546360389699988
 21
-18.1600609666
 31
0.0
  0
LINE
  5
7E0D
330
7D3A
100
AcDbEntity
  8
0
  6
Continuous
 62
     7
100
AcDbLine
 10
3.62499999999999
 20
-3.089550754700006
 30
0.0
 11
-3.625000000000009
 21
-3.089550754700006
 31
0.0
  0
LINE
  5
7E0E
330
7D3A
100
AcDbEntity
  8
0
  6
Continuous
 62
     7
100
AcDbLine
 10
-3.625000000000009
 20
-2.217880393900003
 30
0.0
 11
3.62499999999999
 21
-2.217880393900003
 31
0.0
  0
LINE
  5
7E0F
330
7D3A
100
AcDbEntity
  8
0
  6
Continuous
 62
     7
100
AcDbLine
 10
17.99999999999999
 20
-1.5
 30
0.0
 11
-18.00000000000001
 21
-1.5
 31
0.0
  0
LINE
  5
7E10
330
7D3A
100
AcDbEntity
  8
0
  6
Continuous
 62
     7
100
AcDbLine
 10
-17.6841471894
 20
0.0
 30
0.0
 11
17.68414718939998
 21
0.0
 31
0.0
  0
LINE
  5
7E11
330
7D3A
100
AcDbEntity
  8
0
  6
Continuous
 62
     7
100
AcDbLine
 10
-10.76954860860003
 20
-5.7716629799
 30
0.0
 11
-12.12985201810003
 21
-5.700372499099998
 31
0.0
  0
LINE
  5
7E12
330
7D3A
100
AcDbEntity
  8
0
  6
Continuous
 62
     7
100
AcDbLine
 10
-1.546360389700036
 20
-18.1600609666
 30
0.0
 11
-1.778656926200009
 21
-17.9277644301
 31
0.0
  0
LINE
  5
7E13
330
7D3A
100
AcDbEntity
  8
0
  6
Continuous
 62
     7
100
AcDbLine
 10
-14.21526158750002
 20
-1.5
 30
0.0
 11
-13.2404933675
 21
-2.474768220000001
 31
0.0
  0
ARC
  5
7E14
330
7D3A
100
AcDbEntity
  8
0
  6
Continuous
 62
     7
100
AcDbCircle
 10
17.68414718939998
 20
-0.25
 30
0.0
 40
0.25
100
AcDbArc
 50
3.000000000000095
 51
90.0
  0
ARC
  5
7E15
330
7D3A
100
AcDbEntity
  8
0
  6
Continuous
 62
     7
100
AcDbCircle
 10
-17.6841471894
 20
-0.25
 30
0.0
 40
0.25
100
AcDbArc
 50
90.0
 51
176.9999999999999
  0
ARC
  5
7E16
330
7D3A
100
AcDbEntity
  8
0
  6
Continuous
 62
     7
100
AcDbCircle
 10
-12.08536645530001
 20
-4.851537394499999
 30
0.0
 40
0.85
100
AcDbArc
 50
185.0
 51
266.9999999999999
  0
ARC
  5
7E17
330
7D3A
100
AcDbEntity
  8
0
  6
Continuous
 62
     7
100
AcDbCircle
 10
-11.73590565800002
 20
-6.121567291399998
 30
0.0
 40
0.3999999992
100
AcDbArc
 50
5.00000011609999
 51
87.00000083449998
  0
ARC
  5
7E18
330
7D3A
100
AcDbEntity
  8
0
  6
Continuous
 62
     7
100
AcDbCircle
 10
12.08536645539998
 20
-4.851537394499999
 30
0.0
 40
0.85
100
AcDbArc
 50
273.0000000000001
 51
355.0
  0
ARC
  5
7E19
330
7D3A
100
AcDbEntity
  8
0
  6
Continuous
 62
     7
100
AcDbCircle
 10
11.73590565810001
 20
-6.121567291399998
 30
0.0
 40
0.3999999992
100
AcDbArc
 50
92.99999916550003
 51
174.9999998839
  0
ARC
  5
7E1A
330
7D3A
100
AcDbEntity
  8
0
  6
Continuous
 62
     7
100
AcDbCircle
 10
2.068570706499959
 20
-18.2176782103
 30
0.0
 40
0.41
100
AcDbArc
 50
91.99999999999997
 51
135.0000000000001
  0
ARC
  5
7E1B
330
7D3A
100
AcDbEntity
  8
0
  6
Continuous
 62
     7
100
AcDbCircle
 10
1.341299423199974
 20
-17.955
 30
0.0
 40
0.29
100
AcDbArc
 50
270.0
 51
315.0000000000002
  0
ARC
  5
7E1C
330
7D3A
100
AcDbEntity
  8
0
  6
Continuous
 62
     7
100
AcDbCircle
 10
-1.341299423100035
 20
-17.955
 30
0.0
 40
0.29
100
AcDbArc
 50
224.9999999999999
 51
270.0
  0
ARC
  5
7E1D
330
7D3A
100
AcDbEntity
  8
0
  6
Continuous
 62
     7
100
AcDbCircle
 10
-2.068570706500035
 20
-18.2176782103
 30
0.0
 40
0.41
100
AcDbArc
 50
44.99999999999985
 51
88.00000000000002
  0
ARC
  5
7E1E
330
7D3A
100
AcDbEntity
  8
0
100
AcDbCircle
 10
-6.643476881897217
 20
-13.62765012462711
 30
0.0
 40
4.098612778247703
100
AcDbArc
 50
196.3219127163419
 51
256.5592778695394
  0
ARC
  5
7E1F
330
7D3A
100
AcDbEntity
  8
0
100
AcDbCircle
 10
6.64347688143722
 20
-13.62765012377767
 30
0.0
 40
4.098612779180789
100
AcDbArc
 50
283.4407221339546
 51
343.6780872619948
  0
ARC
  5
7E20
330
7D3A
100
AcDbEntity
  8
0
100
AcDbCircle
 10
13.52333608040519
 20
-2.757610932568283
 30
0.0
 40
0.4000000003859537
100
AcDbArc
 50
135.0005003849174
 51
175.0000353088718
  0
ARC
  5
7E21
330
7D3A
100
AcDbEntity
  8
0
100
AcDbCircle
 10
-13.52333608047761
 20
-2.757610932826167
 30
0.0
 40
0.4000000006042499
100
AcDbArc
 50
5.000845275156017
 51
44.99999998466152
  0
ARC
  5
7E22
330
7D3A
100
AcDbEntity
  8
0
100
AcDbCircle
 10
-3.625237058833884
 20
-2.342643338017204
 30
0.0
 40
0.1247631693316753
100
AcDbArc
 50
89.89113390656219
 51
179.8904229691716
  0
ARC
  5
7E23
330
7D3A
100
AcDbEntity
  8
0
100
AcDbCircle
 10
-3.621053078245966
 20
-2.96058784787025
 30
0.0
 40
0.1290232906467386
100
AcDbArc
 50
181.9714385469641
 51
268.2470045312891
  0
ARC
  5
7E24
330
7D3A
100
AcDbEntity
  8
0
100
AcDbCircle
 10
3.609272308927704
 20
-2.358669070682338
 30
0.0
 40
0.1416644337036866
100
AcDbArc
 50
6.592603544638376
 51
83.62583957962876
  0
ARC
  5
7E25
330
7D3A
100
AcDbEntity
  8
0
100
AcDbCircle
 10
3.633461217884129
 20
-2.973043384582219
 30
0.0
 40
0.1168142093233896
100
AcDbArc
 50
265.8462502466053
 51
3.935306675144423
  0
ENDSEC
  0
SECTION
  2
OBJECTS
  0
DICTIONARY
  5
7D24
330
0
100
AcDbDictionary
281
     1
  3
ACAD_COLOR
350
7D33
  3
ACAD_GROUP
350
7D25
  3
ACAD_LAYOUT
350
7D31
  3
ACAD_MATERIAL
350
7D32
  3
ACAD_MLINESTYLE
350
7D2E
  3
ACAD_PLOTSETTINGS
350
7D30
  3
ACAD_PLOTSTYLENAME
350
7D26
  3
ACAD_TABLESTYLE
350
7D34
  3
AcDbVariableDictionary
350
7D76
  0
DICTIONARY
  5
7D33
102
{ACAD_REACTORS
330
7D24
102
}
330
7D24
100
AcDbDictionary
281
     1
  0
DICTIONARY
  5
7D25
102
{ACAD_REACTORS
330
7D24
102
}
330
7D24
100
AcDbDictionary
281
     1
  0
DICTIONARY
  5
7D31
102
{ACAD_REACTORS
330
7D24
102
}
330
7D24
100
AcDbDictionary
281
     1
  3
Layout1
350
7D39
  3
Model
350
7D3D
  0
DICTIONARY
  5
7D32
102
{ACAD_REACTORS
330
7D24
102
}
330
7D24
100
AcDbDictionary
281
     1
  0
DICTIONARY
  5
7D2E
102
{ACAD_REACTORS
330
7D24
102
}
330
7D24
100
AcDbDictionary
281
     1
  3
Standard
350
7D2F
  0
DICTIONARY
  5
7D30
102
{ACAD_REACTORS
330
7D24
102
}
330
7D24
100
AcDbDictionary
281
     1
  0
ACDBDICTIONARYWDFLT
  5
7D26
102
{ACAD_REACTORS
330
7D24
102
}
330
7D24
100
AcDbDictionary
281
     1
  3
Normal
350
7D27
100
AcDbDictionaryWithDefault
340
7D27
  0
DICTIONARY
  5
7D34
102
{ACAD_REACTORS
330
7D24
102
}
330
7D24
100
AcDbDictionary
281
     1
  3
Standard
350
7D35
  0
DICTIONARY
  5
7D76
102
{ACAD_REACTORS
330
7D24
102
}
330
7D24
100
AcDbDictionary
281
     1
  3
CTABLESTYLE
350
7D77
  0
LAYOUT
  5
7D39
102
{ACAD_REACTORS
330
7D31
102
}
330
7D31
100
AcDbPlotSettings
  1

  2
qi46
  4

  6

 40
0.0
 41
0.0
 42
0.0
 43
0.0
 44
0.0
 45
0.0
 46
0.0
 47
0.0
 48
0.0
 49
0.0
140
0.0
141
0.0
142
1.0
143
1.0
 70
   688
 72
     0
 73
     0
 74
     5
  7

 75
    16
147
1.0
 76
     0
 77
     2
 78
   300
148
0.0
149
0.0
100
AcDbLayout
  1
Layout1
 70
     1
 71
     1
 10
0.0
 20
0.0
 11
12.0
 21
9.0
 12
0.0
 22
0.0
 32
0.0
 14
1.000000000000000E+20
 24
1.000000000000000E+20
 34
1.000000000000000E+20
 15
-1.000000000000000E+20
 25
-1.000000000000000E+20
 35
-1.000000000000000E+20
146
0.0
 13
0.0
 23
0.0
 33
0.0
 16
1.0
 26
0.0
 36
0.0
 17
0.0
 27
1.0
 37
0.0
 76
     0
330
7D36
  0
LAYOUT
  5
7D3D
102
{ACAD_REACTORS
330
7D31
102
}
330
7D31
100
AcDbPlotSettings
  1

  2
qi46
  4

  6

 40
0.0
 41
0.0
 42
0.0
 43
0.0
 44
0.0
 45
0.0
 46
0.0
 47
0.0
 48
0.0
 49
0.0
140
0.0
141
0.0
142
1.0
143
1.0
 70
  1712
 72
     0
 73
     0
 74
     0
  7

 75
     0
147
1.0
 76
     0
 77
     2
 78
   300
148
0.0
149
0.0
100
AcDbLayout
  1
Model
 70
     1
 71
     0
 10
0.0
 20
0.0
 11
12.0
 21
9.0
 12
0.0
 22
0.0
 32
0.0
 14
0.0
 24
0.0
 34
0.0
 15
0.0
 25
0.0
 35
0.0
146
0.0
 13
0.0
 23
0.0
 33
0.0
 16
1.0
 26
0.0
 36
0.0
 17
0.0
 27
1.0
 37
0.0
 76
     0
330
7D3A
  0
MLINESTYLE
  5
7D2F
102
{ACAD_REACTORS
330
7D2E
102
}
330
7D2E
100
AcDbMlineStyle
  2
STANDARD
 70
     0
  3

 62
   256
 51
90.0
 52
90.0
 71
     2
 49
0.5
 62
   256
  6
BYLAYER
 49
-0.5
 62
   256
  6
BYLAYER
  0
ACDBPLACEHOLDER
  5
7D27
102
{ACAD_REACTORS
330
7D26
102
}
330
7D26
  0
TABLESTYLE
  5
7D35
102
{ACAD_REACTORS
330
7D34
102
}
330
7D34
100
AcDbTableStyle
  3
Standard
 70
     0
 71
     0
 40
0.06
 41
0.06
280
     0
281
     0
  7
STANDARD
140
0.18
170
     2
 62
     0
 63
     7
283
     0
274
    -2
284
     1
 64
     0
275
    -2
285
     1
 65
     0
276
    -2
286
     1
 66
     0
277
    -2
287
     1
 67
     0
278
    -2
288
     1
 68
     0
279
    -2
289
     1
 69
     0
  7
STANDARD
140
0.25
170
     5
 62
     0
 63
     7
283
     0
274
    -2
284
     1
 64
     0
275
    -2
285
     1
 65
     0
276
    -2
286
     1
 66
     0
277
    -2
287
     1
 67
     0
278
    -2
288
     1
 68
     0
279
    -2
289
     1
 69
     0
  7
STANDARD
140
0.18
170
     5
 62
     0
 63
     7
283
     0
274
    -2
284
     1
 64
     0
275
    -2
285
     1
 65
     0
276
    -2
286
     1
 66
     0
277
    -2
287
     1
 67
     0
278
    -2
288
     1
 68
     0
279
    -2
289
     1
 69
     0
  0
DICTIONARYVAR
  5
7D77
102
{ACAD_REACTORS
330
7D76
102
}
330
7D76
100
DictionaryVariables
280
     0
  1
STANDARD
  0
ENDSEC
  0
EOF
