  0
SECTION
  2
HEADER
  9
$ACADVER
  1
AC1009
  9
$INSBASE
 10
0.0
 20
0.0
 30
0.0
  9
$EXTMIN
 10
-2.736760307096695
 20
-0.0326641554548246
 30
0.0
  9
$EXTMAX
 10
57.263223739233048
 20
26.179622081515461
 30
0.0
  9
$LIMMIN
 10
0.0
 20
0.0
  9
$LIMMAX
 10
12.0
 20
9.0
  9
$ORTHOMODE
 70
     0
  9
$REGENMODE
 70
     1
  9
$FILLMODE
 70
     1
  9
$QTEXTMODE
 70
     0
  9
$MIRRTEXT
 70
     0
  9
$DRAGMODE
 70
     2
  9
$LTSCALE
 40
1.0
  9
$OSMODE
 70
    37
  9
$ATTMODE
 70
     1
  9
$TEXTSIZE
 40
0.001
  9
$TRACEWID
 40
0.05
  9
$TEXTSTYLE
  7
STANDARD
  9
$CLAYER
  8
0
  9
$CELTYPE
  6
BYLAYER
  9
$CECOLOR
 62
   256
  9
$DIMSCALE
 40
1.0
  9
$DIMASZ
 40
0.18
  9
$DIMEXO
 40
0.0625
  9
$DIMDLI
 40
0.38
  9
$DIMRND
 40
0.0
  9
$DIMDLE
 40
0.0
  9
$DIMEXE
 40
0.18
  9
$DIMTP
 40
0.0
  9
$DIMTM
 40
0.0
  9
$DIMTXT
 40
0.18
  9
$DIMCEN
 40
0.09
  9
$DIMTSZ
 40
0.0
  9
$DIMTOL
 70
     0
  9
$DIMLIM
 70
     0
  9
$DIMTIH
 70
     1
  9
$DIMTOH
 70
     1
  9
$DIMSE1
 70
     0
  9
$DIMSE2
 70
     0
  9
$DIMTAD
 70
     0
  9
$DIMZIN
 70
     0
  9
$DIMBLK
  1

  9
$DIMASO
 70
     1
  9
$DIMSHO
 70
     1
  9
$DIMPOST
  1

  9
$DIMAPOST
  1

  9
$DIMALT
 70
     0
  9
$DIMALTD
 70
     2
  9
$DIMALTF
 40
25.399999999999999
  9
$DIMLFAC
 40
1.0
  9
$DIMTOFL
 70
     0
  9
$DIMTVP
 40
0.0
  9
$DIMTIX
 70
     0
  9
$DIMSOXD
 70
     0
  9
$DIMSAH
 70
     0
  9
$DIMBLK1
  1

  9
$DIMBLK2
  1

  9
$DIMSTYLE
  2
STANDARD
  9
$DIMCLRD
 70
     0
  9
$DIMCLRE
 70
     0
  9
$DIMCLRT
 70
     0
  9
$DIMTFAC
 40
1.0
  9
$DIMGAP
 40
0.09
  9
$LUNITS
 70
     2
  9
$LUPREC
 70
     4
  9
$SKETCHINC
 40
0.1
  9
$FILLETRAD
 40
0.0
  9
$AUNITS
 70
     0
  9
$AUPREC
 70
     0
  9
$MENU
  1
.
  9
$ELEVATION
 40
0.0
  9
$PELEVATION
 40
0.0
  9
$THICKNESS
 40
0.0
  9
$LIMCHECK
 70
     0
  9
$BLIPMODE
 70
     0
  9
$CHAMFERA
 40
0.0
  9
$CHAMFERB
 40
0.0
  9
$SKPOLY
 70
     0
  9
$TDCREATE
 40
2454301.4819117822
  9
$TDUPDATE
 40
2454379.3846468059
  9
$TDINDWG
 40
0.0276096412
  9
$TDUSRTIMER
 40
0.0276096412
  9
$USRTIMER
 70
     1
  9
$ANGBASE
 50
0.0
  9
$ANGDIR
 70
     0
  9
$PDMODE
 70
     0
  9
$PDSIZE
 40
0.0
  9
$PLINEWID
 40
0.0
  9
$COORDS
 70
     2
  9
$SPLFRAME
 70
     0
  9
$SPLINETYPE
 70
     6
  9
$SPLINESEGS
 70
     8
  9
$ATTDIA
 70
     0
  9
$ATTREQ
 70
     1
  9
$HANDLING
 70
     1
  9
$HANDSEED
  5
1652
  9
$SURFTAB1
 70
     6
  9
$SURFTAB2
 70
     6
  9
$SURFTYPE
 70
     6
  9
$SURFU
 70
     6
  9
$SURFV
 70
     6
  9
$UCSNAME
  2

  9
$UCSORG
 10
0.0
 20
0.0
 30
0.0
  9
$UCSXDIR
 10
1.0
 20
0.0
 30
0.0
  9
$UCSYDIR
 10
0.0
 20
1.0
 30
0.0
  9
$PUCSNAME
  2

  9
$PUCSORG
 10
0.0
 20
0.0
 30
0.0
  9
$PUCSXDIR
 10
1.0
 20
0.0
 30
0.0
  9
$PUCSYDIR
 10
0.0
 20
1.0
 30
0.0
  9
$USERI1
 70
     0
  9
$USERI2
 70
     0
  9
$USERI3
 70
     0
  9
$USERI4
 70
     0
  9
$USERI5
 70
     0
  9
$USERR1
 40
0.0
  9
$USERR2
 40
0.0
  9
$USERR3
 40
0.0
  9
$USERR4
 40
0.0
  9
$USERR5
 40
0.0
  9
$WORLDVIEW
 70
     1
  9
$SHADEDGE
 70
     3
  9
$SHADEDIF
 70
    70
  9
$TILEMODE
 70
     1
  9
$MAXACTVP
 70
    64
  9
$PLIMCHECK
 70
     0
  9
$PEXTMIN
 10
0.0
 20
0.0
 30
0.0
  9
$PEXTMAX
 10
0.0
 20
0.0
 30
0.0
  9
$PLIMMIN
 10
0.0
 20
0.0
  9
$PLIMMAX
 10
12.0
 20
9.0
  9
$UNITMODE
 70
     0
  9
$VISRETAIN
 70
     1
  9
$PLINEGEN
 70
     0
  9
$PSLTSCALE
 70
     1
  0
ENDSEC
  0
SECTION
  2
TABLES
  0
TABLE
  2
VPORT
 70
     2
  0
VPORT
  2
*ACTIVE
 70
     0
 10
0.0
 20
0.0
 11
1.0
 21
1.0
 12
26.75759779662032
 22
8.0809493419979042
 13
0.0
 23
0.0
 14
0.5
 24
0.5
 15
0.5
 25
0.5
 16
0.0
 26
0.0
 36
1.0
 17
0.0
 27
0.0
 37
0.0
 40
53.062734163330163
 41
1.8197767145135559
 42
50.0
 43
0.0
 44
0.0
 50
0.0
 51
0.0
 71
     0
 72
  1000
 73
     1
 74
     3
 75
     0
 76
     0
 77
     0
 78
     0
  0
ENDTAB
  0
TABLE
  2
LTYPE
 70
     1
  0
LTYPE
  2
CONTINUOUS
 70
     0
  3
Solid line
 72
    65
 73
     0
 40
0.0
  0
ENDTAB
  0
TABLE
  2
LAYER
 70
     3
  0
LAYER
  2
0
 70
     0
 62
     7
  6
CONTINUOUS
  0
LAYER
  2
LAYER_1
 70
     0
 62
     7
  6
CONTINUOUS
  0
LAYER
  2
DEFPOINTS
 70
     0
 62
     7
  6
CONTINUOUS
  0
ENDTAB
  0
TABLE
  2
STYLE
 70
     1
  0
STYLE
  2
STANDARD
 70
     0
 40
0.0
 41
1.0
 50
0.0
 71
     0
 42
0.001
  3
txt
  4

  0
ENDTAB
  0
TABLE
  2
VIEW
 70
     0
  0
ENDTAB
  0
TABLE
  2
UCS
 70
     0
  0
ENDTAB
  0
TABLE
  2
APPID
 70
     4
  0
APPID
  2
ACAD
 70
     0
  0
APPID
  2
ACAD_EXEMPT_FROM_CAD_STANDARDS
 70
     0
  0
APPID
  2
ACDBATTR
 70
     0
  0
APPID
  2
CONTENTBLOCKICON
 70
     0
  0
ENDTAB
  0
TABLE
  2
DIMSTYLE
 70
     1
  0
DIMSTYLE
  2
STANDARD
 70
     0
  3

  4

  5

  6

  7

 40
1.0
 41
0.18
 42
0.0625
 43
0.38
 44
0.18
 45
0.0
 46
0.0
 47
0.0
 48
0.0
140
0.18
141
0.09
142
0.0
143
25.399999999999999
144
1.0
145
0.0
146
1.0
147
0.09
 71
     0
 72
     0
 73
     1
 74
     1
 75
     0
 76
     0
 77
     0
 78
     0
170
     0
171
     2
172
     0
173
     0
174
     0
175
     0
176
     0
177
     0
178
     0
  0
ENDTAB
  0
ENDSEC
  0
SECTION
  2
BLOCKS
  0
BLOCK
  8
0
  2
$MODEL_SPACE
 70
     0
 10
0.0
 20
0.0
 30
0.0
  3
$MODEL_SPACE
  1

  0
ENDBLK
  5
21
  8
0
  0
BLOCK
 67
     1
  8
0
  2
$PAPER_SPACE
 70
     0
 10
0.0
 20
0.0
 30
0.0
  3
$PAPER_SPACE
  1

  0
ENDBLK
  5
5B
 67
     1
  8
0
  0
BLOCK
  8
0
  2
1184FRT
 70
     0
 10
0.0
 20
0.0
 30
0.0
  3
1184FRT
  1

  0
POLYLINE
  5
BEC
  8
LAYER_1
 66
     1
 10
0.0
 20
0.0
 30
0.0
  0
VERTEX
  5
BED
  8
LAYER_1
 10
0.8816879423716628
 20
6.278690293014578
 30
0.0
  0
VERTEX
  5
BEE
  8
LAYER_1
 10
0.5450960683023567
 20
6.3629238647552251
 30
0.0
  0
VERTEX
  5
BEF
  8
LAYER_1
 10
0.2085041942330648
 20
6.278690293014578
 30
0.0
  0
SEQEND
  5
BF0
  8
LAYER_1
  0
POLYLINE
  5
BF1
  8
LAYER_1
 66
     1
 10
0.0
 20
0.0
 30
0.0
  0
VERTEX
  5
BF2
  8
LAYER_1
 10
-0.0438541080956085
 20
6.278690293014578
 30
0.0
  0
VERTEX
  5
BF3
  8
LAYER_1
 10
-0.2963836168709335
 20
6.3629238647552251
 30
0.0
  0
VERTEX
  5
BF4
  8
LAYER_1
 10
-0.4646795539055617
 20
6.278690293014578
 30
0.0
  0
SEQEND
  5
BF5
  8
LAYER_1
  0
POLYLINE
  5
BF6
  8
LAYER_1
 66
     1
 10
0.0
 20
0.0
 30
0.0
  0
VERTEX
  5
BF7
  8
LAYER_1
 10
1.5550428969568979
 20
6.278690293014578
 30
0.0
  0
VERTEX
  5
BF8
  8
LAYER_1
 10
1.3867469599222551
 20
6.3629238647552251
 30
0.0
  0
VERTEX
  5
BF9
  8
LAYER_1
 10
1.1342174511469449
 20
6.278690293014578
 30
0.0
  0
SEQEND
  5
BFA
  8
LAYER_1
  0
LINE
  5
BFB
  8
LAYER_1
 10
-0.0438541080956085
 20
6.278690293014578
 30
0.0
 11
-0.0438541080956085
 21
5.9420984189452764
 31
0.0
  0
LINE
  5
BFC
  8
LAYER_1
 10
0.2085041942330648
 20
6.278690293014578
 30
0.0
 11
0.2085041942330648
 21
5.9420984189452764
 31
0.0
  0
LINE
  5
BFD
  8
LAYER_1
 10
1.1342174511469449
 20
6.278690293014578
 30
0.0
 11
1.1342174511469449
 21
5.9420984189452764
 31
0.0
  0
LINE
  5
BFE
  8
LAYER_1
 10
0.8816879423716628
 20
6.278690293014578
 30
0.0
 11
0.8816879423716628
 21
5.9420984189452764
 31
0.0
  0
LINE
  5
BFF
  8
LAYER_1
 10
-0.4646795539055617
 20
6.278690293014578
 30
0.0
 11
-0.2963836168709335
 21
6.531048595343238
 31
0.0
  0
LINE
  5
C00
  8
LAYER_1
 10
1.5550428969568979
 20
6.278690293014578
 30
0.0
 11
1.3867469599222551
 21
6.531048595343238
 31
0.0
  0
LINE
  5
C01
  8
LAYER_1
 10
-0.2963836168709335
 20
6.531048595343238
 30
0.0
 11
1.3867469599222551
 21
6.531048595343238
 31
0.0
  0
LINE
  5
C02
  8
LAYER_1
 10
-0.4646795539055617
 20
5.9420984189452764
 30
0.0
 11
1.5550428969568979
 21
5.9420984189452764
 31
0.0
  0
LINE
  5
C03
  8
LAYER_1
 10
-0.4646795539055617
 20
6.278690293014578
 30
0.0
 11
-0.4646795539055617
 21
5.9420984189452764
 31
0.0
  0
LINE
  5
C04
  8
LAYER_1
 10
1.5550428969568979
 20
6.278690293014578
 30
0.0
 11
1.5550428969568979
 21
5.9420984189452764
 31
0.0
  0
LINE
  5
C05
  8
LAYER_1
 10
-0.212150045130258
 20
3.7540800310481681
 30
0.0
 11
-0.212150045130258
 21
3.8383136027888081
 31
0.0
  0
POLYLINE
  5
C06
  8
LAYER_1
 66
     1
 10
0.0
 20
0.0
 30
0.0
  0
VERTEX
  5
C07
  8
LAYER_1
 10
6.2675003403737861
 20
5.5212729731353258
 30
0.0
  0
VERTEX
  5
C08
  8
LAYER_1
 10
6.3515627056678019
 20
5.5212729731353258
 30
0.0
  0
VERTEX
  5
C09
  8
LAYER_1
 10
6.435796277408449
 20
5.6055065448759702
 30
0.0
  0
SEQEND
  5
C0A
  8
LAYER_1
  0
LINE
  5
C0B
  8
LAYER_1
 10
-0.212150045130258
 20
3.7540800310481681
 30
0.0
 11
-0.2963836168709335
 21
3.7540800310481681
 31
0.0
  0
POLYLINE
  5
C0C
  8
LAYER_1
 66
     1
 10
0.0
 20
0.0
 30
0.0
  0
VERTEX
  5
C0D
  8
LAYER_1
 10
8.0346932824609851
 20
3.7540800310481681
 30
0.0
  0
VERTEX
  5
C0E
  8
LAYER_1
 10
8.2870515847896211
 20
3.8383136027888081
 30
0.0
  0
VERTEX
  5
C0F
  8
LAYER_1
 10
8.3712851565302682
 20
4.0906719051174738
 30
0.0
  0
SEQEND
  5
C10
  8
LAYER_1
  0
POLYLINE
  5
C11
  8
LAYER_1
 66
     1
 10
0.0
 20
0.0
 30
0.0
  0
VERTEX
  5
C12
  8
LAYER_1
 10
1.3867469599222551
 20
5.6897401166166031
 30
0.0
  0
VERTEX
  5
C13
  8
LAYER_1
 10
1.4708093252162719
 20
5.5212729731353258
 30
0.0
  0
VERTEX
  5
C14
  8
LAYER_1
 10
1.639105262250929
 20
5.4370394013946903
 30
0.0
  0
SEQEND
  5
C15
  8
LAYER_1
  0
POLYLINE
  5
C16
  8
LAYER_1
 66
     1
 10
0.0
 20
0.0
 30
0.0
  0
VERTEX
  5
C17
  8
LAYER_1
 10
-0.2963836168709335
 20
5.5212729731353258
 30
0.0
  0
VERTEX
  5
C18
  8
LAYER_1
 10
-0.2963836168709335
 20
5.4370394013946903
 30
0.0
  0
VERTEX
  5
C19
  8
LAYER_1
 10
-0.212150045130258
 20
5.3531482425473138
 30
0.0
  0
SEQEND
  5
C1A
  8
LAYER_1
  0
POLYLINE
  5
C1B
  8
LAYER_1
 66
     1
 10
0.0
 20
0.0
 30
0.0
  0
VERTEX
  5
C1C
  8
LAYER_1
 10
-0.212150045130258
 20
5.2689146708066694
 30
0.0
  0
VERTEX
  5
C1D
  8
LAYER_1
 10
-0.212150045130258
 20
5.3531482425473138
 30
0.0
  0
VERTEX
  5
C1E
  8
LAYER_1
 10
-0.2963836168709335
 20
5.4370394013946903
 30
0.0
  0
SEQEND
  5
C1F
  8
LAYER_1
  0
LINE
  5
C20
  8
LAYER_1
 10
-0.212150045130258
 20
5.3531482425473138
 30
0.0
 11
-0.2963836168709335
 21
5.4370394013946903
 31
0.0
  0
LINE
  5
C21
  8
LAYER_1
 10
-0.212150045130258
 20
5.2689146708066694
 30
0.0
 11
-0.212150045130258
 21
3.8383136027888081
 31
0.0
  0
LINE
  5
C22
  8
LAYER_1
 10
1.4708093252162719
 20
3.8383136027888081
 30
0.0
 11
1.891634771026204
 21
3.8383136027888081
 31
0.0
  0
LINE
  5
C23
  8
LAYER_1
 10
1.639105262250929
 20
5.4370394013946903
 30
0.0
 11
1.891634771026204
 21
5.4370394013946903
 31
0.0
  0
LINE
  5
C24
  8
LAYER_1
 10
-0.2963836168709335
 20
5.9420984189452764
 30
0.0
 11
-0.2963836168709335
 21
5.5212729731353258
 31
0.0
  0
LINE
  5
C25
  8
LAYER_1
 10
1.3867469599222551
 20
5.9420984189452764
 30
0.0
 11
1.3867469599222551
 21
5.6897401166166031
 31
0.0
  0
LINE
  5
C26
  8
LAYER_1
 10
8.3712851565302682
 20
4.6796220815154523
 30
0.0
 11
8.3712851565302682
 21
4.0906719051174738
 31
0.0
  0
LINE
  5
C27
  8
LAYER_1
 10
-0.212150045130258
 20
9.3080171596383252
 30
0.0
 11
-0.5487419191995642
 21
9.7288426054482731
 31
0.0
  0
LINE
  5
C28
  8
LAYER_1
 10
1.302513388181608
 20
9.3080171596383252
 30
0.0
 11
1.639105262250929
 21
9.7288426054482731
 31
0.0
  0
LINE
  5
C29
  8
LAYER_1
 10
-0.5487419191995642
 20
16.20866419739896
 30
0.0
 11
-0.6329754909402041
 21
16.376788927986979
 31
0.0
  0
LINE
  5
C2A
  8
LAYER_1
 10
1.639105262250929
 20
16.20866419739896
 30
0.0
 11
1.7233388339915541
 21
16.376788927986979
 31
0.0
  0
LINE
  5
C2B
  8
LAYER_1
 10
-0.212150045130258
 20
9.3080171596383252
 30
0.0
 11
-0.212150045130258
 21
6.531048595343238
 31
0.0
  0
LINE
  5
C2C
  8
LAYER_1
 10
1.302513388181608
 20
9.3080171596383252
 30
0.0
 11
1.302513388181608
 21
6.531048595343238
 31
0.0
  0
LINE
  5
C2D
  8
LAYER_1
 10
-0.5487419191995642
 20
16.20866419739896
 30
0.0
 11
-0.5487419191995642
 21
9.7288426054482731
 31
0.0
  0
LINE
  5
C2E
  8
LAYER_1
 10
1.639105262250929
 20
16.20866419739896
 30
0.0
 11
1.639105262250929
 21
9.7288426054482731
 31
0.0
  0
LINE
  5
C2F
  8
LAYER_1
 10
-0.5487419191995642
 20
16.20866419739896
 30
0.0
 11
1.639105262250929
 21
16.20866419739896
 31
0.0
  0
LINE
  5
C30
  8
LAYER_1
 10
-0.6329754909402041
 20
16.376788927986979
 30
0.0
 11
1.7233388339915541
 21
16.376788927986979
 31
0.0
  0
LINE
  5
C31
  8
LAYER_1
 10
6.435796277408449
 20
5.6897401166166031
 30
0.0
 11
6.435796277408449
 21
5.6055065448759702
 31
0.0
  0
LINE
  5
C32
  8
LAYER_1
 10
-0.212150045130258
 20
18.817165618212758
 30
0.0
 11
-0.212150045130258
 21
16.376788927986979
 31
0.0
  0
LINE
  5
C33
  8
LAYER_1
 10
1.302513388181608
 20
18.817165618212758
 30
0.0
 11
1.302513388181608
 21
16.461022499727619
 31
0.0
  0
LINE
  5
C34
  8
LAYER_1
 10
1.3867469599222551
 20
19.322224635763341
 30
0.0
 11
1.080698552302493
 21
22.382708711960689
 31
0.0
  0
POLYLINE
  5
C35
  8
LAYER_1
 66
     1
 10
0.0
 20
0.0
 30
0.0
  0
VERTEX
  5
C36
  8
LAYER_1
 10
1.4708093252162719
 20
19.406115794610731
 30
0.0
  0
VERTEX
  5
C37
  8
LAYER_1
 10
1.3867469599222551
 20
19.322224635763341
 30
0.0
  0
VERTEX
  5
C38
  8
LAYER_1
 10
1.3867469599222551
 20
19.237991064022719
 30
0.0
  0
SEQEND
  5
C39
  8
LAYER_1
  0
POLYLINE
  5
C3A
  8
LAYER_1
 66
     1
 10
0.0
 20
0.0
 30
0.0
  0
VERTEX
  5
C3B
  8
LAYER_1
 10
6.0149708315985171
 20
5.773631275464
 30
0.0
  0
VERTEX
  5
C3C
  8
LAYER_1
 10
6.0149708315985171
 20
5.6897401166166031
 30
0.0
  0
VERTEX
  5
C3D
  8
LAYER_1
 10
6.0992044033391357
 20
5.6897401166166031
 30
0.0
  0
SEQEND
  5
C3E
  8
LAYER_1
  0
LINE
  5
C3F
  8
LAYER_1
 10
1.4708093252162719
 20
19.406115794610731
 30
0.0
 11
1.1627286511878689
 21
22.333352310811339
 31
0.0
  0
LINE
  5
C40
  8
LAYER_1
 10
6.0992044033391357
 20
5.6897401166166031
 30
0.0
 11
6.435796277408449
 21
5.6897401166166031
 31
0.0
  0
LINE
  5
C41
  8
LAYER_1
 10
5.84667489456384
 20
3.7540800310481681
 30
0.0
 11
8.0346932824609851
 21
3.7540800310481681
 31
0.0
  0
LINE
  5
C42
  8
LAYER_1
 10
5.84667489456384
 20
5.5212729731353258
 30
0.0
 11
6.2675003403737861
 21
5.5212729731353258
 31
0.0
  0
LINE
  5
C43
  8
LAYER_1
 10
-0.2963836168709335
 20
18.817165618212758
 30
0.0
 11
1.3867469599222551
 21
18.817165618212758
 31
0.0
  0
LINE
  5
C44
  8
LAYER_1
 10
1.3867469599222551
 20
19.237991064022719
 30
0.0
 11
1.3867469599222551
 21
18.817165618212758
 31
0.0
  0
LINE
  5
C45
  8
LAYER_1
 10
-0.2963836168709335
 20
23.211280429914378
 30
0.0
 11
-0.2963836168709335
 21
18.817165618212758
 31
0.0
  0
LINE
  5
C46
  8
LAYER_1
 10
5.84667489456384
 20
5.5212729731353258
 30
0.0
 11
5.84667489456384
 21
3.7540800310481681
 31
0.0
  0
LINE
  5
C47
  8
LAYER_1
 10
2.4805849474241688
 20
3.922547174529452
 30
0.0
 11
5.84667489456384
 21
3.922547174529452
 31
0.0
  0
LINE
  5
C48
  8
LAYER_1
 10
2.4805849474241688
 20
5.3531482425473138
 30
0.0
 11
5.84667489456384
 21
5.3531482425473138
 31
0.0
  0
LINE
  5
C49
  8
LAYER_1
 10
6.0149708315985171
 20
5.773631275464
 30
0.0
 11
6.5198586427024523
 21
5.773631275464
 31
0.0
  0
LINE
  5
C4A
  8
LAYER_1
 10
1.302513388181608
 20
-0.0326641554548246
 30
0.0
 11
-0.212150045130258
 21
-0.0326641554548246
 31
0.0
  0
LINE
  5
C4B
  8
LAYER_1
 10
-0.212150045130258
 20
2.9127715523215381
 30
0.0
 11
-0.212150045130258
 21
-0.0326641554548246
 31
0.0
  0
LINE
  5
C4C
  8
LAYER_1
 10
1.302513388181608
 20
2.9127715523215381
 30
0.0
 11
1.302513388181608
 21
-0.0326641554548246
 31
0.0
  0
POLYLINE
  5
C4D
  8
LAYER_1
 66
     1
 10
0.0
 20
0.0
 30
0.0
  0
VERTEX
  5
C4E
  8
LAYER_1
 10
1.4708093252162719
 20
3.8383136027888081
 30
0.0
  0
VERTEX
  5
C4F
  8
LAYER_1
 10
1.3867469599222551
 20
3.8383136027888081
 30
0.0
  0
VERTEX
  5
C50
  8
LAYER_1
 10
1.3867469599222551
 20
3.7540800310481681
 30
0.0
  0
SEQEND
  5
C51
  8
LAYER_1
  0
LINE
  5
C52
  8
LAYER_1
 10
-0.2963836168709335
 20
3.7540800310481681
 30
0.0
 11
-0.2963836168709335
 21
3.501721728719509
 31
0.0
  0
LINE
  5
C53
  8
LAYER_1
 10
1.3867469599222551
 20
3.7540800310481681
 30
0.0
 11
1.3867469599222551
 21
3.501721728719509
 31
0.0
  0
LINE
  5
C54
  8
LAYER_1
 10
1.1342174511469449
 20
3.2493634263908371
 30
0.0
 11
0.8816879423716628
 21
3.2493634263908371
 31
0.0
  0
LINE
  5
C55
  8
LAYER_1
 10
0.2085041942330648
 20
3.2493634263908371
 30
0.0
 11
-0.0438541080956085
 21
3.2493634263908371
 31
0.0
  0
POLYLINE
  5
C56
  8
LAYER_1
 66
     1
 10
0.0
 20
0.0
 30
0.0
  0
VERTEX
  5
C57
  8
LAYER_1
 10
0.2085041942330648
 20
3.2493634263908371
 30
0.0
  0
VERTEX
  5
C58
  8
LAYER_1
 10
0.5450960683023567
 20
3.1651298546501958
 30
0.0
  0
VERTEX
  5
C59
  8
LAYER_1
 10
0.8816879423716628
 20
3.2493634263908371
 30
0.0
  0
SEQEND
  5
C5A
  8
LAYER_1
  0
POLYLINE
  5
C5B
  8
LAYER_1
 66
     1
 10
0.0
 20
0.0
 30
0.0
  0
VERTEX
  5
C5C
  8
LAYER_1
 10
1.1342174511469449
 20
3.2493634263908371
 30
0.0
  0
VERTEX
  5
C5D
  8
LAYER_1
 10
1.3867469599222551
 20
3.1651298546501958
 30
0.0
  0
VERTEX
  5
C5E
  8
LAYER_1
 10
1.5550428969568979
 20
3.2493634263908371
 30
0.0
  0
SEQEND
  5
C5F
  8
LAYER_1
  0
POLYLINE
  5
C60
  8
LAYER_1
 66
     1
 10
0.0
 20
0.0
 30
0.0
  0
VERTEX
  5
C61
  8
LAYER_1
 10
-0.4646795539055617
 20
3.2493634263908371
 30
0.0
  0
VERTEX
  5
C62
  8
LAYER_1
 10
-0.2963836168709335
 20
3.1651298546501958
 30
0.0
  0
VERTEX
  5
C63
  8
LAYER_1
 10
-0.0438541080956085
 20
3.2493634263908371
 30
0.0
  0
SEQEND
  5
C64
  8
LAYER_1
  0
LINE
  5
C65
  8
LAYER_1
 10
1.1342174511469449
 20
3.2493634263908371
 30
0.0
 11
1.1342174511469449
 21
3.501721728719509
 31
0.0
  0
LINE
  5
C66
  8
LAYER_1
 10
0.8816879423716628
 20
3.2493634263908371
 30
0.0
 11
0.8816879423716628
 21
3.501721728719509
 31
0.0
  0
LINE
  5
C67
  8
LAYER_1
 10
-0.0438541080956085
 20
3.2493634263908371
 30
0.0
 11
-0.0438541080956085
 21
3.501721728719509
 31
0.0
  0
LINE
  5
C68
  8
LAYER_1
 10
0.2085041942330648
 20
3.2493634263908371
 30
0.0
 11
0.2085041942330648
 21
3.501721728719509
 31
0.0
  0
LINE
  5
C69
  8
LAYER_1
 10
1.5550428969568979
 20
3.2493634263908371
 30
0.0
 11
1.3867469599222551
 21
2.9127715523215381
 31
0.0
  0
LINE
  5
C6A
  8
LAYER_1
 10
-0.4646795539055617
 20
3.2493634263908371
 30
0.0
 11
-0.2963836168709335
 21
2.9127715523215381
 31
0.0
  0
LINE
  5
C6B
  8
LAYER_1
 10
1.3867469599222551
 20
2.9127715523215381
 30
0.0
 11
-0.2963836168709335
 21
2.9127715523215381
 31
0.0
  0
LINE
  5
C6C
  8
LAYER_1
 10
1.5550428969568979
 20
3.501721728719509
 30
0.0
 11
-0.4646795539055617
 21
3.501721728719509
 31
0.0
  0
LINE
  5
C6D
  8
LAYER_1
 10
1.5550428969568979
 20
3.2493634263908371
 30
0.0
 11
1.5550428969568979
 21
3.501721728719509
 31
0.0
  0
LINE
  5
C6E
  8
LAYER_1
 10
-0.4646795539055617
 20
3.2493634263908371
 30
0.0
 11
-0.4646795539055617
 21
3.501721728719509
 31
0.0
  0
LINE
  5
C6F
  8
LAYER_1
 10
2.143993073354884
 20
5.2689146708066694
 30
0.0
 11
2.143993073354884
 21
4.9323227967373704
 31
0.0
  0
LINE
  5
C70
  8
LAYER_1
 10
2.143993073354884
 20
4.3430302074461373
 30
0.0
 11
2.143993073354884
 21
4.0064383333768401
 31
0.0
  0
POLYLINE
  5
C71
  8
LAYER_1
 66
     1
 10
0.0
 20
0.0
 30
0.0
  0
VERTEX
  5
C72
  8
LAYER_1
 10
2.143993073354884
 20
4.3430302074461373
 30
0.0
  0
VERTEX
  5
C73
  8
LAYER_1
 10
2.2282266450955102
 20
4.5957309226680687
 30
0.0
  0
VERTEX
  5
C74
  8
LAYER_1
 10
2.143993073354884
 20
4.9323227967373704
 30
0.0
  0
SEQEND
  5
C75
  8
LAYER_1
  0
POLYLINE
  5
C76
  8
LAYER_1
 66
     1
 10
0.0
 20
0.0
 30
0.0
  0
VERTEX
  5
C77
  8
LAYER_1
 10
2.143993073354884
 20
5.2689146708066694
 30
0.0
  0
VERTEX
  5
C78
  8
LAYER_1
 10
2.2282266450955102
 20
5.4370394013946903
 30
0.0
  0
VERTEX
  5
C79
  8
LAYER_1
 10
2.143993073354884
 20
5.6055065448759702
 30
0.0
  0
SEQEND
  5
C7A
  8
LAYER_1
  0
POLYLINE
  5
C7B
  8
LAYER_1
 66
     1
 10
0.0
 20
0.0
 30
0.0
  0
VERTEX
  5
C7C
  8
LAYER_1
 10
2.143993073354884
 20
3.6698464593075282
 30
0.0
  0
VERTEX
  5
C7D
  8
LAYER_1
 10
2.2282266450955102
 20
3.8383136027888081
 30
0.0
  0
VERTEX
  5
C7E
  8
LAYER_1
 10
2.143993073354884
 20
4.0064383333768401
 30
0.0
  0
SEQEND
  5
C7F
  8
LAYER_1
  0
LINE
  5
C80
  8
LAYER_1
 10
2.143993073354884
 20
5.2689146708066694
 30
0.0
 11
1.891634771026204
 21
5.2689146708066694
 31
0.0
  0
LINE
  5
C81
  8
LAYER_1
 10
2.143993073354884
 20
4.9323227967373704
 30
0.0
 11
1.891634771026204
 21
4.9323227967373704
 31
0.0
  0
LINE
  5
C82
  8
LAYER_1
 10
2.143993073354884
 20
4.0064383333768401
 30
0.0
 11
1.891634771026204
 21
4.0064383333768401
 31
0.0
  0
LINE
  5
C83
  8
LAYER_1
 10
2.143993073354884
 20
4.3430302074461373
 30
0.0
 11
1.891634771026204
 21
4.3430302074461373
 31
0.0
  0
LINE
  5
C84
  8
LAYER_1
 10
2.143993073354884
 20
5.6055065448759702
 30
0.0
 11
2.4805849474241688
 21
5.4370394013946903
 31
0.0
  0
LINE
  5
C85
  8
LAYER_1
 10
2.143993073354884
 20
3.6698464593075282
 30
0.0
 11
2.4805849474241688
 21
3.8383136027888081
 31
0.0
  0
LINE
  5
C86
  8
LAYER_1
 10
2.4805849474241688
 20
5.4370394013946903
 30
0.0
 11
2.4805849474241688
 21
3.8383136027888081
 31
0.0
  0
LINE
  5
C87
  8
LAYER_1
 10
1.891634771026204
 20
5.6055065448759702
 30
0.0
 11
1.891634771026204
 21
3.6698464593075282
 31
0.0
  0
LINE
  5
C88
  8
LAYER_1
 10
2.143993073354884
 20
5.6055065448759702
 30
0.0
 11
1.891634771026204
 21
5.6055065448759702
 31
0.0
  0
LINE
  5
C89
  8
LAYER_1
 10
2.143993073354884
 20
3.6698464593075282
 30
0.0
 11
1.891634771026204
 21
3.6698464593075282
 31
0.0
  0
LINE
  5
C8A
  8
LAYER_1
 10
-0.0438541080956085
 20
6.278690293014578
 30
0.0
 11
0.2085041942330648
 21
6.278690293014578
 31
0.0
  0
LINE
  5
C8B
  8
LAYER_1
 10
0.8816879423716628
 20
6.278690293014578
 30
0.0
 11
1.1342174511469449
 21
6.278690293014578
 31
0.0
  0
LINE
  5
C8C
  8
LAYER_1
 10
52.803124598144798
 20
6.9518740411531912
 30
0.0
 11
52.803124598144798
 21
6.8676404694125512
 31
0.0
  0
LINE
  5
C8D
  8
LAYER_1
 10
52.803124598144798
 20
6.8676404694125512
 30
0.0
 11
52.719062232850781
 21
6.8676404694125512
 31
0.0
  0
LINE
  5
C8E
  8
LAYER_1
 10
25.04842861852914
 20
7.9616496633611087
 30
0.0
 11
32.522693756459361
 21
7.961649663361106
 31
0.0
  0
LINE
  5
C8F
  8
LAYER_1
 10
25.04842861852914
 20
7.961649663361106
 30
0.0
 11
32.859285630528667
 21
7.961649663361106
 31
0.0
  0
LINE
  5
C90
  8
LAYER_1
 10
22.76118699555624
 20
16.12443062565832
 30
0.0
 11
22.76118699555624
 21
9.337852015947929
 31
0.0
  0
LINE
  5
C91
  8
LAYER_1
 10
22.592891058521591
 20
16.20866419739896
 30
0.0
 11
22.592891058521591
 21
9.4391134052789045
 31
0.0
  0
LINE
  5
C92
  8
LAYER_1
 10
22.508657486780979
 20
16.20866419739896
 30
0.0
 11
22.508657486780979
 21
9.4897956062461777
 31
0.0
  0
LINE
  5
C93
  8
LAYER_1
 10
22.17206561271168
 20
16.376788927986979
 30
0.0
 11
22.17206561271168
 21
9.6923183849081536
 31
0.0
  0
LINE
  5
C94
  8
LAYER_1
 10
22.08800324741765
 20
16.376788927986979
 30
0.0
 11
22.08800324741765
 21
9.7428975732718595
 31
0.0
  0
LINE
  5
C95
  8
LAYER_1
 10
21.919536103936348
 20
9.8442619752064449
 30
0.0
 11
21.919536103936348
 21
16.376788927986979
 31
0.0
  0
LINE
  5
C96
  8
LAYER_1
 10
27.286084855284351
 20
6.6152821670838851
 30
0.0
 11
52.719062232850781
 21
6.6152821670838851
 31
0.0
  0
LINE
  5
C97
  8
LAYER_1
 10
27.006662369972329
 20
6.783406897671914
 30
0.0
 11
52.719062232850781
 21
6.783406897671914
 31
0.0
  0
LINE
  5
C98
  8
LAYER_1
 10
26.86666658303394
 20
6.8676404694125512
 30
0.0
 11
52.719062232850781
 21
6.8676404694125512
 31
0.0
  0
LINE
  5
C99
  8
LAYER_1
 10
26.446679222218741
 20
7.1203411846344782
 30
0.0
 11
52.719062232850781
 21
7.1203411846344782
 31
0.0
  0
LINE
  5
C9A
  8
LAYER_1
 10
26.307252523845129
 20
7.2042323434818574
 30
0.0
 11
52.719062232850781
 21
7.2042323434818574
 31
0.0
  0
LINE
  5
C9B
  8
LAYER_1
 10
26.02726094996833
 20
7.3726994869631328
 30
0.0
 11
52.719062232850781
 21
7.3726994869631373
 31
0.0
  0
POLYLINE
  8
LAYER_1
  5
10E4
  66
     1
 10
0.000000
 20
0.000000
 30
0.000000
  70
     8
  0
VERTEX
  8
LAYER_1
  5
10E5
 10
53.8131
 20
10.1497
 30
0.000000
  70
    32
  0
VERTEX
  8
LAYER_1
  5
10E6
 10
53.8325
 20
10.2137
 30
0.000000
  70
    32
  0
VERTEX
  8
LAYER_1
  5
10E7
 10
53.8516
 20
10.2779
 30
0.000000
  70
    32
  0
VERTEX
  8
LAYER_1
  5
10E8
 10
53.8703
 20
10.3422
 30
0.000000
  70
    32
  0
VERTEX
  8
LAYER_1
  5
10E9
 10
53.8888
 20
10.4066
 30
0.000000
  70
    32
  0
VERTEX
  8
LAYER_1
  5
10EA
 10
53.9070
 20
10.4711
 30
0.000000
  70
    32
  0
VERTEX
  8
LAYER_1
  5
10EB
 10
53.9248
 20
10.5356
 30
0.000000
  70
    32
  0
VERTEX
  8
LAYER_1
  5
10EC
 10
53.9424
 20
10.6003
 30
0.000000
  70
    32
  0
VERTEX
  8
LAYER_1
  5
10ED
 10
53.9596
 20
10.6650
 30
0.000000
  70
    32
  0
VERTEX
  8
LAYER_1
  5
10EE
 10
53.9765
 20
10.7299
 30
0.000000
  70
    32
  0
VERTEX
  8
LAYER_1
  5
10EF
 10
53.9932
 20
10.7948
 30
0.000000
  70
    32
  0
VERTEX
  8
LAYER_1
  5
10F0
 10
54.0095
 20
10.8599
 30
0.000000
  70
    32
  0
VERTEX
  8
LAYER_1
  5
10F1
 10
54.0255
 20
10.9250
 30
0.000000
  70
    32
  0
VERTEX
  8
LAYER_1
  5
10F2
 10
54.0412
 20
10.9902
 30
0.000000
  70
    32
  0
VERTEX
  8
LAYER_1
  5
10F3
 10
54.0566
 20
11.0555
 30
0.000000
  70
    32
  0
VERTEX
  8
LAYER_1
  5
10F4
 10
54.0716
 20
11.1209
 30
0.000000
  70
    32
  0
VERTEX
  8
LAYER_1
  5
10F5
 10
54.0864
 20
11.1864
 30
0.000000
  70
    32
  0
VERTEX
  8
LAYER_1
  5
10F6
 10
54.1009
 20
11.2519
 30
0.000000
  70
    32
  0
VERTEX
  8
LAYER_1
  5
10F7
 10
54.1150
 20
11.3175
 30
0.000000
  70
    32
  0
VERTEX
  8
LAYER_1
  5
10F8
 10
54.1289
 20
11.3833
 30
0.000000
  70
    32
  0
VERTEX
  8
LAYER_1
  5
10F9
 10
54.1424
 20
11.4491
 30
0.000000
  70
    32
  0
VERTEX
  8
LAYER_1
  5
10FA
 10
54.1556
 20
11.5149
 30
0.000000
  70
    32
  0
VERTEX
  8
LAYER_1
  5
10FB
 10
54.1685
 20
11.5809
 30
0.000000
  70
    32
  0
VERTEX
  8
LAYER_1
  5
10FC
 10
54.1811
 20
11.6469
 30
0.000000
  70
    32
  0
VERTEX
  8
LAYER_1
  5
10FD
 10
54.1934
 20
11.7130
 30
0.000000
  70
    32
  0
VERTEX
  8
LAYER_1
  5
10FE
 10
54.2054
 20
11.7792
 30
0.000000
  70
    32
  0
VERTEX
  8
LAYER_1
  5
10FF
 10
54.2171
 20
11.8455
 30
0.000000
  70
    32
  0
VERTEX
  8
LAYER_1
  5
1100
 10
54.2285
 20
11.9118
 30
0.000000
  70
    32
  0
VERTEX
  8
LAYER_1
  5
1101
 10
54.2395
 20
11.9782
 30
0.000000
  70
    32
  0
VERTEX
  8
LAYER_1
  5
1102
 10
54.2503
 20
12.0447
 30
0.000000
  70
    32
  0
VERTEX
  8
LAYER_1
  5
1103
 10
54.2607
 20
12.1113
 30
0.000000
  70
    32
  0
VERTEX
  8
LAYER_1
  5
1104
 10
54.2708
 20
12.1779
 30
0.000000
  70
    32
  0
VERTEX
  8
LAYER_1
  5
1105
 10
54.2807
 20
12.2446
 30
0.000000
  70
    32
  0
VERTEX
  8
LAYER_1
  5
1106
 10
54.2902
 20
12.3113
 30
0.000000
  70
    32
  0
VERTEX
  8
LAYER_1
  5
1107
 10
54.2994
 20
12.3781
 30
0.000000
  70
    32
  0
VERTEX
  8
LAYER_1
  5
1108
 10
54.3083
 20
12.4450
 30
0.000000
  70
    32
  0
VERTEX
  8
LAYER_1
  5
1109
 10
54.3169
 20
12.5120
 30
0.000000
  70
    32
  0
VERTEX
  8
LAYER_1
  5
110A
 10
54.3252
 20
12.5790
 30
0.000000
  70
    32
  0
VERTEX
  8
LAYER_1
  5
110B
 10
54.3331
 20
12.6461
 30
0.000000
  70
    32
  0
VERTEX
  8
LAYER_1
  5
110C
 10
54.3408
 20
12.7132
 30
0.000000
  70
    32
  0
VERTEX
  8
LAYER_1
  5
110D
 10
54.3482
 20
12.7804
 30
0.000000
  70
    32
  0
VERTEX
  8
LAYER_1
  5
110E
 10
54.3552
 20
12.8476
 30
0.000000
  70
    32
  0
VERTEX
  8
LAYER_1
  5
110F
 10
54.3619
 20
12.9149
 30
0.000000
  70
    32
  0
VERTEX
  8
LAYER_1
  5
1110
 10
54.3684
 20
12.9823
 30
0.000000
  70
    32
  0
VERTEX
  8
LAYER_1
  5
1111
 10
54.3745
 20
13.0497
 30
0.000000
  70
    32
  0
VERTEX
  8
LAYER_1
  5
1112
 10
54.3803
 20
13.1172
 30
0.000000
  70
    32
  0
VERTEX
  8
LAYER_1
  5
1113
 10
54.3858
 20
13.1847
 30
0.000000
  70
    32
  0
VERTEX
  8
LAYER_1
  5
1114
 10
54.3910
 20
13.2523
 30
0.000000
  70
    32
  0
VERTEX
  8
LAYER_1
  5
1115
 10
54.3959
 20
13.3199
 30
0.000000
  70
    32
  0
VERTEX
  8
LAYER_1
  5
1116
 10
54.4005
 20
13.3876
 30
0.000000
  70
    32
  0
VERTEX
  8
LAYER_1
  5
1117
 10
54.4047
 20
13.4553
 30
0.000000
  70
    32
  0
VERTEX
  8
LAYER_1
  5
1118
 10
54.4087
 20
13.5231
 30
0.000000
  70
    32
  0
VERTEX
  8
LAYER_1
  5
1119
 10
54.4123
 20
13.5909
 30
0.000000
  70
    32
  0
VERTEX
  8
LAYER_1
  5
111A
 10
54.4157
 20
13.6588
 30
0.000000
  70
    32
  0
VERTEX
  8
LAYER_1
  5
111B
 10
54.4187
 20
13.7267
 30
0.000000
  70
    32
  0
VERTEX
  8
LAYER_1
  5
111C
 10
54.4214
 20
13.7946
 30
0.000000
  70
    32
  0
VERTEX
  8
LAYER_1
  5
111D
 10
54.4238
 20
13.8626
 30
0.000000
  70
    32
  0
VERTEX
  8
LAYER_1
  5
111E
 10
54.4259
 20
13.9307
 30
0.000000
  70
    32
  0
VERTEX
  8
LAYER_1
  5
111F
 10
54.4277
 20
13.9988
 30
0.000000
  70
    32
  0
VERTEX
  8
LAYER_1
  5
1120
 10
54.4292
 20
14.0669
 30
0.000000
  70
    32
  0
VERTEX
  8
LAYER_1
  5
1121
 10
54.4304
 20
14.1350
 30
0.000000
  70
    32
  0
VERTEX
  8
LAYER_1
  5
1122
 10
54.4313
 20
14.2032
 30
0.000000
  70
    32
  0
VERTEX
  8
LAYER_1
  5
1123
 10
54.4318
 20
14.2714
 30
0.000000
  70
    32
  0
VERTEX
  8
LAYER_1
  5
1124
 10
54.4321
 20
14.3397
 30
0.000000
  70
    32
  0
VERTEX
  8
LAYER_1
  5
1125
 10
54.4320
 20
14.4080
 30
0.000000
  70
    32
  0
VERTEX
  8
LAYER_1
  5
1126
 10
54.4317
 20
14.4763
 30
0.000000
  70
    32
  0
VERTEX
  8
LAYER_1
  5
1127
 10
54.4310
 20
14.5447
 30
0.000000
  70
    32
  0
VERTEX
  8
LAYER_1
  5
1128
 10
54.4300
 20
14.6131
 30
0.000000
  70
    32
  0
VERTEX
  8
LAYER_1
  5
1129
 10
54.4287
 20
14.6815
 30
0.000000
  70
    32
  0
VERTEX
  8
LAYER_1
  5
112A
 10
54.4271
 20
14.7499
 30
0.000000
  70
    32
  0
VERTEX
  8
LAYER_1
  5
112B
 10
54.4252
 20
14.8184
 30
0.000000
  70
    32
  0
VERTEX
  8
LAYER_1
  5
112C
 10
54.4230
 20
14.8869
 30
0.000000
  70
    32
  0
VERTEX
  8
LAYER_1
  5
112D
 10
54.4204
 20
14.9554
 30
0.000000
  70
    32
  0
VERTEX
  8
LAYER_1
  5
112E
 10
54.4176
 20
15.0240
 30
0.000000
  70
    32
  0
VERTEX
  8
LAYER_1
  5
112F
 10
54.4145
 20
15.0926
 30
0.000000
  70
    32
  0
VERTEX
  8
LAYER_1
  5
1130
 10
54.4110
 20
15.1612
 30
0.000000
  70
    32
  0
VERTEX
  8
LAYER_1
  5
1131
 10
54.4072
 20
15.2298
 30
0.000000
  70
    32
  0
VERTEX
  8
LAYER_1
  5
1132
 10
54.4032
 20
15.2984
 30
0.000000
  70
    32
  0
VERTEX
  8
LAYER_1
  5
1133
 10
54.3988
 20
15.3671
 30
0.000000
  70
    32
  0
VERTEX
  8
LAYER_1
  5
1134
 10
54.3941
 20
15.4357
 30
0.000000
  70
    32
  0
VERTEX
  8
LAYER_1
  5
1135
 10
54.3891
 20
15.5044
 30
0.000000
  70
    32
  0
VERTEX
  8
LAYER_1
  5
1136
 10
54.3838
 20
15.5731
 30
0.000000
  70
    32
  0
VERTEX
  8
LAYER_1
  5
1137
 10
54.3782
 20
15.6418
 30
0.000000
  70
    32
  0
VERTEX
  8
LAYER_1
  5
1138
 10
54.3722
 20
15.7106
 30
0.000000
  70
    32
  0
VERTEX
  8
LAYER_1
  5
1139
 10
54.3660
 20
15.7793
 30
0.000000
  70
    32
  0
VERTEX
  8
LAYER_1
  5
113A
 10
54.3595
 20
15.8481
 30
0.000000
  70
    32
  0
VERTEX
  8
LAYER_1
  5
113B
 10
54.3526
 20
15.9168
 30
0.000000
  70
    32
  0
VERTEX
  8
LAYER_1
  5
113C
 10
54.3455
 20
15.9856
 30
0.000000
  70
    32
  0
VERTEX
  8
LAYER_1
  5
113D
 10
54.3380
 20
16.0544
 30
0.000000
  70
    32
  0
VERTEX
  8
LAYER_1
  5
113E
 10
54.3302
 20
16.1232
 30
0.000000
  70
    32
  0
VERTEX
  8
LAYER_1
  5
113F
 10
54.3221
 20
16.1920
 30
0.000000
  70
    32
  0
VERTEX
  8
LAYER_1
  5
1140
 10
54.3137
 20
16.2608
 30
0.000000
  70
    32
  0
VERTEX
  8
LAYER_1
  5
1141
 10
54.3050
 20
16.3296
 30
0.000000
  70
    32
  0
VERTEX
  8
LAYER_1
  5
1142
 10
54.2960
 20
16.3984
 30
0.000000
  70
    32
  0
VERTEX
  8
LAYER_1
  5
1143
 10
54.2867
 20
16.4672
 30
0.000000
  70
    32
  0
VERTEX
  8
LAYER_1
  5
1144
 10
54.2770
 20
16.5360
 30
0.000000
  70
    32
  0
VERTEX
  8
LAYER_1
  5
1145
 10
54.2671
 20
16.6048
 30
0.000000
  70
    32
  0
VERTEX
  8
LAYER_1
  5
1146
 10
54.2568
 20
16.6736
 30
0.000000
  70
    32
  0
VERTEX
  8
LAYER_1
  5
1147
 10
54.2463
 20
16.7424
 30
0.000000
  70
    32
  0
VERTEX
  8
LAYER_1
  5
1148
 10
54.2354
 20
16.8112
 30
0.000000
  70
    32
  0
VERTEX
  8
LAYER_1
  5
1149
 10
54.2242
 20
16.8800
 30
0.000000
  70
    32
  0
VERTEX
  8
LAYER_1
  5
114A
 10
54.2128
 20
16.9488
 30
0.000000
  70
    32
  0
VERTEX
  8
LAYER_1
  5
114B
 10
54.2010
 20
17.0175
 30
0.000000
  70
    32
  0
VERTEX
  8
LAYER_1
  5
114C
 10
54.1889
 20
17.0863
 30
0.000000
  70
    32
  0
VERTEX
  8
LAYER_1
  5
114D
 10
54.1764
 20
17.1551
 30
0.000000
  70
    32
  0
VERTEX
  8
LAYER_1
  5
114E
 10
54.1637
 20
17.2238
 30
0.000000
  70
    32
  0
VERTEX
  8
LAYER_1
  5
114F
 10
54.1507
 20
17.2926
 30
0.000000
  70
    32
  0
VERTEX
  8
LAYER_1
  5
1150
 10
54.1374
 20
17.3613
 30
0.000000
  70
    32
  0
VERTEX
  8
LAYER_1
  5
1151
 10
54.1237
 20
17.4300
 30
0.000000
  70
    32
  0
VERTEX
  8
LAYER_1
  5
1152
 10
54.1098
 20
17.4987
 30
0.000000
  70
    32
  0
VERTEX
  8
LAYER_1
  5
1153
 10
54.0955
 20
17.5674
 30
0.000000
  70
    32
  0
VERTEX
  8
LAYER_1
  5
1154
 10
54.0809
 20
17.6361
 30
0.000000
  70
    32
  0
VERTEX
  8
LAYER_1
  5
1155
 10
54.0660
 20
17.7047
 30
0.000000
  70
    32
  0
VERTEX
  8
LAYER_1
  5
1156
 10
54.0508
 20
17.7733
 30
0.000000
  70
    32
  0
VERTEX
  8
LAYER_1
  5
1157
 10
54.0353
 20
17.8419
 30
0.000000
  70
    32
  0
VERTEX
  8
LAYER_1
  5
1158
 10
54.0195
 20
17.9105
 30
0.000000
  70
    32
  0
VERTEX
  8
LAYER_1
  5
1159
 10
54.0034
 20
17.9791
 30
0.000000
  70
    32
  0
VERTEX
  8
LAYER_1
  5
115A
 10
53.9870
 20
18.0476
 30
0.000000
  70
    32
  0
VERTEX
  8
LAYER_1
  5
115B
 10
53.9702
 20
18.1162
 30
0.000000
  70
    32
  0
VERTEX
  8
LAYER_1
  5
115C
 10
53.9532
 20
18.1847
 30
0.000000
  70
    32
  0
VERTEX
  8
LAYER_1
  5
115D
 10
53.9358
 20
18.2531
 30
0.000000
  70
    32
  0
VERTEX
  8
LAYER_1
  5
115E
 10
53.9182
 20
18.3216
 30
0.000000
  70
    32
  0
VERTEX
  8
LAYER_1
  5
115F
 10
53.9002
 20
18.3900
 30
0.000000
  70
    32
  0
VERTEX
  8
LAYER_1
  5
1160
 10
53.8819
 20
18.4584
 30
0.000000
  70
    32
  0
VERTEX
  8
LAYER_1
  5
1161
 10
53.8633
 20
18.5267
 30
0.000000
  70
    32
  0
VERTEX
  8
LAYER_1
  5
1162
 10
53.8444
 20
18.5950
 30
0.000000
  70
    32
  0
VERTEX
  8
LAYER_1
  5
1163
 10
53.8252
 20
18.6633
 30
0.000000
  70
    32
  0
VERTEX
  8
LAYER_1
  5
1164
 10
53.8057
 20
18.7316
 30
0.000000
  70
    32
  0
SEQEND
  8
LAYER_1
  5
1165
  0
POLYLINE
  8
LAYER_1
  5
1166
  66
     1
 10
0.000000
 20
0.000000
 30
0.000000
  70
     8
  0
VERTEX
  8
LAYER_1
  5
1167
 10
53.6448
 20
18.7329
 30
0.000000
  70
    32
  0
VERTEX
  8
LAYER_1
  5
1168
 10
53.6549
 20
18.7008
 30
0.000000
  70
    32
  0
VERTEX
  8
LAYER_1
  5
1169
 10
53.6650
 20
18.6686
 30
0.000000
  70
    32
  0
VERTEX
  8
LAYER_1
  5
116A
 10
53.6749
 20
18.6362
 30
0.000000
  70
    32
  0
VERTEX
  8
LAYER_1
  5
116B
 10
53.6848
 20
18.6038
 30
0.000000
  70
    32
  0
VERTEX
  8
LAYER_1
  5
116C
 10
53.6947
 20
18.5713
 30
0.000000
  70
    32
  0
VERTEX
  8
LAYER_1
  5
116D
 10
53.7044
 20
18.5387
 30
0.000000
  70
    32
  0
VERTEX
  8
LAYER_1
  5
116E
 10
53.7141
 20
18.5059
 30
0.000000
  70
    32
  0
VERTEX
  8
LAYER_1
  5
116F
 10
53.7237
 20
18.4731
 30
0.000000
  70
    32
  0
VERTEX
  8
LAYER_1
  5
1170
 10
53.7332
 20
18.4402
 30
0.000000
  70
    32
  0
VERTEX
  8
LAYER_1
  5
1171
 10
53.7426
 20
18.4073
 30
0.000000
  70
    32
  0
VERTEX
  8
LAYER_1
  5
1172
 10
53.7519
 20
18.3742
 30
0.000000
  70
    32
  0
VERTEX
  8
LAYER_1
  5
1173
 10
53.7612
 20
18.3410
 30
0.000000
  70
    32
  0
VERTEX
  8
LAYER_1
  5
1174
 10
53.7704
 20
18.3077
 30
0.000000
  70
    32
  0
VERTEX
  8
LAYER_1
  5
1175
 10
53.7795
 20
18.2744
 30
0.000000
  70
    32
  0
VERTEX
  8
LAYER_1
  5
1176
 10
53.7885
 20
18.2410
 30
0.000000
  70
    32
  0
VERTEX
  8
LAYER_1
  5
1177
 10
53.7974
 20
18.2074
 30
0.000000
  70
    32
  0
VERTEX
  8
LAYER_1
  5
1178
 10
53.8063
 20
18.1738
 30
0.000000
  70
    32
  0
VERTEX
  8
LAYER_1
  5
1179
 10
53.8151
 20
18.1401
 30
0.000000
  70
    32
  0
VERTEX
  8
LAYER_1
  5
117A
 10
53.8238
 20
18.1063
 30
0.000000
  70
    32
  0
VERTEX
  8
LAYER_1
  5
117B
 10
53.8324
 20
18.0725
 30
0.000000
  70
    32
  0
VERTEX
  8
LAYER_1
  5
117C
 10
53.8409
 20
18.0385
 30
0.000000
  70
    32
  0
VERTEX
  8
LAYER_1
  5
117D
 10
53.8494
 20
18.0045
 30
0.000000
  70
    32
  0
VERTEX
  8
LAYER_1
  5
117E
 10
53.8578
 20
17.9704
 30
0.000000
  70
    32
  0
VERTEX
  8
LAYER_1
  5
117F
 10
53.8660
 20
17.9362
 30
0.000000
  70
    32
  0
VERTEX
  8
LAYER_1
  5
1180
 10
53.8743
 20
17.9019
 30
0.000000
  70
    32
  0
VERTEX
  8
LAYER_1
  5
1181
 10
53.8824
 20
17.8675
 30
0.000000
  70
    32
  0
VERTEX
  8
LAYER_1
  5
1182
 10
53.8904
 20
17.8331
 30
0.000000
  70
    32
  0
VERTEX
  8
LAYER_1
  5
1183
 10
53.8984
 20
17.7986
 30
0.000000
  70
    32
  0
VERTEX
  8
LAYER_1
  5
1184
 10
53.9063
 20
17.7640
 30
0.000000
  70
    32
  0
VERTEX
  8
LAYER_1
  5
1185
 10
53.9141
 20
17.7293
 30
0.000000
  70
    32
  0
VERTEX
  8
LAYER_1
  5
1186
 10
53.9218
 20
17.6946
 30
0.000000
  70
    32
  0
VERTEX
  8
LAYER_1
  5
1187
 10
53.9294
 20
17.6598
 30
0.000000
  70
    32
  0
VERTEX
  8
LAYER_1
  5
1188
 10
53.9370
 20
17.6249
 30
0.000000
  70
    32
  0
VERTEX
  8
LAYER_1
  5
1189
 10
53.9445
 20
17.5899
 30
0.000000
  70
    32
  0
VERTEX
  8
LAYER_1
  5
118A
 10
53.9519
 20
17.5549
 30
0.000000
  70
    32
  0
VERTEX
  8
LAYER_1
  5
118B
 10
53.9592
 20
17.5197
 30
0.000000
  70
    32
  0
VERTEX
  8
LAYER_1
  5
118C
 10
53.9664
 20
17.4846
 30
0.000000
  70
    32
  0
VERTEX
  8
LAYER_1
  5
118D
 10
53.9735
 20
17.4493
 30
0.000000
  70
    32
  0
VERTEX
  8
LAYER_1
  5
118E
 10
53.9806
 20
17.4140
 30
0.000000
  70
    32
  0
VERTEX
  8
LAYER_1
  5
118F
 10
53.9876
 20
17.3786
 30
0.000000
  70
    32
  0
VERTEX
  8
LAYER_1
  5
1190
 10
53.9945
 20
17.3431
 30
0.000000
  70
    32
  0
VERTEX
  8
LAYER_1
  5
1191
 10
54.0013
 20
17.3076
 30
0.000000
  70
    32
  0
VERTEX
  8
LAYER_1
  5
1192
 10
54.0080
 20
17.2720
 30
0.000000
  70
    32
  0
VERTEX
  8
LAYER_1
  5
1193
 10
54.0146
 20
17.2363
 30
0.000000
  70
    32
  0
VERTEX
  8
LAYER_1
  5
1194
 10
54.0212
 20
17.2006
 30
0.000000
  70
    32
  0
VERTEX
  8
LAYER_1
  5
1195
 10
54.0277
 20
17.1648
 30
0.000000
  70
    32
  0
VERTEX
  8
LAYER_1
  5
1196
 10
54.0341
 20
17.1289
 30
0.000000
  70
    32
  0
VERTEX
  8
LAYER_1
  5
1197
 10
54.0404
 20
17.0930
 30
0.000000
  70
    32
  0
VERTEX
  8
LAYER_1
  5
1198
 10
54.0466
 20
17.0570
 30
0.000000
  70
    32
  0
VERTEX
  8
LAYER_1
  5
1199
 10
54.0527
 20
17.0209
 30
0.000000
  70
    32
  0
VERTEX
  8
LAYER_1
  5
119A
 10
54.0588
 20
16.9848
 30
0.000000
  70
    32
  0
VERTEX
  8
LAYER_1
  5
119B
 10
54.0647
 20
16.9486
 30
0.000000
  70
    32
  0
VERTEX
  8
LAYER_1
  5
119C
 10
54.0706
 20
16.9124
 30
0.000000
  70
    32
  0
VERTEX
  8
LAYER_1
  5
119D
 10
54.0764
 20
16.8761
 30
0.000000
  70
    32
  0
VERTEX
  8
LAYER_1
  5
119E
 10
54.0821
 20
16.8397
 30
0.000000
  70
    32
  0
VERTEX
  8
LAYER_1
  5
119F
 10
54.0878
 20
16.8033
 30
0.000000
  70
    32
  0
VERTEX
  8
LAYER_1
  5
11A0
 10
54.0933
 20
16.7668
 30
0.000000
  70
    32
  0
VERTEX
  8
LAYER_1
  5
11A1
 10
54.0988
 20
16.7303
 30
0.000000
  70
    32
  0
VERTEX
  8
LAYER_1
  5
11A2
 10
54.1041
 20
16.6937
 30
0.000000
  70
    32
  0
VERTEX
  8
LAYER_1
  5
11A3
 10
54.1094
 20
16.6571
 30
0.000000
  70
    32
  0
VERTEX
  8
LAYER_1
  5
11A4
 10
54.1146
 20
16.6204
 30
0.000000
  70
    32
  0
VERTEX
  8
LAYER_1
  5
11A5
 10
54.1197
 20
16.5837
 30
0.000000
  70
    32
  0
VERTEX
  8
LAYER_1
  5
11A6
 10
54.1248
 20
16.5469
 30
0.000000
  70
    32
  0
VERTEX
  8
LAYER_1
  5
11A7
 10
54.1297
 20
16.5100
 30
0.000000
  70
    32
  0
VERTEX
  8
LAYER_1
  5
11A8
 10
54.1346
 20
16.4731
 30
0.000000
  70
    32
  0
VERTEX
  8
LAYER_1
  5
11A9
 10
54.1393
 20
16.4362
 30
0.000000
  70
    32
  0
VERTEX
  8
LAYER_1
  5
11AA
 10
54.1440
 20
16.3992
 30
0.000000
  70
    32
  0
VERTEX
  8
LAYER_1
  5
11AB
 10
54.1486
 20
16.3621
 30
0.000000
  70
    32
  0
VERTEX
  8
LAYER_1
  5
11AC
 10
54.1531
 20
16.3250
 30
0.000000
  70
    32
  0
VERTEX
  8
LAYER_1
  5
11AD
 10
54.1575
 20
16.2879
 30
0.000000
  70
    32
  0
VERTEX
  8
LAYER_1
  5
11AE
 10
54.1619
 20
16.2507
 30
0.000000
  70
    32
  0
VERTEX
  8
LAYER_1
  5
11AF
 10
54.1661
 20
16.2134
 30
0.000000
  70
    32
  0
VERTEX
  8
LAYER_1
  5
11B0
 10
54.1703
 20
16.1761
 30
0.000000
  70
    32
  0
VERTEX
  8
LAYER_1
  5
11B1
 10
54.1744
 20
16.1388
 30
0.000000
  70
    32
  0
VERTEX
  8
LAYER_1
  5
11B2
 10
54.1784
 20
16.1014
 30
0.000000
  70
    32
  0
VERTEX
  8
LAYER_1
  5
11B3
 10
54.1823
 20
16.0640
 30
0.000000
  70
    32
  0
VERTEX
  8
LAYER_1
  5
11B4
 10
54.1861
 20
16.0266
 30
0.000000
  70
    32
  0
VERTEX
  8
LAYER_1
  5
11B5
 10
54.1898
 20
15.9891
 30
0.000000
  70
    32
  0
VERTEX
  8
LAYER_1
  5
11B6
 10
54.1934
 20
15.9515
 30
0.000000
  70
    32
  0
VERTEX
  8
LAYER_1
  5
11B7
 10
54.1970
 20
15.9139
 30
0.000000
  70
    32
  0
VERTEX
  8
LAYER_1
  5
11B8
 10
54.2004
 20
15.8763
 30
0.000000
  70
    32
  0
VERTEX
  8
LAYER_1
  5
11B9
 10
54.2038
 20
15.8387
 30
0.000000
  70
    32
  0
VERTEX
  8
LAYER_1
  5
11BA
 10
54.2071
 20
15.8010
 30
0.000000
  70
    32
  0
VERTEX
  8
LAYER_1
  5
11BB
 10
54.2103
 20
15.7632
 30
0.000000
  70
    32
  0
VERTEX
  8
LAYER_1
  5
11BC
 10
54.2134
 20
15.7254
 30
0.000000
  70
    32
  0
VERTEX
  8
LAYER_1
  5
11BD
 10
54.2164
 20
15.6876
 30
0.000000
  70
    32
  0
VERTEX
  8
LAYER_1
  5
11BE
 10
54.2194
 20
15.6498
 30
0.000000
  70
    32
  0
VERTEX
  8
LAYER_1
  5
11BF
 10
54.2222
 20
15.6119
 30
0.000000
  70
    32
  0
VERTEX
  8
LAYER_1
  5
11C0
 10
54.2250
 20
15.5740
 30
0.000000
  70
    32
  0
VERTEX
  8
LAYER_1
  5
11C1
 10
54.2276
 20
15.5361
 30
0.000000
  70
    32
  0
VERTEX
  8
LAYER_1
  5
11C2
 10
54.2302
 20
15.4981
 30
0.000000
  70
    32
  0
VERTEX
  8
LAYER_1
  5
11C3
 10
54.2327
 20
15.4601
 30
0.000000
  70
    32
  0
VERTEX
  8
LAYER_1
  5
11C4
 10
54.2351
 20
15.4220
 30
0.000000
  70
    32
  0
VERTEX
  8
LAYER_1
  5
11C5
 10
54.2374
 20
15.3840
 30
0.000000
  70
    32
  0
VERTEX
  8
LAYER_1
  5
11C6
 10
54.2396
 20
15.3459
 30
0.000000
  70
    32
  0
VERTEX
  8
LAYER_1
  5
11C7
 10
54.2417
 20
15.3077
 30
0.000000
  70
    32
  0
VERTEX
  8
LAYER_1
  5
11C8
 10
54.2438
 20
15.2696
 30
0.000000
  70
    32
  0
VERTEX
  8
LAYER_1
  5
11C9
 10
54.2457
 20
15.2314
 30
0.000000
  70
    32
  0
VERTEX
  8
LAYER_1
  5
11CA
 10
54.2476
 20
15.1932
 30
0.000000
  70
    32
  0
VERTEX
  8
LAYER_1
  5
11CB
 10
54.2494
 20
15.1550
 30
0.000000
  70
    32
  0
VERTEX
  8
LAYER_1
  5
11CC
 10
54.2510
 20
15.1167
 30
0.000000
  70
    32
  0
VERTEX
  8
LAYER_1
  5
11CD
 10
54.2526
 20
15.0784
 30
0.000000
  70
    32
  0
VERTEX
  8
LAYER_1
  5
11CE
 10
54.2541
 20
15.0401
 30
0.000000
  70
    32
  0
VERTEX
  8
LAYER_1
  5
11CF
 10
54.2555
 20
15.0018
 30
0.000000
  70
    32
  0
VERTEX
  8
LAYER_1
  5
11D0
 10
54.2568
 20
14.9634
 30
0.000000
  70
    32
  0
VERTEX
  8
LAYER_1
  5
11D1
 10
54.2581
 20
14.9251
 30
0.000000
  70
    32
  0
VERTEX
  8
LAYER_1
  5
11D2
 10
54.2592
 20
14.8867
 30
0.000000
  70
    32
  0
VERTEX
  8
LAYER_1
  5
11D3
 10
54.2602
 20
14.8483
 30
0.000000
  70
    32
  0
VERTEX
  8
LAYER_1
  5
11D4
 10
54.2612
 20
14.8098
 30
0.000000
  70
    32
  0
VERTEX
  8
LAYER_1
  5
11D5
 10
54.2621
 20
14.7714
 30
0.000000
  70
    32
  0
VERTEX
  8
LAYER_1
  5
11D6
 10
54.2628
 20
14.7329
 30
0.000000
  70
    32
  0
VERTEX
  8
LAYER_1
  5
11D7
 10
54.2635
 20
14.6919
 30
0.000000
  70
    32
  0
VERTEX
  8
LAYER_1
  5
11D8
 10
54.2642
 20
14.6484
 30
0.000000
  70
    32
  0
VERTEX
  8
LAYER_1
  5
11D9
 10
54.2647
 20
14.6049
 30
0.000000
  70
    32
  0
VERTEX
  8
LAYER_1
  5
11DA
 10
54.2652
 20
14.5615
 30
0.000000
  70
    32
  0
VERTEX
  8
LAYER_1
  5
11DB
 10
54.2655
 20
14.5181
 30
0.000000
  70
    32
  0
VERTEX
  8
LAYER_1
  5
11DC
 10
54.2657
 20
14.4746
 30
0.000000
  70
    32
  0
VERTEX
  8
LAYER_1
  5
11DD
 10
54.2657
 20
14.4313
 30
0.000000
  70
    32
  0
VERTEX
  8
LAYER_1
  5
11DE
 10
54.2657
 20
14.3879
 30
0.000000
  70
    32
  0
VERTEX
  8
LAYER_1
  5
11DF
 10
54.2655
 20
14.3446
 30
0.000000
  70
    32
  0
VERTEX
  8
LAYER_1
  5
11E0
 10
54.2652
 20
14.3013
 30
0.000000
  70
    32
  0
VERTEX
  8
LAYER_1
  5
11E1
 10
54.2648
 20
14.2580
 30
0.000000
  70
    32
  0
VERTEX
  8
LAYER_1
  5
11E2
 10
54.2643
 20
14.2147
 30
0.000000
  70
    32
  0
VERTEX
  8
LAYER_1
  5
11E3
 10
54.2637
 20
14.1715
 30
0.000000
  70
    32
  0
VERTEX
  8
LAYER_1
  5
11E4
 10
54.2630
 20
14.1283
 30
0.000000
  70
    32
  0
VERTEX
  8
LAYER_1
  5
11E5
 10
54.2621
 20
14.0852
 30
0.000000
  70
    32
  0
VERTEX
  8
LAYER_1
  5
11E6
 10
54.2611
 20
14.0421
 30
0.000000
  70
    32
  0
VERTEX
  8
LAYER_1
  5
11E7
 10
54.2600
 20
13.9990
 30
0.000000
  70
    32
  0
VERTEX
  8
LAYER_1
  5
11E8
 10
54.2588
 20
13.9560
 30
0.000000
  70
    32
  0
VERTEX
  8
LAYER_1
  5
11E9
 10
54.2575
 20
13.9130
 30
0.000000
  70
    32
  0
VERTEX
  8
LAYER_1
  5
11EA
 10
54.2561
 20
13.8700
 30
0.000000
  70
    32
  0
VERTEX
  8
LAYER_1
  5
11EB
 10
54.2545
 20
13.8271
 30
0.000000
  70
    32
  0
VERTEX
  8
LAYER_1
  5
11EC
 10
54.2529
 20
13.7842
 30
0.000000
  70
    32
  0
VERTEX
  8
LAYER_1
  5
11ED
 10
54.2511
 20
13.7413
 30
0.000000
  70
    32
  0
VERTEX
  8
LAYER_1
  5
11EE
 10
54.2492
 20
13.6985
 30
0.000000
  70
    32
  0
VERTEX
  8
LAYER_1
  5
11EF
 10
54.2472
 20
13.6558
 30
0.000000
  70
    32
  0
VERTEX
  8
LAYER_1
  5
11F0
 10
54.2451
 20
13.6131
 30
0.000000
  70
    32
  0
VERTEX
  8
LAYER_1
  5
11F1
 10
54.2428
 20
13.5704
 30
0.000000
  70
    32
  0
VERTEX
  8
LAYER_1
  5
11F2
 10
54.2405
 20
13.5278
 30
0.000000
  70
    32
  0
VERTEX
  8
LAYER_1
  5
11F3
 10
54.2380
 20
13.4852
 30
0.000000
  70
    32
  0
VERTEX
  8
LAYER_1
  5
11F4
 10
54.2354
 20
13.4427
 30
0.000000
  70
    32
  0
VERTEX
  8
LAYER_1
  5
11F5
 10
54.2328
 20
13.4002
 30
0.000000
  70
    32
  0
VERTEX
  8
LAYER_1
  5
11F6
 10
54.2299
 20
13.3578
 30
0.000000
  70
    32
  0
VERTEX
  8
LAYER_1
  5
11F7
 10
54.2270
 20
13.3154
 30
0.000000
  70
    32
  0
VERTEX
  8
LAYER_1
  5
11F8
 10
54.2240
 20
13.2731
 30
0.000000
  70
    32
  0
VERTEX
  8
LAYER_1
  5
11F9
 10
54.2209
 20
13.2309
 30
0.000000
  70
    32
  0
VERTEX
  8
LAYER_1
  5
11FA
 10
54.2176
 20
13.1887
 30
0.000000
  70
    32
  0
VERTEX
  8
LAYER_1
  5
11FB
 10
54.2142
 20
13.1465
 30
0.000000
  70
    32
  0
VERTEX
  8
LAYER_1
  5
11FC
 10
54.2108
 20
13.1044
 30
0.000000
  70
    32
  0
VERTEX
  8
LAYER_1
  5
11FD
 10
54.2072
 20
13.0624
 30
0.000000
  70
    32
  0
VERTEX
  8
LAYER_1
  5
11FE
 10
54.2035
 20
13.0204
 30
0.000000
  70
    32
  0
VERTEX
  8
LAYER_1
  5
11FF
 10
54.1996
 20
12.9785
 30
0.000000
  70
    32
  0
VERTEX
  8
LAYER_1
  5
1200
 10
54.1957
 20
12.9367
 30
0.000000
  70
    32
  0
VERTEX
  8
LAYER_1
  5
1201
 10
54.1917
 20
12.8949
 30
0.000000
  70
    32
  0
VERTEX
  8
LAYER_1
  5
1202
 10
54.1875
 20
12.8532
 30
0.000000
  70
    32
  0
VERTEX
  8
LAYER_1
  5
1203
 10
54.1833
 20
12.8115
 30
0.000000
  70
    32
  0
VERTEX
  8
LAYER_1
  5
1204
 10
54.1789
 20
12.7699
 30
0.000000
  70
    32
  0
VERTEX
  8
LAYER_1
  5
1205
 10
54.1744
 20
12.7284
 30
0.000000
  70
    32
  0
VERTEX
  8
LAYER_1
  5
1206
 10
54.1698
 20
12.6870
 30
0.000000
  70
    32
  0
VERTEX
  8
LAYER_1
  5
1207
 10
54.1651
 20
12.6456
 30
0.000000
  70
    32
  0
VERTEX
  8
LAYER_1
  5
1208
 10
54.1603
 20
12.6043
 30
0.000000
  70
    32
  0
VERTEX
  8
LAYER_1
  5
1209
 10
54.1553
 20
12.5630
 30
0.000000
  70
    32
  0
VERTEX
  8
LAYER_1
  5
120A
 10
54.1503
 20
12.5218
 30
0.000000
  70
    32
  0
VERTEX
  8
LAYER_1
  5
120B
 10
54.1451
 20
12.4807
 30
0.000000
  70
    32
  0
VERTEX
  8
LAYER_1
  5
120C
 10
54.1399
 20
12.4397
 30
0.000000
  70
    32
  0
VERTEX
  8
LAYER_1
  5
120D
 10
54.1345
 20
12.3988
 30
0.000000
  70
    32
  0
VERTEX
  8
LAYER_1
  5
120E
 10
54.1290
 20
12.3579
 30
0.000000
  70
    32
  0
VERTEX
  8
LAYER_1
  5
120F
 10
54.1234
 20
12.3171
 30
0.000000
  70
    32
  0
VERTEX
  8
LAYER_1
  5
1210
 10
54.1177
 20
12.2764
 30
0.000000
  70
    32
  0
VERTEX
  8
LAYER_1
  5
1211
 10
54.1119
 20
12.2358
 30
0.000000
  70
    32
  0
VERTEX
  8
LAYER_1
  5
1212
 10
54.1060
 20
12.1952
 30
0.000000
  70
    32
  0
VERTEX
  8
LAYER_1
  5
1213
 10
54.1000
 20
12.1547
 30
0.000000
  70
    32
  0
VERTEX
  8
LAYER_1
  5
1214
 10
54.0938
 20
12.1143
 30
0.000000
  70
    32
  0
VERTEX
  8
LAYER_1
  5
1215
 10
54.0876
 20
12.0740
 30
0.000000
  70
    32
  0
VERTEX
  8
LAYER_1
  5
1216
 10
54.0812
 20
12.0338
 30
0.000000
  70
    32
  0
VERTEX
  8
LAYER_1
  5
1217
 10
54.0748
 20
11.9937
 30
0.000000
  70
    32
  0
VERTEX
  8
LAYER_1
  5
1218
 10
54.0682
 20
11.9536
 30
0.000000
  70
    32
  0
VERTEX
  8
LAYER_1
  5
1219
 10
54.0615
 20
11.9137
 30
0.000000
  70
    32
  0
VERTEX
  8
LAYER_1
  5
121A
 10
54.0547
 20
11.8738
 30
0.000000
  70
    32
  0
VERTEX
  8
LAYER_1
  5
121B
 10
54.0478
 20
11.8340
 30
0.000000
  70
    32
  0
VERTEX
  8
LAYER_1
  5
121C
 10
54.0408
 20
11.7943
 30
0.000000
  70
    32
  0
VERTEX
  8
LAYER_1
  5
121D
 10
54.0337
 20
11.7547
 30
0.000000
  70
    32
  0
VERTEX
  8
LAYER_1
  5
121E
 10
54.0265
 20
11.7152
 30
0.000000
  70
    32
  0
VERTEX
  8
LAYER_1
  5
121F
 10
54.0192
 20
11.6758
 30
0.000000
  70
    32
  0
VERTEX
  8
LAYER_1
  5
1220
 10
54.0117
 20
11.6365
 30
0.000000
  70
    32
  0
VERTEX
  8
LAYER_1
  5
1221
 10
54.0042
 20
11.5973
 30
0.000000
  70
    32
  0
VERTEX
  8
LAYER_1
  5
1222
 10
53.9965
 20
11.5582
 30
0.000000
  70
    32
  0
VERTEX
  8
LAYER_1
  5
1223
 10
53.9888
 20
11.5191
 30
0.000000
  70
    32
  0
VERTEX
  8
LAYER_1
  5
1224
 10
53.9809
 20
11.4802
 30
0.000000
  70
    32
  0
VERTEX
  8
LAYER_1
  5
1225
 10
53.9729
 20
11.4414
 30
0.000000
  70
    32
  0
VERTEX
  8
LAYER_1
  5
1226
 10
53.9649
 20
11.4027
 30
0.000000
  70
    32
  0
VERTEX
  8
LAYER_1
  5
1227
 10
53.9567
 20
11.3641
 30
0.000000
  70
    32
  0
VERTEX
  8
LAYER_1
  5
1228
 10
53.9484
 20
11.3256
 30
0.000000
  70
    32
  0
VERTEX
  8
LAYER_1
  5
1229
 10
53.9400
 20
11.2871
 30
0.000000
  70
    32
  0
VERTEX
  8
LAYER_1
  5
122A
 10
53.9315
 20
11.2488
 30
0.000000
  70
    32
  0
VERTEX
  8
LAYER_1
  5
122B
 10
53.9229
 20
11.2106
 30
0.000000
  70
    32
  0
VERTEX
  8
LAYER_1
  5
122C
 10
53.9142
 20
11.1726
 30
0.000000
  70
    32
  0
VERTEX
  8
LAYER_1
  5
122D
 10
53.9053
 20
11.1346
 30
0.000000
  70
    32
  0
VERTEX
  8
LAYER_1
  5
122E
 10
53.8964
 20
11.0967
 30
0.000000
  70
    32
  0
VERTEX
  8
LAYER_1
  5
122F
 10
53.8874
 20
11.0590
 30
0.000000
  70
    32
  0
VERTEX
  8
LAYER_1
  5
1230
 10
53.8783
 20
11.0213
 30
0.000000
  70
    32
  0
VERTEX
  8
LAYER_1
  5
1231
 10
53.8690
 20
10.9838
 30
0.000000
  70
    32
  0
VERTEX
  8
LAYER_1
  5
1232
 10
53.8597
 20
10.9464
 30
0.000000
  70
    32
  0
VERTEX
  8
LAYER_1
  5
1233
 10
53.8502
 20
10.9091
 30
0.000000
  70
    32
  0
VERTEX
  8
LAYER_1
  5
1234
 10
53.8407
 20
10.8719
 30
0.000000
  70
    32
  0
VERTEX
  8
LAYER_1
  5
1235
 10
53.8310
 20
10.8348
 30
0.000000
  70
    32
  0
VERTEX
  8
LAYER_1
  5
1236
 10
53.8212
 20
10.7979
 30
0.000000
  70
    32
  0
VERTEX
  8
LAYER_1
  5
1237
 10
53.8114
 20
10.7610
 30
0.000000
  70
    32
  0
VERTEX
  8
LAYER_1
  5
1238
 10
53.8014
 20
10.7243
 30
0.000000
  70
    32
  0
VERTEX
  8
LAYER_1
  5
1239
 10
53.7913
 20
10.6877
 30
0.000000
  70
    32
  0
VERTEX
  8
LAYER_1
  5
123A
 10
53.7811
 20
10.6513
 30
0.000000
  70
    32
  0
VERTEX
  8
LAYER_1
  5
123B
 10
53.7709
 20
10.6149
 30
0.000000
  70
    32
  0
VERTEX
  8
LAYER_1
  5
123C
 10
53.7605
 20
10.5787
 30
0.000000
  70
    32
  0
VERTEX
  8
LAYER_1
  5
123D
 10
53.7500
 20
10.5426
 30
0.000000
  70
    32
  0
VERTEX
  8
LAYER_1
  5
123E
 10
53.7394
 20
10.5066
 30
0.000000
  70
    32
  0
VERTEX
  8
LAYER_1
  5
123F
 10
53.7287
 20
10.4708
 30
0.000000
  70
    32
  0
VERTEX
  8
LAYER_1
  5
1240
 10
53.7179
 20
10.4351
 30
0.000000
  70
    32
  0
VERTEX
  8
LAYER_1
  5
1241
 10
53.7070
 20
10.3995
 30
0.000000
  70
    32
  0
VERTEX
  8
LAYER_1
  5
1242
 10
53.6960
 20
10.3641
 30
0.000000
  70
    32
  0
VERTEX
  8
LAYER_1
  5
1243
 10
53.6849
 20
10.3288
 30
0.000000
  70
    32
  0
VERTEX
  8
LAYER_1
  5
1244
 10
53.6737
 20
10.2936
 30
0.000000
  70
    32
  0
VERTEX
  8
LAYER_1
  5
1245
 10
53.6624
 20
10.2585
 30
0.000000
  70
    32
  0
VERTEX
  8
LAYER_1
  5
1246
 10
53.6509
 20
10.2236
 30
0.000000
  70
    32
  0
SEQEND
  8
LAYER_1
  5
1247
  0
POLYLINE
  8
LAYER_1
  5
1248
  66
     1
 10
0.000000
 20
0.000000
 30
0.000000
  70
     8
  0
VERTEX
  8
LAYER_1
  5
1249
 10
53.4763
 20
18.7329
 30
0.000000
  70
    32
  0
VERTEX
  8
LAYER_1
  5
124A
 10
53.4957
 20
18.6618
 30
0.000000
  70
    32
  0
VERTEX
  8
LAYER_1
  5
124B
 10
53.5148
 20
18.5908
 30
0.000000
  70
    32
  0
VERTEX
  8
LAYER_1
  5
124C
 10
53.5336
 20
18.5197
 30
0.000000
  70
    32
  0
VERTEX
  8
LAYER_1
  5
124D
 10
53.5520
 20
18.4487
 30
0.000000
  70
    32
  0
VERTEX
  8
LAYER_1
  5
124E
 10
53.5702
 20
18.3777
 30
0.000000
  70
    32
  0
VERTEX
  8
LAYER_1
  5
124F
 10
53.5880
 20
18.3068
 30
0.000000
  70
    32
  0
VERTEX
  8
LAYER_1
  5
1250
 10
53.6056
 20
18.2358
 30
0.000000
  70
    32
  0
VERTEX
  8
LAYER_1
  5
1251
 10
53.6228
 20
18.1649
 30
0.000000
  70
    32
  0
VERTEX
  8
LAYER_1
  5
1252
 10
53.6398
 20
18.0940
 30
0.000000
  70
    32
  0
VERTEX
  8
LAYER_1
  5
1253
 10
53.6564
 20
18.0232
 30
0.000000
  70
    32
  0
VERTEX
  8
LAYER_1
  5
1254
 10
53.6727
 20
17.9523
 30
0.000000
  70
    32
  0
VERTEX
  8
LAYER_1
  5
1255
 10
53.6887
 20
17.8815
 30
0.000000
  70
    32
  0
VERTEX
  8
LAYER_1
  5
1256
 10
53.7045
 20
17.8108
 30
0.000000
  70
    32
  0
VERTEX
  8
LAYER_1
  5
1257
 10
53.7199
 20
17.7401
 30
0.000000
  70
    32
  0
VERTEX
  8
LAYER_1
  5
1258
 10
53.7350
 20
17.6694
 30
0.000000
  70
    32
  0
VERTEX
  8
LAYER_1
  5
1259
 10
53.7497
 20
17.5987
 30
0.000000
  70
    32
  0
VERTEX
  8
LAYER_1
  5
125A
 10
53.7642
 20
17.5281
 30
0.000000
  70
    32
  0
VERTEX
  8
LAYER_1
  5
125B
 10
53.7784
 20
17.4575
 30
0.000000
  70
    32
  0
VERTEX
  8
LAYER_1
  5
125C
 10
53.7923
 20
17.3870
 30
0.000000
  70
    32
  0
VERTEX
  8
LAYER_1
  5
125D
 10
53.8059
 20
17.3165
 30
0.000000
  70
    32
  0
VERTEX
  8
LAYER_1
  5
125E
 10
53.8191
 20
17.2460
 30
0.000000
  70
    32
  0
VERTEX
  8
LAYER_1
  5
125F
 10
53.8321
 20
17.1756
 30
0.000000
  70
    32
  0
VERTEX
  8
LAYER_1
  5
1260
 10
53.8447
 20
17.1053
 30
0.000000
  70
    32
  0
VERTEX
  8
LAYER_1
  5
1261
 10
53.8570
 20
17.0349
 30
0.000000
  70
    32
  0
VERTEX
  8
LAYER_1
  5
1262
 10
53.8691
 20
16.9647
 30
0.000000
  70
    32
  0
VERTEX
  8
LAYER_1
  5
1263
 10
53.8808
 20
16.8944
 30
0.000000
  70
    32
  0
VERTEX
  8
LAYER_1
  5
1264
 10
53.8922
 20
16.8242
 30
0.000000
  70
    32
  0
VERTEX
  8
LAYER_1
  5
1265
 10
53.9033
 20
16.7541
 30
0.000000
  70
    32
  0
VERTEX
  8
LAYER_1
  5
1266
 10
53.9141
 20
16.6840
 30
0.000000
  70
    32
  0
VERTEX
  8
LAYER_1
  5
1267
 10
53.9247
 20
16.6140
 30
0.000000
  70
    32
  0
VERTEX
  8
LAYER_1
  5
1268
 10
53.9348
 20
16.5440
 30
0.000000
  70
    32
  0
VERTEX
  8
LAYER_1
  5
1269
 10
53.9447
 20
16.4741
 30
0.000000
  70
    32
  0
VERTEX
  8
LAYER_1
  5
126A
 10
53.9543
 20
16.4042
 30
0.000000
  70
    32
  0
VERTEX
  8
LAYER_1
  5
126B
 10
53.9636
 20
16.3344
 30
0.000000
  70
    32
  0
VERTEX
  8
LAYER_1
  5
126C
 10
53.9726
 20
16.2646
 30
0.000000
  70
    32
  0
VERTEX
  8
LAYER_1
  5
126D
 10
53.9812
 20
16.1949
 30
0.000000
  70
    32
  0
VERTEX
  8
LAYER_1
  5
126E
 10
53.9896
 20
16.1253
 30
0.000000
  70
    32
  0
VERTEX
  8
LAYER_1
  5
126F
 10
53.9976
 20
16.0557
 30
0.000000
  70
    32
  0
VERTEX
  8
LAYER_1
  5
1270
 10
54.0054
 20
15.9862
 30
0.000000
  70
    32
  0
VERTEX
  8
LAYER_1
  5
1271
 10
54.0128
 20
15.9167
 30
0.000000
  70
    32
  0
VERTEX
  8
LAYER_1
  5
1272
 10
54.0199
 20
15.8473
 30
0.000000
  70
    32
  0
VERTEX
  8
LAYER_1
  5
1273
 10
54.0268
 20
15.7780
 30
0.000000
  70
    32
  0
VERTEX
  8
LAYER_1
  5
1274
 10
54.0333
 20
15.7087
 30
0.000000
  70
    32
  0
VERTEX
  8
LAYER_1
  5
1275
 10
54.0395
 20
15.6395
 30
0.000000
  70
    32
  0
VERTEX
  8
LAYER_1
  5
1276
 10
54.0454
 20
15.5703
 30
0.000000
  70
    32
  0
VERTEX
  8
LAYER_1
  5
1277
 10
54.0510
 20
15.5013
 30
0.000000
  70
    32
  0
VERTEX
  8
LAYER_1
  5
1278
 10
54.0563
 20
15.4323
 30
0.000000
  70
    32
  0
VERTEX
  8
LAYER_1
  5
1279
 10
54.0613
 20
15.3633
 30
0.000000
  70
    32
  0
VERTEX
  8
LAYER_1
  5
127A
 10
54.0659
 20
15.2945
 30
0.000000
  70
    32
  0
VERTEX
  8
LAYER_1
  5
127B
 10
54.0703
 20
15.2257
 30
0.000000
  70
    32
  0
VERTEX
  8
LAYER_1
  5
127C
 10
54.0744
 20
15.1569
 30
0.000000
  70
    32
  0
VERTEX
  8
LAYER_1
  5
127D
 10
54.0781
 20
15.0883
 30
0.000000
  70
    32
  0
VERTEX
  8
LAYER_1
  5
127E
 10
54.0816
 20
15.0197
 30
0.000000
  70
    32
  0
VERTEX
  8
LAYER_1
  5
127F
 10
54.0847
 20
14.9512
 30
0.000000
  70
    32
  0
VERTEX
  8
LAYER_1
  5
1280
 10
54.0876
 20
14.8828
 30
0.000000
  70
    32
  0
VERTEX
  8
LAYER_1
  5
1281
 10
54.0901
 20
14.8145
 30
0.000000
  70
    32
  0
VERTEX
  8
LAYER_1
  5
1282
 10
54.0923
 20
14.7462
 30
0.000000
  70
    32
  0
VERTEX
  8
LAYER_1
  5
1283
 10
54.0942
 20
14.6780
 30
0.000000
  70
    32
  0
VERTEX
  8
LAYER_1
  5
1284
 10
54.0959
 20
14.6100
 30
0.000000
  70
    32
  0
VERTEX
  8
LAYER_1
  5
1285
 10
54.0972
 20
14.5419
 30
0.000000
  70
    32
  0
VERTEX
  8
LAYER_1
  5
1286
 10
54.0982
 20
14.4740
 30
0.000000
  70
    32
  0
VERTEX
  8
LAYER_1
  5
1287
 10
54.0989
 20
14.4062
 30
0.000000
  70
    32
  0
VERTEX
  8
LAYER_1
  5
1288
 10
54.0992
 20
14.3384
 30
0.000000
  70
    32
  0
VERTEX
  8
LAYER_1
  5
1289
 10
54.0993
 20
14.2707
 30
0.000000
  70
    32
  0
VERTEX
  8
LAYER_1
  5
128A
 10
54.0991
 20
14.2031
 30
0.000000
  70
    32
  0
VERTEX
  8
LAYER_1
  5
128B
 10
54.0986
 20
14.1356
 30
0.000000
  70
    32
  0
VERTEX
  8
LAYER_1
  5
128C
 10
54.0977
 20
14.0682
 30
0.000000
  70
    32
  0
VERTEX
  8
LAYER_1
  5
128D
 10
54.0966
 20
14.0009
 30
0.000000
  70
    32
  0
VERTEX
  8
LAYER_1
  5
128E
 10
54.0951
 20
13.9337
 30
0.000000
  70
    32
  0
VERTEX
  8
LAYER_1
  5
128F
 10
54.0934
 20
13.8666
 30
0.000000
  70
    32
  0
VERTEX
  8
LAYER_1
  5
1290
 10
54.0913
 20
13.7995
 30
0.000000
  70
    32
  0
VERTEX
  8
LAYER_1
  5
1291
 10
54.0889
 20
13.7326
 30
0.000000
  70
    32
  0
VERTEX
  8
LAYER_1
  5
1292
 10
54.0863
 20
13.6657
 30
0.000000
  70
    32
  0
VERTEX
  8
LAYER_1
  5
1293
 10
54.0833
 20
13.5990
 30
0.000000
  70
    32
  0
VERTEX
  8
LAYER_1
  5
1294
 10
54.0800
 20
13.5323
 30
0.000000
  70
    32
  0
VERTEX
  8
LAYER_1
  5
1295
 10
54.0764
 20
13.4658
 30
0.000000
  70
    32
  0
VERTEX
  8
LAYER_1
  5
1296
 10
54.0725
 20
13.3993
 30
0.000000
  70
    32
  0
VERTEX
  8
LAYER_1
  5
1297
 10
54.0683
 20
13.3330
 30
0.000000
  70
    32
  0
VERTEX
  8
LAYER_1
  5
1298
 10
54.0638
 20
13.2667
 30
0.000000
  70
    32
  0
VERTEX
  8
LAYER_1
  5
1299
 10
54.0589
 20
13.2006
 30
0.000000
  70
    32
  0
VERTEX
  8
LAYER_1
  5
129A
 10
54.0538
 20
13.1345
 30
0.000000
  70
    32
  0
VERTEX
  8
LAYER_1
  5
129B
 10
54.0484
 20
13.0686
 30
0.000000
  70
    32
  0
VERTEX
  8
LAYER_1
  5
129C
 10
54.0426
 20
13.0028
 30
0.000000
  70
    32
  0
VERTEX
  8
LAYER_1
  5
129D
 10
54.0366
 20
12.9370
 30
0.000000
  70
    32
  0
VERTEX
  8
LAYER_1
  5
129E
 10
54.0302
 20
12.8714
 30
0.000000
  70
    32
  0
VERTEX
  8
LAYER_1
  5
129F
 10
54.0236
 20
12.8059
 30
0.000000
  70
    32
  0
VERTEX
  8
LAYER_1
  5
12A0
 10
54.0166
 20
12.7405
 30
0.000000
  70
    32
  0
VERTEX
  8
LAYER_1
  5
12A1
 10
54.0093
 20
12.6753
 30
0.000000
  70
    32
  0
VERTEX
  8
LAYER_1
  5
12A2
 10
54.0017
 20
12.6101
 30
0.000000
  70
    32
  0
VERTEX
  8
LAYER_1
  5
12A3
 10
53.9939
 20
12.5450
 30
0.000000
  70
    32
  0
VERTEX
  8
LAYER_1
  5
12A4
 10
53.9857
 20
12.4801
 30
0.000000
  70
    32
  0
VERTEX
  8
LAYER_1
  5
12A5
 10
53.9772
 20
12.4153
 30
0.000000
  70
    32
  0
VERTEX
  8
LAYER_1
  5
12A6
 10
53.9684
 20
12.3506
 30
0.000000
  70
    32
  0
VERTEX
  8
LAYER_1
  5
12A7
 10
53.9592
 20
12.2860
 30
0.000000
  70
    32
  0
VERTEX
  8
LAYER_1
  5
12A8
 10
53.9498
 20
12.2215
 30
0.000000
  70
    32
  0
VERTEX
  8
LAYER_1
  5
12A9
 10
53.9401
 20
12.1572
 30
0.000000
  70
    32
  0
VERTEX
  8
LAYER_1
  5
12AA
 10
53.9301
 20
12.0929
 30
0.000000
  70
    32
  0
VERTEX
  8
LAYER_1
  5
12AB
 10
53.9197
 20
12.0288
 30
0.000000
  70
    32
  0
VERTEX
  8
LAYER_1
  5
12AC
 10
53.9091
 20
11.9649
 30
0.000000
  70
    32
  0
VERTEX
  8
LAYER_1
  5
12AD
 10
53.8981
 20
11.9010
 30
0.000000
  70
    32
  0
VERTEX
  8
LAYER_1
  5
12AE
 10
53.8869
 20
11.8373
 30
0.000000
  70
    32
  0
VERTEX
  8
LAYER_1
  5
12AF
 10
53.8753
 20
11.7737
 30
0.000000
  70
    32
  0
VERTEX
  8
LAYER_1
  5
12B0
 10
53.8634
 20
11.7102
 30
0.000000
  70
    32
  0
VERTEX
  8
LAYER_1
  5
12B1
 10
53.8513
 20
11.6468
 30
0.000000
  70
    32
  0
VERTEX
  8
LAYER_1
  5
12B2
 10
53.8388
 20
11.5836
 30
0.000000
  70
    32
  0
VERTEX
  8
LAYER_1
  5
12B3
 10
53.8260
 20
11.5205
 30
0.000000
  70
    32
  0
VERTEX
  8
LAYER_1
  5
12B4
 10
53.8129
 20
11.4576
 30
0.000000
  70
    32
  0
VERTEX
  8
LAYER_1
  5
12B5
 10
53.7995
 20
11.3948
 30
0.000000
  70
    32
  0
VERTEX
  8
LAYER_1
  5
12B6
 10
53.7858
 20
11.3321
 30
0.000000
  70
    32
  0
VERTEX
  8
LAYER_1
  5
12B7
 10
53.7718
 20
11.2695
 30
0.000000
  70
    32
  0
VERTEX
  8
LAYER_1
  5
12B8
 10
53.7574
 20
11.2071
 30
0.000000
  70
    32
  0
VERTEX
  8
LAYER_1
  5
12B9
 10
53.7428
 20
11.1448
 30
0.000000
  70
    32
  0
VERTEX
  8
LAYER_1
  5
12BA
 10
53.7279
 20
11.0827
 30
0.000000
  70
    32
  0
VERTEX
  8
LAYER_1
  5
12BB
 10
53.7126
 20
11.0207
 30
0.000000
  70
    32
  0
VERTEX
  8
LAYER_1
  5
12BC
 10
53.6971
 20
10.9588
 30
0.000000
  70
    32
  0
VERTEX
  8
LAYER_1
  5
12BD
 10
53.6812
 20
10.8971
 30
0.000000
  70
    32
  0
VERTEX
  8
LAYER_1
  5
12BE
 10
53.6651
 20
10.8355
 30
0.000000
  70
    32
  0
VERTEX
  8
LAYER_1
  5
12BF
 10
53.6486
 20
10.7741
 30
0.000000
  70
    32
  0
VERTEX
  8
LAYER_1
  5
12C0
 10
53.6318
 20
10.7128
 30
0.000000
  70
    32
  0
VERTEX
  8
LAYER_1
  5
12C1
 10
53.6147
 20
10.6516
 30
0.000000
  70
    32
  0
VERTEX
  8
LAYER_1
  5
12C2
 10
53.5973
 20
10.5906
 30
0.000000
  70
    32
  0
VERTEX
  8
LAYER_1
  5
12C3
 10
53.5796
 20
10.5298
 30
0.000000
  70
    32
  0
VERTEX
  8
LAYER_1
  5
12C4
 10
53.5616
 20
10.4691
 30
0.000000
  70
    32
  0
VERTEX
  8
LAYER_1
  5
12C5
 10
53.5433
 20
10.4085
 30
0.000000
  70
    32
  0
VERTEX
  8
LAYER_1
  5
12C6
 10
53.5247
 20
10.3481
 30
0.000000
  70
    32
  0
VERTEX
  8
LAYER_1
  5
12C7
 10
53.5058
 20
10.2878
 30
0.000000
  70
    32
  0
VERTEX
  8
LAYER_1
  5
12C8
 10
53.4866
 20
10.2277
 30
0.000000
  70
    32
  0
SEQEND
  8
LAYER_1
  5
12C9
  0
POLYLINE
  8
LAYER_1
  5
12CA
  66
     1
 10
0.000000
 20
0.000000
 30
0.000000
  70
     8
  0
VERTEX
  8
LAYER_1
  5
12CB
 10
53.3080
 20
10.2339
 30
0.000000
  70
    32
  0
VERTEX
  8
LAYER_1
  5
12CC
 10
53.3196
 20
10.2696
 30
0.000000
  70
    32
  0
VERTEX
  8
LAYER_1
  5
12CD
 10
53.3311
 20
10.3054
 30
0.000000
  70
    32
  0
VERTEX
  8
LAYER_1
  5
12CE
 10
53.3425
 20
10.3414
 30
0.000000
  70
    32
  0
VERTEX
  8
LAYER_1
  5
12CF
 10
53.3538
 20
10.3775
 30
0.000000
  70
    32
  0
VERTEX
  8
LAYER_1
  5
12D0
 10
53.3650
 20
10.4137
 30
0.000000
  70
    32
  0
VERTEX
  8
LAYER_1
  5
12D1
 10
53.3761
 20
10.4500
 30
0.000000
  70
    32
  0
VERTEX
  8
LAYER_1
  5
12D2
 10
53.3871
 20
10.4864
 30
0.000000
  70
    32
  0
VERTEX
  8
LAYER_1
  5
12D3
 10
53.3979
 20
10.5229
 30
0.000000
  70
    32
  0
VERTEX
  8
LAYER_1
  5
12D4
 10
53.4087
 20
10.5595
 30
0.000000
  70
    32
  0
VERTEX
  8
LAYER_1
  5
12D5
 10
53.4193
 20
10.5963
 30
0.000000
  70
    32
  0
VERTEX
  8
LAYER_1
  5
12D6
 10
53.4299
 20
10.6331
 30
0.000000
  70
    32
  0
VERTEX
  8
LAYER_1
  5
12D7
 10
53.4403
 20
10.6701
 30
0.000000
  70
    32
  0
VERTEX
  8
LAYER_1
  5
12D8
 10
53.4506
 20
10.7072
 30
0.000000
  70
    32
  0
VERTEX
  8
LAYER_1
  5
12D9
 10
53.4609
 20
10.7444
 30
0.000000
  70
    32
  0
VERTEX
  8
LAYER_1
  5
12DA
 10
53.4710
 20
10.7817
 30
0.000000
  70
    32
  0
VERTEX
  8
LAYER_1
  5
12DB
 10
53.4810
 20
10.8191
 30
0.000000
  70
    32
  0
VERTEX
  8
LAYER_1
  5
12DC
 10
53.4909
 20
10.8566
 30
0.000000
  70
    32
  0
VERTEX
  8
LAYER_1
  5
12DD
 10
53.5007
 20
10.8942
 30
0.000000
  70
    32
  0
VERTEX
  8
LAYER_1
  5
12DE
 10
53.5103
 20
10.9319
 30
0.000000
  70
    32
  0
VERTEX
  8
LAYER_1
  5
12DF
 10
53.5199
 20
10.9697
 30
0.000000
  70
    32
  0
VERTEX
  8
LAYER_1
  5
12E0
 10
53.5294
 20
11.0077
 30
0.000000
  70
    32
  0
VERTEX
  8
LAYER_1
  5
12E1
 10
53.5387
 20
11.0457
 30
0.000000
  70
    32
  0
VERTEX
  8
LAYER_1
  5
12E2
 10
53.5480
 20
11.0838
 30
0.000000
  70
    32
  0
VERTEX
  8
LAYER_1
  5
12E3
 10
53.5571
 20
11.1220
 30
0.000000
  70
    32
  0
VERTEX
  8
LAYER_1
  5
12E4
 10
53.5661
 20
11.1603
 30
0.000000
  70
    32
  0
VERTEX
  8
LAYER_1
  5
12E5
 10
53.5751
 20
11.1987
 30
0.000000
  70
    32
  0
VERTEX
  8
LAYER_1
  5
12E6
 10
53.5839
 20
11.2372
 30
0.000000
  70
    32
  0
VERTEX
  8
LAYER_1
  5
12E7
 10
53.5926
 20
11.2758
 30
0.000000
  70
    32
  0
VERTEX
  8
LAYER_1
  5
12E8
 10
53.6012
 20
11.3145
 30
0.000000
  70
    32
  0
VERTEX
  8
LAYER_1
  5
12E9
 10
53.6096
 20
11.3533
 30
0.000000
  70
    32
  0
VERTEX
  8
LAYER_1
  5
12EA
 10
53.6180
 20
11.3922
 30
0.000000
  70
    32
  0
VERTEX
  8
LAYER_1
  5
12EB
 10
53.6263
 20
11.4312
 30
0.000000
  70
    32
  0
VERTEX
  8
LAYER_1
  5
12EC
 10
53.6344
 20
11.4702
 30
0.000000
  70
    32
  0
VERTEX
  8
LAYER_1
  5
12ED
 10
53.6425
 20
11.5094
 30
0.000000
  70
    32
  0
VERTEX
  8
LAYER_1
  5
12EE
 10
53.6504
 20
11.5486
 30
0.000000
  70
    32
  0
VERTEX
  8
LAYER_1
  5
12EF
 10
53.6582
 20
11.5879
 30
0.000000
  70
    32
  0
VERTEX
  8
LAYER_1
  5
12F0
 10
53.6659
 20
11.6274
 30
0.000000
  70
    32
  0
VERTEX
  8
LAYER_1
  5
12F1
 10
53.6735
 20
11.6669
 30
0.000000
  70
    32
  0
VERTEX
  8
LAYER_1
  5
12F2
 10
53.6810
 20
11.7064
 30
0.000000
  70
    32
  0
VERTEX
  8
LAYER_1
  5
12F3
 10
53.6884
 20
11.7461
 30
0.000000
  70
    32
  0
VERTEX
  8
LAYER_1
  5
12F4
 10
53.6957
 20
11.7859
 30
0.000000
  70
    32
  0
VERTEX
  8
LAYER_1
  5
12F5
 10
53.7028
 20
11.8257
 30
0.000000
  70
    32
  0
VERTEX
  8
LAYER_1
  5
12F6
 10
53.7099
 20
11.8656
 30
0.000000
  70
    32
  0
VERTEX
  8
LAYER_1
  5
12F7
 10
53.7168
 20
11.9056
 30
0.000000
  70
    32
  0
VERTEX
  8
LAYER_1
  5
12F8
 10
53.7236
 20
11.9457
 30
0.000000
  70
    32
  0
VERTEX
  8
LAYER_1
  5
12F9
 10
53.7303
 20
11.9858
 30
0.000000
  70
    32
  0
VERTEX
  8
LAYER_1
  5
12FA
 10
53.7369
 20
12.0260
 30
0.000000
  70
    32
  0
VERTEX
  8
LAYER_1
  5
12FB
 10
53.7434
 20
12.0663
 30
0.000000
  70
    32
  0
VERTEX
  8
LAYER_1
  5
12FC
 10
53.7498
 20
12.1067
 30
0.000000
  70
    32
  0
VERTEX
  8
LAYER_1
  5
12FD
 10
53.7560
 20
12.1472
 30
0.000000
  70
    32
  0
VERTEX
  8
LAYER_1
  5
12FE
 10
53.7622
 20
12.1877
 30
0.000000
  70
    32
  0
VERTEX
  8
LAYER_1
  5
12FF
 10
53.7682
 20
12.2283
 30
0.000000
  70
    32
  0
VERTEX
  8
LAYER_1
  5
1300
 10
53.7741
 20
12.2690
 30
0.000000
  70
    32
  0
VERTEX
  8
LAYER_1
  5
1301
 10
53.7800
 20
12.3097
 30
0.000000
  70
    32
  0
VERTEX
  8
LAYER_1
  5
1302
 10
53.7857
 20
12.3505
 30
0.000000
  70
    32
  0
VERTEX
  8
LAYER_1
  5
1303
 10
53.7912
 20
12.3914
 30
0.000000
  70
    32
  0
VERTEX
  8
LAYER_1
  5
1304
 10
53.7967
 20
12.4323
 30
0.000000
  70
    32
  0
VERTEX
  8
LAYER_1
  5
1305
 10
53.8021
 20
12.4734
 30
0.000000
  70
    32
  0
VERTEX
  8
LAYER_1
  5
1306
 10
53.8073
 20
12.5144
 30
0.000000
  70
    32
  0
VERTEX
  8
LAYER_1
  5
1307
 10
53.8124
 20
12.5556
 30
0.000000
  70
    32
  0
VERTEX
  8
LAYER_1
  5
1308
 10
53.8175
 20
12.5968
 30
0.000000
  70
    32
  0
VERTEX
  8
LAYER_1
  5
1309
 10
53.8224
 20
12.6381
 30
0.000000
  70
    32
  0
VERTEX
  8
LAYER_1
  5
130A
 10
53.8272
 20
12.6794
 30
0.000000
  70
    32
  0
VERTEX
  8
LAYER_1
  5
130B
 10
53.8318
 20
12.7208
 30
0.000000
  70
    32
  0
VERTEX
  8
LAYER_1
  5
130C
 10
53.8364
 20
12.7623
 30
0.000000
  70
    32
  0
VERTEX
  8
LAYER_1
  5
130D
 10
53.8408
 20
12.8038
 30
0.000000
  70
    32
  0
VERTEX
  8
LAYER_1
  5
130E
 10
53.8452
 20
12.8453
 30
0.000000
  70
    32
  0
VERTEX
  8
LAYER_1
  5
130F
 10
53.8494
 20
12.8870
 30
0.000000
  70
    32
  0
VERTEX
  8
LAYER_1
  5
1310
 10
53.8535
 20
12.9287
 30
0.000000
  70
    32
  0
VERTEX
  8
LAYER_1
  5
1311
 10
53.8575
 20
12.9704
 30
0.000000
  70
    32
  0
VERTEX
  8
LAYER_1
  5
1312
 10
53.8614
 20
13.0122
 30
0.000000
  70
    32
  0
VERTEX
  8
LAYER_1
  5
1313
 10
53.8651
 20
13.0541
 30
0.000000
  70
    32
  0
VERTEX
  8
LAYER_1
  5
1314
 10
53.8688
 20
13.0960
 30
0.000000
  70
    32
  0
VERTEX
  8
LAYER_1
  5
1315
 10
53.8723
 20
13.1379
 30
0.000000
  70
    32
  0
VERTEX
  8
LAYER_1
  5
1316
 10
53.8757
 20
13.1799
 30
0.000000
  70
    32
  0
VERTEX
  8
LAYER_1
  5
1317
 10
53.8790
 20
13.2220
 30
0.000000
  70
    32
  0
VERTEX
  8
LAYER_1
  5
1318
 10
53.8822
 20
13.2641
 30
0.000000
  70
    32
  0
VERTEX
  8
LAYER_1
  5
1319
 10
53.8853
 20
13.3063
 30
0.000000
  70
    32
  0
VERTEX
  8
LAYER_1
  5
131A
 10
53.8882
 20
13.3485
 30
0.000000
  70
    32
  0
VERTEX
  8
LAYER_1
  5
131B
 10
53.8910
 20
13.3907
 30
0.000000
  70
    32
  0
VERTEX
  8
LAYER_1
  5
131C
 10
53.8938
 20
13.4330
 30
0.000000
  70
    32
  0
VERTEX
  8
LAYER_1
  5
131D
 10
53.8964
 20
13.4753
 30
0.000000
  70
    32
  0
VERTEX
  8
LAYER_1
  5
131E
 10
53.8989
 20
13.5177
 30
0.000000
  70
    32
  0
VERTEX
  8
LAYER_1
  5
131F
 10
53.9012
 20
13.5602
 30
0.000000
  70
    32
  0
VERTEX
  8
LAYER_1
  5
1320
 10
53.9035
 20
13.6026
 30
0.000000
  70
    32
  0
VERTEX
  8
LAYER_1
  5
1321
 10
53.9056
 20
13.6451
 30
0.000000
  70
    32
  0
VERTEX
  8
LAYER_1
  5
1322
 10
53.9076
 20
13.6877
 30
0.000000
  70
    32
  0
VERTEX
  8
LAYER_1
  5
1323
 10
53.9095
 20
13.7303
 30
0.000000
  70
    32
  0
VERTEX
  8
LAYER_1
  5
1324
 10
53.9113
 20
13.7729
 30
0.000000
  70
    32
  0
VERTEX
  8
LAYER_1
  5
1325
 10
53.9130
 20
13.8156
 30
0.000000
  70
    32
  0
VERTEX
  8
LAYER_1
  5
1326
 10
53.9145
 20
13.8583
 30
0.000000
  70
    32
  0
VERTEX
  8
LAYER_1
  5
1327
 10
53.9160
 20
13.9010
 30
0.000000
  70
    32
  0
VERTEX
  8
LAYER_1
  5
1328
 10
53.9173
 20
13.9438
 30
0.000000
  70
    32
  0
VERTEX
  8
LAYER_1
  5
1329
 10
53.9185
 20
13.9866
 30
0.000000
  70
    32
  0
VERTEX
  8
LAYER_1
  5
132A
 10
53.9196
 20
14.0294
 30
0.000000
  70
    32
  0
VERTEX
  8
LAYER_1
  5
132B
 10
53.9205
 20
14.0723
 30
0.000000
  70
    32
  0
VERTEX
  8
LAYER_1
  5
132C
 10
53.9214
 20
14.1152
 30
0.000000
  70
    32
  0
VERTEX
  8
LAYER_1
  5
132D
 10
53.9221
 20
14.1581
 30
0.000000
  70
    32
  0
VERTEX
  8
LAYER_1
  5
132E
 10
53.9227
 20
14.2011
 30
0.000000
  70
    32
  0
VERTEX
  8
LAYER_1
  5
132F
 10
53.9232
 20
14.2440
 30
0.000000
  70
    32
  0
VERTEX
  8
LAYER_1
  5
1330
 10
53.9236
 20
14.2871
 30
0.000000
  70
    32
  0
VERTEX
  8
LAYER_1
  5
1331
 10
53.9238
 20
14.3301
 30
0.000000
  70
    32
  0
VERTEX
  8
LAYER_1
  5
1332
 10
53.9239
 20
14.3731
 30
0.000000
  70
    32
  0
VERTEX
  8
LAYER_1
  5
1333
 10
53.9240
 20
14.4162
 30
0.000000
  70
    32
  0
VERTEX
  8
LAYER_1
  5
1334
 10
53.9239
 20
14.4593
 30
0.000000
  70
    32
  0
VERTEX
  8
LAYER_1
  5
1335
 10
53.9236
 20
14.5025
 30
0.000000
  70
    32
  0
VERTEX
  8
LAYER_1
  5
1336
 10
53.9233
 20
14.5456
 30
0.000000
  70
    32
  0
VERTEX
  8
LAYER_1
  5
1337
 10
53.9228
 20
14.5888
 30
0.000000
  70
    32
  0
VERTEX
  8
LAYER_1
  5
1338
 10
53.9222
 20
14.6320
 30
0.000000
  70
    32
  0
VERTEX
  8
LAYER_1
  5
1339
 10
53.9215
 20
14.6752
 30
0.000000
  70
    32
  0
VERTEX
  8
LAYER_1
  5
133A
 10
53.9207
 20
14.7184
 30
0.000000
  70
    32
  0
VERTEX
  8
LAYER_1
  5
133B
 10
53.9198
 20
14.7586
 30
0.000000
  70
    32
  0
VERTEX
  8
LAYER_1
  5
133C
 10
53.9189
 20
14.7956
 30
0.000000
  70
    32
  0
VERTEX
  8
LAYER_1
  5
133D
 10
53.9180
 20
14.8326
 30
0.000000
  70
    32
  0
VERTEX
  8
LAYER_1
  5
133E
 10
53.9169
 20
14.8696
 30
0.000000
  70
    32
  0
VERTEX
  8
LAYER_1
  5
133F
 10
53.9158
 20
14.9066
 30
0.000000
  70
    32
  0
VERTEX
  8
LAYER_1
  5
1340
 10
53.9145
 20
14.9435
 30
0.000000
  70
    32
  0
VERTEX
  8
LAYER_1
  5
1341
 10
53.9132
 20
14.9805
 30
0.000000
  70
    32
  0
VERTEX
  8
LAYER_1
  5
1342
 10
53.9118
 20
15.0174
 30
0.000000
  70
    32
  0
VERTEX
  8
LAYER_1
  5
1343
 10
53.9103
 20
15.0543
 30
0.000000
  70
    32
  0
VERTEX
  8
LAYER_1
  5
1344
 10
53.9087
 20
15.0912
 30
0.000000
  70
    32
  0
VERTEX
  8
LAYER_1
  5
1345
 10
53.9070
 20
15.1281
 30
0.000000
  70
    32
  0
VERTEX
  8
LAYER_1
  5
1346
 10
53.9053
 20
15.1649
 30
0.000000
  70
    32
  0
VERTEX
  8
LAYER_1
  5
1347
 10
53.9034
 20
15.2018
 30
0.000000
  70
    32
  0
VERTEX
  8
LAYER_1
  5
1348
 10
53.9015
 20
15.2386
 30
0.000000
  70
    32
  0
VERTEX
  8
LAYER_1
  5
1349
 10
53.8995
 20
15.2754
 30
0.000000
  70
    32
  0
VERTEX
  8
LAYER_1
  5
134A
 10
53.8974
 20
15.3121
 30
0.000000
  70
    32
  0
VERTEX
  8
LAYER_1
  5
134B
 10
53.8952
 20
15.3489
 30
0.000000
  70
    32
  0
VERTEX
  8
LAYER_1
  5
134C
 10
53.8929
 20
15.3856
 30
0.000000
  70
    32
  0
VERTEX
  8
LAYER_1
  5
134D
 10
53.8905
 20
15.4223
 30
0.000000
  70
    32
  0
VERTEX
  8
LAYER_1
  5
134E
 10
53.8881
 20
15.4590
 30
0.000000
  70
    32
  0
VERTEX
  8
LAYER_1
  5
134F
 10
53.8855
 20
15.4956
 30
0.000000
  70
    32
  0
VERTEX
  8
LAYER_1
  5
1350
 10
53.8829
 20
15.5322
 30
0.000000
  70
    32
  0
VERTEX
  8
LAYER_1
  5
1351
 10
53.8802
 20
15.5688
 30
0.000000
  70
    32
  0
VERTEX
  8
LAYER_1
  5
1352
 10
53.8774
 20
15.6054
 30
0.000000
  70
    32
  0
VERTEX
  8
LAYER_1
  5
1353
 10
53.8745
 20
15.6420
 30
0.000000
  70
    32
  0
VERTEX
  8
LAYER_1
  5
1354
 10
53.8716
 20
15.6785
 30
0.000000
  70
    32
  0
VERTEX
  8
LAYER_1
  5
1355
 10
53.8685
 20
15.7150
 30
0.000000
  70
    32
  0
VERTEX
  8
LAYER_1
  5
1356
 10
53.8654
 20
15.7514
 30
0.000000
  70
    32
  0
VERTEX
  8
LAYER_1
  5
1357
 10
53.8622
 20
15.7878
 30
0.000000
  70
    32
  0
VERTEX
  8
LAYER_1
  5
1358
 10
53.8589
 20
15.8242
 30
0.000000
  70
    32
  0
VERTEX
  8
LAYER_1
  5
1359
 10
53.8555
 20
15.8606
 30
0.000000
  70
    32
  0
VERTEX
  8
LAYER_1
  5
135A
 10
53.8520
 20
15.8969
 30
0.000000
  70
    32
  0
VERTEX
  8
LAYER_1
  5
135B
 10
53.8484
 20
15.9332
 30
0.000000
  70
    32
  0
VERTEX
  8
LAYER_1
  5
135C
 10
53.8448
 20
15.9695
 30
0.000000
  70
    32
  0
VERTEX
  8
LAYER_1
  5
135D
 10
53.8411
 20
16.0057
 30
0.000000
  70
    32
  0
VERTEX
  8
LAYER_1
  5
135E
 10
53.8373
 20
16.0420
 30
0.000000
  70
    32
  0
VERTEX
  8
LAYER_1
  5
135F
 10
53.8334
 20
16.0781
 30
0.000000
  70
    32
  0
VERTEX
  8
LAYER_1
  5
1360
 10
53.8294
 20
16.1143
 30
0.000000
  70
    32
  0
VERTEX
  8
LAYER_1
  5
1361
 10
53.8253
 20
16.1503
 30
0.000000
  70
    32
  0
VERTEX
  8
LAYER_1
  5
1362
 10
53.8212
 20
16.1864
 30
0.000000
  70
    32
  0
VERTEX
  8
LAYER_1
  5
1363
 10
53.8169
 20
16.2224
 30
0.000000
  70
    32
  0
VERTEX
  8
LAYER_1
  5
1364
 10
53.8126
 20
16.2584
 30
0.000000
  70
    32
  0
VERTEX
  8
LAYER_1
  5
1365
 10
53.8082
 20
16.2944
 30
0.000000
  70
    32
  0
VERTEX
  8
LAYER_1
  5
1366
 10
53.8037
 20
16.3303
 30
0.000000
  70
    32
  0
VERTEX
  8
LAYER_1
  5
1367
 10
53.7992
 20
16.3661
 30
0.000000
  70
    32
  0
VERTEX
  8
LAYER_1
  5
1368
 10
53.7945
 20
16.4020
 30
0.000000
  70
    32
  0
VERTEX
  8
LAYER_1
  5
1369
 10
53.7898
 20
16.4378
 30
0.000000
  70
    32
  0
VERTEX
  8
LAYER_1
  5
136A
 10
53.7850
 20
16.4735
 30
0.000000
  70
    32
  0
VERTEX
  8
LAYER_1
  5
136B
 10
53.7801
 20
16.5092
 30
0.000000
  70
    32
  0
VERTEX
  8
LAYER_1
  5
136C
 10
53.7751
 20
16.5449
 30
0.000000
  70
    32
  0
VERTEX
  8
LAYER_1
  5
136D
 10
53.7700
 20
16.5805
 30
0.000000
  70
    32
  0
VERTEX
  8
LAYER_1
  5
136E
 10
53.7649
 20
16.6161
 30
0.000000
  70
    32
  0
VERTEX
  8
LAYER_1
  5
136F
 10
53.7596
 20
16.6516
 30
0.000000
  70
    32
  0
VERTEX
  8
LAYER_1
  5
1370
 10
53.7543
 20
16.6871
 30
0.000000
  70
    32
  0
VERTEX
  8
LAYER_1
  5
1371
 10
53.7489
 20
16.7226
 30
0.000000
  70
    32
  0
VERTEX
  8
LAYER_1
  5
1372
 10
53.7434
 20
16.7580
 30
0.000000
  70
    32
  0
VERTEX
  8
LAYER_1
  5
1373
 10
53.7379
 20
16.7933
 30
0.000000
  70
    32
  0
VERTEX
  8
LAYER_1
  5
1374
 10
53.7322
 20
16.8286
 30
0.000000
  70
    32
  0
VERTEX
  8
LAYER_1
  5
1375
 10
53.7265
 20
16.8639
 30
0.000000
  70
    32
  0
VERTEX
  8
LAYER_1
  5
1376
 10
53.7207
 20
16.8991
 30
0.000000
  70
    32
  0
VERTEX
  8
LAYER_1
  5
1377
 10
53.7148
 20
16.9342
 30
0.000000
  70
    32
  0
VERTEX
  8
LAYER_1
  5
1378
 10
53.7088
 20
16.9693
 30
0.000000
  70
    32
  0
VERTEX
  8
LAYER_1
  5
1379
 10
53.7028
 20
17.0044
 30
0.000000
  70
    32
  0
VERTEX
  8
LAYER_1
  5
137A
 10
53.6966
 20
17.0394
 30
0.000000
  70
    32
  0
VERTEX
  8
LAYER_1
  5
137B
 10
53.6904
 20
17.0744
 30
0.000000
  70
    32
  0
VERTEX
  8
LAYER_1
  5
137C
 10
53.6841
 20
17.1093
 30
0.000000
  70
    32
  0
VERTEX
  8
LAYER_1
  5
137D
 10
53.6777
 20
17.1441
 30
0.000000
  70
    32
  0
VERTEX
  8
LAYER_1
  5
137E
 10
53.6713
 20
17.1789
 30
0.000000
  70
    32
  0
VERTEX
  8
LAYER_1
  5
137F
 10
53.6647
 20
17.2137
 30
0.000000
  70
    32
  0
VERTEX
  8
LAYER_1
  5
1380
 10
53.6581
 20
17.2484
 30
0.000000
  70
    32
  0
VERTEX
  8
LAYER_1
  5
1381
 10
53.6514
 20
17.2830
 30
0.000000
  70
    32
  0
VERTEX
  8
LAYER_1
  5
1382
 10
53.6446
 20
17.3176
 30
0.000000
  70
    32
  0
VERTEX
  8
LAYER_1
  5
1383
 10
53.6377
 20
17.3521
 30
0.000000
  70
    32
  0
VERTEX
  8
LAYER_1
  5
1384
 10
53.6308
 20
17.3866
 30
0.000000
  70
    32
  0
VERTEX
  8
LAYER_1
  5
1385
 10
53.6237
 20
17.4210
 30
0.000000
  70
    32
  0
VERTEX
  8
LAYER_1
  5
1386
 10
53.6166
 20
17.4554
 30
0.000000
  70
    32
  0
VERTEX
  8
LAYER_1
  5
1387
 10
53.6094
 20
17.4897
 30
0.000000
  70
    32
  0
VERTEX
  8
LAYER_1
  5
1388
 10
53.6022
 20
17.5239
 30
0.000000
  70
    32
  0
VERTEX
  8
LAYER_1
  5
1389
 10
53.5948
 20
17.5581
 30
0.000000
  70
    32
  0
VERTEX
  8
LAYER_1
  5
138A
 10
53.5874
 20
17.5922
 30
0.000000
  70
    32
  0
VERTEX
  8
LAYER_1
  5
138B
 10
53.5799
 20
17.6263
 30
0.000000
  70
    32
  0
VERTEX
  8
LAYER_1
  5
138C
 10
53.5723
 20
17.6603
 30
0.000000
  70
    32
  0
VERTEX
  8
LAYER_1
  5
138D
 10
53.5646
 20
17.6942
 30
0.000000
  70
    32
  0
VERTEX
  8
LAYER_1
  5
138E
 10
53.5568
 20
17.7281
 30
0.000000
  70
    32
  0
VERTEX
  8
LAYER_1
  5
138F
 10
53.5490
 20
17.7619
 30
0.000000
  70
    32
  0
VERTEX
  8
LAYER_1
  5
1390
 10
53.5411
 20
17.7956
 30
0.000000
  70
    32
  0
VERTEX
  8
LAYER_1
  5
1391
 10
53.5331
 20
17.8293
 30
0.000000
  70
    32
  0
VERTEX
  8
LAYER_1
  5
1392
 10
53.5250
 20
17.8629
 30
0.000000
  70
    32
  0
VERTEX
  8
LAYER_1
  5
1393
 10
53.5169
 20
17.8965
 30
0.000000
  70
    32
  0
VERTEX
  8
LAYER_1
  5
1394
 10
53.5086
 20
17.9300
 30
0.000000
  70
    32
  0
VERTEX
  8
LAYER_1
  5
1395
 10
53.5003
 20
17.9634
 30
0.000000
  70
    32
  0
VERTEX
  8
LAYER_1
  5
1396
 10
53.4919
 20
17.9967
 30
0.000000
  70
    32
  0
VERTEX
  8
LAYER_1
  5
1397
 10
53.4835
 20
18.0300
 30
0.000000
  70
    32
  0
VERTEX
  8
LAYER_1
  5
1398
 10
53.4749
 20
18.0632
 30
0.000000
  70
    32
  0
VERTEX
  8
LAYER_1
  5
1399
 10
53.4663
 20
18.0964
 30
0.000000
  70
    32
  0
VERTEX
  8
LAYER_1
  5
139A
 10
53.4576
 20
18.1295
 30
0.000000
  70
    32
  0
VERTEX
  8
LAYER_1
  5
139B
 10
53.4488
 20
18.1625
 30
0.000000
  70
    32
  0
VERTEX
  8
LAYER_1
  5
139C
 10
53.4399
 20
18.1954
 30
0.000000
  70
    32
  0
VERTEX
  8
LAYER_1
  5
139D
 10
53.4310
 20
18.2283
 30
0.000000
  70
    32
  0
VERTEX
  8
LAYER_1
  5
139E
 10
53.4220
 20
18.2610
 30
0.000000
  70
    32
  0
VERTEX
  8
LAYER_1
  5
139F
 10
53.4129
 20
18.2938
 30
0.000000
  70
    32
  0
VERTEX
  8
LAYER_1
  5
13A0
 10
53.4037
 20
18.3264
 30
0.000000
  70
    32
  0
VERTEX
  8
LAYER_1
  5
13A1
 10
53.3945
 20
18.3590
 30
0.000000
  70
    32
  0
VERTEX
  8
LAYER_1
  5
13A2
 10
53.3851
 20
18.3915
 30
0.000000
  70
    32
  0
VERTEX
  8
LAYER_1
  5
13A3
 10
53.3757
 20
18.4239
 30
0.000000
  70
    32
  0
VERTEX
  8
LAYER_1
  5
13A4
 10
53.3662
 20
18.4562
 30
0.000000
  70
    32
  0
VERTEX
  8
LAYER_1
  5
13A5
 10
53.3567
 20
18.4885
 30
0.000000
  70
    32
  0
VERTEX
  8
LAYER_1
  5
13A6
 10
53.3470
 20
18.5207
 30
0.000000
  70
    32
  0
VERTEX
  8
LAYER_1
  5
13A7
 10
53.3373
 20
18.5528
 30
0.000000
  70
    32
  0
VERTEX
  8
LAYER_1
  5
13A8
 10
53.3275
 20
18.5849
 30
0.000000
  70
    32
  0
VERTEX
  8
LAYER_1
  5
13A9
 10
53.3176
 20
18.6168
 30
0.000000
  70
    32
  0
VERTEX
  8
LAYER_1
  5
13AA
 10
53.3077
 20
18.6487
 30
0.000000
  70
    32
  0
SEQEND
  8
LAYER_1
  5
13AB
  0
POLYLINE
  8
LAYER_1
  5
13AC
  66
     1
 10
0.000000
 20
0.000000
 30
0.000000
  70
     8
  0
VERTEX
  8
LAYER_1
  5
13AD
 10
53.1397
 20
10.2339
 30
0.000000
  70
    32
  0
VERTEX
  8
LAYER_1
  5
13AE
 10
53.1512
 20
10.2634
 30
0.000000
  70
    32
  0
VERTEX
  8
LAYER_1
  5
13AF
 10
53.1625
 20
10.2932
 30
0.000000
  70
    32
  0
VERTEX
  8
LAYER_1
  5
13B0
 10
53.1738
 20
10.3233
 30
0.000000
  70
    32
  0
VERTEX
  8
LAYER_1
  5
13B1
 10
53.1850
 20
10.3536
 30
0.000000
  70
    32
  0
VERTEX
  8
LAYER_1
  5
13B2
 10
53.1960
 20
10.3842
 30
0.000000
  70
    32
  0
VERTEX
  8
LAYER_1
  5
13B3
 10
53.2070
 20
10.4151
 30
0.000000
  70
    32
  0
VERTEX
  8
LAYER_1
  5
13B4
 10
53.2179
 20
10.4462
 30
0.000000
  70
    32
  0
VERTEX
  8
LAYER_1
  5
13B5
 10
53.2287
 20
10.4775
 30
0.000000
  70
    32
  0
VERTEX
  8
LAYER_1
  5
13B6
 10
53.2393
 20
10.5091
 30
0.000000
  70
    32
  0
VERTEX
  8
LAYER_1
  5
13B7
 10
53.2499
 20
10.5410
 30
0.000000
  70
    32
  0
VERTEX
  8
LAYER_1
  5
13B8
 10
53.2604
 20
10.5731
 30
0.000000
  70
    32
  0
VERTEX
  8
LAYER_1
  5
13B9
 10
53.2707
 20
10.6054
 30
0.000000
  70
    32
  0
VERTEX
  8
LAYER_1
  5
13BA
 10
53.2810
 20
10.6380
 30
0.000000
  70
    32
  0
VERTEX
  8
LAYER_1
  5
13BB
 10
53.2912
 20
10.6709
 30
0.000000
  70
    32
  0
VERTEX
  8
LAYER_1
  5
13BC
 10
53.3012
 20
10.7039
 30
0.000000
  70
    32
  0
VERTEX
  8
LAYER_1
  5
13BD
 10
53.3112
 20
10.7373
 30
0.000000
  70
    32
  0
VERTEX
  8
LAYER_1
  5
13BE
 10
53.3211
 20
10.7708
 30
0.000000
  70
    32
  0
VERTEX
  8
LAYER_1
  5
13BF
 10
53.3308
 20
10.8046
 30
0.000000
  70
    32
  0
VERTEX
  8
LAYER_1
  5
13C0
 10
53.3405
 20
10.8386
 30
0.000000
  70
    32
  0
VERTEX
  8
LAYER_1
  5
13C1
 10
53.3500
 20
10.8729
 30
0.000000
  70
    32
  0
VERTEX
  8
LAYER_1
  5
13C2
 10
53.3595
 20
10.9074
 30
0.000000
  70
    32
  0
VERTEX
  8
LAYER_1
  5
13C3
 10
53.3688
 20
10.9421
 30
0.000000
  70
    32
  0
VERTEX
  8
LAYER_1
  5
13C4
 10
53.3781
 20
10.9770
 30
0.000000
  70
    32
  0
VERTEX
  8
LAYER_1
  5
13C5
 10
53.3872
 20
11.0121
 30
0.000000
  70
    32
  0
VERTEX
  8
LAYER_1
  5
13C6
 10
53.3963
 20
11.0475
 30
0.000000
  70
    32
  0
VERTEX
  8
LAYER_1
  5
13C7
 10
53.4052
 20
11.0831
 30
0.000000
  70
    32
  0
VERTEX
  8
LAYER_1
  5
13C8
 10
53.4140
 20
11.1189
 30
0.000000
  70
    32
  0
VERTEX
  8
LAYER_1
  5
13C9
 10
53.4227
 20
11.1549
 30
0.000000
  70
    32
  0
VERTEX
  8
LAYER_1
  5
13CA
 10
53.4313
 20
11.1912
 30
0.000000
  70
    32
  0
VERTEX
  8
LAYER_1
  5
13CB
 10
53.4399
 20
11.2276
 30
0.000000
  70
    32
  0
VERTEX
  8
LAYER_1
  5
13CC
 10
53.4483
 20
11.2642
 30
0.000000
  70
    32
  0
VERTEX
  8
LAYER_1
  5
13CD
 10
53.4566
 20
11.3011
 30
0.000000
  70
    32
  0
VERTEX
  8
LAYER_1
  5
13CE
 10
53.4647
 20
11.3381
 30
0.000000
  70
    32
  0
VERTEX
  8
LAYER_1
  5
13CF
 10
53.4728
 20
11.3754
 30
0.000000
  70
    32
  0
VERTEX
  8
LAYER_1
  5
13D0
 10
53.4808
 20
11.4129
 30
0.000000
  70
    32
  0
VERTEX
  8
LAYER_1
  5
13D1
 10
53.4887
 20
11.4505
 30
0.000000
  70
    32
  0
VERTEX
  8
LAYER_1
  5
13D2
 10
53.4964
 20
11.4884
 30
0.000000
  70
    32
  0
VERTEX
  8
LAYER_1
  5
13D3
 10
53.5041
 20
11.5264
 30
0.000000
  70
    32
  0
VERTEX
  8
LAYER_1
  5
13D4
 10
53.5116
 20
11.5647
 30
0.000000
  70
    32
  0
VERTEX
  8
LAYER_1
  5
13D5
 10
53.5191
 20
11.6031
 30
0.000000
  70
    32
  0
VERTEX
  8
LAYER_1
  5
13D6
 10
53.5264
 20
11.6417
 30
0.000000
  70
    32
  0
VERTEX
  8
LAYER_1
  5
13D7
 10
53.5336
 20
11.6805
 30
0.000000
  70
    32
  0
VERTEX
  8
LAYER_1
  5
13D8
 10
53.5407
 20
11.7195
 30
0.000000
  70
    32
  0
VERTEX
  8
LAYER_1
  5
13D9
 10
53.5477
 20
11.7587
 30
0.000000
  70
    32
  0
VERTEX
  8
LAYER_1
  5
13DA
 10
53.5546
 20
11.7980
 30
0.000000
  70
    32
  0
VERTEX
  8
LAYER_1
  5
13DB
 10
53.5614
 20
11.8375
 30
0.000000
  70
    32
  0
VERTEX
  8
LAYER_1
  5
13DC
 10
53.5681
 20
11.8772
 30
0.000000
  70
    32
  0
VERTEX
  8
LAYER_1
  5
13DD
 10
53.5746
 20
11.9171
 30
0.000000
  70
    32
  0
VERTEX
  8
LAYER_1
  5
13DE
 10
53.5811
 20
11.9571
 30
0.000000
  70
    32
  0
VERTEX
  8
LAYER_1
  5
13DF
 10
53.5874
 20
11.9973
 30
0.000000
  70
    32
  0
VERTEX
  8
LAYER_1
  5
13E0
 10
53.5936
 20
12.0377
 30
0.000000
  70
    32
  0
VERTEX
  8
LAYER_1
  5
13E1
 10
53.5997
 20
12.0783
 30
0.000000
  70
    32
  0
VERTEX
  8
LAYER_1
  5
13E2
 10
53.6057
 20
12.1190
 30
0.000000
  70
    32
  0
VERTEX
  8
LAYER_1
  5
13E3
 10
53.6116
 20
12.1598
 30
0.000000
  70
    32
  0
VERTEX
  8
LAYER_1
  5
13E4
 10
53.6174
 20
12.2009
 30
0.000000
  70
    32
  0
VERTEX
  8
LAYER_1
  5
13E5
 10
53.6230
 20
12.2421
 30
0.000000
  70
    32
  0
VERTEX
  8
LAYER_1
  5
13E6
 10
53.6286
 20
12.2834
 30
0.000000
  70
    32
  0
VERTEX
  8
LAYER_1
  5
13E7
 10
53.6340
 20
12.3249
 30
0.000000
  70
    32
  0
VERTEX
  8
LAYER_1
  5
13E8
 10
53.6393
 20
12.3665
 30
0.000000
  70
    32
  0
VERTEX
  8
LAYER_1
  5
13E9
 10
53.6446
 20
12.4083
 30
0.000000
  70
    32
  0
VERTEX
  8
LAYER_1
  5
13EA
 10
53.6496
 20
12.4503
 30
0.000000
  70
    32
  0
VERTEX
  8
LAYER_1
  5
13EB
 10
53.6546
 20
12.4924
 30
0.000000
  70
    32
  0
VERTEX
  8
LAYER_1
  5
13EC
 10
53.6595
 20
12.5346
 30
0.000000
  70
    32
  0
VERTEX
  8
LAYER_1
  5
13ED
 10
53.6642
 20
12.5770
 30
0.000000
  70
    32
  0
VERTEX
  8
LAYER_1
  5
13EE
 10
53.6689
 20
12.6195
 30
0.000000
  70
    32
  0
VERTEX
  8
LAYER_1
  5
13EF
 10
53.6734
 20
12.6621
 30
0.000000
  70
    32
  0
VERTEX
  8
LAYER_1
  5
13F0
 10
53.6778
 20
12.7049
 30
0.000000
  70
    32
  0
VERTEX
  8
LAYER_1
  5
13F1
 10
53.6821
 20
12.7478
 30
0.000000
  70
    32
  0
VERTEX
  8
LAYER_1
  5
13F2
 10
53.6862
 20
12.7909
 30
0.000000
  70
    32
  0
VERTEX
  8
LAYER_1
  5
13F3
 10
53.6903
 20
12.8341
 30
0.000000
  70
    32
  0
VERTEX
  8
LAYER_1
  5
13F4
 10
53.6942
 20
12.8774
 30
0.000000
  70
    32
  0
VERTEX
  8
LAYER_1
  5
13F5
 10
53.6980
 20
12.9208
 30
0.000000
  70
    32
  0
VERTEX
  8
LAYER_1
  5
13F6
 10
53.7017
 20
12.9643
 30
0.000000
  70
    32
  0
VERTEX
  8
LAYER_1
  5
13F7
 10
53.7053
 20
13.0080
 30
0.000000
  70
    32
  0
VERTEX
  8
LAYER_1
  5
13F8
 10
53.7088
 20
13.0518
 30
0.000000
  70
    32
  0
VERTEX
  8
LAYER_1
  5
13F9
 10
53.7121
 20
13.0957
 30
0.000000
  70
    32
  0
VERTEX
  8
LAYER_1
  5
13FA
 10
53.7153
 20
13.1397
 30
0.000000
  70
    32
  0
VERTEX
  8
LAYER_1
  5
13FB
 10
53.7184
 20
13.1839
 30
0.000000
  70
    32
  0
VERTEX
  8
LAYER_1
  5
13FC
 10
53.7214
 20
13.2281
 30
0.000000
  70
    32
  0
VERTEX
  8
LAYER_1
  5
13FD
 10
53.7243
 20
13.2725
 30
0.000000
  70
    32
  0
VERTEX
  8
LAYER_1
  5
13FE
 10
53.7270
 20
13.3169
 30
0.000000
  70
    32
  0
VERTEX
  8
LAYER_1
  5
13FF
 10
53.7296
 20
13.3615
 30
0.000000
  70
    32
  0
VERTEX
  8
LAYER_1
  5
1400
 10
53.7321
 20
13.4062
 30
0.000000
  70
    32
  0
VERTEX
  8
LAYER_1
  5
1401
 10
53.7345
 20
13.4509
 30
0.000000
  70
    32
  0
VERTEX
  8
LAYER_1
  5
1402
 10
53.7368
 20
13.4958
 30
0.000000
  70
    32
  0
VERTEX
  8
LAYER_1
  5
1403
 10
53.7389
 20
13.5407
 30
0.000000
  70
    32
  0
VERTEX
  8
LAYER_1
  5
1404
 10
53.7409
 20
13.5858
 30
0.000000
  70
    32
  0
VERTEX
  8
LAYER_1
  5
1405
 10
53.7428
 20
13.6310
 30
0.000000
  70
    32
  0
VERTEX
  8
LAYER_1
  5
1406
 10
53.7446
 20
13.6762
 30
0.000000
  70
    32
  0
VERTEX
  8
LAYER_1
  5
1407
 10
53.7463
 20
13.7215
 30
0.000000
  70
    32
  0
VERTEX
  8
LAYER_1
  5
1408
 10
53.7478
 20
13.7669
 30
0.000000
  70
    32
  0
VERTEX
  8
LAYER_1
  5
1409
 10
53.7492
 20
13.8124
 30
0.000000
  70
    32
  0
VERTEX
  8
LAYER_1
  5
140A
 10
53.7505
 20
13.8580
 30
0.000000
  70
    32
  0
VERTEX
  8
LAYER_1
  5
140B
 10
53.7516
 20
13.9037
 30
0.000000
  70
    32
  0
VERTEX
  8
LAYER_1
  5
140C
 10
53.7527
 20
13.9494
 30
0.000000
  70
    32
  0
VERTEX
  8
LAYER_1
  5
140D
 10
53.7536
 20
13.9953
 30
0.000000
  70
    32
  0
VERTEX
  8
LAYER_1
  5
140E
 10
53.7544
 20
14.0411
 30
0.000000
  70
    32
  0
VERTEX
  8
LAYER_1
  5
140F
 10
53.7550
 20
14.0871
 30
0.000000
  70
    32
  0
VERTEX
  8
LAYER_1
  5
1410
 10
53.7556
 20
14.1331
 30
0.000000
  70
    32
  0
VERTEX
  8
LAYER_1
  5
1411
 10
53.7560
 20
14.1792
 30
0.000000
  70
    32
  0
VERTEX
  8
LAYER_1
  5
1412
 10
53.7563
 20
14.2254
 30
0.000000
  70
    32
  0
VERTEX
  8
LAYER_1
  5
1413
 10
53.7564
 20
14.2717
 30
0.000000
  70
    32
  0
VERTEX
  8
LAYER_1
  5
1414
 10
53.7565
 20
14.3179
 30
0.000000
  70
    32
  0
VERTEX
  8
LAYER_1
  5
1415
 10
53.7564
 20
14.3643
 30
0.000000
  70
    32
  0
VERTEX
  8
LAYER_1
  5
1416
 10
53.7561
 20
14.4107
 30
0.000000
  70
    32
  0
VERTEX
  8
LAYER_1
  5
1417
 10
53.7558
 20
14.4572
 30
0.000000
  70
    32
  0
VERTEX
  8
LAYER_1
  5
1418
 10
53.7553
 20
14.5037
 30
0.000000
  70
    32
  0
VERTEX
  8
LAYER_1
  5
1419
 10
53.7547
 20
14.5503
 30
0.000000
  70
    32
  0
VERTEX
  8
LAYER_1
  5
141A
 10
53.7540
 20
14.5969
 30
0.000000
  70
    32
  0
VERTEX
  8
LAYER_1
  5
141B
 10
53.7531
 20
14.6436
 30
0.000000
  70
    32
  0
VERTEX
  8
LAYER_1
  5
141C
 10
53.7521
 20
14.6903
 30
0.000000
  70
    32
  0
VERTEX
  8
LAYER_1
  5
141D
 10
53.7511
 20
14.7331
 30
0.000000
  70
    32
  0
VERTEX
  8
LAYER_1
  5
141E
 10
53.7501
 20
14.7719
 30
0.000000
  70
    32
  0
VERTEX
  8
LAYER_1
  5
141F
 10
53.7490
 20
14.8107
 30
0.000000
  70
    32
  0
VERTEX
  8
LAYER_1
  5
1420
 10
53.7478
 20
14.8494
 30
0.000000
  70
    32
  0
VERTEX
  8
LAYER_1
  5
1421
 10
53.7466
 20
14.8881
 30
0.000000
  70
    32
  0
VERTEX
  8
LAYER_1
  5
1422
 10
53.7452
 20
14.9268
 30
0.000000
  70
    32
  0
VERTEX
  8
LAYER_1
  5
1423
 10
53.7438
 20
14.9655
 30
0.000000
  70
    32
  0
VERTEX
  8
LAYER_1
  5
1424
 10
53.7422
 20
15.0041
 30
0.000000
  70
    32
  0
VERTEX
  8
LAYER_1
  5
1425
 10
53.7406
 20
15.0426
 30
0.000000
  70
    32
  0
VERTEX
  8
LAYER_1
  5
1426
 10
53.7389
 20
15.0812
 30
0.000000
  70
    32
  0
VERTEX
  8
LAYER_1
  5
1427
 10
53.7371
 20
15.1197
 30
0.000000
  70
    32
  0
VERTEX
  8
LAYER_1
  5
1428
 10
53.7352
 20
15.1581
 30
0.000000
  70
    32
  0
VERTEX
  8
LAYER_1
  5
1429
 10
53.7333
 20
15.1965
 30
0.000000
  70
    32
  0
VERTEX
  8
LAYER_1
  5
142A
 10
53.7312
 20
15.2349
 30
0.000000
  70
    32
  0
VERTEX
  8
LAYER_1
  5
142B
 10
53.7291
 20
15.2732
 30
0.000000
  70
    32
  0
VERTEX
  8
LAYER_1
  5
142C
 10
53.7269
 20
15.3115
 30
0.000000
  70
    32
  0
VERTEX
  8
LAYER_1
  5
142D
 10
53.7246
 20
15.3497
 30
0.000000
  70
    32
  0
VERTEX
  8
LAYER_1
  5
142E
 10
53.7222
 20
15.3879
 30
0.000000
  70
    32
  0
VERTEX
  8
LAYER_1
  5
142F
 10
53.7197
 20
15.4260
 30
0.000000
  70
    32
  0
VERTEX
  8
LAYER_1
  5
1430
 10
53.7172
 20
15.4641
 30
0.000000
  70
    32
  0
VERTEX
  8
LAYER_1
  5
1431
 10
53.7145
 20
15.5021
 30
0.000000
  70
    32
  0
VERTEX
  8
LAYER_1
  5
1432
 10
53.7118
 20
15.5401
 30
0.000000
  70
    32
  0
VERTEX
  8
LAYER_1
  5
1433
 10
53.7090
 20
15.5781
 30
0.000000
  70
    32
  0
VERTEX
  8
LAYER_1
  5
1434
 10
53.7061
 20
15.6159
 30
0.000000
  70
    32
  0
VERTEX
  8
LAYER_1
  5
1435
 10
53.7031
 20
15.6537
 30
0.000000
  70
    32
  0
VERTEX
  8
LAYER_1
  5
1436
 10
53.7001
 20
15.6915
 30
0.000000
  70
    32
  0
VERTEX
  8
LAYER_1
  5
1437
 10
53.6970
 20
15.7292
 30
0.000000
  70
    32
  0
VERTEX
  8
LAYER_1
  5
1438
 10
53.6937
 20
15.7668
 30
0.000000
  70
    32
  0
VERTEX
  8
LAYER_1
  5
1439
 10
53.6904
 20
15.8044
 30
0.000000
  70
    32
  0
VERTEX
  8
LAYER_1
  5
143A
 10
53.6871
 20
15.8419
 30
0.000000
  70
    32
  0
VERTEX
  8
LAYER_1
  5
143B
 10
53.6836
 20
15.8794
 30
0.000000
  70
    32
  0
VERTEX
  8
LAYER_1
  5
143C
 10
53.6800
 20
15.9168
 30
0.000000
  70
    32
  0
VERTEX
  8
LAYER_1
  5
143D
 10
53.6764
 20
15.9541
 30
0.000000
  70
    32
  0
VERTEX
  8
LAYER_1
  5
143E
 10
53.6727
 20
15.9913
 30
0.000000
  70
    32
  0
VERTEX
  8
LAYER_1
  5
143F
 10
53.6689
 20
16.0285
 30
0.000000
  70
    32
  0
VERTEX
  8
LAYER_1
  5
1440
 10
53.6651
 20
16.0656
 30
0.000000
  70
    32
  0
VERTEX
  8
LAYER_1
  5
1441
 10
53.6611
 20
16.1027
 30
0.000000
  70
    32
  0
VERTEX
  8
LAYER_1
  5
1442
 10
53.6571
 20
16.1396
 30
0.000000
  70
    32
  0
VERTEX
  8
LAYER_1
  5
1443
 10
53.6530
 20
16.1765
 30
0.000000
  70
    32
  0
VERTEX
  8
LAYER_1
  5
1444
 10
53.6488
 20
16.2134
 30
0.000000
  70
    32
  0
VERTEX
  8
LAYER_1
  5
1445
 10
53.6445
 20
16.2501
 30
0.000000
  70
    32
  0
VERTEX
  8
LAYER_1
  5
1446
 10
53.6401
 20
16.2868
 30
0.000000
  70
    32
  0
VERTEX
  8
LAYER_1
  5
1447
 10
53.6357
 20
16.3234
 30
0.000000
  70
    32
  0
VERTEX
  8
LAYER_1
  5
1448
 10
53.6312
 20
16.3599
 30
0.000000
  70
    32
  0
VERTEX
  8
LAYER_1
  5
1449
 10
53.6266
 20
16.3963
 30
0.000000
  70
    32
  0
VERTEX
  8
LAYER_1
  5
144A
 10
53.6219
 20
16.4327
 30
0.000000
  70
    32
  0
VERTEX
  8
LAYER_1
  5
144B
 10
53.6172
 20
16.4689
 30
0.000000
  70
    32
  0
VERTEX
  8
LAYER_1
  5
144C
 10
53.6124
 20
16.5051
 30
0.000000
  70
    32
  0
VERTEX
  8
LAYER_1
  5
144D
 10
53.6075
 20
16.5412
 30
0.000000
  70
    32
  0
VERTEX
  8
LAYER_1
  5
144E
 10
53.6025
 20
16.5772
 30
0.000000
  70
    32
  0
VERTEX
  8
LAYER_1
  5
144F
 10
53.5974
 20
16.6132
 30
0.000000
  70
    32
  0
VERTEX
  8
LAYER_1
  5
1450
 10
53.5923
 20
16.6490
 30
0.000000
  70
    32
  0
VERTEX
  8
LAYER_1
  5
1451
 10
53.5870
 20
16.6847
 30
0.000000
  70
    32
  0
VERTEX
  8
LAYER_1
  5
1452
 10
53.5817
 20
16.7204
 30
0.000000
  70
    32
  0
VERTEX
  8
LAYER_1
  5
1453
 10
53.5764
 20
16.7559
 30
0.000000
  70
    32
  0
VERTEX
  8
LAYER_1
  5
1454
 10
53.5709
 20
16.7914
 30
0.000000
  70
    32
  0
VERTEX
  8
LAYER_1
  5
1455
 10
53.5654
 20
16.8268
 30
0.000000
  70
    32
  0
VERTEX
  8
LAYER_1
  5
1456
 10
53.5598
 20
16.8621
 30
0.000000
  70
    32
  0
VERTEX
  8
LAYER_1
  5
1457
 10
53.5541
 20
16.8972
 30
0.000000
  70
    32
  0
VERTEX
  8
LAYER_1
  5
1458
 10
53.5484
 20
16.9323
 30
0.000000
  70
    32
  0
VERTEX
  8
LAYER_1
  5
1459
 10
53.5425
 20
16.9673
 30
0.000000
  70
    32
  0
VERTEX
  8
LAYER_1
  5
145A
 10
53.5366
 20
17.0022
 30
0.000000
  70
    32
  0
VERTEX
  8
LAYER_1
  5
145B
 10
53.5306
 20
17.0370
 30
0.000000
  70
    32
  0
VERTEX
  8
LAYER_1
  5
145C
 10
53.5246
 20
17.0716
 30
0.000000
  70
    32
  0
VERTEX
  8
LAYER_1
  5
145D
 10
53.5184
 20
17.1062
 30
0.000000
  70
    32
  0
VERTEX
  8
LAYER_1
  5
145E
 10
53.5122
 20
17.1407
 30
0.000000
  70
    32
  0
VERTEX
  8
LAYER_1
  5
145F
 10
53.5059
 20
17.1750
 30
0.000000
  70
    32
  0
VERTEX
  8
LAYER_1
  5
1460
 10
53.4996
 20
17.2093
 30
0.000000
  70
    32
  0
VERTEX
  8
LAYER_1
  5
1461
 10
53.4931
 20
17.2434
 30
0.000000
  70
    32
  0
VERTEX
  8
LAYER_1
  5
1462
 10
53.4866
 20
17.2774
 30
0.000000
  70
    32
  0
VERTEX
  8
LAYER_1
  5
1463
 10
53.4800
 20
17.3113
 30
0.000000
  70
    32
  0
VERTEX
  8
LAYER_1
  5
1464
 10
53.4734
 20
17.3451
 30
0.000000
  70
    32
  0
VERTEX
  8
LAYER_1
  5
1465
 10
53.4666
 20
17.3788
 30
0.000000
  70
    32
  0
VERTEX
  8
LAYER_1
  5
1466
 10
53.4598
 20
17.4124
 30
0.000000
  70
    32
  0
VERTEX
  8
LAYER_1
  5
1467
 10
53.4530
 20
17.4459
 30
0.000000
  70
    32
  0
VERTEX
  8
LAYER_1
  5
1468
 10
53.4460
 20
17.4792
 30
0.000000
  70
    32
  0
VERTEX
  8
LAYER_1
  5
1469
 10
53.4390
 20
17.5124
 30
0.000000
  70
    32
  0
VERTEX
  8
LAYER_1
  5
146A
 10
53.4319
 20
17.5455
 30
0.000000
  70
    32
  0
VERTEX
  8
LAYER_1
  5
146B
 10
53.4247
 20
17.5785
 30
0.000000
  70
    32
  0
VERTEX
  8
LAYER_1
  5
146C
 10
53.4174
 20
17.6113
 30
0.000000
  70
    32
  0
VERTEX
  8
LAYER_1
  5
146D
 10
53.4101
 20
17.6441
 30
0.000000
  70
    32
  0
VERTEX
  8
LAYER_1
  5
146E
 10
53.4027
 20
17.6767
 30
0.000000
  70
    32
  0
VERTEX
  8
LAYER_1
  5
146F
 10
53.3953
 20
17.7091
 30
0.000000
  70
    32
  0
VERTEX
  8
LAYER_1
  5
1470
 10
53.3877
 20
17.7415
 30
0.000000
  70
    32
  0
VERTEX
  8
LAYER_1
  5
1471
 10
53.3801
 20
17.7737
 30
0.000000
  70
    32
  0
VERTEX
  8
LAYER_1
  5
1472
 10
53.3724
 20
17.8058
 30
0.000000
  70
    32
  0
VERTEX
  8
LAYER_1
  5
1473
 10
53.3647
 20
17.8378
 30
0.000000
  70
    32
  0
VERTEX
  8
LAYER_1
  5
1474
 10
53.3569
 20
17.8696
 30
0.000000
  70
    32
  0
VERTEX
  8
LAYER_1
  5
1475
 10
53.3490
 20
17.9013
 30
0.000000
  70
    32
  0
VERTEX
  8
LAYER_1
  5
1476
 10
53.3410
 20
17.9328
 30
0.000000
  70
    32
  0
VERTEX
  8
LAYER_1
  5
1477
 10
53.3330
 20
17.9642
 30
0.000000
  70
    32
  0
VERTEX
  8
LAYER_1
  5
1478
 10
53.3249
 20
17.9955
 30
0.000000
  70
    32
  0
VERTEX
  8
LAYER_1
  5
1479
 10
53.3167
 20
18.0267
 30
0.000000
  70
    32
  0
VERTEX
  8
LAYER_1
  5
147A
 10
53.3085
 20
18.0577
 30
0.000000
  70
    32
  0
VERTEX
  8
LAYER_1
  5
147B
 10
53.3001
 20
18.0885
 30
0.000000
  70
    32
  0
VERTEX
  8
LAYER_1
  5
147C
 10
53.2918
 20
18.1193
 30
0.000000
  70
    32
  0
VERTEX
  8
LAYER_1
  5
147D
 10
53.2833
 20
18.1498
 30
0.000000
  70
    32
  0
VERTEX
  8
LAYER_1
  5
147E
 10
53.2748
 20
18.1803
 30
0.000000
  70
    32
  0
VERTEX
  8
LAYER_1
  5
147F
 10
53.2662
 20
18.2106
 30
0.000000
  70
    32
  0
VERTEX
  8
LAYER_1
  5
1480
 10
53.2575
 20
18.2407
 30
0.000000
  70
    32
  0
VERTEX
  8
LAYER_1
  5
1481
 10
53.2488
 20
18.2707
 30
0.000000
  70
    32
  0
VERTEX
  8
LAYER_1
  5
1482
 10
53.2400
 20
18.3005
 30
0.000000
  70
    32
  0
VERTEX
  8
LAYER_1
  5
1483
 10
53.2311
 20
18.3302
 30
0.000000
  70
    32
  0
VERTEX
  8
LAYER_1
  5
1484
 10
53.2222
 20
18.3598
 30
0.000000
  70
    32
  0
VERTEX
  8
LAYER_1
  5
1485
 10
53.2132
 20
18.3892
 30
0.000000
  70
    32
  0
VERTEX
  8
LAYER_1
  5
1486
 10
53.2041
 20
18.4184
 30
0.000000
  70
    32
  0
VERTEX
  8
LAYER_1
  5
1487
 10
53.1950
 20
18.4475
 30
0.000000
  70
    32
  0
VERTEX
  8
LAYER_1
  5
1488
 10
53.1858
 20
18.4764
 30
0.000000
  70
    32
  0
VERTEX
  8
LAYER_1
  5
1489
 10
53.1765
 20
18.5052
 30
0.000000
  70
    32
  0
VERTEX
  8
LAYER_1
  5
148A
 10
53.1672
 20
18.5338
 30
0.000000
  70
    32
  0
VERTEX
  8
LAYER_1
  5
148B
 10
53.1578
 20
18.5622
 30
0.000000
  70
    32
  0
VERTEX
  8
LAYER_1
  5
148C
 10
53.1483
 20
18.5905
 30
0.000000
  70
    32
  0
SEQEND
  8
LAYER_1
  5
148D
  0
POLYLINE
  8
LAYER_1
  5
148E
  66
     1
 10
0.000000
 20
0.000000
 30
0.000000
  70
     8
  0
VERTEX
  8
LAYER_1
  5
148F
 10
52.9714
 20
18.5648
 30
0.000000
  70
    32
  0
VERTEX
  8
LAYER_1
  5
1490
 10
52.9845
 20
18.5195
 30
0.000000
  70
    32
  0
VERTEX
  8
LAYER_1
  5
1491
 10
52.9975
 20
18.4742
 30
0.000000
  70
    32
  0
VERTEX
  8
LAYER_1
  5
1492
 10
53.0103
 20
18.4290
 30
0.000000
  70
    32
  0
VERTEX
  8
LAYER_1
  5
1493
 10
53.0230
 20
18.3837
 30
0.000000
  70
    32
  0
VERTEX
  8
LAYER_1
  5
1494
 10
53.0356
 20
18.3384
 30
0.000000
  70
    32
  0
VERTEX
  8
LAYER_1
  5
1495
 10
53.0480
 20
18.2931
 30
0.000000
  70
    32
  0
VERTEX
  8
LAYER_1
  5
1496
 10
53.0602
 20
18.2477
 30
0.000000
  70
    32
  0
VERTEX
  8
LAYER_1
  5
1497
 10
53.0724
 20
18.2024
 30
0.000000
  70
    32
  0
VERTEX
  8
LAYER_1
  5
1498
 10
53.0843
 20
18.1571
 30
0.000000
  70
    32
  0
VERTEX
  8
LAYER_1
  5
1499
 10
53.0962
 20
18.1118
 30
0.000000
  70
    32
  0
VERTEX
  8
LAYER_1
  5
149A
 10
53.1079
 20
18.0664
 30
0.000000
  70
    32
  0
VERTEX
  8
LAYER_1
  5
149B
 10
53.1194
 20
18.0211
 30
0.000000
  70
    32
  0
VERTEX
  8
LAYER_1
  5
149C
 10
53.1308
 20
17.9758
 30
0.000000
  70
    32
  0
VERTEX
  8
LAYER_1
  5
149D
 10
53.1421
 20
17.9304
 30
0.000000
  70
    32
  0
VERTEX
  8
LAYER_1
  5
149E
 10
53.1532
 20
17.8850
 30
0.000000
  70
    32
  0
VERTEX
  8
LAYER_1
  5
149F
 10
53.1642
 20
17.8397
 30
0.000000
  70
    32
  0
VERTEX
  8
LAYER_1
  5
14A0
 10
53.1750
 20
17.7943
 30
0.000000
  70
    32
  0
VERTEX
  8
LAYER_1
  5
14A1
 10
53.1857
 20
17.7490
 30
0.000000
  70
    32
  0
VERTEX
  8
LAYER_1
  5
14A2
 10
53.1962
 20
17.7036
 30
0.000000
  70
    32
  0
VERTEX
  8
LAYER_1
  5
14A3
 10
53.2066
 20
17.6582
 30
0.000000
  70
    32
  0
VERTEX
  8
LAYER_1
  5
14A4
 10
53.2169
 20
17.6128
 30
0.000000
  70
    32
  0
VERTEX
  8
LAYER_1
  5
14A5
 10
53.2270
 20
17.5674
 30
0.000000
  70
    32
  0
VERTEX
  8
LAYER_1
  5
14A6
 10
53.2370
 20
17.5220
 30
0.000000
  70
    32
  0
VERTEX
  8
LAYER_1
  5
14A7
 10
53.2468
 20
17.4766
 30
0.000000
  70
    32
  0
VERTEX
  8
LAYER_1
  5
14A8
 10
53.2565
 20
17.4312
 30
0.000000
  70
    32
  0
VERTEX
  8
LAYER_1
  5
14A9
 10
53.2661
 20
17.3858
 30
0.000000
  70
    32
  0
VERTEX
  8
LAYER_1
  5
14AA
 10
53.2755
 20
17.3404
 30
0.000000
  70
    32
  0
VERTEX
  8
LAYER_1
  5
14AB
 10
53.2847
 20
17.2950
 30
0.000000
  70
    32
  0
VERTEX
  8
LAYER_1
  5
14AC
 10
53.2939
 20
17.2496
 30
0.000000
  70
    32
  0
VERTEX
  8
LAYER_1
  5
14AD
 10
53.3028
 20
17.2042
 30
0.000000
  70
    32
  0
VERTEX
  8
LAYER_1
  5
14AE
 10
53.3117
 20
17.1588
 30
0.000000
  70
    32
  0
VERTEX
  8
LAYER_1
  5
14AF
 10
53.3204
 20
17.1134
 30
0.000000
  70
    32
  0
VERTEX
  8
LAYER_1
  5
14B0
 10
53.3289
 20
17.0679
 30
0.000000
  70
    32
  0
VERTEX
  8
LAYER_1
  5
14B1
 10
53.3373
 20
17.0225
 30
0.000000
  70
    32
  0
VERTEX
  8
LAYER_1
  5
14B2
 10
53.3456
 20
16.9771
 30
0.000000
  70
    32
  0
VERTEX
  8
LAYER_1
  5
14B3
 10
53.3537
 20
16.9316
 30
0.000000
  70
    32
  0
VERTEX
  8
LAYER_1
  5
14B4
 10
53.3617
 20
16.8862
 30
0.000000
  70
    32
  0
VERTEX
  8
LAYER_1
  5
14B5
 10
53.3695
 20
16.8408
 30
0.000000
  70
    32
  0
VERTEX
  8
LAYER_1
  5
14B6
 10
53.3772
 20
16.7953
 30
0.000000
  70
    32
  0
VERTEX
  8
LAYER_1
  5
14B7
 10
53.3847
 20
16.7499
 30
0.000000
  70
    32
  0
VERTEX
  8
LAYER_1
  5
14B8
 10
53.3921
 20
16.7045
 30
0.000000
  70
    32
  0
VERTEX
  8
LAYER_1
  5
14B9
 10
53.3994
 20
16.6590
 30
0.000000
  70
    32
  0
VERTEX
  8
LAYER_1
  5
14BA
 10
53.4065
 20
16.6136
 30
0.000000
  70
    32
  0
VERTEX
  8
LAYER_1
  5
14BB
 10
53.4135
 20
16.5681
 30
0.000000
  70
    32
  0
VERTEX
  8
LAYER_1
  5
14BC
 10
53.4203
 20
16.5227
 30
0.000000
  70
    32
  0
VERTEX
  8
LAYER_1
  5
14BD
 10
53.4270
 20
16.4772
 30
0.000000
  70
    32
  0
VERTEX
  8
LAYER_1
  5
14BE
 10
53.4335
 20
16.4318
 30
0.000000
  70
    32
  0
VERTEX
  8
LAYER_1
  5
14BF
 10
53.4399
 20
16.3863
 30
0.000000
  70
    32
  0
VERTEX
  8
LAYER_1
  5
14C0
 10
53.4462
 20
16.3409
 30
0.000000
  70
    32
  0
VERTEX
  8
LAYER_1
  5
14C1
 10
53.4523
 20
16.2954
 30
0.000000
  70
    32
  0
VERTEX
  8
LAYER_1
  5
14C2
 10
53.4583
 20
16.2499
 30
0.000000
  70
    32
  0
VERTEX
  8
LAYER_1
  5
14C3
 10
53.4641
 20
16.2045
 30
0.000000
  70
    32
  0
VERTEX
  8
LAYER_1
  5
14C4
 10
53.4698
 20
16.1590
 30
0.000000
  70
    32
  0
VERTEX
  8
LAYER_1
  5
14C5
 10
53.4753
 20
16.1136
 30
0.000000
  70
    32
  0
VERTEX
  8
LAYER_1
  5
14C6
 10
53.4807
 20
16.0681
 30
0.000000
  70
    32
  0
VERTEX
  8
LAYER_1
  5
14C7
 10
53.4860
 20
16.0227
 30
0.000000
  70
    32
  0
VERTEX
  8
LAYER_1
  5
14C8
 10
53.4911
 20
15.9772
 30
0.000000
  70
    32
  0
VERTEX
  8
LAYER_1
  5
14C9
 10
53.4961
 20
15.9318
 30
0.000000
  70
    32
  0
VERTEX
  8
LAYER_1
  5
14CA
 10
53.5009
 20
15.8863
 30
0.000000
  70
    32
  0
VERTEX
  8
LAYER_1
  5
14CB
 10
53.5056
 20
15.8408
 30
0.000000
  70
    32
  0
VERTEX
  8
LAYER_1
  5
14CC
 10
53.5101
 20
15.7954
 30
0.000000
  70
    32
  0
VERTEX
  8
LAYER_1
  5
14CD
 10
53.5145
 20
15.7499
 30
0.000000
  70
    32
  0
VERTEX
  8
LAYER_1
  5
14CE
 10
53.5187
 20
15.7045
 30
0.000000
  70
    32
  0
VERTEX
  8
LAYER_1
  5
14CF
 10
53.5228
 20
15.6590
 30
0.000000
  70
    32
  0
VERTEX
  8
LAYER_1
  5
14D0
 10
53.5268
 20
15.6136
 30
0.000000
  70
    32
  0
VERTEX
  8
LAYER_1
  5
14D1
 10
53.5306
 20
15.5681
 30
0.000000
  70
    32
  0
VERTEX
  8
LAYER_1
  5
14D2
 10
53.5343
 20
15.5227
 30
0.000000
  70
    32
  0
VERTEX
  8
LAYER_1
  5
14D3
 10
53.5378
 20
15.4772
 30
0.000000
  70
    32
  0
VERTEX
  8
LAYER_1
  5
14D4
 10
53.5412
 20
15.4318
 30
0.000000
  70
    32
  0
VERTEX
  8
LAYER_1
  5
14D5
 10
53.5445
 20
15.3863
 30
0.000000
  70
    32
  0
VERTEX
  8
LAYER_1
  5
14D6
 10
53.5476
 20
15.3409
 30
0.000000
  70
    32
  0
VERTEX
  8
LAYER_1
  5
14D7
 10
53.5505
 20
15.2955
 30
0.000000
  70
    32
  0
VERTEX
  8
LAYER_1
  5
14D8
 10
53.5534
 20
15.2500
 30
0.000000
  70
    32
  0
VERTEX
  8
LAYER_1
  5
14D9
 10
53.5560
 20
15.2046
 30
0.000000
  70
    32
  0
VERTEX
  8
LAYER_1
  5
14DA
 10
53.5586
 20
15.1591
 30
0.000000
  70
    32
  0
VERTEX
  8
LAYER_1
  5
14DB
 10
53.5609
 20
15.1137
 30
0.000000
  70
    32
  0
VERTEX
  8
LAYER_1
  5
14DC
 10
53.5632
 20
15.0683
 30
0.000000
  70
    32
  0
VERTEX
  8
LAYER_1
  5
14DD
 10
53.5653
 20
15.0228
 30
0.000000
  70
    32
  0
VERTEX
  8
LAYER_1
  5
14DE
 10
53.5672
 20
14.9774
 30
0.000000
  70
    32
  0
VERTEX
  8
LAYER_1
  5
14DF
 10
53.5690
 20
14.9320
 30
0.000000
  70
    32
  0
VERTEX
  8
LAYER_1
  5
14E0
 10
53.5707
 20
14.8866
 30
0.000000
  70
    32
  0
VERTEX
  8
LAYER_1
  5
14E1
 10
53.5722
 20
14.8412
 30
0.000000
  70
    32
  0
VERTEX
  8
LAYER_1
  5
14E2
 10
53.5736
 20
14.7957
 30
0.000000
  70
    32
  0
VERTEX
  8
LAYER_1
  5
14E3
 10
53.5748
 20
14.7503
 30
0.000000
  70
    32
  0
VERTEX
  8
LAYER_1
  5
14E4
 10
53.5759
 20
14.7049
 30
0.000000
  70
    32
  0
VERTEX
  8
LAYER_1
  5
14E5
 10
53.5769
 20
14.6595
 30
0.000000
  70
    32
  0
VERTEX
  8
LAYER_1
  5
14E6
 10
53.5777
 20
14.6141
 30
0.000000
  70
    32
  0
VERTEX
  8
LAYER_1
  5
14E7
 10
53.5784
 20
14.5687
 30
0.000000
  70
    32
  0
VERTEX
  8
LAYER_1
  5
14E8
 10
53.5789
 20
14.5233
 30
0.000000
  70
    32
  0
VERTEX
  8
LAYER_1
  5
14E9
 10
53.5792
 20
14.4779
 30
0.000000
  70
    32
  0
VERTEX
  8
LAYER_1
  5
14EA
 10
53.5795
 20
14.4326
 30
0.000000
  70
    32
  0
VERTEX
  8
LAYER_1
  5
14EB
 10
53.5796
 20
14.3872
 30
0.000000
  70
    32
  0
VERTEX
  8
LAYER_1
  5
14EC
 10
53.5795
 20
14.3418
 30
0.000000
  70
    32
  0
VERTEX
  8
LAYER_1
  5
14ED
 10
53.5793
 20
14.2964
 30
0.000000
  70
    32
  0
VERTEX
  8
LAYER_1
  5
14EE
 10
53.5790
 20
14.2511
 30
0.000000
  70
    32
  0
VERTEX
  8
LAYER_1
  5
14EF
 10
53.5785
 20
14.2057
 30
0.000000
  70
    32
  0
VERTEX
  8
LAYER_1
  5
14F0
 10
53.5778
 20
14.1603
 30
0.000000
  70
    32
  0
VERTEX
  8
LAYER_1
  5
14F1
 10
53.5771
 20
14.1150
 30
0.000000
  70
    32
  0
VERTEX
  8
LAYER_1
  5
14F2
 10
53.5761
 20
14.0696
 30
0.000000
  70
    32
  0
VERTEX
  8
LAYER_1
  5
14F3
 10
53.5751
 20
14.0243
 30
0.000000
  70
    32
  0
VERTEX
  8
LAYER_1
  5
14F4
 10
53.5739
 20
13.9790
 30
0.000000
  70
    32
  0
VERTEX
  8
LAYER_1
  5
14F5
 10
53.5725
 20
13.9336
 30
0.000000
  70
    32
  0
VERTEX
  8
LAYER_1
  5
14F6
 10
53.5710
 20
13.8883
 30
0.000000
  70
    32
  0
VERTEX
  8
LAYER_1
  5
14F7
 10
53.5694
 20
13.8430
 30
0.000000
  70
    32
  0
VERTEX
  8
LAYER_1
  5
14F8
 10
53.5676
 20
13.7977
 30
0.000000
  70
    32
  0
VERTEX
  8
LAYER_1
  5
14F9
 10
53.5657
 20
13.7524
 30
0.000000
  70
    32
  0
VERTEX
  8
LAYER_1
  5
14FA
 10
53.5636
 20
13.7070
 30
0.000000
  70
    32
  0
VERTEX
  8
LAYER_1
  5
14FB
 10
53.5614
 20
13.6618
 30
0.000000
  70
    32
  0
VERTEX
  8
LAYER_1
  5
14FC
 10
53.5590
 20
13.6165
 30
0.000000
  70
    32
  0
VERTEX
  8
LAYER_1
  5
14FD
 10
53.5565
 20
13.5712
 30
0.000000
  70
    32
  0
VERTEX
  8
LAYER_1
  5
14FE
 10
53.5539
 20
13.5259
 30
0.000000
  70
    32
  0
VERTEX
  8
LAYER_1
  5
14FF
 10
53.5516
 20
13.4884
 30
0.000000
  70
    32
  0
VERTEX
  8
LAYER_1
  5
1500
 10
53.5497
 20
13.4588
 30
0.000000
  70
    32
  0
VERTEX
  8
LAYER_1
  5
1501
 10
53.5477
 20
13.4292
 30
0.000000
  70
    32
  0
VERTEX
  8
LAYER_1
  5
1502
 10
53.5457
 20
13.3996
 30
0.000000
  70
    32
  0
VERTEX
  8
LAYER_1
  5
1503
 10
53.5436
 20
13.3700
 30
0.000000
  70
    32
  0
VERTEX
  8
LAYER_1
  5
1504
 10
53.5415
 20
13.3404
 30
0.000000
  70
    32
  0
VERTEX
  8
LAYER_1
  5
1505
 10
53.5393
 20
13.3108
 30
0.000000
  70
    32
  0
VERTEX
  8
LAYER_1
  5
1506
 10
53.5370
 20
13.2812
 30
0.000000
  70
    32
  0
VERTEX
  8
LAYER_1
  5
1507
 10
53.5347
 20
13.2516
 30
0.000000
  70
    32
  0
VERTEX
  8
LAYER_1
  5
1508
 10
53.5323
 20
13.2220
 30
0.000000
  70
    32
  0
VERTEX
  8
LAYER_1
  5
1509
 10
53.5299
 20
13.1924
 30
0.000000
  70
    32
  0
VERTEX
  8
LAYER_1
  5
150A
 10
53.5274
 20
13.1628
 30
0.000000
  70
    32
  0
VERTEX
  8
LAYER_1
  5
150B
 10
53.5248
 20
13.1332
 30
0.000000
  70
    32
  0
VERTEX
  8
LAYER_1
  5
150C
 10
53.5222
 20
13.1037
 30
0.000000
  70
    32
  0
VERTEX
  8
LAYER_1
  5
150D
 10
53.5195
 20
13.0741
 30
0.000000
  70
    32
  0
VERTEX
  8
LAYER_1
  5
150E
 10
53.5167
 20
13.0446
 30
0.000000
  70
    32
  0
VERTEX
  8
LAYER_1
  5
150F
 10
53.5139
 20
13.0150
 30
0.000000
  70
    32
  0
VERTEX
  8
LAYER_1
  5
1510
 10
53.5111
 20
12.9854
 30
0.000000
  70
    32
  0
VERTEX
  8
LAYER_1
  5
1511
 10
53.5081
 20
12.9559
 30
0.000000
  70
    32
  0
VERTEX
  8
LAYER_1
  5
1512
 10
53.5051
 20
12.9264
 30
0.000000
  70
    32
  0
VERTEX
  8
LAYER_1
  5
1513
 10
53.5021
 20
12.8968
 30
0.000000
  70
    32
  0
VERTEX
  8
LAYER_1
  5
1514
 10
53.4989
 20
12.8673
 30
0.000000
  70
    32
  0
VERTEX
  8
LAYER_1
  5
1515
 10
53.4958
 20
12.8378
 30
0.000000
  70
    32
  0
VERTEX
  8
LAYER_1
  5
1516
 10
53.4925
 20
12.8082
 30
0.000000
  70
    32
  0
VERTEX
  8
LAYER_1
  5
1517
 10
53.4892
 20
12.7787
 30
0.000000
  70
    32
  0
VERTEX
  8
LAYER_1
  5
1518
 10
53.4858
 20
12.7492
 30
0.000000
  70
    32
  0
VERTEX
  8
LAYER_1
  5
1519
 10
53.4824
 20
12.7197
 30
0.000000
  70
    32
  0
VERTEX
  8
LAYER_1
  5
151A
 10
53.4789
 20
12.6902
 30
0.000000
  70
    32
  0
VERTEX
  8
LAYER_1
  5
151B
 10
53.4754
 20
12.6607
 30
0.000000
  70
    32
  0
VERTEX
  8
LAYER_1
  5
151C
 10
53.4718
 20
12.6312
 30
0.000000
  70
    32
  0
VERTEX
  8
LAYER_1
  5
151D
 10
53.4681
 20
12.6018
 30
0.000000
  70
    32
  0
VERTEX
  8
LAYER_1
  5
151E
 10
53.4643
 20
12.5723
 30
0.000000
  70
    32
  0
VERTEX
  8
LAYER_1
  5
151F
 10
53.4605
 20
12.5428
 30
0.000000
  70
    32
  0
VERTEX
  8
LAYER_1
  5
1520
 10
53.4567
 20
12.5133
 30
0.000000
  70
    32
  0
VERTEX
  8
LAYER_1
  5
1521
 10
53.4528
 20
12.4839
 30
0.000000
  70
    32
  0
VERTEX
  8
LAYER_1
  5
1522
 10
53.4488
 20
12.4544
 30
0.000000
  70
    32
  0
VERTEX
  8
LAYER_1
  5
1523
 10
53.4447
 20
12.4250
 30
0.000000
  70
    32
  0
VERTEX
  8
LAYER_1
  5
1524
 10
53.4406
 20
12.3955
 30
0.000000
  70
    32
  0
VERTEX
  8
LAYER_1
  5
1525
 10
53.4365
 20
12.3661
 30
0.000000
  70
    32
  0
VERTEX
  8
LAYER_1
  5
1526
 10
53.4322
 20
12.3366
 30
0.000000
  70
    32
  0
VERTEX
  8
LAYER_1
  5
1527
 10
53.4280
 20
12.3072
 30
0.000000
  70
    32
  0
VERTEX
  8
LAYER_1
  5
1528
 10
53.4236
 20
12.2778
 30
0.000000
  70
    32
  0
VERTEX
  8
LAYER_1
  5
1529
 10
53.4192
 20
12.2484
 30
0.000000
  70
    32
  0
VERTEX
  8
LAYER_1
  5
152A
 10
53.4147
 20
12.2190
 30
0.000000
  70
    32
  0
VERTEX
  8
LAYER_1
  5
152B
 10
53.4102
 20
12.1896
 30
0.000000
  70
    32
  0
VERTEX
  8
LAYER_1
  5
152C
 10
53.4056
 20
12.1602
 30
0.000000
  70
    32
  0
VERTEX
  8
LAYER_1
  5
152D
 10
53.4009
 20
12.1308
 30
0.000000
  70
    32
  0
VERTEX
  8
LAYER_1
  5
152E
 10
53.3962
 20
12.1014
 30
0.000000
  70
    32
  0
VERTEX
  8
LAYER_1
  5
152F
 10
53.3914
 20
12.0720
 30
0.000000
  70
    32
  0
VERTEX
  8
LAYER_1
  5
1530
 10
53.3866
 20
12.0426
 30
0.000000
  70
    32
  0
VERTEX
  8
LAYER_1
  5
1531
 10
53.3817
 20
12.0133
 30
0.000000
  70
    32
  0
VERTEX
  8
LAYER_1
  5
1532
 10
53.3767
 20
11.9839
 30
0.000000
  70
    32
  0
VERTEX
  8
LAYER_1
  5
1533
 10
53.3717
 20
11.9545
 30
0.000000
  70
    32
  0
VERTEX
  8
LAYER_1
  5
1534
 10
53.3666
 20
11.9252
 30
0.000000
  70
    32
  0
VERTEX
  8
LAYER_1
  5
1535
 10
53.3615
 20
11.8958
 30
0.000000
  70
    32
  0
VERTEX
  8
LAYER_1
  5
1536
 10
53.3563
 20
11.8665
 30
0.000000
  70
    32
  0
VERTEX
  8
LAYER_1
  5
1537
 10
53.3510
 20
11.8372
 30
0.000000
  70
    32
  0
VERTEX
  8
LAYER_1
  5
1538
 10
53.3457
 20
11.8078
 30
0.000000
  70
    32
  0
VERTEX
  8
LAYER_1
  5
1539
 10
53.3403
 20
11.7785
 30
0.000000
  70
    32
  0
VERTEX
  8
LAYER_1
  5
153A
 10
53.3348
 20
11.7492
 30
0.000000
  70
    32
  0
VERTEX
  8
LAYER_1
  5
153B
 10
53.3293
 20
11.7199
 30
0.000000
  70
    32
  0
VERTEX
  8
LAYER_1
  5
153C
 10
53.3237
 20
11.6906
 30
0.000000
  70
    32
  0
VERTEX
  8
LAYER_1
  5
153D
 10
53.3181
 20
11.6613
 30
0.000000
  70
    32
  0
VERTEX
  8
LAYER_1
  5
153E
 10
53.3124
 20
11.6320
 30
0.000000
  70
    32
  0
VERTEX
  8
LAYER_1
  5
153F
 10
53.3066
 20
11.6027
 30
0.000000
  70
    32
  0
VERTEX
  8
LAYER_1
  5
1540
 10
53.3008
 20
11.5735
 30
0.000000
  70
    32
  0
VERTEX
  8
LAYER_1
  5
1541
 10
53.2949
 20
11.5442
 30
0.000000
  70
    32
  0
VERTEX
  8
LAYER_1
  5
1542
 10
53.2890
 20
11.5149
 30
0.000000
  70
    32
  0
VERTEX
  8
LAYER_1
  5
1543
 10
53.2830
 20
11.4857
 30
0.000000
  70
    32
  0
VERTEX
  8
LAYER_1
  5
1544
 10
53.2769
 20
11.4564
 30
0.000000
  70
    32
  0
VERTEX
  8
LAYER_1
  5
1545
 10
53.2708
 20
11.4272
 30
0.000000
  70
    32
  0
VERTEX
  8
LAYER_1
  5
1546
 10
53.2646
 20
11.3980
 30
0.000000
  70
    32
  0
VERTEX
  8
LAYER_1
  5
1547
 10
53.2583
 20
11.3687
 30
0.000000
  70
    32
  0
VERTEX
  8
LAYER_1
  5
1548
 10
53.2520
 20
11.3395
 30
0.000000
  70
    32
  0
VERTEX
  8
LAYER_1
  5
1549
 10
53.2457
 20
11.3103
 30
0.000000
  70
    32
  0
VERTEX
  8
LAYER_1
  5
154A
 10
53.2392
 20
11.2811
 30
0.000000
  70
    32
  0
VERTEX
  8
LAYER_1
  5
154B
 10
53.2327
 20
11.2519
 30
0.000000
  70
    32
  0
VERTEX
  8
LAYER_1
  5
154C
 10
53.2262
 20
11.2227
 30
0.000000
  70
    32
  0
VERTEX
  8
LAYER_1
  5
154D
 10
53.2196
 20
11.1935
 30
0.000000
  70
    32
  0
VERTEX
  8
LAYER_1
  5
154E
 10
53.2129
 20
11.1643
 30
0.000000
  70
    32
  0
VERTEX
  8
LAYER_1
  5
154F
 10
53.2061
 20
11.1352
 30
0.000000
  70
    32
  0
VERTEX
  8
LAYER_1
  5
1550
 10
53.1993
 20
11.1060
 30
0.000000
  70
    32
  0
VERTEX
  8
LAYER_1
  5
1551
 10
53.1925
 20
11.0768
 30
0.000000
  70
    32
  0
VERTEX
  8
LAYER_1
  5
1552
 10
53.1856
 20
11.0477
 30
0.000000
  70
    32
  0
VERTEX
  8
LAYER_1
  5
1553
 10
53.1786
 20
11.0186
 30
0.000000
  70
    32
  0
VERTEX
  8
LAYER_1
  5
1554
 10
53.1715
 20
10.9894
 30
0.000000
  70
    32
  0
VERTEX
  8
LAYER_1
  5
1555
 10
53.1644
 20
10.9603
 30
0.000000
  70
    32
  0
VERTEX
  8
LAYER_1
  5
1556
 10
53.1573
 20
10.9312
 30
0.000000
  70
    32
  0
VERTEX
  8
LAYER_1
  5
1557
 10
53.1500
 20
10.9021
 30
0.000000
  70
    32
  0
VERTEX
  8
LAYER_1
  5
1558
 10
53.1427
 20
10.8730
 30
0.000000
  70
    32
  0
VERTEX
  8
LAYER_1
  5
1559
 10
53.1354
 20
10.8439
 30
0.000000
  70
    32
  0
VERTEX
  8
LAYER_1
  5
155A
 10
53.1280
 20
10.8148
 30
0.000000
  70
    32
  0
VERTEX
  8
LAYER_1
  5
155B
 10
53.1205
 20
10.7857
 30
0.000000
  70
    32
  0
VERTEX
  8
LAYER_1
  5
155C
 10
53.1130
 20
10.7566
 30
0.000000
  70
    32
  0
VERTEX
  8
LAYER_1
  5
155D
 10
53.1054
 20
10.7275
 30
0.000000
  70
    32
  0
VERTEX
  8
LAYER_1
  5
155E
 10
53.0977
 20
10.6985
 30
0.000000
  70
    32
  0
VERTEX
  8
LAYER_1
  5
155F
 10
53.0900
 20
10.6694
 30
0.000000
  70
    32
  0
VERTEX
  8
LAYER_1
  5
1560
 10
53.0822
 20
10.6404
 30
0.000000
  70
    32
  0
VERTEX
  8
LAYER_1
  5
1561
 10
53.0744
 20
10.6113
 30
0.000000
  70
    32
  0
VERTEX
  8
LAYER_1
  5
1562
 10
53.0665
 20
10.5823
 30
0.000000
  70
    32
  0
VERTEX
  8
LAYER_1
  5
1563
 10
53.0585
 20
10.5533
 30
0.000000
  70
    32
  0
VERTEX
  8
LAYER_1
  5
1564
 10
53.0505
 20
10.5243
 30
0.000000
  70
    32
  0
VERTEX
  8
LAYER_1
  5
1565
 10
53.0424
 20
10.4953
 30
0.000000
  70
    32
  0
VERTEX
  8
LAYER_1
  5
1566
 10
53.0343
 20
10.4663
 30
0.000000
  70
    32
  0
VERTEX
  8
LAYER_1
  5
1567
 10
53.0261
 20
10.4373
 30
0.000000
  70
    32
  0
VERTEX
  8
LAYER_1
  5
1568
 10
53.0178
 20
10.4083
 30
0.000000
  70
    32
  0
VERTEX
  8
LAYER_1
  5
1569
 10
53.0095
 20
10.3793
 30
0.000000
  70
    32
  0
VERTEX
  8
LAYER_1
  5
156A
 10
53.0011
 20
10.3504
 30
0.000000
  70
    32
  0
VERTEX
  8
LAYER_1
  5
156B
 10
52.9927
 20
10.3214
 30
0.000000
  70
    32
  0
VERTEX
  8
LAYER_1
  5
156C
 10
52.9842
 20
10.2925
 30
0.000000
  70
    32
  0
VERTEX
  8
LAYER_1
  5
156D
 10
52.9756
 20
10.2635
 30
0.000000
  70
    32
  0
VERTEX
  8
LAYER_1
  5
156E
 10
52.9670
 20
10.2346
 30
0.000000
  70
    32
  0
SEQEND
  8
LAYER_1
  5
156F
  0
LINE
  5
CA2
  8
LAYER_1
 10
53.055654106920088
 20
7.4569330587037799
 30
0.0
 11
53.055654106920088
 21
7.3726994869631373
 31
0.0
  0
LINE
  5
CA3
  8
LAYER_1
 10
53.055654106920088
 20
7.3726994869631373
 30
0.0
 11
52.97142053517944
 21
7.3726994869631373
 31
0.0
  0
LINE
  5
CA4
  8
LAYER_1
 10
52.97142053517944
 20
7.3726994869631373
 30
0.0
 11
52.97142053517944
 21
7.2884659152224929
 31
0.0
  0
LINE
  5
CA5
  8
LAYER_1
 10
52.97142053517944
 20
7.2884659152224929
 30
0.0
 11
52.887358169885438
 21
7.2884659152224929
 31
0.0
  0
POLYLINE
  5
CA6
  8
LAYER_1
 66
     1
 10
0.0
 20
0.0
 30
0.0
  0
VERTEX
  5
CA7
  8
LAYER_1
 10
52.887358169885438
 20
7.2884659152224929
 30
0.0
  0
VERTEX
  5
CA8
  8
LAYER_1
 10
52.803124598144798
 20
7.2884659152224929
 30
0.0
  0
VERTEX
  5
CA9
  8
LAYER_1
 10
52.803124598144798
 20
7.2042323434818574
 30
0.0
  0
SEQEND
  5
CAA
  8
LAYER_1
  0
LINE
  5
CAB
  8
LAYER_1
 10
52.803124598144798
 20
7.2042323434818574
 30
0.0
 11
52.719062232850781
 21
7.2042323434818574
 31
0.0
  0
LINE
  5
CAC
  8
LAYER_1
 10
53.476308346283417
 20
7.7092913610324318
 30
0.0
 11
53.476308346283417
 21
7.625057789291799
 31
0.0
  0
LINE
  5
CAD
  8
LAYER_1
 10
53.476308346283417
 20
7.625057789291799
 30
0.0
 11
53.476308346283417
 21
7.5408242175511626
 31
0.0
  0
LINE
  5
CAE
  8
LAYER_1
 10
53.476308346283417
 20
7.5408242175511626
 30
0.0
 11
53.476308346283417
 21
7.4569330587037799
 31
0.0
  0
LINE
  5
CAF
  8
LAYER_1
 10
53.476308346283417
 20
7.4569330587037799
 30
0.0
 11
53.392245980989443
 21
7.4569330587037799
 31
0.0
  0
LINE
  5
CB0
  8
LAYER_1
 10
53.392245980989443
 20
7.4569330587037799
 30
0.0
 11
53.392245980989443
 21
7.3726994869631373
 31
0.0
  0
LINE
  5
CB1
  8
LAYER_1
 10
53.392245980989443
 20
7.3726994869631373
 30
0.0
 11
53.392245980989443
 21
7.2884659152224929
 31
0.0
  0
LINE
  5
CB2
  8
LAYER_1
 10
53.392245980989443
 20
7.2884659152224929
 30
0.0
 11
53.308012409248732
 21
7.2884659152224929
 31
0.0
  0
LINE
  5
CB3
  8
LAYER_1
 10
53.308012409248732
 20
7.2884659152224929
 30
0.0
 11
53.308012409248732
 21
7.2042323434818574
 31
0.0
  0
LINE
  5
CB4
  8
LAYER_1
 10
53.308012409248732
 20
7.2042323434818574
 30
0.0
 11
53.223950043954723
 21
7.1203411846344782
 31
0.0
  0
LINE
  5
CB5
  8
LAYER_1
 10
53.223950043954723
 20
7.1203411846344782
 30
0.0
 11
53.139716472214118
 21
7.0361076128938311
 31
0.0
  0
LINE
  5
CB6
  8
LAYER_1
 10
53.139716472214118
 20
7.0361076128938311
 30
0.0
 11
53.055654106920088
 21
7.0361076128938311
 31
0.0
  0
POLYLINE
  5
CB7
  8
LAYER_1
 66
     1
 10
0.0
 20
0.0
 30
0.0
  0
VERTEX
  5
CB8
  8
LAYER_1
 10
53.055654106920088
 20
7.0361076128938311
 30
0.0
  0
VERTEX
  5
CB9
  8
LAYER_1
 10
53.055654106920088
 20
6.9518740411531912
 30
0.0
  0
VERTEX
  5
CBA
  8
LAYER_1
 10
52.97142053517944
 20
6.9518740411531912
 30
0.0
  0
SEQEND
  5
CBB
  8
LAYER_1
  0
LINE
  5
CBC
  8
LAYER_1
 10
52.97142053517944
 20
6.9518740411531912
 30
0.0
 11
52.887358169885438
 21
6.9518740411531912
 31
0.0
  0
LINE
  5
CBD
  8
LAYER_1
 10
52.887358169885438
 20
6.9518740411531912
 30
0.0
 11
52.803124598144798
 21
6.9518740411531912
 31
0.0
  0
LINE
  5
CBE
  8
LAYER_1
 10
52.803124598144798
 20
7.1203411846344782
 30
0.0
 11
52.887358169885438
 21
7.1203411846344782
 31
0.0
  0
LINE
  5
CBF
  8
LAYER_1
 10
52.887358169885438
 20
7.1203411846344782
 30
0.0
 11
52.887358169885438
 21
7.2042323434818574
 31
0.0
  0
LINE
  5
CC0
  8
LAYER_1
 10
52.887358169885438
 20
7.2042323434818574
 30
0.0
 11
52.97142053517944
 21
7.2042323434818574
 31
0.0
  0
POLYLINE
  5
CC1
  8
LAYER_1
 66
     1
 10
0.0
 20
0.0
 30
0.0
  0
VERTEX
  5
CC2
  8
LAYER_1
 10
52.97142053517944
 20
7.2042323434818574
 30
0.0
  0
VERTEX
  5
CC3
  8
LAYER_1
 10
53.055654106920088
 20
7.2042323434818574
 30
0.0
  0
VERTEX
  5
CC4
  8
LAYER_1
 10
53.055654106920088
 20
7.2884659152224929
 30
0.0
  0
SEQEND
  5
CC5
  8
LAYER_1
  0
POLYLINE
  5
CC6
  8
LAYER_1
 66
     1
 10
0.0
 20
0.0
 30
0.0
  0
VERTEX
  5
CC7
  8
LAYER_1
 10
53.055654106920088
 20
7.2884659152224929
 30
0.0
  0
VERTEX
  5
CC8
  8
LAYER_1
 10
53.139716472214118
 20
7.2884659152224929
 30
0.0
  0
VERTEX
  5
CC9
  8
LAYER_1
 10
53.139716472214118
 20
7.3726994869631373
 30
0.0
  0
SEQEND
  5
CCA
  8
LAYER_1
  0
POLYLINE
  5
CCB
  8
LAYER_1
 66
     1
 10
0.0
 20
0.0
 30
0.0
  0
VERTEX
  5
CCC
  8
LAYER_1
 10
53.139716472214118
 20
7.3726994869631373
 30
0.0
  0
VERTEX
  5
CCD
  8
LAYER_1
 10
53.223950043954723
 20
7.3726994869631373
 30
0.0
  0
VERTEX
  5
CCE
  8
LAYER_1
 10
53.223950043954723
 20
7.4569330587037799
 30
0.0
  0
SEQEND
  5
CCF
  8
LAYER_1
  0
LINE
  5
CD0
  8
LAYER_1
 10
53.223950043954723
 20
7.4569330587037799
 30
0.0
 11
53.223950043954723
 21
7.5408242175511626
 31
0.0
  0
LINE
  5
CD1
  8
LAYER_1
 10
53.223950043954723
 20
7.5408242175511626
 30
0.0
 11
53.223950043954723
 21
7.625057789291799
 31
0.0
  0
POLYLINE
  5
CD2
  8
LAYER_1
 66
     1
 10
0.0
 20
0.0
 30
0.0
  0
VERTEX
  5
CD3
  8
LAYER_1
 10
53.223950043954723
 20
7.625057789291799
 30
0.0
  0
VERTEX
  5
CD4
  8
LAYER_1
 10
53.308012409248732
 20
7.625057789291799
 30
0.0
  0
VERTEX
  5
CD5
  8
LAYER_1
 10
53.308012409248732
 20
7.7092913610324318
 30
0.0
  0
SEQEND
  5
CD6
  8
LAYER_1
  0
POLYLINE
  5
CD7
  8
LAYER_1
 66
     1
 10
0.0
 20
0.0
 30
0.0
  0
VERTEX
  5
CD8
  8
LAYER_1
 10
52.97142053517944
 20
7.625057789291799
 30
0.0
  0
VERTEX
  5
CD9
  8
LAYER_1
 10
52.97142053517944
 20
7.5408242175511626
 30
0.0
  0
VERTEX
  5
CDA
  8
LAYER_1
 10
52.887358169885438
 20
7.5408242175511626
 30
0.0
  0
SEQEND
  5
CDB
  8
LAYER_1
  0
LINE
  5
CDC
  8
LAYER_1
 10
52.887358169885438
 20
7.5408242175511626
 30
0.0
 11
52.887358169885438
 21
7.4569330587037799
 31
0.0
  0
LINE
  5
CDD
  8
LAYER_1
 10
52.887358169885438
 20
7.4569330587037799
 30
0.0
 11
52.803124598144798
 21
7.4569330587037799
 31
0.0
  0
POLYLINE
  5
CDE
  8
LAYER_1
 66
     1
 10
0.0
 20
0.0
 30
0.0
  0
VERTEX
  5
CDF
  8
LAYER_1
 10
52.803124598144798
 20
7.4569330587037799
 30
0.0
  0
VERTEX
  5
CE0
  8
LAYER_1
 10
52.719062232850781
 20
7.4569330587037799
 30
0.0
  0
VERTEX
  5
CE1
  8
LAYER_1
 10
52.719062232850781
 20
7.3726994869631373
 30
0.0
  0
SEQEND
  5
CE2
  8
LAYER_1
  0
LINE
  5
CE3
  8
LAYER_1
 10
53.139716472214118
 20
7.7092913610324318
 30
0.0
 11
53.139716472214118
 21
7.625057789291799
 31
0.0
  0
LINE
  5
CE4
  8
LAYER_1
 10
53.139716472214118
 20
7.625057789291799
 30
0.0
 11
53.139716472214118
 21
7.5408242175511626
 31
0.0
  0
LINE
  5
CE5
  8
LAYER_1
 10
53.139716472214118
 20
7.5408242175511626
 30
0.0
 11
53.055654106920088
 21
7.4569330587037799
 31
0.0
  0
LINE
  5
CE6
  8
LAYER_1
 10
53.56054191802405
 20
7.3726994869631373
 30
0.0
 11
53.56054191802405
 21
7.4569330587037799
 31
0.0
  0
LINE
  5
CE7
  8
LAYER_1
 10
53.56054191802405
 20
7.4569330587037799
 30
0.0
 11
53.56054191802405
 21
7.5408242175511626
 31
0.0
  0
LINE
  5
CE8
  8
LAYER_1
 10
53.56054191802405
 20
7.5408242175511626
 30
0.0
 11
53.56054191802405
 21
7.625057789291799
 31
0.0
  0
LINE
  5
CE9
  8
LAYER_1
 10
53.56054191802405
 20
7.625057789291799
 30
0.0
 11
53.644775489764669
 21
7.625057789291799
 31
0.0
  0
LINE
  5
CEA
  8
LAYER_1
 10
53.644775489764669
 20
7.625057789291799
 30
0.0
 11
53.644775489764669
 21
7.7092913610324318
 31
0.0
  0
LINE
  5
CEB
  8
LAYER_1
 10
52.719062232850781
 20
6.6152821670838851
 30
0.0
 11
52.803124598144798
 21
6.6152821670838851
 31
0.0
  0
LINE
  5
CEC
  8
LAYER_1
 10
52.803124598144798
 20
6.6152821670838851
 30
0.0
 11
52.887358169885438
 21
6.6152821670838851
 31
0.0
  0
LINE
  5
CED
  8
LAYER_1
 10
52.887358169885438
 20
6.6152821670838851
 30
0.0
 11
52.97142053517944
 21
6.6152821670838851
 31
0.0
  0
LINE
  5
CEE
  8
LAYER_1
 10
52.97142053517944
 20
6.6152821670838851
 30
0.0
 11
53.055654106920088
 21
6.699515738824517
 31
0.0
  0
LINE
  5
CEF
  8
LAYER_1
 10
53.055654106920088
 20
6.699515738824517
 30
0.0
 11
53.139716472214118
 21
6.699515738824517
 31
0.0
  0
POLYLINE
  5
CF0
  8
LAYER_1
 66
     1
 10
0.0
 20
0.0
 30
0.0
  0
VERTEX
  5
CF1
  8
LAYER_1
 10
53.139716472214118
 20
6.699515738824517
 30
0.0
  0
VERTEX
  5
CF2
  8
LAYER_1
 10
53.223950043954723
 20
6.699515738824517
 30
0.0
  0
VERTEX
  5
CF3
  8
LAYER_1
 10
53.223950043954723
 20
6.783406897671914
 30
0.0
  0
VERTEX
  5
CF4
  8
LAYER_1
 10
53.308012409248732
 20
6.783406897671914
 30
0.0
  0
SEQEND
  5
CF5
  8
LAYER_1
  0
POLYLINE
  5
CF6
  8
LAYER_1
 66
     1
 10
0.0
 20
0.0
 30
0.0
  0
VERTEX
  5
CF7
  8
LAYER_1
 10
53.308012409248732
 20
6.783406897671914
 30
0.0
  0
VERTEX
  5
CF8
  8
LAYER_1
 10
53.308012409248732
 20
6.8676404694125512
 30
0.0
  0
VERTEX
  5
CF9
  8
LAYER_1
 10
53.392245980989443
 20
6.8676404694125512
 30
0.0
  0
SEQEND
  5
CFA
  8
LAYER_1
  0
LINE
  5
CFB
  8
LAYER_1
 10
53.392245980989443
 20
6.8676404694125512
 30
0.0
 11
53.476308346283417
 21
6.9518740411531912
 31
0.0
  0
LINE
  5
CFC
  8
LAYER_1
 10
53.476308346283417
 20
6.9518740411531912
 30
0.0
 11
53.56054191802405
 21
7.0361076128938311
 31
0.0
  0
POLYLINE
  5
CFD
  8
LAYER_1
 66
     1
 10
0.0
 20
0.0
 30
0.0
  0
VERTEX
  5
CFE
  8
LAYER_1
 10
53.56054191802405
 20
7.0361076128938311
 30
0.0
  0
VERTEX
  5
CFF
  8
LAYER_1
 10
53.56054191802405
 20
7.1203411846344782
 30
0.0
  0
VERTEX
  5
D00
  8
LAYER_1
 10
53.644775489764669
 20
7.1203411846344782
 30
0.0
  0
VERTEX
  5
D01
  8
LAYER_1
 10
53.644775489764669
 20
7.2042323434818574
 30
0.0
  0
SEQEND
  5
D02
  8
LAYER_1
  0
LINE
  5
D03
  8
LAYER_1
 10
53.644775489764669
 20
7.2042323434818574
 30
0.0
 11
53.7288378550587
 21
7.2884659152224929
 31
0.0
  0
LINE
  5
D04
  8
LAYER_1
 10
53.7288378550587
 20
7.2884659152224929
 30
0.0
 11
53.7288378550587
 21
7.3726994869631373
 31
0.0
  0
LINE
  5
D05
  8
LAYER_1
 10
53.7288378550587
 20
7.3726994869631373
 30
0.0
 11
53.7288378550587
 21
7.4569330587037799
 31
0.0
  0
POLYLINE
  5
D06
  8
LAYER_1
 66
     1
 10
0.0
 20
0.0
 30
0.0
  0
VERTEX
  5
D07
  8
LAYER_1
 10
53.7288378550587
 20
7.4569330587037799
 30
0.0
  0
VERTEX
  5
D08
  8
LAYER_1
 10
53.7288378550587
 20
7.5408242175511626
 30
0.0
  0
VERTEX
  5
D09
  8
LAYER_1
 10
53.813071426799361
 20
7.5408242175511626
 30
0.0
  0
SEQEND
  5
D0A
  8
LAYER_1
  0
LINE
  5
D0B
  8
LAYER_1
 10
53.813071426799361
 20
7.5408242175511626
 30
0.0
 11
53.813071426799361
 21
7.625057789291799
 31
0.0
  0
LINE
  5
D0C
  8
LAYER_1
 10
52.719062232850781
 20
7.1203411846344782
 30
0.0
 11
52.803124598144798
 21
7.1203411846344782
 31
0.0
  0
LINE
  5
D0D
  8
LAYER_1
 10
32.101868310649387
 20
8.7190669832403547
 30
0.0
 11
32.186101882390069
 21
8.6348334114997183
 31
0.0
  0
LINE
  5
D0E
  8
LAYER_1
 10
32.186101882390069
 20
8.6348334114997183
 30
0.0
 11
32.186101882390069
 21
8.5505998397590783
 31
0.0
  0
POLYLINE
  5
D0F
  8
LAYER_1
 66
     1
 10
0.0
 20
0.0
 30
0.0
  0
VERTEX
  5
D10
  8
LAYER_1
 10
32.186101882390069
 20
8.5505998397590783
 30
0.0
  0
VERTEX
  5
D11
  8
LAYER_1
 10
32.270164247684029
 20
8.5505998397590783
 30
0.0
  0
VERTEX
  5
D12
  8
LAYER_1
 10
32.270164247684029
 20
8.4667086809116885
 30
0.0
  0
SEQEND
  5
D13
  8
LAYER_1
  0
LINE
  5
D14
  8
LAYER_1
 10
32.270164247684029
 20
8.4667086809116885
 30
0.0
 11
32.354397819424669
 21
8.3824751091710592
 31
0.0
  0
POLYLINE
  5
D15
  8
LAYER_1
 66
     1
 10
0.0
 20
0.0
 30
0.0
  0
VERTEX
  5
D16
  8
LAYER_1
 10
32.354397819424669
 20
8.3824751091710592
 30
0.0
  0
VERTEX
  5
D17
  8
LAYER_1
 10
32.438460184718721
 20
8.3824751091710592
 30
0.0
  0
VERTEX
  5
D18
  8
LAYER_1
 10
32.438460184718721
 20
8.2982415374304157
 30
0.0
  0
VERTEX
  5
D19
  8
LAYER_1
 10
32.522693756459361
 20
8.2982415374304157
 30
0.0
  0
SEQEND
  5
D1A
  8
LAYER_1
  0
LINE
  5
D1B
  8
LAYER_1
 10
32.522693756459361
 20
8.2982415374304157
 30
0.0
 11
32.606927328199987
 21
8.2982415374304157
 31
0.0
  0
LINE
  5
D1C
  8
LAYER_1
 10
32.606927328199987
 20
8.2982415374304157
 30
0.0
 11
32.690989693493997
 21
8.2982415374304157
 31
0.0
  0
LINE
  5
D1D
  8
LAYER_1
 10
32.690989693493997
 20
8.2982415374304157
 30
0.0
 11
32.775223265234622
 21
8.2982415374304157
 31
0.0
  0
LINE
  5
D1E
  8
LAYER_1
 10
32.01780594535537
 20
8.8033005549810017
 30
0.0
 11
32.01780594535537
 21
8.7190669832403547
 31
0.0
  0
POLYLINE
  5
D1F
  8
LAYER_1
 66
     1
 10
0.0
 20
0.0
 30
0.0
  0
VERTEX
  5
D20
  8
LAYER_1
 10
32.775223265234622
 20
8.8871917138283791
 30
0.0
  0
VERTEX
  5
D21
  8
LAYER_1
 10
32.690989693493997
 20
8.8871917138283791
 30
0.0
  0
VERTEX
  5
D22
  8
LAYER_1
 10
32.606927328199987
 20
8.9714252855690262
 30
0.0
  0
SEQEND
  5
D23
  8
LAYER_1
  0
POLYLINE
  5
D24
  8
LAYER_1
 66
     1
 10
0.0
 20
0.0
 30
0.0
  0
VERTEX
  5
D25
  8
LAYER_1
 10
32.775223265234622
 20
8.7190669832403547
 30
0.0
  0
VERTEX
  5
D26
  8
LAYER_1
 10
32.606927328199987
 20
8.8033005549810017
 30
0.0
  0
VERTEX
  5
D27
  8
LAYER_1
 10
32.522693756459361
 20
8.9714252855690262
 30
0.0
  0
SEQEND
  5
D28
  8
LAYER_1
  0
POLYLINE
  5
D29
  8
LAYER_1
 66
     1
 10
0.0
 20
0.0
 30
0.0
  0
VERTEX
  5
D2A
  8
LAYER_1
 10
32.775223265234622
 20
8.6348334114997183
 30
0.0
  0
VERTEX
  5
D2B
  8
LAYER_1
 10
32.522693756459361
 20
8.7190669832403547
 30
0.0
  0
VERTEX
  5
D2C
  8
LAYER_1
 10
32.438460184718721
 20
8.9714252855690262
 30
0.0
  0
SEQEND
  5
D2D
  8
LAYER_1
  0
LINE
  5
D2E
  8
LAYER_1
 10
52.719062232850781
 20
6.783406897671914
 30
0.0
 11
52.803124598144798
 21
6.783406897671914
 31
0.0
  0
LINE
  5
D2F
  8
LAYER_1
 10
52.803124598144798
 20
6.783406897671914
 30
0.0
 11
52.887358169885438
 21
6.783406897671914
 31
0.0
  0
POLYLINE
  5
D30
  8
LAYER_1
 66
     1
 10
0.0
 20
0.0
 30
0.0
  0
VERTEX
  5
D31
  8
LAYER_1
 10
52.887358169885438
 20
6.783406897671914
 30
0.0
  0
VERTEX
  5
D32
  8
LAYER_1
 10
52.97142053517944
 20
6.783406897671914
 30
0.0
  0
VERTEX
  5
D33
  8
LAYER_1
 10
52.97142053517944
 20
6.8676404694125512
 30
0.0
  0
SEQEND
  5
D34
  8
LAYER_1
  0
LINE
  5
D35
  8
LAYER_1
 10
52.97142053517944
 20
6.8676404694125512
 30
0.0
 11
53.055654106920088
 21
6.8676404694125512
 31
0.0
  0
POLYLINE
  5
D36
  8
LAYER_1
 66
     1
 10
0.0
 20
0.0
 30
0.0
  0
VERTEX
  5
D37
  8
LAYER_1
 10
53.055654106920088
 20
6.8676404694125512
 30
0.0
  0
VERTEX
  5
D38
  8
LAYER_1
 10
53.139716472214118
 20
6.8676404694125512
 30
0.0
  0
VERTEX
  5
D39
  8
LAYER_1
 10
53.139716472214118
 20
6.9518740411531912
 30
0.0
  0
SEQEND
  5
D3A
  8
LAYER_1
  0
LINE
  5
D3B
  8
LAYER_1
 10
53.139716472214118
 20
6.9518740411531912
 30
0.0
 11
53.223950043954723
 21
6.9518740411531912
 31
0.0
  0
POLYLINE
  5
D3C
  8
LAYER_1
 66
     1
 10
0.0
 20
0.0
 30
0.0
  0
VERTEX
  5
D3D
  8
LAYER_1
 10
53.223950043954723
 20
6.9518740411531912
 30
0.0
  0
VERTEX
  5
D3E
  8
LAYER_1
 10
53.223950043954723
 20
7.0361076128938311
 30
0.0
  0
VERTEX
  5
D3F
  8
LAYER_1
 10
53.308012409248732
 20
7.0361076128938311
 30
0.0
  0
SEQEND
  5
D40
  8
LAYER_1
  0
LINE
  5
D41
  8
LAYER_1
 10
53.308012409248732
 20
7.0361076128938311
 30
0.0
 11
53.392245980989443
 21
7.1203411846344782
 31
0.0
  0
POLYLINE
  5
D42
  8
LAYER_1
 66
     1
 10
0.0
 20
0.0
 30
0.0
  0
VERTEX
  5
D43
  8
LAYER_1
 10
53.392245980989443
 20
7.1203411846344782
 30
0.0
  0
VERTEX
  5
D44
  8
LAYER_1
 10
53.392245980989443
 20
7.2042323434818574
 30
0.0
  0
VERTEX
  5
D45
  8
LAYER_1
 10
53.476308346283417
 20
7.2042323434818574
 30
0.0
  0
SEQEND
  5
D46
  8
LAYER_1
  0
LINE
  5
D47
  8
LAYER_1
 10
53.476308346283417
 20
7.2042323434818574
 30
0.0
 11
53.476308346283417
 21
7.2884659152224929
 31
0.0
  0
LINE
  5
D48
  8
LAYER_1
 10
53.476308346283417
 20
7.2884659152224929
 30
0.0
 11
53.56054191802405
 21
7.3726994869631373
 31
0.0
  0
LINE
  5
D49
  8
LAYER_1
 10
32.354397819424669
 20
8.0458832351017495
 30
0.0
 11
32.438460184718721
 21
8.0458832351017495
 31
0.0
  0
POLYLINE
  5
D4A
  8
LAYER_1
 66
     1
 10
0.0
 20
0.0
 30
0.0
  0
VERTEX
  5
D4B
  8
LAYER_1
 10
32.438460184718721
 20
8.0458832351017495
 30
0.0
  0
VERTEX
  5
D4C
  8
LAYER_1
 10
32.438460184718721
 20
7.961649663361106
 30
0.0
  0
VERTEX
  5
D4D
  8
LAYER_1
 10
32.522693756459361
 20
7.961649663361106
 30
0.0
  0
SEQEND
  5
D4E
  8
LAYER_1
  0
LINE
  5
D4F
  8
LAYER_1
 10
32.01780594535537
 20
8.7190669832403547
 30
0.0
 11
32.01780594535537
 21
8.6348334114997183
 31
0.0
  0
POLYLINE
  5
D50
  8
LAYER_1
 66
     1
 10
0.0
 20
0.0
 30
0.0
  0
VERTEX
  5
D51
  8
LAYER_1
 10
32.01780594535537
 20
8.6348334114997183
 30
0.0
  0
VERTEX
  5
D52
  8
LAYER_1
 10
32.101868310649387
 20
8.6348334114997183
 30
0.0
  0
VERTEX
  5
D53
  8
LAYER_1
 10
32.101868310649387
 20
8.5505998397590783
 30
0.0
  0
SEQEND
  5
D54
  8
LAYER_1
  0
LINE
  5
D55
  8
LAYER_1
 10
32.101868310649387
 20
8.5505998397590783
 30
0.0
 11
32.186101882390069
 21
8.4667086809116885
 31
0.0
  0
POLYLINE
  5
D56
  8
LAYER_1
 66
     1
 10
0.0
 20
0.0
 30
0.0
  0
VERTEX
  5
D57
  8
LAYER_1
 10
32.186101882390069
 20
8.4667086809116885
 30
0.0
  0
VERTEX
  5
D58
  8
LAYER_1
 10
32.186101882390069
 20
8.3824751091710592
 30
0.0
  0
VERTEX
  5
D59
  8
LAYER_1
 10
32.270164247684029
 20
8.3824751091710592
 30
0.0
  0
SEQEND
  5
D5A
  8
LAYER_1
  0
POLYLINE
  5
D5B
  8
LAYER_1
 66
     1
 10
0.0
 20
0.0
 30
0.0
  0
VERTEX
  5
D5C
  8
LAYER_1
 10
32.270164247684029
 20
8.3824751091710592
 30
0.0
  0
VERTEX
  5
D5D
  8
LAYER_1
 10
32.270164247684029
 20
8.2982415374304157
 30
0.0
  0
VERTEX
  5
D5E
  8
LAYER_1
 10
32.354397819424669
 20
8.2982415374304157
 30
0.0
  0
SEQEND
  5
D5F
  8
LAYER_1
  0
LINE
  5
D60
  8
LAYER_1
 10
32.354397819424669
 20
8.2982415374304157
 30
0.0
 11
32.438460184718721
 21
8.2982415374304157
 31
0.0
  0
LINE
  5
D61
  8
LAYER_1
 10
32.438460184718721
 20
8.2982415374304157
 30
0.0
 11
32.522693756459361
 21
8.2140079656897722
 31
0.0
  0
LINE
  5
D62
  8
LAYER_1
 10
32.522693756459361
 20
8.2140079656897722
 30
0.0
 11
32.690989693493997
 21
8.2140079656897722
 31
0.0
  0
LINE
  5
D63
  8
LAYER_1
 10
32.690989693493997
 20
8.2140079656897722
 30
0.0
 11
32.775223265234622
 21
8.2140079656897722
 31
0.0
  0
LINE
  5
D64
  8
LAYER_1
 10
32.522693756459361
 20
7.961649663361106
 30
0.0
 11
32.606927328199987
 21
7.961649663361106
 31
0.0
  0
LINE
  5
D65
  8
LAYER_1
 10
32.606927328199987
 20
7.961649663361106
 30
0.0
 11
32.690989693493997
 21
7.961649663361106
 31
0.0
  0
LINE
  5
D66
  8
LAYER_1
 10
32.690989693493997
 20
7.961649663361106
 30
0.0
 11
32.775223265234622
 21
7.961649663361106
 31
0.0
  0
LINE
  5
D67
  8
LAYER_1
 10
32.775223265234622
 20
7.961649663361106
 30
0.0
 11
32.859285630528667
 21
7.961649663361106
 31
0.0
  0
LINE
  5
D68
  8
LAYER_1
 10
32.101868310649387
 20
8.9714252855690262
 30
0.0
 11
32.101868310649387
 21
8.8871917138283791
 31
0.0
  0
LINE
  5
D69
  8
LAYER_1
 10
32.01780594535537
 20
8.9714252855690262
 30
0.0
 11
32.01780594535537
 21
8.8871917138283791
 31
0.0
  0
LINE
  5
D6A
  8
LAYER_1
 10
32.01780594535537
 20
8.8871917138283791
 30
0.0
 11
32.01780594535537
 21
8.8033005549810017
 31
0.0
  0
LINE
  5
D6B
  8
LAYER_1
 10
31.84951000832076
 20
8.9714252855690262
 30
0.0
 11
31.84951000832076
 21
8.8871917138283791
 31
0.0
  0
LINE
  5
D6C
  8
LAYER_1
 10
31.84951000832076
 20
8.8871917138283791
 30
0.0
 11
31.84951000832076
 21
8.8033005549810017
 31
0.0
  0
LINE
  5
D6D
  8
LAYER_1
 10
32.101868310649387
 20
8.8871917138283791
 30
0.0
 11
32.101868310649387
 21
8.8033005549810017
 31
0.0
  0
LINE
  5
D6E
  8
LAYER_1
 10
32.101868310649387
 20
8.8033005549810017
 30
0.0
 11
32.101868310649387
 21
8.7190669832403547
 31
0.0
  0
LINE
  5
D6F
  8
LAYER_1
 10
22.003769675676999
 20
20.584358560299929
 30
0.0
 11
21.919536103936348
 21
20.584358560299929
 31
0.0
  0
LINE
  5
D70
  8
LAYER_1
 10
21.919536103936348
 20
20.584358560299929
 30
0.0
 11
21.835473738642349
 21
20.584358560299929
 31
0.0
  0
LINE
  5
D71
  8
LAYER_1
 10
22.592891058521591
 20
20.07964195564259
 30
0.0
 11
22.592891058521591
 21
20.16353311448999
 31
0.0
  0
LINE
  5
D72
  8
LAYER_1
 10
22.592891058521591
 20
20.16353311448999
 30
0.0
 11
22.508657486780979
 21
20.16353311448999
 31
0.0
  0
POLYLINE
  5
D73
  8
LAYER_1
 66
     1
 10
0.0
 20
0.0
 30
0.0
  0
VERTEX
  5
D74
  8
LAYER_1
 10
21.835473738642349
 20
20.16353311448999
 30
0.0
  0
VERTEX
  5
D75
  8
LAYER_1
 10
21.919536103936348
 20
20.16353311448999
 30
0.0
  0
VERTEX
  5
D76
  8
LAYER_1
 10
21.919536103936348
 20
20.07964195564259
 30
0.0
  0
SEQEND
  5
D77
  8
LAYER_1
  0
POLYLINE
  5
D78
  8
LAYER_1
 66
     1
 10
0.0
 20
0.0
 30
0.0
  0
VERTEX
  5
D79
  8
LAYER_1
 10
21.835473738642349
 20
20.247766686230619
 30
0.0
  0
VERTEX
  5
D7A
  8
LAYER_1
 10
22.003769675676999
 20
20.16353311448999
 30
0.0
  0
VERTEX
  5
D7B
  8
LAYER_1
 10
22.08800324741765
 20
20.07964195564259
 30
0.0
  0
SEQEND
  5
D7C
  8
LAYER_1
  0
POLYLINE
  5
D7D
  8
LAYER_1
 66
     1
 10
0.0
 20
0.0
 30
0.0
  0
VERTEX
  5
D7E
  8
LAYER_1
 10
21.835473738642349
 20
20.416233829711899
 30
0.0
  0
VERTEX
  5
D7F
  8
LAYER_1
 10
22.08800324741765
 20
20.247766686230619
 30
0.0
  0
VERTEX
  5
D80
  8
LAYER_1
 10
22.17206561271168
 20
20.07964195564259
 30
0.0
  0
SEQEND
  5
D81
  8
LAYER_1
  0
LINE
  5
D82
  8
LAYER_1
 10
4.3489702514140163
 20
20.416233829711889
 30
0.0
 11
21.835473738642349
 21
20.416233829711899
 31
0.0
  0
LINE
  5
D83
  8
LAYER_1
 10
4.6289618252908014
 20
20.247766686230619
 30
0.0
 11
21.835473738642349
 21
20.247766686230619
 31
0.0
  0
LINE
  5
D84
  8
LAYER_1
 10
4.768957612229193
 20
20.16353311448999
 30
0.0
 11
21.835473738642349
 21
20.16353311448999
 31
0.0
  0
LINE
  5
D85
  8
LAYER_1
 10
31.84951000832076
 20
10.149668051258219
 30
0.0
 11
31.84951000832076
 21
8.9714252855690262
 31
0.0
  0
LINE
  5
D86
  8
LAYER_1
 10
32.01780594535537
 20
10.149668051258219
 30
0.0
 11
32.01780594535537
 21
8.9714252855690262
 31
0.0
  0
LINE
  5
D87
  8
LAYER_1
 10
51.372523530126927
 20
8.7190669832403547
 30
0.0
 11
32.775223265234622
 21
8.7190669832403547
 31
0.0
  0
LINE
  5
D88
  8
LAYER_1
 10
32.775223265234622
 20
8.6348334114997183
 30
0.0
 11
51.372523530126927
 21
8.6348334114997183
 31
0.0
  0
LINE
  5
D89
  8
LAYER_1
 10
32.775223265234622
 20
8.8871917138283791
 30
0.0
 11
51.372523530126927
 21
8.8871917138283791
 31
0.0
  0
LINE
  5
D8A
  8
LAYER_1
 10
32.775223265234622
 20
8.2982415374304157
 30
0.0
 11
51.372523530126927
 21
8.2982415374304157
 31
0.0
  0
LINE
  5
D8B
  8
LAYER_1
 10
32.775223265234622
 20
8.2140079656897722
 30
0.0
 11
51.372523530126927
 21
8.2140079656897722
 31
0.0
  0
LINE
  5
D8C
  8
LAYER_1
 10
32.522693756459361
 20
8.0458832351017495
 30
0.0
 11
32.606927328199987
 21
8.0458832351017495
 31
0.0
  0
LINE
  5
D8D
  8
LAYER_1
 10
32.606927328199987
 20
8.0458832351017495
 30
0.0
 11
32.690989693493997
 21
7.961649663361106
 31
0.0
  0
LINE
  5
D8E
  8
LAYER_1
 10
32.690989693493997
 20
7.961649663361106
 30
0.0
 11
32.775223265234622
 21
7.961649663361106
 31
0.0
  0
LINE
  5
D8F
  8
LAYER_1
 10
32.775223265234622
 20
7.961649663361106
 30
0.0
 11
32.859285630528667
 21
7.961649663361106
 31
0.0
  0
LINE
  5
D90
  8
LAYER_1
 10
31.84951000832076
 20
8.8033005549810017
 30
0.0
 11
31.84951000832076
 21
8.7190669832403547
 31
0.0
  0
LINE
  5
D91
  8
LAYER_1
 10
31.84951000832076
 20
8.7190669832403547
 30
0.0
 11
31.84951000832076
 21
8.6348334114997183
 31
0.0
  0
POLYLINE
  5
D92
  8
LAYER_1
 66
     1
 10
0.0
 20
0.0
 30
0.0
  0
VERTEX
  5
D93
  8
LAYER_1
 10
32.01780594535537
 20
8.7190669832403547
 30
0.0
  0
VERTEX
  5
D94
  8
LAYER_1
 10
32.01780594535537
 20
8.5505998397590783
 30
0.0
  0
VERTEX
  5
D95
  8
LAYER_1
 10
32.101868310649387
 20
8.5505998397590783
 30
0.0
  0
VERTEX
  5
D96
  8
LAYER_1
 10
32.101868310649387
 20
8.3824751091710592
 30
0.0
  0
VERTEX
  5
D97
  8
LAYER_1
 10
32.186101882390069
 20
8.3824751091710592
 30
0.0
  0
VERTEX
  5
D98
  8
LAYER_1
 10
32.186101882390069
 20
8.2982415374304157
 30
0.0
  0
SEQEND
  5
D99
  8
LAYER_1
  0
LINE
  5
D9A
  8
LAYER_1
 10
32.186101882390069
 20
8.2982415374304157
 30
0.0
 11
32.270164247684029
 21
8.2140079656897722
 31
0.0
  0
LINE
  5
D9B
  8
LAYER_1
 10
32.270164247684029
 20
8.2140079656897722
 30
0.0
 11
32.354397819424669
 21
8.1301168068423966
 31
0.0
  0
LINE
  5
D9C
  8
LAYER_1
 10
32.354397819424669
 20
8.1301168068423966
 30
0.0
 11
32.438460184718721
 21
8.1301168068423966
 31
0.0
  0
POLYLINE
  5
D9D
  8
LAYER_1
 66
     1
 10
0.0
 20
0.0
 30
0.0
  0
VERTEX
  5
D9E
  8
LAYER_1
 10
32.438460184718721
 20
8.1301168068423966
 30
0.0
  0
VERTEX
  5
D9F
  8
LAYER_1
 10
32.438460184718721
 20
8.0458832351017495
 30
0.0
  0
VERTEX
  5
DA0
  8
LAYER_1
 10
32.522693756459361
 20
8.0458832351017495
 30
0.0
  0
SEQEND
  5
DA1
  8
LAYER_1
  0
LINE
  5
DA2
  8
LAYER_1
 10
31.84951000832076
 20
8.6348334114997183
 30
0.0
 11
31.93357237361473
 21
8.5505998397590783
 31
0.0
  0
POLYLINE
  5
DA3
  8
LAYER_1
 66
     1
 10
0.0
 20
0.0
 30
0.0
  0
VERTEX
  5
DA4
  8
LAYER_1
 10
31.93357237361473
 20
8.5505998397590783
 30
0.0
  0
VERTEX
  5
DA5
  8
LAYER_1
 10
31.93357237361473
 20
8.4667086809116885
 30
0.0
  0
VERTEX
  5
DA6
  8
LAYER_1
 10
32.01780594535537
 20
8.3824751091710592
 30
0.0
  0
SEQEND
  5
DA7
  8
LAYER_1
  0
LINE
  5
DA8
  8
LAYER_1
 10
32.01780594535537
 20
8.3824751091710592
 30
0.0
 11
32.101868310649387
 21
8.2982415374304157
 31
0.0
  0
POLYLINE
  5
DA9
  8
LAYER_1
 66
     1
 10
0.0
 20
0.0
 30
0.0
  0
VERTEX
  5
DAA
  8
LAYER_1
 10
32.101868310649387
 20
8.2982415374304157
 30
0.0
  0
VERTEX
  5
DAB
  8
LAYER_1
 10
32.101868310649387
 20
8.2140079656897722
 30
0.0
  0
VERTEX
  5
DAC
  8
LAYER_1
 10
32.186101882390069
 20
8.2140079656897722
 30
0.0
  0
VERTEX
  5
DAD
  8
LAYER_1
 10
32.186101882390069
 20
8.1301168068423966
 30
0.0
  0
VERTEX
  5
DAE
  8
LAYER_1
 10
32.270164247684029
 20
8.1301168068423966
 30
0.0
  0
SEQEND
  5
DAF
  8
LAYER_1
  0
LINE
  5
DB0
  8
LAYER_1
 10
32.270164247684029
 20
8.1301168068423966
 30
0.0
 11
32.354397819424669
 21
8.0458832351017495
 31
0.0
  0
POLYLINE
  5
DB1
  8
LAYER_1
 66
     1
 10
0.0
 20
0.0
 30
0.0
  0
VERTEX
  5
DB2
  8
LAYER_1
 10
22.42459512148697
 20
20.416233829711899
 30
0.0
  0
VERTEX
  5
DB3
  8
LAYER_1
 10
22.340361549746309
 20
20.416233829711899
 30
0.0
  0
VERTEX
  5
DB4
  8
LAYER_1
 10
22.340361549746309
 20
20.500124988559289
 30
0.0
  0
SEQEND
  5
DB5
  8
LAYER_1
  0
POLYLINE
  5
DB6
  8
LAYER_1
 66
     1
 10
0.0
 20
0.0
 30
0.0
  0
VERTEX
  5
DB7
  8
LAYER_1
 10
22.340361549746309
 20
20.500124988559289
 30
0.0
  0
VERTEX
  5
DB8
  8
LAYER_1
 10
22.256299184452299
 20
20.500124988559289
 30
0.0
  0
VERTEX
  5
DB9
  8
LAYER_1
 10
22.256299184452299
 20
20.584358560299929
 30
0.0
  0
SEQEND
  5
DBA
  8
LAYER_1
  0
LINE
  5
DBB
  8
LAYER_1
 10
22.256299184452299
 20
20.584358560299929
 30
0.0
 11
22.17206561271168
 21
20.584358560299929
 31
0.0
  0
LINE
  5
DBC
  8
LAYER_1
 10
22.17206561271168
 20
20.584358560299929
 30
0.0
 11
22.08800324741765
 21
20.668592132040569
 31
0.0
  0
LINE
  5
DBD
  8
LAYER_1
 10
22.08800324741765
 20
20.668592132040569
 30
0.0
 11
22.003769675676999
 21
20.668592132040569
 31
0.0
  0
LINE
  5
DBE
  8
LAYER_1
 10
22.003769675676999
 20
20.668592132040569
 30
0.0
 11
21.835473738642349
 21
20.668592132040569
 31
0.0
  0
LINE
  5
DBF
  8
LAYER_1
 10
22.08800324741765
 20
20.920950434369239
 30
0.0
 11
22.003769675676999
 21
20.920950434369239
 31
0.0
  0
LINE
  5
DC0
  8
LAYER_1
 10
22.003769675676999
 20
20.920950434369239
 30
0.0
 11
21.919536103936348
 21
20.920950434369239
 31
0.0
  0
LINE
  5
DC1
  8
LAYER_1
 10
21.919536103936348
 20
20.920950434369239
 30
0.0
 11
21.835473738642349
 21
20.920950434369239
 31
0.0
  0
LINE
  5
DC2
  8
LAYER_1
 10
21.835473738642349
 20
20.920950434369239
 30
0.0
 11
21.75124016690172
 21
20.920950434369239
 31
0.0
  0
LINE
  5
DC3
  8
LAYER_1
 10
22.508657486780979
 20
19.91117481216131
 30
0.0
 11
22.508657486780979
 21
19.99540838390196
 31
0.0
  0
LINE
  5
DC4
  8
LAYER_1
 10
22.508657486780979
 20
19.99540838390196
 30
0.0
 11
22.508657486780979
 21
20.07964195564259
 31
0.0
  0
LINE
  5
DC5
  8
LAYER_1
 10
22.592891058521591
 20
19.91117481216131
 30
0.0
 11
22.592891058521591
 21
19.99540838390196
 31
0.0
  0
LINE
  5
DC6
  8
LAYER_1
 10
22.592891058521591
 20
19.99540838390196
 30
0.0
 11
22.592891058521591
 21
20.07964195564259
 31
0.0
  0
LINE
  5
DC7
  8
LAYER_1
 10
22.76118699555624
 20
19.91117481216131
 30
0.0
 11
22.76118699555624
 21
19.99540838390196
 31
0.0
  0
POLYLINE
  5
DC8
  8
LAYER_1
 66
     1
 10
0.0
 20
0.0
 30
0.0
  0
VERTEX
  5
DC9
  8
LAYER_1
 10
22.76118699555624
 20
19.99540838390196
 30
0.0
  0
VERTEX
  5
DCA
  8
LAYER_1
 10
22.76118699555624
 20
20.07964195564259
 30
0.0
  0
VERTEX
  5
DCB
  8
LAYER_1
 10
22.676953423815618
 20
20.07964195564259
 30
0.0
  0
SEQEND
  5
DCC
  8
LAYER_1
  0
POLYLINE
  5
DCD
  8
LAYER_1
 66
     1
 10
0.0
 20
0.0
 30
0.0
  0
VERTEX
  5
DCE
  8
LAYER_1
 10
22.508657486780979
 20
20.07964195564259
 30
0.0
  0
VERTEX
  5
DCF
  8
LAYER_1
 10
22.42459512148697
 20
20.07964195564259
 30
0.0
  0
VERTEX
  5
DD0
  8
LAYER_1
 10
22.42459512148697
 20
20.16353311448999
 30
0.0
  0
SEQEND
  5
DD1
  8
LAYER_1
  0
LINE
  5
DD2
  8
LAYER_1
 10
22.42459512148697
 20
20.16353311448999
 30
0.0
 11
22.42459512148697
 21
20.247766686230619
 31
0.0
  0
POLYLINE
  5
DD3
  8
LAYER_1
 66
     1
 10
0.0
 20
0.0
 30
0.0
  0
VERTEX
  5
DD4
  8
LAYER_1
 10
22.42459512148697
 20
20.247766686230619
 30
0.0
  0
VERTEX
  5
DD5
  8
LAYER_1
 10
22.42459512148697
 20
20.332000257971259
 30
0.0
  0
VERTEX
  5
DD6
  8
LAYER_1
 10
22.340361549746309
 20
20.332000257971259
 30
0.0
  0
SEQEND
  5
DD7
  8
LAYER_1
  0
LINE
  5
DD8
  8
LAYER_1
 10
22.340361549746309
 20
20.332000257971259
 30
0.0
 11
22.340361549746309
 21
20.416233829711899
 31
0.0
  0
LINE
  5
DD9
  8
LAYER_1
 10
22.340361549746309
 20
20.416233829711899
 30
0.0
 11
22.256299184452299
 21
20.416233829711899
 31
0.0
  0
LINE
  5
DDA
  8
LAYER_1
 10
22.256299184452299
 20
20.416233829711899
 30
0.0
 11
22.256299184452299
 21
20.500124988559289
 31
0.0
  0
LINE
  5
DDB
  8
LAYER_1
 10
22.256299184452299
 20
20.500124988559289
 30
0.0
 11
22.17206561271168
 21
20.500124988559289
 31
0.0
  0
LINE
  5
DDC
  8
LAYER_1
 10
22.17206561271168
 20
20.500124988559289
 30
0.0
 11
22.08800324741765
 21
20.584358560299929
 31
0.0
  0
LINE
  5
DDD
  8
LAYER_1
 10
22.08800324741765
 20
20.584358560299929
 30
0.0
 11
22.003769675676999
 21
20.584358560299929
 31
0.0
  0
LINE
  5
DDE
  8
LAYER_1
 10
21.919536103936348
 20
20.07964195564259
 30
0.0
 11
21.919536103936348
 21
16.376788927986979
 31
0.0
  0
POLYLINE
  5
DDF
  8
LAYER_1
 66
     1
 10
0.0
 20
0.0
 30
0.0
  0
VERTEX
  5
DE0
  8
LAYER_1
 10
22.003769675676999
 20
20.836716862628581
 30
0.0
  0
VERTEX
  5
DE1
  8
LAYER_1
 10
21.919536103936348
 20
20.836716862628581
 30
0.0
  0
VERTEX
  5
DE2
  8
LAYER_1
 10
21.919536103936348
 20
20.920950434369239
 30
0.0
  0
VERTEX
  5
DE3
  8
LAYER_1
 10
21.835473738642349
 20
20.920950434369239
 30
0.0
  0
SEQEND
  5
DE4
  8
LAYER_1
  0
LINE
  5
DE5
  8
LAYER_1
 10
21.835473738642349
 20
20.920950434369239
 30
0.0
 11
21.75124016690172
 21
20.920950434369239
 31
0.0
  0
LINE
  5
DE6
  8
LAYER_1
 10
22.676953423815618
 20
20.07964195564259
 30
0.0
 11
22.676953423815618
 21
20.16353311448999
 31
0.0
  0
LINE
  5
DE7
  8
LAYER_1
 10
22.676953423815618
 20
20.16353311448999
 30
0.0
 11
22.676953423815618
 21
20.247766686230619
 31
0.0
  0
LINE
  5
DE8
  8
LAYER_1
 10
22.508657486780979
 20
20.16353311448999
 30
0.0
 11
22.508657486780979
 21
20.332000257971259
 31
0.0
  0
POLYLINE
  5
DE9
  8
LAYER_1
 66
     1
 10
0.0
 20
0.0
 30
0.0
  0
VERTEX
  5
DEA
  8
LAYER_1
 10
22.508657486780979
 20
20.332000257971259
 30
0.0
  0
VERTEX
  5
DEB
  8
LAYER_1
 10
22.508657486780979
 20
20.416233829711899
 30
0.0
  0
VERTEX
  5
DEC
  8
LAYER_1
 10
22.42459512148697
 20
20.500124988559289
 30
0.0
  0
SEQEND
  5
DED
  8
LAYER_1
  0
POLYLINE
  5
DEE
  8
LAYER_1
 66
     1
 10
0.0
 20
0.0
 30
0.0
  0
VERTEX
  5
DEF
  8
LAYER_1
 10
22.42459512148697
 20
20.500124988559289
 30
0.0
  0
VERTEX
  5
DF0
  8
LAYER_1
 10
22.42459512148697
 20
20.584358560299929
 30
0.0
  0
VERTEX
  5
DF1
  8
LAYER_1
 10
22.340361549746309
 20
20.584358560299929
 30
0.0
  0
VERTEX
  5
DF2
  8
LAYER_1
 10
22.340361549746309
 20
20.668592132040569
 30
0.0
  0
SEQEND
  5
DF3
  8
LAYER_1
  0
POLYLINE
  5
DF4
  8
LAYER_1
 66
     1
 10
0.0
 20
0.0
 30
0.0
  0
VERTEX
  5
DF5
  8
LAYER_1
 10
22.340361549746309
 20
20.668592132040569
 30
0.0
  0
VERTEX
  5
DF6
  8
LAYER_1
 10
22.256299184452299
 20
20.668592132040569
 30
0.0
  0
VERTEX
  5
DF7
  8
LAYER_1
 10
22.256299184452299
 20
20.752825703781209
 30
0.0
  0
VERTEX
  5
DF8
  8
LAYER_1
 10
22.17206561271168
 20
20.752825703781209
 30
0.0
  0
SEQEND
  5
DF9
  8
LAYER_1
  0
LINE
  5
DFA
  8
LAYER_1
 10
22.17206561271168
 20
20.752825703781209
 30
0.0
 11
22.08800324741765
 21
20.836716862628581
 31
0.0
  0
LINE
  5
DFB
  8
LAYER_1
 10
22.08800324741765
 20
20.836716862628581
 30
0.0
 11
22.003769675676999
 21
20.836716862628581
 31
0.0
  0
POLYLINE
  5
DFC
  8
LAYER_1
 66
     1
 10
0.0
 20
0.0
 30
0.0
  0
VERTEX
  5
DFD
  8
LAYER_1
 10
22.676953423815618
 20
20.247766686230619
 30
0.0
  0
VERTEX
  5
DFE
  8
LAYER_1
 10
22.676953423815618
 20
20.332000257971259
 30
0.0
  0
VERTEX
  5
DFF
  8
LAYER_1
 10
22.592891058521591
 20
20.332000257971259
 30
0.0
  0
VERTEX
  5
E00
  8
LAYER_1
 10
22.592891058521591
 20
20.500124988559289
 30
0.0
  0
VERTEX
  5
E01
  8
LAYER_1
 10
22.508657486780979
 20
20.500124988559289
 30
0.0
  0
VERTEX
  5
E02
  8
LAYER_1
 10
22.508657486780979
 20
20.584358560299929
 30
0.0
  0
SEQEND
  5
E03
  8
LAYER_1
  0
LINE
  5
E04
  8
LAYER_1
 10
22.508657486780979
 20
20.584358560299929
 30
0.0
 11
22.42459512148697
 21
20.668592132040569
 31
0.0
  0
LINE
  5
E05
  8
LAYER_1
 10
22.42459512148697
 20
20.668592132040569
 30
0.0
 11
22.340361549746309
 21
20.752825703781209
 31
0.0
  0
POLYLINE
  5
E06
  8
LAYER_1
 66
     1
 10
0.0
 20
0.0
 30
0.0
  0
VERTEX
  5
E07
  8
LAYER_1
 10
22.340361549746309
 20
20.752825703781209
 30
0.0
  0
VERTEX
  5
E08
  8
LAYER_1
 10
22.256299184452299
 20
20.752825703781209
 30
0.0
  0
VERTEX
  5
E09
  8
LAYER_1
 10
22.256299184452299
 20
20.836716862628581
 30
0.0
  0
VERTEX
  5
E0A
  8
LAYER_1
 10
22.17206561271168
 20
20.836716862628581
 30
0.0
  0
SEQEND
  5
E0B
  8
LAYER_1
  0
LINE
  5
E0C
  8
LAYER_1
 10
22.17206561271168
 20
20.836716862628581
 30
0.0
 11
22.08800324741765
 21
20.920950434369239
 31
0.0
  0
LINE
  5
E0D
  8
LAYER_1
 10
22.508657486780979
 20
20.16353311448999
 30
0.0
 11
22.508657486780979
 21
20.247766686230619
 31
0.0
  0
LINE
  5
E0E
  8
LAYER_1
 10
22.508657486780979
 20
20.247766686230619
 30
0.0
 11
22.508657486780979
 21
20.332000257971259
 31
0.0
  0
POLYLINE
  5
E0F
  8
LAYER_1
 66
     1
 10
0.0
 20
0.0
 30
0.0
  0
VERTEX
  5
E10
  8
LAYER_1
 10
22.508657486780979
 20
20.332000257971259
 30
0.0
  0
VERTEX
  5
E11
  8
LAYER_1
 10
22.42459512148697
 20
20.332000257971259
 30
0.0
  0
VERTEX
  5
E12
  8
LAYER_1
 10
22.42459512148697
 20
20.416233829711899
 30
0.0
  0
SEQEND
  5
E13
  8
LAYER_1
  0
LINE
  5
E14
  8
LAYER_1
 10
32.775223265234622
 20
20.920950434369239
 30
0.0
 11
32.859285630528667
 21
20.920950434369239
 31
0.0
  0
LINE
  5
E15
  8
LAYER_1
 10
32.101868310649387
 20
19.91117481216131
 30
0.0
 11
32.101868310649387
 21
19.99540838390196
 31
0.0
  0
LINE
  5
E16
  8
LAYER_1
 10
32.101868310649387
 20
19.99540838390196
 30
0.0
 11
32.101868310649387
 21
20.07964195564259
 31
0.0
  0
LINE
  5
E17
  8
LAYER_1
 10
32.01780594535537
 20
19.91117481216131
 30
0.0
 11
32.01780594535537
 21
19.99540838390196
 31
0.0
  0
LINE
  5
E18
  8
LAYER_1
 10
32.01780594535537
 20
19.99540838390196
 30
0.0
 11
32.01780594535537
 21
20.07964195564259
 31
0.0
  0
LINE
  5
E19
  8
LAYER_1
 10
31.84951000832076
 20
19.91117481216131
 30
0.0
 11
31.84951000832076
 21
19.99540838390196
 31
0.0
  0
LINE
  5
E1A
  8
LAYER_1
 10
31.84951000832076
 20
19.99540838390196
 30
0.0
 11
31.84951000832076
 21
20.07964195564259
 31
0.0
  0
LINE
  5
E1B
  8
LAYER_1
 10
32.101868310649387
 20
20.07964195564259
 30
0.0
 11
32.101868310649387
 21
20.16353311448999
 31
0.0
  0
POLYLINE
  5
E1C
  8
LAYER_1
 66
     1
 10
0.0
 20
0.0
 30
0.0
  0
VERTEX
  5
E1D
  8
LAYER_1
 10
32.101868310649387
 20
20.16353311448999
 30
0.0
  0
VERTEX
  5
E1E
  8
LAYER_1
 10
32.101868310649387
 20
20.247766686230619
 30
0.0
  0
VERTEX
  5
E1F
  8
LAYER_1
 10
32.186101882390069
 20
20.247766686230619
 30
0.0
  0
SEQEND
  5
E20
  8
LAYER_1
  0
LINE
  5
E21
  8
LAYER_1
 10
32.186101882390069
 20
20.247766686230619
 30
0.0
 11
32.186101882390069
 21
20.332000257971259
 31
0.0
  0
LINE
  5
E22
  8
LAYER_1
 10
32.186101882390069
 20
20.332000257971259
 30
0.0
 11
32.270164247684029
 21
20.416233829711899
 31
0.0
  0
LINE
  5
E23
  8
LAYER_1
 10
32.270164247684029
 20
20.416233829711899
 30
0.0
 11
32.354397819424669
 21
20.500124988559289
 31
0.0
  0
POLYLINE
  5
E24
  8
LAYER_1
 66
     1
 10
0.0
 20
0.0
 30
0.0
  0
VERTEX
  5
E25
  8
LAYER_1
 10
32.354397819424669
 20
20.500124988559289
 30
0.0
  0
VERTEX
  5
E26
  8
LAYER_1
 10
32.438460184718721
 20
20.500124988559289
 30
0.0
  0
VERTEX
  5
E27
  8
LAYER_1
 10
32.438460184718721
 20
20.584358560299929
 30
0.0
  0
VERTEX
  5
E28
  8
LAYER_1
 10
32.522693756459361
 20
20.584358560299929
 30
0.0
  0
SEQEND
  5
E29
  8
LAYER_1
  0
LINE
  5
E2A
  8
LAYER_1
 10
32.522693756459361
 20
20.584358560299929
 30
0.0
 11
32.606927328199987
 21
20.584358560299929
 31
0.0
  0
LINE
  5
E2B
  8
LAYER_1
 10
32.606927328199987
 20
20.584358560299929
 30
0.0
 11
32.690989693493997
 21
20.584358560299929
 31
0.0
  0
LINE
  5
E2C
  8
LAYER_1
 10
32.690989693493997
 20
20.584358560299929
 30
0.0
 11
32.775223265234622
 21
20.584358560299929
 31
0.0
  0
LINE
  5
E2D
  8
LAYER_1
 10
32.01780594535537
 20
20.07964195564259
 30
0.0
 11
32.01780594535537
 21
20.16353311448999
 31
0.0
  0
POLYLINE
  5
E2E
  8
LAYER_1
 66
     1
 10
0.0
 20
0.0
 30
0.0
  0
VERTEX
  5
E2F
  8
LAYER_1
 10
32.775223265234622
 20
20.16353311448999
 30
0.0
  0
VERTEX
  5
E30
  8
LAYER_1
 10
32.690989693493997
 20
20.16353311448999
 30
0.0
  0
VERTEX
  5
E31
  8
LAYER_1
 10
32.606927328199987
 20
20.07964195564259
 30
0.0
  0
SEQEND
  5
E32
  8
LAYER_1
  0
POLYLINE
  5
E33
  8
LAYER_1
 66
     1
 10
0.0
 20
0.0
 30
0.0
  0
VERTEX
  5
E34
  8
LAYER_1
 10
32.775223265234622
 20
20.247766686230619
 30
0.0
  0
VERTEX
  5
E35
  8
LAYER_1
 10
32.606927328199987
 20
20.16353311448999
 30
0.0
  0
VERTEX
  5
E36
  8
LAYER_1
 10
32.522693756459361
 20
20.07964195564259
 30
0.0
  0
SEQEND
  5
E37
  8
LAYER_1
  0
POLYLINE
  5
E38
  8
LAYER_1
 66
     1
 10
0.0
 20
0.0
 30
0.0
  0
VERTEX
  5
E39
  8
LAYER_1
 10
32.775223265234622
 20
20.416233829711899
 30
0.0
  0
VERTEX
  5
E3A
  8
LAYER_1
 10
32.522693756459361
 20
20.247766686230619
 30
0.0
  0
VERTEX
  5
E3B
  8
LAYER_1
 10
32.438460184718721
 20
20.07964195564259
 30
0.0
  0
SEQEND
  5
E3C
  8
LAYER_1
  0
LINE
  5
E3D
  8
LAYER_1
 10
22.76118699555624
 20
16.12443062565832
 30
0.0
 11
22.76118699555624
 21
19.91117481216131
 31
0.0
  0
LINE
  5
E3E
  8
LAYER_1
 10
22.592891058521591
 20
16.20866419739896
 30
0.0
 11
22.592891058521591
 21
19.91117481216131
 31
0.0
  0
LINE
  5
E3F
  8
LAYER_1
 10
22.508657486780979
 20
16.20866419739896
 30
0.0
 11
22.508657486780979
 21
19.91117481216131
 31
0.0
  0
LINE
  5
E40
  8
LAYER_1
 10
22.17206561271168
 20
16.376788927986979
 30
0.0
 11
22.17206561271168
 21
20.07964195564259
 31
0.0
  0
LINE
  5
E41
  8
LAYER_1
 10
22.08800324741765
 20
16.376788927986979
 30
0.0
 11
22.08800324741765
 21
20.07964195564259
 31
0.0
  0
LINE
  5
E42
  8
LAYER_1
 10
32.775223265234622
 20
20.920950434369239
 30
0.0
 11
32.859285630528667
 21
20.920950434369239
 31
0.0
  0
LINE
  5
E43
  8
LAYER_1
 10
31.84951000832076
 20
20.07964195564259
 30
0.0
 11
31.84951000832076
 21
20.16353311448999
 31
0.0
  0
LINE
  5
E44
  8
LAYER_1
 10
31.84951000832076
 20
20.16353311448999
 30
0.0
 11
31.84951000832076
 21
20.247766686230619
 31
0.0
  0
POLYLINE
  5
E45
  8
LAYER_1
 66
     1
 10
0.0
 20
0.0
 30
0.0
  0
VERTEX
  5
E46
  8
LAYER_1
 10
32.01780594535537
 20
20.16353311448999
 30
0.0
  0
VERTEX
  5
E47
  8
LAYER_1
 10
32.01780594535537
 20
20.332000257971259
 30
0.0
  0
VERTEX
  5
E48
  8
LAYER_1
 10
32.101868310649387
 20
20.332000257971259
 30
0.0
  0
VERTEX
  5
E49
  8
LAYER_1
 10
32.101868310649387
 20
20.500124988559289
 30
0.0
  0
VERTEX
  5
E4A
  8
LAYER_1
 10
32.186101882390069
 20
20.500124988559289
 30
0.0
  0
VERTEX
  5
E4B
  8
LAYER_1
 10
32.186101882390069
 20
20.584358560299929
 30
0.0
  0
SEQEND
  5
E4C
  8
LAYER_1
  0
LINE
  5
E4D
  8
LAYER_1
 10
32.186101882390069
 20
20.584358560299929
 30
0.0
 11
32.270164247684029
 21
20.668592132040569
 31
0.0
  0
LINE
  5
E4E
  8
LAYER_1
 10
32.270164247684029
 20
20.668592132040569
 30
0.0
 11
32.354397819424669
 21
20.752825703781209
 31
0.0
  0
LINE
  5
E4F
  8
LAYER_1
 10
32.354397819424669
 20
20.752825703781209
 30
0.0
 11
32.438460184718721
 21
20.752825703781209
 31
0.0
  0
POLYLINE
  5
E50
  8
LAYER_1
 66
     1
 10
0.0
 20
0.0
 30
0.0
  0
VERTEX
  5
E51
  8
LAYER_1
 10
32.438460184718721
 20
20.752825703781209
 30
0.0
  0
VERTEX
  5
E52
  8
LAYER_1
 10
32.438460184718721
 20
20.836716862628581
 30
0.0
  0
VERTEX
  5
E53
  8
LAYER_1
 10
32.522693756459361
 20
20.836716862628581
 30
0.0
  0
SEQEND
  5
E54
  8
LAYER_1
  0
LINE
  5
E55
  8
LAYER_1
 10
31.84951000832076
 20
20.247766686230619
 30
0.0
 11
31.93357237361473
 21
20.332000257971259
 31
0.0
  0
POLYLINE
  5
E56
  8
LAYER_1
 66
     1
 10
0.0
 20
0.0
 30
0.0
  0
VERTEX
  5
E57
  8
LAYER_1
 10
31.93357237361473
 20
20.332000257971259
 30
0.0
  0
VERTEX
  5
E58
  8
LAYER_1
 10
31.93357237361473
 20
20.416233829711899
 30
0.0
  0
VERTEX
  5
E59
  8
LAYER_1
 10
32.01780594535537
 20
20.500124988559289
 30
0.0
  0
SEQEND
  5
E5A
  8
LAYER_1
  0
LINE
  5
E5B
  8
LAYER_1
 10
32.01780594535537
 20
20.500124988559289
 30
0.0
 11
32.101868310649387
 21
20.584358560299929
 31
0.0
  0
POLYLINE
  5
E5C
  8
LAYER_1
 66
     1
 10
0.0
 20
0.0
 30
0.0
  0
VERTEX
  5
E5D
  8
LAYER_1
 10
32.101868310649387
 20
20.584358560299929
 30
0.0
  0
VERTEX
  5
E5E
  8
LAYER_1
 10
32.101868310649387
 20
20.668592132040569
 30
0.0
  0
VERTEX
  5
E5F
  8
LAYER_1
 10
32.186101882390069
 20
20.668592132040569
 30
0.0
  0
VERTEX
  5
E60
  8
LAYER_1
 10
32.186101882390069
 20
20.752825703781209
 30
0.0
  0
VERTEX
  5
E61
  8
LAYER_1
 10
32.270164247684029
 20
20.752825703781209
 30
0.0
  0
SEQEND
  5
E62
  8
LAYER_1
  0
LINE
  5
E63
  8
LAYER_1
 10
32.270164247684029
 20
20.752825703781209
 30
0.0
 11
32.354397819424669
 21
20.836716862628581
 31
0.0
  0
LINE
  5
E64
  8
LAYER_1
 10
32.354397819424669
 20
20.836716862628581
 30
0.0
 11
32.438460184718721
 21
20.836716862628581
 31
0.0
  0
POLYLINE
  5
E65
  8
LAYER_1
 66
     1
 10
0.0
 20
0.0
 30
0.0
  0
VERTEX
  5
E66
  8
LAYER_1
 10
32.438460184718721
 20
20.836716862628581
 30
0.0
  0
VERTEX
  5
E67
  8
LAYER_1
 10
32.438460184718721
 20
20.920950434369239
 30
0.0
  0
VERTEX
  5
E68
  8
LAYER_1
 10
32.522693756459361
 20
20.920950434369239
 30
0.0
  0
SEQEND
  5
E69
  8
LAYER_1
  0
LINE
  5
E6A
  8
LAYER_1
 10
32.01780594535537
 20
20.16353311448999
 30
0.0
 11
32.01780594535537
 21
20.247766686230619
 31
0.0
  0
POLYLINE
  5
E6B
  8
LAYER_1
 66
     1
 10
0.0
 20
0.0
 30
0.0
  0
VERTEX
  5
E6C
  8
LAYER_1
 10
32.01780594535537
 20
20.247766686230619
 30
0.0
  0
VERTEX
  5
E6D
  8
LAYER_1
 10
32.101868310649387
 20
20.247766686230619
 30
0.0
  0
VERTEX
  5
E6E
  8
LAYER_1
 10
32.101868310649387
 20
20.332000257971259
 30
0.0
  0
SEQEND
  5
E6F
  8
LAYER_1
  0
POLYLINE
  5
E70
  8
LAYER_1
 66
     1
 10
0.0
 20
0.0
 30
0.0
  0
VERTEX
  5
E71
  8
LAYER_1
 10
32.101868310649387
 20
20.332000257971259
 30
0.0
  0
VERTEX
  5
E72
  8
LAYER_1
 10
32.101868310649387
 20
20.416233829711899
 30
0.0
  0
VERTEX
  5
E73
  8
LAYER_1
 10
32.186101882390069
 20
20.416233829711899
 30
0.0
  0
SEQEND
  5
E74
  8
LAYER_1
  0
POLYLINE
  5
E75
  8
LAYER_1
 66
     1
 10
0.0
 20
0.0
 30
0.0
  0
VERTEX
  5
E76
  8
LAYER_1
 10
32.186101882390069
 20
20.416233829711899
 30
0.0
  0
VERTEX
  5
E77
  8
LAYER_1
 10
32.186101882390069
 20
20.500124988559289
 30
0.0
  0
VERTEX
  5
E78
  8
LAYER_1
 10
32.270164247684029
 20
20.500124988559289
 30
0.0
  0
SEQEND
  5
E79
  8
LAYER_1
  0
POLYLINE
  5
E7A
  8
LAYER_1
 66
     1
 10
0.0
 20
0.0
 30
0.0
  0
VERTEX
  5
E7B
  8
LAYER_1
 10
32.270164247684029
 20
20.500124988559289
 30
0.0
  0
VERTEX
  5
E7C
  8
LAYER_1
 10
32.270164247684029
 20
20.584358560299929
 30
0.0
  0
VERTEX
  5
E7D
  8
LAYER_1
 10
32.354397819424669
 20
20.584358560299929
 30
0.0
  0
SEQEND
  5
E7E
  8
LAYER_1
  0
POLYLINE
  5
E7F
  8
LAYER_1
 66
     1
 10
0.0
 20
0.0
 30
0.0
  0
VERTEX
  5
E80
  8
LAYER_1
 10
32.354397819424669
 20
20.584358560299929
 30
0.0
  0
VERTEX
  5
E81
  8
LAYER_1
 10
32.438460184718721
 20
20.584358560299929
 30
0.0
  0
VERTEX
  5
E82
  8
LAYER_1
 10
32.438460184718721
 20
20.668592132040569
 30
0.0
  0
VERTEX
  5
E83
  8
LAYER_1
 10
32.522693756459361
 20
20.668592132040569
 30
0.0
  0
SEQEND
  5
E84
  8
LAYER_1
  0
LINE
  5
E85
  8
LAYER_1
 10
32.522693756459361
 20
20.668592132040569
 30
0.0
 11
32.690989693493997
 21
20.668592132040569
 31
0.0
  0
LINE
  5
E86
  8
LAYER_1
 10
32.690989693493997
 20
20.668592132040569
 30
0.0
 11
32.775223265234622
 21
20.668592132040569
 31
0.0
  0
LINE
  5
E87
  8
LAYER_1
 10
32.522693756459361
 20
20.920950434369239
 30
0.0
 11
32.606927328199987
 21
20.920950434369239
 31
0.0
  0
LINE
  5
E88
  8
LAYER_1
 10
32.606927328199987
 20
20.920950434369239
 30
0.0
 11
32.690989693493997
 21
20.920950434369239
 31
0.0
  0
LINE
  5
E89
  8
LAYER_1
 10
32.690989693493997
 20
20.920950434369239
 30
0.0
 11
32.775223265234622
 21
20.920950434369239
 31
0.0
  0
LINE
  5
E8A
  8
LAYER_1
 10
52.97142053517944
 20
7.7092913610324318
 30
0.0
 11
52.97142053517944
 21
7.7935249327730833
 31
0.0
  0
LINE
  5
E8B
  8
LAYER_1
 10
52.97142053517944
 20
7.625057789291799
 30
0.0
 11
52.97142053517944
 21
7.7935249327730833
 31
0.0
  0
LINE
  5
E8C
  8
LAYER_1
 10
52.97142053517944
 20
7.7935249327730833
 30
0.0
 11
52.97142053517944
 21
7.8774160916204687
 31
0.0
  0
LINE
  5
E8D
  8
LAYER_1
 10
52.129940850006193
 20
10.57049349706816
 30
0.0
 11
52.129940850006193
 21
10.48625992532752
 31
0.0
  0
LINE
  5
E8E
  8
LAYER_1
 10
52.129940850006193
 20
10.48625992532752
 30
0.0
 11
52.129940850006193
 21
10.31779278184624
 31
0.0
  0
LINE
  5
E8F
  8
LAYER_1
 10
52.129940850006193
 20
10.31779278184624
 30
0.0
 11
52.129940850006193
 21
10.233901622998861
 31
0.0
  0
LINE
  5
E90
  8
LAYER_1
 10
52.214174421746833
 20
10.57049349706816
 30
0.0
 11
52.214174421746833
 21
10.48625992532752
 31
0.0
  0
LINE
  5
E91
  8
LAYER_1
 10
52.214174421746833
 20
10.48625992532752
 30
0.0
 11
52.214174421746833
 21
10.233901622998861
 31
0.0
  0
LINE
  5
E92
  8
LAYER_1
 10
53.644775489764669
 20
10.233901622998861
 30
0.0
 11
53.644775489764669
 21
10.149668051258219
 31
0.0
  0
LINE
  5
E93
  8
LAYER_1
 10
52.214174421746833
 20
10.654384655915541
 30
0.0
 11
52.214174421746833
 21
10.57049349706816
 31
0.0
  0
LINE
  5
E94
  8
LAYER_1
 10
53.813071426799361
 20
10.233901622998861
 30
0.0
 11
53.813071426799361
 21
10.149668051258219
 31
0.0
  0
LINE
  5
E95
  8
LAYER_1
 10
53.139716472214118
 20
10.149668051258219
 30
0.0
 11
53.139716472214118
 21
10.233901622998861
 31
0.0
  0
POLYLINE
  5
E96
  8
LAYER_1
 66
     1
 10
0.0
 20
0.0
 30
0.0
  0
VERTEX
  5
E97
  8
LAYER_1
 10
51.372523530126927
 20
8.8871917138283791
 30
0.0
  0
VERTEX
  5
E98
  8
LAYER_1
 10
51.456757101867581
 20
8.8871917138283791
 30
0.0
  0
VERTEX
  5
E99
  8
LAYER_1
 10
51.540990673608214
 20
8.9714252855690262
 30
0.0
  0
SEQEND
  5
E9A
  8
LAYER_1
  0
POLYLINE
  5
E9B
  8
LAYER_1
 66
     1
 10
0.0
 20
0.0
 30
0.0
  0
VERTEX
  5
E9C
  8
LAYER_1
 10
51.372523530126927
 20
8.7190669832403547
 30
0.0
  0
VERTEX
  5
E9D
  8
LAYER_1
 10
51.540990673608214
 20
8.8033005549810017
 30
0.0
  0
VERTEX
  5
E9E
  8
LAYER_1
 10
51.62505303890223
 20
8.9714252855690262
 30
0.0
  0
SEQEND
  5
E9F
  8
LAYER_1
  0
POLYLINE
  5
EA0
  8
LAYER_1
 66
     1
 10
0.0
 20
0.0
 30
0.0
  0
VERTEX
  5
EA1
  8
LAYER_1
 10
51.372523530126927
 20
8.6348334114997183
 30
0.0
  0
VERTEX
  5
EA2
  8
LAYER_1
 10
51.62505303890223
 20
8.7190669832403547
 30
0.0
  0
VERTEX
  5
EA3
  8
LAYER_1
 10
51.709286610642877
 20
8.9714252855690262
 30
0.0
  0
SEQEND
  5
EA4
  8
LAYER_1
  0
LINE
  5
EA5
  8
LAYER_1
 10
32.522693756459361
 20
20.836716862628581
 30
0.0
 11
32.606927328199987
 21
20.836716862628581
 31
0.0
  0
LINE
  5
EA6
  8
LAYER_1
 10
32.606927328199987
 20
20.836716862628581
 30
0.0
 11
32.690989693493997
 21
20.920950434369239
 31
0.0
  0
LINE
  5
EA7
  8
LAYER_1
 10
32.690989693493997
 20
20.920950434369239
 30
0.0
 11
32.775223265234622
 21
20.920950434369239
 31
0.0
  0
LINE
  5
EA8
  8
LAYER_1
 10
53.308012409248732
 20
8.0458832351017495
 30
0.0
 11
53.308012409248732
 21
7.961649663361106
 31
0.0
  0
LINE
  5
EA9
  8
LAYER_1
 10
53.308012409248732
 20
7.961649663361106
 30
0.0
 11
53.308012409248732
 21
7.8774160916204687
 31
0.0
  0
LINE
  5
EAA
  8
LAYER_1
 10
53.308012409248732
 20
7.8774160916204687
 30
0.0
 11
53.308012409248732
 21
7.7092913610324318
 31
0.0
  0
LINE
  5
EAB
  8
LAYER_1
 10
52.97142053517944
 20
10.149668051258219
 30
0.0
 11
52.97142053517944
 21
10.233901622998861
 31
0.0
  0
LINE
  5
EAC
  8
LAYER_1
 10
53.308012409248732
 20
10.233901622998861
 30
0.0
 11
53.308012409248732
 21
10.149668051258219
 31
0.0
  0
LINE
  5
EAD
  8
LAYER_1
 10
53.308012409248732
 20
10.149668051258219
 30
0.0
 11
53.308012409248732
 21
10.06543447951757
 31
0.0
  0
LINE
  5
EAE
  8
LAYER_1
 10
53.139716472214118
 20
8.4667086809116885
 30
0.0
 11
53.139716472214118
 21
8.5505998397590783
 31
0.0
  0
LINE
  5
EAF
  8
LAYER_1
 10
53.139716472214118
 20
10.06543447951757
 30
0.0
 11
53.139716472214118
 21
10.149668051258219
 31
0.0
  0
LINE
  5
EB0
  8
LAYER_1
 10
52.97142053517944
 20
9.6446090337076296
 30
0.0
 11
52.97142053517944
 21
9.8130761771889095
 31
0.0
  0
LINE
  5
EB1
  8
LAYER_1
 10
53.139716472214118
 20
8.5505998397590783
 30
0.0
 11
53.139716472214118
 21
8.6348334114997183
 31
0.0
  0
LINE
  5
EB2
  8
LAYER_1
 10
53.139716472214118
 20
8.1301168068423966
 30
0.0
 11
53.139716472214118
 21
8.4667086809116885
 31
0.0
  0
LINE
  5
EB3
  8
LAYER_1
 10
53.139716472214118
 20
9.6446090337076296
 30
0.0
 11
53.139716472214118
 21
9.8130761771889095
 31
0.0
  0
LINE
  5
EB4
  8
LAYER_1
 10
53.139716472214118
 20
8.6348334114997183
 30
0.0
 11
53.139716472214118
 21
8.8871917138283791
 31
0.0
  0
LINE
  5
EB5
  8
LAYER_1
 10
53.308012409248732
 20
9.8973097489295458
 30
0.0
 11
53.308012409248732
 21
9.8130761771889095
 31
0.0
  0
LINE
  5
EB6
  8
LAYER_1
 10
53.308012409248732
 20
8.4667086809116885
 30
0.0
 11
53.308012409248732
 21
8.2140079656897722
 31
0.0
  0
LINE
  5
EB7
  8
LAYER_1
 10
53.139716472214118
 20
8.8871917138283791
 30
0.0
 11
53.139716472214118
 21
9.055658857309675
 31
0.0
  0
LINE
  5
EB8
  8
LAYER_1
 10
53.476308346283417
 20
7.625057789291799
 30
0.0
 11
53.476308346283417
 21
10.149668051258219
 31
0.0
  0
LINE
  5
EB9
  8
LAYER_1
 10
53.644775489764669
 20
10.149668051258219
 30
0.0
 11
53.644775489764669
 21
7.625057789291799
 31
0.0
  0
LINE
  5
EBA
  8
LAYER_1
 10
53.813071426799361
 20
10.149668051258219
 30
0.0
 11
53.813071426799361
 21
7.625057789291799
 31
0.0
  0
LINE
  5
EBB
  8
LAYER_1
 10
52.97142053517944
 20
9.3080171596383252
 30
0.0
 11
52.97142053517944
 21
9.392250731378974
 31
0.0
  0
LINE
  5
EBC
  8
LAYER_1
 10
53.139716472214118
 20
9.3080171596383252
 30
0.0
 11
53.139716472214118
 21
9.392250731378974
 31
0.0
  0
LINE
  5
EBD
  8
LAYER_1
 10
53.139716472214118
 20
9.055658857309675
 30
0.0
 11
53.139716472214118
 21
9.3080171596383252
 31
0.0
  0
LINE
  5
EBE
  8
LAYER_1
 10
53.308012409248732
 20
8.8033005549810017
 30
0.0
 11
53.308012409248732
 21
8.7190669832403547
 31
0.0
  0
LINE
  5
EBF
  8
LAYER_1
 10
53.308012409248732
 20
9.1398924290503079
 30
0.0
 11
53.308012409248732
 21
9.055658857309675
 31
0.0
  0
LINE
  5
EC0
  8
LAYER_1
 10
53.308012409248732
 20
8.5505998397590783
 30
0.0
 11
53.308012409248732
 21
8.4667086809116885
 31
0.0
  0
LINE
  5
EC1
  8
LAYER_1
 10
53.308012409248732
 20
8.2140079656897722
 30
0.0
 11
53.308012409248732
 21
8.1301168068423966
 31
0.0
  0
LINE
  5
EC2
  8
LAYER_1
 10
52.97142053517944
 20
8.9714252855690262
 30
0.0
 11
52.97142053517944
 21
9.3080171596383252
 31
0.0
  0
LINE
  5
EC3
  8
LAYER_1
 10
52.97142053517944
 20
9.9812009077769321
 30
0.0
 11
52.97142053517944
 21
10.06543447951757
 31
0.0
  0
LINE
  5
EC4
  8
LAYER_1
 10
53.139716472214118
 20
9.9812009077769321
 30
0.0
 11
53.139716472214118
 21
10.06543447951757
 31
0.0
  0
LINE
  5
EC5
  8
LAYER_1
 10
53.139716472214118
 20
8.0458832351017495
 30
0.0
 11
53.139716472214118
 21
8.1301168068423966
 31
0.0
  0
LINE
  5
EC6
  8
LAYER_1
 10
52.97142053517944
 20
8.8871917138283791
 30
0.0
 11
52.97142053517944
 21
8.9714252855690262
 31
0.0
  0
LINE
  5
EC7
  8
LAYER_1
 10
53.139716472214118
 20
7.961649663361106
 30
0.0
 11
53.139716472214118
 21
8.0458832351017495
 31
0.0
  0
LINE
  5
EC8
  8
LAYER_1
 10
52.97142053517944
 20
8.8033005549810017
 30
0.0
 11
52.97142053517944
 21
8.8871917138283791
 31
0.0
  0
LINE
  5
EC9
  8
LAYER_1
 10
52.97142053517944
 20
8.7190669832403547
 30
0.0
 11
52.97142053517944
 21
8.8033005549810017
 31
0.0
  0
LINE
  5
ECA
  8
LAYER_1
 10
52.97142053517944
 20
8.6348334114997183
 30
0.0
 11
52.97142053517944
 21
8.7190669832403547
 31
0.0
  0
LINE
  5
ECB
  8
LAYER_1
 10
52.97142053517944
 20
8.5505998397590783
 30
0.0
 11
52.97142053517944
 21
8.6348334114997183
 31
0.0
  0
LINE
  5
ECC
  8
LAYER_1
 10
52.97142053517944
 20
8.4667086809116885
 30
0.0
 11
52.97142053517944
 21
8.5505998397590783
 31
0.0
  0
LINE
  5
ECD
  8
LAYER_1
 10
52.97142053517944
 20
8.3824751091710592
 30
0.0
 11
52.97142053517944
 21
8.4667086809116885
 31
0.0
  0
LINE
  5
ECE
  8
LAYER_1
 10
52.97142053517944
 20
8.2982415374304157
 30
0.0
 11
52.97142053517944
 21
8.3824751091710592
 31
0.0
  0
LINE
  5
ECF
  8
LAYER_1
 10
52.97142053517944
 20
8.2140079656897722
 30
0.0
 11
52.97142053517944
 21
8.2982415374304157
 31
0.0
  0
LINE
  5
ED0
  8
LAYER_1
 10
52.97142053517944
 20
8.1301168068423966
 30
0.0
 11
52.97142053517944
 21
8.2140079656897722
 31
0.0
  0
LINE
  5
ED1
  8
LAYER_1
 10
52.97142053517944
 20
8.0458832351017495
 30
0.0
 11
52.97142053517944
 21
8.1301168068423966
 31
0.0
  0
LINE
  5
ED2
  8
LAYER_1
 10
52.97142053517944
 20
7.961649663361106
 30
0.0
 11
52.97142053517944
 21
8.0458832351017495
 31
0.0
  0
LINE
  5
ED3
  8
LAYER_1
 10
53.476308346283417
 20
10.149668051258219
 30
0.0
 11
53.476308346283417
 21
10.233901622998861
 31
0.0
  0
POLYLINE
  5
ED4
  8
LAYER_1
 66
     1
 10
0.0
 20
0.0
 30
0.0
  0
VERTEX
  5
ED5
  8
LAYER_1
 10
51.961644912971543
 20
8.5505998397590783
 30
0.0
  0
VERTEX
  5
ED6
  8
LAYER_1
 10
51.961644912971543
 20
8.4667086809116885
 30
0.0
  0
VERTEX
  5
ED7
  8
LAYER_1
 10
51.877582547677527
 20
8.4667086809116885
 30
0.0
  0
SEQEND
  5
ED8
  8
LAYER_1
  0
POLYLINE
  5
ED9
  8
LAYER_1
 66
     1
 10
0.0
 20
0.0
 30
0.0
  0
VERTEX
  5
EDA
  8
LAYER_1
 10
51.877582547677527
 20
8.4667086809116885
 30
0.0
  0
VERTEX
  5
EDB
  8
LAYER_1
 10
51.877582547677527
 20
8.3824751091710592
 30
0.0
  0
VERTEX
  5
EDC
  8
LAYER_1
 10
51.793348975936887
 20
8.3824751091710592
 30
0.0
  0
SEQEND
  5
EDD
  8
LAYER_1
  0
LINE
  5
EDE
  8
LAYER_1
 10
53.139716472214118
 20
7.7092913610324318
 30
0.0
 11
53.139716472214118
 21
7.8774160916204687
 31
0.0
  0
LINE
  5
EDF
  8
LAYER_1
 10
53.139716472214118
 20
7.8774160916204687
 30
0.0
 11
53.139716472214118
 21
7.961649663361106
 31
0.0
  0
LINE
  5
EE0
  8
LAYER_1
 10
52.97142053517944
 20
10.06543447951757
 30
0.0
 11
52.97142053517944
 21
10.149668051258219
 31
0.0
  0
LINE
  5
EE1
  8
LAYER_1
 10
53.308012409248732
 20
9.8130761771889095
 30
0.0
 11
53.308012409248732
 21
9.5607178748602504
 31
0.0
  0
LINE
  5
EE2
  8
LAYER_1
 10
52.97142053517944
 20
9.8130761771889095
 30
0.0
 11
52.97142053517944
 21
9.8973097489295458
 31
0.0
  0
LINE
  5
EE3
  8
LAYER_1
 10
52.97142053517944
 20
9.8973097489295458
 30
0.0
 11
52.97142053517944
 21
9.9812009077769321
 31
0.0
  0
LINE
  5
EE4
  8
LAYER_1
 10
52.97142053517944
 20
9.4764843031196104
 30
0.0
 11
52.97142053517944
 21
9.6446090337076296
 31
0.0
  0
LINE
  5
EE5
  8
LAYER_1
 10
53.139716472214118
 20
9.8130761771889095
 30
0.0
 11
53.139716472214118
 21
9.8973097489295458
 31
0.0
  0
LINE
  5
EE6
  8
LAYER_1
 10
53.139716472214118
 20
9.8973097489295458
 30
0.0
 11
53.139716472214118
 21
9.9812009077769321
 31
0.0
  0
LINE
  5
EE7
  8
LAYER_1
 10
53.139716472214118
 20
9.4764843031196104
 30
0.0
 11
53.139716472214118
 21
9.6446090337076296
 31
0.0
  0
LINE
  5
EE8
  8
LAYER_1
 10
53.308012409248732
 20
9.5607178748602504
 30
0.0
 11
53.308012409248732
 21
9.4764843031196104
 31
0.0
  0
LINE
  5
EE9
  8
LAYER_1
 10
52.97142053517944
 20
9.392250731378974
 30
0.0
 11
52.97142053517944
 21
9.4764843031196104
 31
0.0
  0
LINE
  5
EEA
  8
LAYER_1
 10
53.139716472214118
 20
9.392250731378974
 30
0.0
 11
53.139716472214118
 21
9.4764843031196104
 31
0.0
  0
LINE
  5
EEB
  8
LAYER_1
 10
53.308012409248732
 20
9.4764843031196104
 30
0.0
 11
53.308012409248732
 21
9.392250731378974
 31
0.0
  0
LINE
  5
EEC
  8
LAYER_1
 10
53.308012409248732
 20
9.055658857309675
 30
0.0
 11
53.308012409248732
 21
8.9714252855690262
 31
0.0
  0
LINE
  5
EED
  8
LAYER_1
 10
53.308012409248732
 20
8.9714252855690262
 30
0.0
 11
53.308012409248732
 21
8.8871917138283791
 31
0.0
  0
LINE
  5
EEE
  8
LAYER_1
 10
53.308012409248732
 20
8.8871917138283791
 30
0.0
 11
53.308012409248732
 21
8.8033005549810017
 31
0.0
  0
LINE
  5
EEF
  8
LAYER_1
 10
53.308012409248732
 20
9.392250731378974
 30
0.0
 11
53.308012409248732
 21
9.1398924290503079
 31
0.0
  0
LINE
  5
EF0
  8
LAYER_1
 10
53.308012409248732
 20
8.7190669832403547
 30
0.0
 11
53.308012409248732
 21
8.6348334114997183
 31
0.0
  0
LINE
  5
EF1
  8
LAYER_1
 10
53.308012409248732
 20
8.6348334114997183
 30
0.0
 11
53.308012409248732
 21
8.5505998397590783
 31
0.0
  0
LINE
  5
EF2
  8
LAYER_1
 10
53.308012409248732
 20
10.06543447951757
 30
0.0
 11
53.308012409248732
 21
9.8973097489295458
 31
0.0
  0
LINE
  5
EF3
  8
LAYER_1
 10
53.308012409248732
 20
8.1301168068423966
 30
0.0
 11
53.308012409248732
 21
8.0458832351017495
 31
0.0
  0
LINE
  5
EF4
  8
LAYER_1
 10
52.97142053517944
 20
7.8774160916204687
 30
0.0
 11
52.97142053517944
 21
7.961649663361106
 31
0.0
  0
LINE
  5
EF5
  8
LAYER_1
 10
51.877582547677527
 20
8.3824751091710592
 30
0.0
 11
51.793348975936887
 21
8.2982415374304157
 31
0.0
  0
POLYLINE
  5
EF6
  8
LAYER_1
 66
     1
 10
0.0
 20
0.0
 30
0.0
  0
VERTEX
  5
EF7
  8
LAYER_1
 10
51.793348975936887
 20
8.2982415374304157
 30
0.0
  0
VERTEX
  5
EF8
  8
LAYER_1
 10
51.709286610642877
 20
8.2982415374304157
 30
0.0
  0
VERTEX
  5
EF9
  8
LAYER_1
 10
51.62505303890223
 20
8.2140079656897722
 30
0.0
  0
SEQEND
  5
EFA
  8
LAYER_1
  0
LINE
  5
EFB
  8
LAYER_1
 10
51.62505303890223
 20
8.2140079656897722
 30
0.0
 11
51.540990673608214
 21
8.2140079656897722
 31
0.0
  0
LINE
  5
EFC
  8
LAYER_1
 10
51.540990673608214
 20
8.2140079656897722
 30
0.0
 11
51.372523530126927
 21
8.2140079656897722
 31
0.0
  0
LINE
  5
EFD
  8
LAYER_1
 10
52.129940850006193
 20
10.233901622998861
 30
0.0
 11
52.129940850006193
 21
10.149668051258219
 31
0.0
  0
LINE
  5
EFE
  8
LAYER_1
 10
52.129940850006193
 20
10.149668051258219
 30
0.0
 11
52.129940850006193
 21
8.9714252855690262
 31
0.0
  0
LINE
  5
EFF
  8
LAYER_1
 10
52.214174421746833
 20
10.233901622998861
 30
0.0
 11
52.214174421746833
 21
10.149668051258219
 31
0.0
  0
LINE
  5
F00
  8
LAYER_1
 10
52.214174421746833
 20
10.149668051258219
 30
0.0
 11
52.214174421746833
 21
8.9714252855690262
 31
0.0
  0
LINE
  5
F01
  8
LAYER_1
 10
52.129940850006193
 20
8.9714252855690262
 30
0.0
 11
52.129940850006193
 21
8.8871917138283791
 31
0.0
  0
POLYLINE
  5
F02
  8
LAYER_1
 66
     1
 10
0.0
 20
0.0
 30
0.0
  0
VERTEX
  5
F03
  8
LAYER_1
 10
52.129940850006193
 20
8.8871917138283791
 30
0.0
  0
VERTEX
  5
F04
  8
LAYER_1
 10
52.129940850006193
 20
8.8033005549810017
 30
0.0
  0
VERTEX
  5
F05
  8
LAYER_1
 10
52.045878484712162
 20
8.8033005549810017
 30
0.0
  0
VERTEX
  5
F06
  8
LAYER_1
 10
52.045878484712162
 20
8.7190669832403547
 30
0.0
  0
SEQEND
  5
F07
  8
LAYER_1
  0
LINE
  5
F08
  8
LAYER_1
 10
52.045878484712162
 20
8.7190669832403547
 30
0.0
 11
52.045878484712162
 21
8.6348334114997183
 31
0.0
  0
LINE
  5
F09
  8
LAYER_1
 10
52.045878484712162
 20
8.6348334114997183
 30
0.0
 11
51.961644912971543
 21
8.5505998397590783
 31
0.0
  0
LINE
  5
F0A
  8
LAYER_1
 10
52.214174421746833
 20
8.9714252855690262
 30
0.0
 11
52.129940850006193
 21
8.8871917138283791
 31
0.0
  0
LINE
  5
F0B
  8
LAYER_1
 10
52.129940850006193
 20
8.8871917138283791
 30
0.0
 11
52.129940850006193
 21
8.8033005549810017
 31
0.0
  0
POLYLINE
  5
F0C
  8
LAYER_1
 66
     1
 10
0.0
 20
0.0
 30
0.0
  0
VERTEX
  5
F0D
  8
LAYER_1
 10
52.129940850006193
 20
8.8033005549810017
 30
0.0
  0
VERTEX
  5
F0E
  8
LAYER_1
 10
52.129940850006193
 20
8.6348334114997183
 30
0.0
  0
VERTEX
  5
F0F
  8
LAYER_1
 10
52.045878484712162
 20
8.6348334114997183
 30
0.0
  0
VERTEX
  5
F10
  8
LAYER_1
 10
52.045878484712162
 20
8.5505998397590783
 30
0.0
  0
SEQEND
  5
F11
  8
LAYER_1
  0
POLYLINE
  5
F12
  8
LAYER_1
 66
     1
 10
0.0
 20
0.0
 30
0.0
  0
VERTEX
  5
F13
  8
LAYER_1
 10
52.214174421746833
 20
10.654384655915541
 30
0.0
  0
VERTEX
  5
F14
  8
LAYER_1
 10
52.214174421746833
 20
10.57049349706816
 30
0.0
  0
VERTEX
  5
F15
  8
LAYER_1
 10
52.129940850006193
 20
10.57049349706816
 30
0.0
  0
SEQEND
  5
F16
  8
LAYER_1
  0
LINE
  5
F17
  8
LAYER_1
 10
52.045878484712162
 20
8.5505998397590783
 30
0.0
 11
51.961644912971543
 21
8.4667086809116885
 31
0.0
  0
POLYLINE
  5
F18
  8
LAYER_1
 66
     1
 10
0.0
 20
0.0
 30
0.0
  0
VERTEX
  5
F19
  8
LAYER_1
 10
51.961644912971543
 20
8.4667086809116885
 30
0.0
  0
VERTEX
  5
F1A
  8
LAYER_1
 10
51.961644912971543
 20
8.3824751091710592
 30
0.0
  0
VERTEX
  5
F1B
  8
LAYER_1
 10
51.877582547677527
 20
8.3824751091710592
 30
0.0
  0
SEQEND
  5
F1C
  8
LAYER_1
  0
LINE
  5
F1D
  8
LAYER_1
 10
51.877582547677527
 20
20.416233829711899
 30
0.0
 11
51.961644912971543
 21
20.416233829711899
 31
0.0
  0
LINE
  5
F1E
  8
LAYER_1
 10
51.961644912971543
 20
20.416233829711899
 30
0.0
 11
51.961644912971543
 21
20.332000257971259
 31
0.0
  0
LINE
  5
F1F
  8
LAYER_1
 10
52.129940850006193
 20
18.64904088762475
 30
0.0
 11
52.129940850006193
 21
18.396340172402819
 31
0.0
  0
LINE
  5
F20
  8
LAYER_1
 10
52.129940850006193
 20
18.396340172402819
 30
0.0
 11
52.129940850006193
 21
18.31244901355544
 31
0.0
  0
LINE
  5
F21
  8
LAYER_1
 10
52.214174421746833
 20
18.64904088762475
 30
0.0
 11
52.214174421746833
 21
18.396340172402819
 31
0.0
  0
LINE
  5
F22
  8
LAYER_1
 10
52.214174421746833
 20
18.396340172402819
 30
0.0
 11
52.214174421746833
 21
18.31244901355544
 31
0.0
  0
LINE
  5
F23
  8
LAYER_1
 10
52.129940850006193
 20
18.732932046472129
 30
0.0
 11
52.129940850006193
 21
18.64904088762475
 31
0.0
  0
LINE
  5
F24
  8
LAYER_1
 10
52.214174421746833
 20
18.732932046472129
 30
0.0
 11
52.214174421746833
 21
18.64904088762475
 31
0.0
  0
LINE
  5
F25
  8
LAYER_1
 10
51.961644912971543
 20
20.332000257971259
 30
0.0
 11
52.045878484712162
 21
20.247766686230619
 31
0.0
  0
LINE
  5
F26
  8
LAYER_1
 10
52.045878484712162
 20
20.247766686230619
 30
0.0
 11
52.045878484712162
 21
20.16353311448999
 31
0.0
  0
POLYLINE
  5
F27
  8
LAYER_1
 66
     1
 10
0.0
 20
0.0
 30
0.0
  0
VERTEX
  5
F28
  8
LAYER_1
 10
52.045878484712162
 20
20.16353311448999
 30
0.0
  0
VERTEX
  5
F29
  8
LAYER_1
 10
52.045878484712162
 20
20.07964195564259
 30
0.0
  0
VERTEX
  5
F2A
  8
LAYER_1
 10
52.129940850006193
 20
20.07964195564259
 30
0.0
  0
VERTEX
  5
F2B
  8
LAYER_1
 10
52.129940850006193
 20
19.99540838390196
 30
0.0
  0
SEQEND
  5
F2C
  8
LAYER_1
  0
LINE
  5
F2D
  8
LAYER_1
 10
52.129940850006193
 20
19.99540838390196
 30
0.0
 11
52.129940850006193
 21
19.91117481216131
 31
0.0
  0
POLYLINE
  5
F2E
  8
LAYER_1
 66
     1
 10
0.0
 20
0.0
 30
0.0
  0
VERTEX
  5
F2F
  8
LAYER_1
 10
52.045878484712162
 20
20.332000257971259
 30
0.0
  0
VERTEX
  5
F30
  8
LAYER_1
 10
52.045878484712162
 20
20.247766686230619
 30
0.0
  0
VERTEX
  5
F31
  8
LAYER_1
 10
52.129940850006193
 20
20.247766686230619
 30
0.0
  0
VERTEX
  5
F32
  8
LAYER_1
 10
52.129940850006193
 20
20.16353311448999
 30
0.0
  0
SEQEND
  5
F33
  8
LAYER_1
  0
LINE
  5
F34
  8
LAYER_1
 10
52.129940850006193
 20
20.16353311448999
 30
0.0
 11
52.129940850006193
 21
19.99540838390196
 31
0.0
  0
LINE
  5
F35
  8
LAYER_1
 10
52.129940850006193
 20
19.99540838390196
 30
0.0
 11
52.214174421746833
 21
19.91117481216131
 31
0.0
  0
POLYLINE
  5
F36
  8
LAYER_1
 66
     1
 10
0.0
 20
0.0
 30
0.0
  0
VERTEX
  5
F37
  8
LAYER_1
 10
52.129940850006193
 20
18.31244901355544
 30
0.0
  0
VERTEX
  5
F38
  8
LAYER_1
 10
52.214174421746833
 20
18.31244901355544
 30
0.0
  0
VERTEX
  5
F39
  8
LAYER_1
 10
52.214174421746833
 20
18.228215441814779
 30
0.0
  0
SEQEND
  5
F3A
  8
LAYER_1
  0
LINE
  5
F3B
  8
LAYER_1
 10
52.129940850006193
 20
19.91117481216131
 30
0.0
 11
52.129940850006193
 21
18.732932046472129
 31
0.0
  0
LINE
  5
F3C
  8
LAYER_1
 10
52.214174421746833
 20
19.91117481216131
 30
0.0
 11
52.214174421746833
 21
18.732932046472129
 31
0.0
  0
POLYLINE
  5
F3D
  8
LAYER_1
 66
     1
 10
0.0
 20
0.0
 30
0.0
  0
VERTEX
  5
F3E
  8
LAYER_1
 10
51.540990673608214
 20
20.07964195564259
 30
0.0
  0
VERTEX
  5
F3F
  8
LAYER_1
 10
51.456757101867581
 20
20.16353311448999
 30
0.0
  0
VERTEX
  5
F40
  8
LAYER_1
 10
51.372523530126927
 20
20.16353311448999
 30
0.0
  0
SEQEND
  5
F41
  8
LAYER_1
  0
POLYLINE
  5
F42
  8
LAYER_1
 66
     1
 10
0.0
 20
0.0
 30
0.0
  0
VERTEX
  5
F43
  8
LAYER_1
 10
51.62505303890223
 20
20.07964195564259
 30
0.0
  0
VERTEX
  5
F44
  8
LAYER_1
 10
51.540990673608214
 20
20.16353311448999
 30
0.0
  0
VERTEX
  5
F45
  8
LAYER_1
 10
51.372523530126927
 20
20.247766686230619
 30
0.0
  0
SEQEND
  5
F46
  8
LAYER_1
  0
POLYLINE
  5
F47
  8
LAYER_1
 66
     1
 10
0.0
 20
0.0
 30
0.0
  0
VERTEX
  5
F48
  8
LAYER_1
 10
51.709286610642877
 20
20.07964195564259
 30
0.0
  0
VERTEX
  5
F49
  8
LAYER_1
 10
51.62505303890223
 20
20.247766686230619
 30
0.0
  0
VERTEX
  5
F4A
  8
LAYER_1
 10
51.372523530126927
 20
20.416233829711899
 30
0.0
  0
SEQEND
  5
F4B
  8
LAYER_1
  0
POLYLINE
  5
F4C
  8
LAYER_1
 66
     1
 10
0.0
 20
0.0
 30
0.0
  0
VERTEX
  5
F4D
  8
LAYER_1
 10
51.793348975936887
 20
8.3824751091710592
 30
0.0
  0
VERTEX
  5
F4E
  8
LAYER_1
 10
51.709286610642877
 20
8.3824751091710592
 30
0.0
  0
VERTEX
  5
F4F
  8
LAYER_1
 10
51.709286610642877
 20
8.2982415374304157
 30
0.0
  0
VERTEX
  5
F50
  8
LAYER_1
 10
51.62505303890223
 20
8.2982415374304157
 30
0.0
  0
SEQEND
  5
F51
  8
LAYER_1
  0
LINE
  5
F52
  8
LAYER_1
 10
51.62505303890223
 20
8.2982415374304157
 30
0.0
 11
51.456757101867581
 21
8.2982415374304157
 31
0.0
  0
LINE
  5
F53
  8
LAYER_1
 10
51.456757101867581
 20
8.2982415374304157
 30
0.0
 11
51.372523530126927
 21
8.2982415374304157
 31
0.0
  0
LINE
  5
F54
  8
LAYER_1
 10
53.644775489764669
 20
18.732932046472129
 30
0.0
 11
53.644775489764669
 21
18.64904088762475
 31
0.0
  0
LINE
  5
F55
  8
LAYER_1
 10
53.139716472214118
 20
18.64904088762475
 30
0.0
 11
53.139716472214118
 21
18.732932046472129
 31
0.0
  0
LINE
  5
F56
  8
LAYER_1
 10
52.97142053517944
 20
18.901399189953398
 30
0.0
 11
52.97142053517944
 21
18.985632761694038
 31
0.0
  0
LINE
  5
F57
  8
LAYER_1
 10
53.139716472214118
 20
18.901399189953398
 30
0.0
 11
53.139716472214118
 21
18.985632761694038
 31
0.0
  0
LINE
  5
F58
  8
LAYER_1
 10
53.308012409248732
 20
18.985632761694038
 30
0.0
 11
53.308012409248732
 21
18.732932046472129
 31
0.0
  0
LINE
  5
F59
  8
LAYER_1
 10
53.308012409248732
 20
18.732932046472129
 30
0.0
 11
53.308012409248732
 21
18.64904088762475
 31
0.0
  0
LINE
  5
F5A
  8
LAYER_1
 10
52.97142053517944
 20
18.817165618212758
 30
0.0
 11
52.97142053517944
 21
18.901399189953398
 31
0.0
  0
LINE
  5
F5B
  8
LAYER_1
 10
53.139716472214118
 20
18.817165618212758
 30
0.0
 11
53.139716472214118
 21
18.901399189953398
 31
0.0
  0
LINE
  5
F5C
  8
LAYER_1
 10
52.97142053517944
 20
18.985632761694038
 30
0.0
 11
52.97142053517944
 21
19.322224635763341
 31
0.0
  0
LINE
  5
F5D
  8
LAYER_1
 10
53.139716472214118
 20
18.985632761694038
 30
0.0
 11
53.139716472214118
 21
19.322224635763341
 31
0.0
  0
LINE
  5
F5E
  8
LAYER_1
 10
53.308012409248732
 20
19.322224635763341
 30
0.0
 11
53.308012409248732
 21
18.985632761694038
 31
0.0
  0
LINE
  5
F5F
  8
LAYER_1
 10
52.97142053517944
 20
18.732932046472129
 30
0.0
 11
52.97142053517944
 21
18.817165618212758
 31
0.0
  0
LINE
  5
F60
  8
LAYER_1
 10
53.139716472214118
 20
18.732932046472129
 30
0.0
 11
53.139716472214118
 21
18.817165618212758
 31
0.0
  0
LINE
  5
F61
  8
LAYER_1
 10
51.372523530126927
 20
20.584358560299929
 30
0.0
 11
51.456757101867581
 21
20.584358560299929
 31
0.0
  0
LINE
  5
F62
  8
LAYER_1
 10
51.456757101867581
 20
20.584358560299929
 30
0.0
 11
51.62505303890223
 21
20.584358560299929
 31
0.0
  0
LINE
  5
F63
  8
LAYER_1
 10
51.62505303890223
 20
20.584358560299929
 30
0.0
 11
51.709286610642877
 21
20.584358560299929
 31
0.0
  0
LINE
  5
F64
  8
LAYER_1
 10
51.709286610642877
 20
20.584358560299929
 30
0.0
 11
51.793348975936887
 21
20.500124988559289
 31
0.0
  0
LINE
  5
F65
  8
LAYER_1
 10
51.372523530126927
 20
20.668592132040569
 30
0.0
 11
51.540990673608214
 21
20.668592132040569
 31
0.0
  0
LINE
  5
F66
  8
LAYER_1
 10
51.540990673608214
 20
20.668592132040569
 30
0.0
 11
51.62505303890223
 21
20.668592132040569
 31
0.0
  0
POLYLINE
  5
F67
  8
LAYER_1
 66
     1
 10
0.0
 20
0.0
 30
0.0
  0
VERTEX
  5
F68
  8
LAYER_1
 10
51.62505303890223
 20
20.668592132040569
 30
0.0
  0
VERTEX
  5
F69
  8
LAYER_1
 10
51.709286610642877
 20
20.584358560299929
 30
0.0
  0
VERTEX
  5
F6A
  8
LAYER_1
 10
51.793348975936887
 20
20.584358560299929
 30
0.0
  0
SEQEND
  5
F6B
  8
LAYER_1
  0
LINE
  5
F6C
  8
LAYER_1
 10
51.793348975936887
 20
20.584358560299929
 30
0.0
 11
51.877582547677527
 21
20.500124988559289
 31
0.0
  0
LINE
  5
F6D
  8
LAYER_1
 10
51.877582547677527
 20
20.500124988559289
 30
0.0
 11
51.961644912971543
 21
20.500124988559289
 31
0.0
  0
LINE
  5
F6E
  8
LAYER_1
 10
51.961644912971543
 20
20.500124988559289
 30
0.0
 11
51.961644912971543
 21
20.416233829711899
 31
0.0
  0
POLYLINE
  5
F6F
  8
LAYER_1
 66
     1
 10
0.0
 20
0.0
 30
0.0
  0
VERTEX
  5
F70
  8
LAYER_1
 10
51.961644912971543
 20
20.416233829711899
 30
0.0
  0
VERTEX
  5
F71
  8
LAYER_1
 10
52.045878484712162
 20
20.416233829711899
 30
0.0
  0
VERTEX
  5
F72
  8
LAYER_1
 10
52.045878484712162
 20
20.332000257971259
 30
0.0
  0
SEQEND
  5
F73
  8
LAYER_1
  0
POLYLINE
  5
F74
  8
LAYER_1
 66
     1
 10
0.0
 20
0.0
 30
0.0
  0
VERTEX
  5
F75
  8
LAYER_1
 10
51.793348975936887
 20
20.500124988559289
 30
0.0
  0
VERTEX
  5
F76
  8
LAYER_1
 10
51.877582547677527
 20
20.500124988559289
 30
0.0
  0
VERTEX
  5
F77
  8
LAYER_1
 10
51.877582547677527
 20
20.416233829711899
 30
0.0
  0
SEQEND
  5
F78
  8
LAYER_1
  0
POLYLINE
  5
F79
  8
LAYER_1
 66
     1
 10
0.0
 20
0.0
 30
0.0
  0
VERTEX
  5
F7A
  8
LAYER_1
 10
52.887358169885438
 20
21.930726056577161
 30
0.0
  0
VERTEX
  5
F7B
  8
LAYER_1
 10
52.887358169885438
 20
22.014959628317818
 30
0.0
  0
VERTEX
  5
F7C
  8
LAYER_1
 10
52.803124598144798
 20
22.014959628317818
 30
0.0
  0
SEQEND
  5
F7D
  8
LAYER_1
  0
LINE
  5
F7E
  8
LAYER_1
 10
52.803124598144798
 20
22.014959628317818
 30
0.0
 11
52.719062232850781
 21
22.014959628317818
 31
0.0
  0
LINE
  5
F7F
  8
LAYER_1
 10
53.139716472214118
 20
21.005184006109872
 30
0.0
 11
53.139716472214118
 21
21.173308736697891
 31
0.0
  0
LINE
  5
F80
  8
LAYER_1
 10
53.308012409248732
 20
20.332000257971259
 30
0.0
 11
53.308012409248732
 21
19.574582938092011
 31
0.0
  0
LINE
  5
F81
  8
LAYER_1
 10
53.308012409248732
 20
20.752825703781209
 30
0.0
 11
53.308012409248732
 21
20.668592132040569
 31
0.0
  0
LINE
  5
F82
  8
LAYER_1
 10
53.308012409248732
 20
20.668592132040569
 30
0.0
 11
53.308012409248732
 21
20.584358560299929
 31
0.0
  0
LINE
  5
F83
  8
LAYER_1
 10
53.308012409248732
 20
20.584358560299929
 30
0.0
 11
53.308012409248732
 21
20.500124988559289
 31
0.0
  0
LINE
  5
F84
  8
LAYER_1
 10
52.97142053517944
 20
20.752825703781209
 30
0.0
 11
52.97142053517944
 21
20.920950434369239
 31
0.0
  0
LINE
  5
F85
  8
LAYER_1
 10
52.97142053517944
 20
20.584358560299929
 30
0.0
 11
52.97142053517944
 21
20.752825703781209
 31
0.0
  0
LINE
  5
F86
  8
LAYER_1
 10
52.97142053517944
 20
20.332000257971259
 30
0.0
 11
52.97142053517944
 21
20.584358560299929
 31
0.0
  0
LINE
  5
F87
  8
LAYER_1
 10
52.97142053517944
 20
20.247766686230619
 30
0.0
 11
52.97142053517944
 21
20.332000257971259
 31
0.0
  0
LINE
  5
F88
  8
LAYER_1
 10
52.97142053517944
 20
20.16353311448999
 30
0.0
 11
52.97142053517944
 21
20.247766686230619
 31
0.0
  0
LINE
  5
F89
  8
LAYER_1
 10
52.97142053517944
 20
20.07964195564259
 30
0.0
 11
52.97142053517944
 21
20.16353311448999
 31
0.0
  0
LINE
  5
F8A
  8
LAYER_1
 10
53.308012409248732
 20
20.920950434369239
 30
0.0
 11
53.308012409248732
 21
20.836716862628581
 31
0.0
  0
LINE
  5
F8B
  8
LAYER_1
 10
52.97142053517944
 20
19.322224635763341
 30
0.0
 11
52.97142053517944
 21
20.07964195564259
 31
0.0
  0
LINE
  5
F8C
  8
LAYER_1
 10
53.308012409248732
 20
20.836716862628581
 30
0.0
 11
53.308012409248732
 21
20.752825703781209
 31
0.0
  0
LINE
  5
F8D
  8
LAYER_1
 10
53.139716472214118
 20
20.836716862628581
 30
0.0
 11
53.139716472214118
 21
20.920950434369239
 31
0.0
  0
LINE
  5
F8E
  8
LAYER_1
 10
53.476308346283417
 20
18.732932046472129
 30
0.0
 11
53.476308346283417
 21
21.257542308438541
 31
0.0
  0
LINE
  5
F8F
  8
LAYER_1
 10
53.644775489764669
 20
21.257542308438541
 30
0.0
 11
53.644775489764669
 21
18.732932046472129
 31
0.0
  0
LINE
  5
F90
  8
LAYER_1
 10
53.813071426799361
 20
21.257542308438541
 30
0.0
 11
53.813071426799361
 21
18.732932046472129
 31
0.0
  0
LINE
  5
F91
  8
LAYER_1
 10
53.139716472214118
 20
19.322224635763341
 30
0.0
 11
53.139716472214118
 21
19.99540838390196
 31
0.0
  0
LINE
  5
F92
  8
LAYER_1
 10
53.308012409248732
 20
19.574582938092011
 30
0.0
 11
53.308012409248732
 21
19.322224635763341
 31
0.0
  0
LINE
  5
F93
  8
LAYER_1
 10
53.139716472214118
 20
20.752825703781209
 30
0.0
 11
53.139716472214118
 21
20.836716862628581
 31
0.0
  0
LINE
  5
F94
  8
LAYER_1
 10
53.139716472214118
 20
19.99540838390196
 30
0.0
 11
53.139716472214118
 21
20.416233829711899
 31
0.0
  0
LINE
  5
F95
  8
LAYER_1
 10
53.308012409248732
 20
20.500124988559289
 30
0.0
 11
53.308012409248732
 21
20.332000257971259
 31
0.0
  0
LINE
  5
F96
  8
LAYER_1
 10
53.139716472214118
 20
20.416233829711899
 30
0.0
 11
53.139716472214118
 21
20.584358560299929
 31
0.0
  0
LINE
  5
F97
  8
LAYER_1
 10
53.139716472214118
 20
20.668592132040569
 30
0.0
 11
53.139716472214118
 21
20.752825703781209
 31
0.0
  0
LINE
  5
F98
  8
LAYER_1
 10
53.139716472214118
 20
20.584358560299929
 30
0.0
 11
53.139716472214118
 21
20.668592132040569
 31
0.0
  0
POLYLINE
  8
LAYER_1
  5
1570
  66
     1
 10
0.000000
 20
0.000000
 30
0.000000
  70
     8
  0
VERTEX
  8
LAYER_1
  5
1571
 10
52.2142
 20
10.6544
 30
0.000000
  70
    32
  0
VERTEX
  8
LAYER_1
  5
1572
 10
52.2241
 20
10.6878
 30
0.000000
  70
    32
  0
VERTEX
  8
LAYER_1
  5
1573
 10
52.2338
 20
10.7213
 30
0.000000
  70
    32
  0
VERTEX
  8
LAYER_1
  5
1574
 10
52.2435
 20
10.7548
 30
0.000000
  70
    32
  0
VERTEX
  8
LAYER_1
  5
1575
 10
52.2532
 20
10.7883
 30
0.000000
  70
    32
  0
VERTEX
  8
LAYER_1
  5
1576
 10
52.2627
 20
10.8218
 30
0.000000
  70
    32
  0
VERTEX
  8
LAYER_1
  5
1577
 10
52.2721
 20
10.8554
 30
0.000000
  70
    32
  0
VERTEX
  8
LAYER_1
  5
1578
 10
52.2815
 20
10.8890
 30
0.000000
  70
    32
  0
VERTEX
  8
LAYER_1
  5
1579
 10
52.2907
 20
10.9226
 30
0.000000
  70
    32
  0
VERTEX
  8
LAYER_1
  5
157A
 10
52.2999
 20
10.9562
 30
0.000000
  70
    32
  0
VERTEX
  8
LAYER_1
  5
157B
 10
52.3090
 20
10.9898
 30
0.000000
  70
    32
  0
VERTEX
  8
LAYER_1
  5
157C
 10
52.3180
 20
11.0235
 30
0.000000
  70
    32
  0
VERTEX
  8
LAYER_1
  5
157D
 10
52.3269
 20
11.0572
 30
0.000000
  70
    32
  0
VERTEX
  8
LAYER_1
  5
157E
 10
52.3358
 20
11.0909
 30
0.000000
  70
    32
  0
VERTEX
  8
LAYER_1
  5
157F
 10
52.3445
 20
11.1246
 30
0.000000
  70
    32
  0
VERTEX
  8
LAYER_1
  5
1580
 10
52.3531
 20
11.1583
 30
0.000000
  70
    32
  0
VERTEX
  8
LAYER_1
  5
1581
 10
52.3617
 20
11.1921
 30
0.000000
  70
    32
  0
VERTEX
  8
LAYER_1
  5
1582
 10
52.3702
 20
11.2259
 30
0.000000
  70
    32
  0
VERTEX
  8
LAYER_1
  5
1583
 10
52.3786
 20
11.2597
 30
0.000000
  70
    32
  0
VERTEX
  8
LAYER_1
  5
1584
 10
52.3869
 20
11.2935
 30
0.000000
  70
    32
  0
VERTEX
  8
LAYER_1
  5
1585
 10
52.3951
 20
11.3274
 30
0.000000
  70
    32
  0
VERTEX
  8
LAYER_1
  5
1586
 10
52.4032
 20
11.3612
 30
0.000000
  70
    32
  0
VERTEX
  8
LAYER_1
  5
1587
 10
52.4112
 20
11.3951
 30
0.000000
  70
    32
  0
VERTEX
  8
LAYER_1
  5
1588
 10
52.4192
 20
11.4290
 30
0.000000
  70
    32
  0
VERTEX
  8
LAYER_1
  5
1589
 10
52.4270
 20
11.4629
 30
0.000000
  70
    32
  0
VERTEX
  8
LAYER_1
  5
158A
 10
52.4348
 20
11.4968
 30
0.000000
  70
    32
  0
VERTEX
  8
LAYER_1
  5
158B
 10
52.4425
 20
11.5308
 30
0.000000
  70
    32
  0
VERTEX
  8
LAYER_1
  5
158C
 10
52.4501
 20
11.5648
 30
0.000000
  70
    32
  0
VERTEX
  8
LAYER_1
  5
158D
 10
52.4576
 20
11.5988
 30
0.000000
  70
    32
  0
VERTEX
  8
LAYER_1
  5
158E
 10
52.4650
 20
11.6328
 30
0.000000
  70
    32
  0
VERTEX
  8
LAYER_1
  5
158F
 10
52.4723
 20
11.6668
 30
0.000000
  70
    32
  0
VERTEX
  8
LAYER_1
  5
1590
 10
52.4796
 20
11.7008
 30
0.000000
  70
    32
  0
VERTEX
  8
LAYER_1
  5
1591
 10
52.4867
 20
11.7349
 30
0.000000
  70
    32
  0
VERTEX
  8
LAYER_1
  5
1592
 10
52.4938
 20
11.7690
 30
0.000000
  70
    32
  0
VERTEX
  8
LAYER_1
  5
1593
 10
52.5007
 20
11.8031
 30
0.000000
  70
    32
  0
VERTEX
  8
LAYER_1
  5
1594
 10
52.5076
 20
11.8372
 30
0.000000
  70
    32
  0
VERTEX
  8
LAYER_1
  5
1595
 10
52.5144
 20
11.8713
 30
0.000000
  70
    32
  0
VERTEX
  8
LAYER_1
  5
1596
 10
52.5211
 20
11.9054
 30
0.000000
  70
    32
  0
VERTEX
  8
LAYER_1
  5
1597
 10
52.5278
 20
11.9396
 30
0.000000
  70
    32
  0
VERTEX
  8
LAYER_1
  5
1598
 10
52.5343
 20
11.9738
 30
0.000000
  70
    32
  0
VERTEX
  8
LAYER_1
  5
1599
 10
52.5407
 20
12.0080
 30
0.000000
  70
    32
  0
VERTEX
  8
LAYER_1
  5
159A
 10
52.5471
 20
12.0422
 30
0.000000
  70
    32
  0
VERTEX
  8
LAYER_1
  5
159B
 10
52.5534
 20
12.0764
 30
0.000000
  70
    32
  0
VERTEX
  8
LAYER_1
  5
159C
 10
52.5595
 20
12.1106
 30
0.000000
  70
    32
  0
VERTEX
  8
LAYER_1
  5
159D
 10
52.5656
 20
12.1449
 30
0.000000
  70
    32
  0
VERTEX
  8
LAYER_1
  5
159E
 10
52.5716
 20
12.1792
 30
0.000000
  70
    32
  0
VERTEX
  8
LAYER_1
  5
159F
 10
52.5775
 20
12.2134
 30
0.000000
  70
    32
  0
VERTEX
  8
LAYER_1
  5
15A0
 10
52.5833
 20
12.2477
 30
0.000000
  70
    32
  0
VERTEX
  8
LAYER_1
  5
15A1
 10
52.5891
 20
12.2821
 30
0.000000
  70
    32
  0
VERTEX
  8
LAYER_1
  5
15A2
 10
52.5947
 20
12.3164
 30
0.000000
  70
    32
  0
VERTEX
  8
LAYER_1
  5
15A3
 10
52.6003
 20
12.3507
 30
0.000000
  70
    32
  0
VERTEX
  8
LAYER_1
  5
15A4
 10
52.6058
 20
12.3851
 30
0.000000
  70
    32
  0
VERTEX
  8
LAYER_1
  5
15A5
 10
52.6111
 20
12.4194
 30
0.000000
  70
    32
  0
VERTEX
  8
LAYER_1
  5
15A6
 10
52.6164
 20
12.4538
 30
0.000000
  70
    32
  0
VERTEX
  8
LAYER_1
  5
15A7
 10
52.6216
 20
12.4882
 30
0.000000
  70
    32
  0
VERTEX
  8
LAYER_1
  5
15A8
 10
52.6267
 20
12.5226
 30
0.000000
  70
    32
  0
VERTEX
  8
LAYER_1
  5
15A9
 10
52.6318
 20
12.5570
 30
0.000000
  70
    32
  0
VERTEX
  8
LAYER_1
  5
15AA
 10
52.6367
 20
12.5915
 30
0.000000
  70
    32
  0
VERTEX
  8
LAYER_1
  5
15AB
 10
52.6415
 20
12.6259
 30
0.000000
  70
    32
  0
VERTEX
  8
LAYER_1
  5
15AC
 10
52.6463
 20
12.6604
 30
0.000000
  70
    32
  0
VERTEX
  8
LAYER_1
  5
15AD
 10
52.6510
 20
12.6949
 30
0.000000
  70
    32
  0
VERTEX
  8
LAYER_1
  5
15AE
 10
52.6555
 20
12.7293
 30
0.000000
  70
    32
  0
VERTEX
  8
LAYER_1
  5
15AF
 10
52.6600
 20
12.7638
 30
0.000000
  70
    32
  0
VERTEX
  8
LAYER_1
  5
15B0
 10
52.6644
 20
12.7983
 30
0.000000
  70
    32
  0
VERTEX
  8
LAYER_1
  5
15B1
 10
52.6687
 20
12.8329
 30
0.000000
  70
    32
  0
VERTEX
  8
LAYER_1
  5
15B2
 10
52.6729
 20
12.8674
 30
0.000000
  70
    32
  0
VERTEX
  8
LAYER_1
  5
15B3
 10
52.6771
 20
12.9019
 30
0.000000
  70
    32
  0
VERTEX
  8
LAYER_1
  5
15B4
 10
52.6811
 20
12.9365
 30
0.000000
  70
    32
  0
VERTEX
  8
LAYER_1
  5
15B5
 10
52.6851
 20
12.9710
 30
0.000000
  70
    32
  0
VERTEX
  8
LAYER_1
  5
15B6
 10
52.6889
 20
13.0056
 30
0.000000
  70
    32
  0
VERTEX
  8
LAYER_1
  5
15B7
 10
52.6927
 20
13.0402
 30
0.000000
  70
    32
  0
VERTEX
  8
LAYER_1
  5
15B8
 10
52.6964
 20
13.0748
 30
0.000000
  70
    32
  0
VERTEX
  8
LAYER_1
  5
15B9
 10
52.7000
 20
13.1094
 30
0.000000
  70
    32
  0
VERTEX
  8
LAYER_1
  5
15BA
 10
52.7035
 20
13.1440
 30
0.000000
  70
    32
  0
VERTEX
  8
LAYER_1
  5
15BB
 10
52.7069
 20
13.1786
 30
0.000000
  70
    32
  0
VERTEX
  8
LAYER_1
  5
15BC
 10
52.7102
 20
13.2133
 30
0.000000
  70
    32
  0
VERTEX
  8
LAYER_1
  5
15BD
 10
52.7135
 20
13.2479
 30
0.000000
  70
    32
  0
VERTEX
  8
LAYER_1
  5
15BE
 10
52.7166
 20
13.2826
 30
0.000000
  70
    32
  0
VERTEX
  8
LAYER_1
  5
15BF
 10
52.7197
 20
13.3172
 30
0.000000
  70
    32
  0
VERTEX
  8
LAYER_1
  5
15C0
 10
52.7227
 20
13.3519
 30
0.000000
  70
    32
  0
VERTEX
  8
LAYER_1
  5
15C1
 10
52.7255
 20
13.3866
 30
0.000000
  70
    32
  0
VERTEX
  8
LAYER_1
  5
15C2
 10
52.7283
 20
13.4213
 30
0.000000
  70
    32
  0
VERTEX
  8
LAYER_1
  5
15C3
 10
52.7310
 20
13.4560
 30
0.000000
  70
    32
  0
VERTEX
  8
LAYER_1
  5
15C4
 10
52.7336
 20
13.4907
 30
0.000000
  70
    32
  0
VERTEX
  8
LAYER_1
  5
15C5
 10
52.7362
 20
13.5254
 30
0.000000
  70
    32
  0
VERTEX
  8
LAYER_1
  5
15C6
 10
52.7386
 20
13.5601
 30
0.000000
  70
    32
  0
VERTEX
  8
LAYER_1
  5
15C7
 10
52.7409
 20
13.5949
 30
0.000000
  70
    32
  0
VERTEX
  8
LAYER_1
  5
15C8
 10
52.7432
 20
13.6296
 30
0.000000
  70
    32
  0
VERTEX
  8
LAYER_1
  5
15C9
 10
52.7453
 20
13.6643
 30
0.000000
  70
    32
  0
VERTEX
  8
LAYER_1
  5
15CA
 10
52.7474
 20
13.6991
 30
0.000000
  70
    32
  0
VERTEX
  8
LAYER_1
  5
15CB
 10
52.7494
 20
13.7339
 30
0.000000
  70
    32
  0
VERTEX
  8
LAYER_1
  5
15CC
 10
52.7513
 20
13.7686
 30
0.000000
  70
    32
  0
VERTEX
  8
LAYER_1
  5
15CD
 10
52.7531
 20
13.8034
 30
0.000000
  70
    32
  0
VERTEX
  8
LAYER_1
  5
15CE
 10
52.7548
 20
13.8382
 30
0.000000
  70
    32
  0
VERTEX
  8
LAYER_1
  5
15CF
 10
52.7564
 20
13.8730
 30
0.000000
  70
    32
  0
VERTEX
  8
LAYER_1
  5
15D0
 10
52.7580
 20
13.9078
 30
0.000000
  70
    32
  0
VERTEX
  8
LAYER_1
  5
15D1
 10
52.7594
 20
13.9425
 30
0.000000
  70
    32
  0
VERTEX
  8
LAYER_1
  5
15D2
 10
52.7608
 20
13.9774
 30
0.000000
  70
    32
  0
VERTEX
  8
LAYER_1
  5
15D3
 10
52.7620
 20
14.0122
 30
0.000000
  70
    32
  0
VERTEX
  8
LAYER_1
  5
15D4
 10
52.7632
 20
14.0470
 30
0.000000
  70
    32
  0
VERTEX
  8
LAYER_1
  5
15D5
 10
52.7643
 20
14.0818
 30
0.000000
  70
    32
  0
VERTEX
  8
LAYER_1
  5
15D6
 10
52.7653
 20
14.1166
 30
0.000000
  70
    32
  0
VERTEX
  8
LAYER_1
  5
15D7
 10
52.7662
 20
14.1515
 30
0.000000
  70
    32
  0
VERTEX
  8
LAYER_1
  5
15D8
 10
52.7670
 20
14.1863
 30
0.000000
  70
    32
  0
VERTEX
  8
LAYER_1
  5
15D9
 10
52.7677
 20
14.2211
 30
0.000000
  70
    32
  0
VERTEX
  8
LAYER_1
  5
15DA
 10
52.7683
 20
14.2560
 30
0.000000
  70
    32
  0
VERTEX
  8
LAYER_1
  5
15DB
 10
52.7689
 20
14.2908
 30
0.000000
  70
    32
  0
VERTEX
  8
LAYER_1
  5
15DC
 10
52.7693
 20
14.3257
 30
0.000000
  70
    32
  0
VERTEX
  8
LAYER_1
  5
15DD
 10
52.7697
 20
14.3605
 30
0.000000
  70
    32
  0
VERTEX
  8
LAYER_1
  5
15DE
 10
52.7700
 20
14.3954
 30
0.000000
  70
    32
  0
VERTEX
  8
LAYER_1
  5
15DF
 10
52.7702
 20
14.4303
 30
0.000000
  70
    32
  0
VERTEX
  8
LAYER_1
  5
15E0
 10
52.7702
 20
14.4651
 30
0.000000
  70
    32
  0
VERTEX
  8
LAYER_1
  5
15E1
 10
52.7702
 20
14.5000
 30
0.000000
  70
    32
  0
VERTEX
  8
LAYER_1
  5
15E2
 10
52.7702
 20
14.5349
 30
0.000000
  70
    32
  0
VERTEX
  8
LAYER_1
  5
15E3
 10
52.7700
 20
14.5698
 30
0.000000
  70
    32
  0
VERTEX
  8
LAYER_1
  5
15E4
 10
52.7697
 20
14.6047
 30
0.000000
  70
    32
  0
VERTEX
  8
LAYER_1
  5
15E5
 10
52.7693
 20
14.6395
 30
0.000000
  70
    32
  0
VERTEX
  8
LAYER_1
  5
15E6
 10
52.7689
 20
14.6744
 30
0.000000
  70
    32
  0
VERTEX
  8
LAYER_1
  5
15E7
 10
52.7683
 20
14.7093
 30
0.000000
  70
    32
  0
VERTEX
  8
LAYER_1
  5
15E8
 10
52.7677
 20
14.7441
 30
0.000000
  70
    32
  0
VERTEX
  8
LAYER_1
  5
15E9
 10
52.7670
 20
14.7790
 30
0.000000
  70
    32
  0
VERTEX
  8
LAYER_1
  5
15EA
 10
52.7662
 20
14.8138
 30
0.000000
  70
    32
  0
VERTEX
  8
LAYER_1
  5
15EB
 10
52.7653
 20
14.8487
 30
0.000000
  70
    32
  0
VERTEX
  8
LAYER_1
  5
15EC
 10
52.7643
 20
14.8835
 30
0.000000
  70
    32
  0
VERTEX
  8
LAYER_1
  5
15ED
 10
52.7632
 20
14.9184
 30
0.000000
  70
    32
  0
VERTEX
  8
LAYER_1
  5
15EE
 10
52.7620
 20
14.9532
 30
0.000000
  70
    32
  0
VERTEX
  8
LAYER_1
  5
15EF
 10
52.7607
 20
14.9880
 30
0.000000
  70
    32
  0
VERTEX
  8
LAYER_1
  5
15F0
 10
52.7594
 20
15.0228
 30
0.000000
  70
    32
  0
VERTEX
  8
LAYER_1
  5
15F1
 10
52.7579
 20
15.0576
 30
0.000000
  70
    32
  0
VERTEX
  8
LAYER_1
  5
15F2
 10
52.7564
 20
15.0924
 30
0.000000
  70
    32
  0
VERTEX
  8
LAYER_1
  5
15F3
 10
52.7548
 20
15.1272
 30
0.000000
  70
    32
  0
VERTEX
  8
LAYER_1
  5
15F4
 10
52.7531
 20
15.1620
 30
0.000000
  70
    32
  0
VERTEX
  8
LAYER_1
  5
15F5
 10
52.7513
 20
15.1968
 30
0.000000
  70
    32
  0
VERTEX
  8
LAYER_1
  5
15F6
 10
52.7494
 20
15.2316
 30
0.000000
  70
    32
  0
VERTEX
  8
LAYER_1
  5
15F7
 10
52.7474
 20
15.2664
 30
0.000000
  70
    32
  0
VERTEX
  8
LAYER_1
  5
15F8
 10
52.7453
 20
15.3011
 30
0.000000
  70
    32
  0
VERTEX
  8
LAYER_1
  5
15F9
 10
52.7431
 20
15.3359
 30
0.000000
  70
    32
  0
VERTEX
  8
LAYER_1
  5
15FA
 10
52.7409
 20
15.3706
 30
0.000000
  70
    32
  0
VERTEX
  8
LAYER_1
  5
15FB
 10
52.7385
 20
15.4054
 30
0.000000
  70
    32
  0
VERTEX
  8
LAYER_1
  5
15FC
 10
52.7361
 20
15.4401
 30
0.000000
  70
    32
  0
VERTEX
  8
LAYER_1
  5
15FD
 10
52.7336
 20
15.4748
 30
0.000000
  70
    32
  0
VERTEX
  8
LAYER_1
  5
15FE
 10
52.7310
 20
15.5096
 30
0.000000
  70
    32
  0
VERTEX
  8
LAYER_1
  5
15FF
 10
52.7283
 20
15.5443
 30
0.000000
  70
    32
  0
VERTEX
  8
LAYER_1
  5
1600
 10
52.7255
 20
15.5790
 30
0.000000
  70
    32
  0
VERTEX
  8
LAYER_1
  5
1601
 10
52.7226
 20
15.6137
 30
0.000000
  70
    32
  0
VERTEX
  8
LAYER_1
  5
1602
 10
52.7196
 20
15.6484
 30
0.000000
  70
    32
  0
VERTEX
  8
LAYER_1
  5
1603
 10
52.7166
 20
15.6830
 30
0.000000
  70
    32
  0
VERTEX
  8
LAYER_1
  5
1604
 10
52.7134
 20
15.7177
 30
0.000000
  70
    32
  0
VERTEX
  8
LAYER_1
  5
1605
 10
52.7102
 20
15.7523
 30
0.000000
  70
    32
  0
VERTEX
  8
LAYER_1
  5
1606
 10
52.7068
 20
15.7870
 30
0.000000
  70
    32
  0
VERTEX
  8
LAYER_1
  5
1607
 10
52.7034
 20
15.8216
 30
0.000000
  70
    32
  0
VERTEX
  8
LAYER_1
  5
1608
 10
52.6999
 20
15.8563
 30
0.000000
  70
    32
  0
VERTEX
  8
LAYER_1
  5
1609
 10
52.6963
 20
15.8909
 30
0.000000
  70
    32
  0
VERTEX
  8
LAYER_1
  5
160A
 10
52.6926
 20
15.9255
 30
0.000000
  70
    32
  0
VERTEX
  8
LAYER_1
  5
160B
 10
52.6888
 20
15.9601
 30
0.000000
  70
    32
  0
VERTEX
  8
LAYER_1
  5
160C
 10
52.6850
 20
15.9947
 30
0.000000
  70
    32
  0
VERTEX
  8
LAYER_1
  5
160D
 10
52.6810
 20
16.0292
 30
0.000000
  70
    32
  0
VERTEX
  8
LAYER_1
  5
160E
 10
52.6770
 20
16.0638
 30
0.000000
  70
    32
  0
VERTEX
  8
LAYER_1
  5
160F
 10
52.6728
 20
16.0984
 30
0.000000
  70
    32
  0
VERTEX
  8
LAYER_1
  5
1610
 10
52.6686
 20
16.1329
 30
0.000000
  70
    32
  0
VERTEX
  8
LAYER_1
  5
1611
 10
52.6643
 20
16.1674
 30
0.000000
  70
    32
  0
VERTEX
  8
LAYER_1
  5
1612
 10
52.6599
 20
16.2019
 30
0.000000
  70
    32
  0
VERTEX
  8
LAYER_1
  5
1613
 10
52.6554
 20
16.2364
 30
0.000000
  70
    32
  0
VERTEX
  8
LAYER_1
  5
1614
 10
52.6508
 20
16.2709
 30
0.000000
  70
    32
  0
VERTEX
  8
LAYER_1
  5
1615
 10
52.6461
 20
16.3054
 30
0.000000
  70
    32
  0
VERTEX
  8
LAYER_1
  5
1616
 10
52.6414
 20
16.3399
 30
0.000000
  70
    32
  0
VERTEX
  8
LAYER_1
  5
1617
 10
52.6365
 20
16.3744
 30
0.000000
  70
    32
  0
VERTEX
  8
LAYER_1
  5
1618
 10
52.6316
 20
16.4088
 30
0.000000
  70
    32
  0
VERTEX
  8
LAYER_1
  5
1619
 10
52.6266
 20
16.4432
 30
0.000000
  70
    32
  0
VERTEX
  8
LAYER_1
  5
161A
 10
52.6214
 20
16.4777
 30
0.000000
  70
    32
  0
VERTEX
  8
LAYER_1
  5
161B
 10
52.6162
 20
16.5121
 30
0.000000
  70
    32
  0
VERTEX
  8
LAYER_1
  5
161C
 10
52.6109
 20
16.5464
 30
0.000000
  70
    32
  0
VERTEX
  8
LAYER_1
  5
161D
 10
52.6056
 20
16.5808
 30
0.000000
  70
    32
  0
VERTEX
  8
LAYER_1
  5
161E
 10
52.6001
 20
16.6152
 30
0.000000
  70
    32
  0
VERTEX
  8
LAYER_1
  5
161F
 10
52.5945
 20
16.6495
 30
0.000000
  70
    32
  0
VERTEX
  8
LAYER_1
  5
1620
 10
52.5889
 20
16.6839
 30
0.000000
  70
    32
  0
VERTEX
  8
LAYER_1
  5
1621
 10
52.5831
 20
16.7182
 30
0.000000
  70
    32
  0
VERTEX
  8
LAYER_1
  5
1622
 10
52.5773
 20
16.7525
 30
0.000000
  70
    32
  0
VERTEX
  8
LAYER_1
  5
1623
 10
52.5714
 20
16.7868
 30
0.000000
  70
    32
  0
VERTEX
  8
LAYER_1
  5
1624
 10
52.5654
 20
16.8211
 30
0.000000
  70
    32
  0
VERTEX
  8
LAYER_1
  5
1625
 10
52.5593
 20
16.8554
 30
0.000000
  70
    32
  0
VERTEX
  8
LAYER_1
  5
1626
 10
52.5531
 20
16.8896
 30
0.000000
  70
    32
  0
VERTEX
  8
LAYER_1
  5
1627
 10
52.5468
 20
16.9238
 30
0.000000
  70
    32
  0
VERTEX
  8
LAYER_1
  5
1628
 10
52.5405
 20
16.9581
 30
0.000000
  70
    32
  0
VERTEX
  8
LAYER_1
  5
1629
 10
52.5340
 20
16.9923
 30
0.000000
  70
    32
  0
VERTEX
  8
LAYER_1
  5
162A
 10
52.5275
 20
17.0265
 30
0.000000
  70
    32
  0
VERTEX
  8
LAYER_1
  5
162B
 10
52.5209
 20
17.0606
 30
0.000000
  70
    32
  0
VERTEX
  8
LAYER_1
  5
162C
 10
52.5142
 20
17.0948
 30
0.000000
  70
    32
  0
VERTEX
  8
LAYER_1
  5
162D
 10
52.5074
 20
17.1289
 30
0.000000
  70
    32
  0
VERTEX
  8
LAYER_1
  5
162E
 10
52.5005
 20
17.1631
 30
0.000000
  70
    32
  0
VERTEX
  8
LAYER_1
  5
162F
 10
52.4935
 20
17.1972
 30
0.000000
  70
    32
  0
VERTEX
  8
LAYER_1
  5
1630
 10
52.4864
 20
17.2313
 30
0.000000
  70
    32
  0
VERTEX
  8
LAYER_1
  5
1631
 10
52.4793
 20
17.2653
 30
0.000000
  70
    32
  0
VERTEX
  8
LAYER_1
  5
1632
 10
52.4720
 20
17.2994
 30
0.000000
  70
    32
  0
VERTEX
  8
LAYER_1
  5
1633
 10
52.4647
 20
17.3334
 30
0.000000
  70
    32
  0
VERTEX
  8
LAYER_1
  5
1634
 10
52.4573
 20
17.3675
 30
0.000000
  70
    32
  0
VERTEX
  8
LAYER_1
  5
1635
 10
52.4498
 20
17.4015
 30
0.000000
  70
    32
  0
VERTEX
  8
LAYER_1
  5
1636
 10
52.4422
 20
17.4355
 30
0.000000
  70
    32
  0
VERTEX
  8
LAYER_1
  5
1637
 10
52.4345
 20
17.4694
 30
0.000000
  70
    32
  0
VERTEX
  8
LAYER_1
  5
1638
 10
52.4267
 20
17.5034
 30
0.000000
  70
    32
  0
VERTEX
  8
LAYER_1
  5
1639
 10
52.4189
 20
17.5373
 30
0.000000
  70
    32
  0
VERTEX
  8
LAYER_1
  5
163A
 10
52.4109
 20
17.5712
 30
0.000000
  70
    32
  0
VERTEX
  8
LAYER_1
  5
163B
 10
52.4029
 20
17.6051
 30
0.000000
  70
    32
  0
VERTEX
  8
LAYER_1
  5
163C
 10
52.3948
 20
17.6390
 30
0.000000
  70
    32
  0
VERTEX
  8
LAYER_1
  5
163D
 10
52.3865
 20
17.6729
 30
0.000000
  70
    32
  0
VERTEX
  8
LAYER_1
  5
163E
 10
52.3782
 20
17.7067
 30
0.000000
  70
    32
  0
VERTEX
  8
LAYER_1
  5
163F
 10
52.3699
 20
17.7405
 30
0.000000
  70
    32
  0
VERTEX
  8
LAYER_1
  5
1640
 10
52.3614
 20
17.7743
 30
0.000000
  70
    32
  0
VERTEX
  8
LAYER_1
  5
1641
 10
52.3528
 20
17.8081
 30
0.000000
  70
    32
  0
VERTEX
  8
LAYER_1
  5
1642
 10
52.3442
 20
17.8419
 30
0.000000
  70
    32
  0
VERTEX
  8
LAYER_1
  5
1643
 10
52.3354
 20
17.8756
 30
0.000000
  70
    32
  0
VERTEX
  8
LAYER_1
  5
1644
 10
52.3266
 20
17.9094
 30
0.000000
  70
    32
  0
VERTEX
  8
LAYER_1
  5
1645
 10
52.3177
 20
17.9431
 30
0.000000
  70
    32
  0
VERTEX
  8
LAYER_1
  5
1646
 10
52.3087
 20
17.9768
 30
0.000000
  70
    32
  0
VERTEX
  8
LAYER_1
  5
1647
 10
52.2996
 20
18.0104
 30
0.000000
  70
    32
  0
VERTEX
  8
LAYER_1
  5
1648
 10
52.2904
 20
18.0441
 30
0.000000
  70
    32
  0
VERTEX
  8
LAYER_1
  5
1649
 10
52.2811
 20
18.0777
 30
0.000000
  70
    32
  0
VERTEX
  8
LAYER_1
  5
164A
 10
52.2718
 20
18.1113
 30
0.000000
  70
    32
  0
VERTEX
  8
LAYER_1
  5
164B
 10
52.2624
 20
18.1449
 30
0.000000
  70
    32
  0
VERTEX
  8
LAYER_1
  5
164C
 10
52.2528
 20
18.1784
 30
0.000000
  70
    32
  0
VERTEX
  8
LAYER_1
  5
164D
 10
52.2432
 20
18.2120
 30
0.000000
  70
    32
  0
VERTEX
  8
LAYER_1
  5
164E
 10
52.2335
 20
18.2455
 30
0.000000
  70
    32
  0
VERTEX
  8
LAYER_1
  5
164F
 10
52.2237
 20
18.2790
 30
0.000000
  70
    32
  0
VERTEX
  8
LAYER_1
  5
1650
 10
52.2138
 20
18.3124
 30
0.000000
  70
    32
  0
SEQEND
  8
LAYER_1
  5
1651
  0
LINE
  5
F9A
  8
LAYER_1
 10
52.97142053517944
 20
18.64904088762475
 30
0.0
 11
52.97142053517944
 21
18.732932046472129
 31
0.0
  0
LINE
  5
F9B
  8
LAYER_1
 10
52.887358169885438
 20
21.594134182507869
 30
0.0
 11
52.803124598144798
 21
21.678367754248491
 31
0.0
  0
LINE
  5
F9C
  8
LAYER_1
 10
52.803124598144798
 20
21.678367754248491
 30
0.0
 11
52.719062232850781
 21
21.678367754248491
 31
0.0
  0
LINE
  5
F9D
  8
LAYER_1
 10
51.540990673608214
 20
8.9714252855690262
 30
0.0
 11
51.540990673608214
 21
20.07964195564259
 31
0.0
  0
LINE
  5
F9E
  8
LAYER_1
 10
51.62505303890223
 20
20.07964195564259
 30
0.0
 11
51.62505303890223
 21
8.9714252855690262
 31
0.0
  0
LINE
  5
F9F
  8
LAYER_1
 10
51.709286610642877
 20
20.07964195564259
 30
0.0
 11
51.709286610642877
 21
8.9714252855690262
 31
0.0
  0
LINE
  5
FA0
  8
LAYER_1
 10
52.97142053517944
 20
20.920950434369239
 30
0.0
 11
52.97142053517944
 21
21.257542308438541
 31
0.0
  0
LINE
  5
FA1
  8
LAYER_1
 10
53.308012409248732
 20
21.005184006109872
 30
0.0
 11
53.308012409248732
 21
20.920950434369239
 31
0.0
  0
LINE
  5
FA2
  8
LAYER_1
 10
53.308012409248732
 20
21.173308736697891
 30
0.0
 11
53.308012409248732
 21
20.920950434369239
 31
0.0
  0
LINE
  5
FA3
  8
LAYER_1
 10
53.476308346283417
 20
21.257542308438541
 30
0.0
 11
53.476308346283417
 21
21.341775880179181
 31
0.0
  0
LINE
  5
FA4
  8
LAYER_1
 10
53.476308346283417
 20
21.341775880179181
 30
0.0
 11
53.476308346283417
 21
21.426009451919828
 31
0.0
  0
LINE
  5
FA5
  8
LAYER_1
 10
53.476308346283417
 20
21.426009451919828
 30
0.0
 11
53.392245980989443
 21
21.426009451919828
 31
0.0
  0
LINE
  5
FA6
  8
LAYER_1
 10
53.392245980989443
 20
21.426009451919828
 30
0.0
 11
53.392245980989443
 21
21.5099006107672
 31
0.0
  0
LINE
  5
FA7
  8
LAYER_1
 10
53.392245980989443
 20
21.5099006107672
 30
0.0
 11
53.392245980989443
 21
21.594134182507869
 31
0.0
  0
POLYLINE
  5
FA8
  8
LAYER_1
 66
     1
 10
0.0
 20
0.0
 30
0.0
  0
VERTEX
  5
FA9
  8
LAYER_1
 10
53.392245980989443
 20
21.594134182507869
 30
0.0
  0
VERTEX
  5
FAA
  8
LAYER_1
 10
53.308012409248732
 20
21.594134182507869
 30
0.0
  0
VERTEX
  5
FAB
  8
LAYER_1
 10
53.308012409248732
 20
21.678367754248491
 30
0.0
  0
SEQEND
  5
FAC
  8
LAYER_1
  0
LINE
  5
FAD
  8
LAYER_1
 10
53.308012409248732
 20
21.678367754248491
 30
0.0
 11
53.223950043954723
 21
21.762601325989149
 31
0.0
  0
LINE
  5
FAE
  8
LAYER_1
 10
53.223950043954723
 20
21.762601325989149
 30
0.0
 11
53.139716472214118
 21
21.846834897729771
 31
0.0
  0
LINE
  5
FAF
  8
LAYER_1
 10
53.139716472214118
 20
21.846834897729771
 30
0.0
 11
53.055654106920088
 21
21.846834897729771
 31
0.0
  0
LINE
  5
FB0
  8
LAYER_1
 10
53.055654106920088
 20
21.846834897729771
 30
0.0
 11
53.055654106920088
 21
21.930726056577161
 31
0.0
  0
LINE
  5
FB1
  8
LAYER_1
 10
53.055654106920088
 20
21.930726056577161
 30
0.0
 11
52.97142053517944
 21
21.930726056577161
 31
0.0
  0
LINE
  5
FB2
  8
LAYER_1
 10
52.97142053517944
 20
21.930726056577161
 30
0.0
 11
52.887358169885438
 21
21.930726056577161
 31
0.0
  0
LINE
  5
FB3
  8
LAYER_1
 10
53.055654106920088
 20
21.594134182507869
 30
0.0
 11
53.139716472214118
 21
21.594134182507869
 31
0.0
  0
LINE
  5
FB4
  8
LAYER_1
 10
53.139716472214118
 20
21.594134182507869
 30
0.0
 11
53.139716472214118
 21
21.5099006107672
 31
0.0
  0
POLYLINE
  5
FB5
  8
LAYER_1
 66
     1
 10
0.0
 20
0.0
 30
0.0
  0
VERTEX
  5
FB6
  8
LAYER_1
 10
53.139716472214118
 20
21.5099006107672
 30
0.0
  0
VERTEX
  5
FB7
  8
LAYER_1
 10
53.223950043954723
 20
21.5099006107672
 30
0.0
  0
VERTEX
  5
FB8
  8
LAYER_1
 10
53.223950043954723
 20
21.426009451919828
 30
0.0
  0
SEQEND
  5
FB9
  8
LAYER_1
  0
LINE
  5
FBA
  8
LAYER_1
 10
53.223950043954723
 20
21.426009451919828
 30
0.0
 11
53.223950043954723
 21
21.341775880179181
 31
0.0
  0
LINE
  5
FBB
  8
LAYER_1
 10
53.223950043954723
 20
21.341775880179181
 30
0.0
 11
53.223950043954723
 21
21.257542308438541
 31
0.0
  0
POLYLINE
  5
FBC
  8
LAYER_1
 66
     1
 10
0.0
 20
0.0
 30
0.0
  0
VERTEX
  5
FBD
  8
LAYER_1
 10
53.223950043954723
 20
21.257542308438541
 30
0.0
  0
VERTEX
  5
FBE
  8
LAYER_1
 10
53.308012409248732
 20
21.257542308438541
 30
0.0
  0
VERTEX
  5
FBF
  8
LAYER_1
 10
53.308012409248732
 20
21.173308736697891
 30
0.0
  0
SEQEND
  5
FC0
  8
LAYER_1
  0
POLYLINE
  5
FC1
  8
LAYER_1
 66
     1
 10
0.0
 20
0.0
 30
0.0
  0
VERTEX
  5
FC2
  8
LAYER_1
 10
52.214174421746833
 20
18.228215441814779
 30
0.0
  0
VERTEX
  5
FC3
  8
LAYER_1
 10
52.382470358781482
 20
17.639265265416821
 30
0.0
  0
VERTEX
  5
FC4
  8
LAYER_1
 10
52.466532724075471
 20
16.965739104384959
 30
0.0
  0
VERTEX
  5
FC5
  8
LAYER_1
 10
52.634828661110149
 20
16.376788927986979
 30
0.0
  0
VERTEX
  5
FC6
  8
LAYER_1
 10
52.634828661110149
 20
15.703605179848379
 30
0.0
  0
VERTEX
  5
FC7
  8
LAYER_1
 10
52.719062232850781
 20
15.114655003450411
 30
0.0
  0
VERTEX
  5
FC8
  8
LAYER_1
 10
52.719062232850781
 20
13.76828750717319
 30
0.0
  0
VERTEX
  5
FC9
  8
LAYER_1
 10
52.634828661110149
 20
13.178994917881949
 30
0.0
  0
VERTEX
  5
FCA
  8
LAYER_1
 10
52.634828661110149
 20
12.50581116974335
 30
0.0
  0
VERTEX
  5
FCB
  8
LAYER_1
 10
52.466532724075471
 20
11.916860993345381
 30
0.0
  0
VERTEX
  5
FCC
  8
LAYER_1
 10
52.382470358781482
 20
11.243677245206779
 30
0.0
  0
VERTEX
  5
FCD
  8
LAYER_1
 10
52.214174421746833
 20
10.654384655915541
 30
0.0
  0
SEQEND
  5
FCE
  8
LAYER_1
  0
LINE
  5
FCF
  8
LAYER_1
 10
52.97142053517944
 20
21.257542308438541
 30
0.0
 11
52.97142053517944
 21
21.341775880179181
 31
0.0
  0
LINE
  5
FD0
  8
LAYER_1
 10
52.97142053517944
 20
21.341775880179181
 30
0.0
 11
52.887358169885438
 21
21.341775880179181
 31
0.0
  0
LINE
  5
FD1
  8
LAYER_1
 10
52.887358169885438
 20
21.341775880179181
 30
0.0
 11
52.887358169885438
 21
21.426009451919828
 31
0.0
  0
LINE
  5
FD2
  8
LAYER_1
 10
52.887358169885438
 20
21.426009451919828
 30
0.0
 11
52.803124598144798
 21
21.426009451919828
 31
0.0
  0
POLYLINE
  5
FD3
  8
LAYER_1
 66
     1
 10
0.0
 20
0.0
 30
0.0
  0
VERTEX
  5
FD4
  8
LAYER_1
 10
52.803124598144798
 20
21.426009451919828
 30
0.0
  0
VERTEX
  5
FD5
  8
LAYER_1
 10
52.803124598144798
 20
21.5099006107672
 30
0.0
  0
VERTEX
  5
FD6
  8
LAYER_1
 10
52.719062232850781
 20
21.5099006107672
 30
0.0
  0
SEQEND
  5
FD7
  8
LAYER_1
  0
LINE
  5
FD8
  8
LAYER_1
 10
53.139716472214118
 20
21.173308736697891
 30
0.0
 11
53.139716472214118
 21
21.257542308438541
 31
0.0
  0
LINE
  5
FD9
  8
LAYER_1
 10
53.139716472214118
 20
21.257542308438541
 30
0.0
 11
53.139716472214118
 21
21.341775880179181
 31
0.0
  0
POLYLINE
  5
FDA
  8
LAYER_1
 66
     1
 10
0.0
 20
0.0
 30
0.0
  0
VERTEX
  5
FDB
  8
LAYER_1
 10
53.139716472214118
 20
21.341775880179181
 30
0.0
  0
VERTEX
  5
FDC
  8
LAYER_1
 10
53.139716472214118
 20
21.426009451919828
 30
0.0
  0
VERTEX
  5
FDD
  8
LAYER_1
 10
53.055654106920088
 20
21.426009451919828
 30
0.0
  0
SEQEND
  5
FDE
  8
LAYER_1
  0
LINE
  5
FDF
  8
LAYER_1
 10
53.055654106920088
 20
21.426009451919828
 30
0.0
 11
53.055654106920088
 21
21.5099006107672
 31
0.0
  0
LINE
  5
FE0
  8
LAYER_1
 10
53.055654106920088
 20
21.5099006107672
 30
0.0
 11
52.97142053517944
 21
21.5099006107672
 31
0.0
  0
LINE
  5
FE1
  8
LAYER_1
 10
52.97142053517944
 20
21.5099006107672
 30
0.0
 11
52.97142053517944
 21
21.594134182507869
 31
0.0
  0
LINE
  5
FE2
  8
LAYER_1
 10
52.97142053517944
 20
21.594134182507869
 30
0.0
 11
52.887358169885438
 21
21.594134182507869
 31
0.0
  0
POLYLINE
  5
FE3
  8
LAYER_1
 66
     1
 10
0.0
 20
0.0
 30
0.0
  0
VERTEX
  5
FE4
  8
LAYER_1
 10
53.392245980989443
 20
22.014959628317818
 30
0.0
  0
VERTEX
  5
FE5
  8
LAYER_1
 10
53.476308346283417
 20
22.014959628317818
 30
0.0
  0
VERTEX
  5
FE6
  8
LAYER_1
 10
53.476308346283417
 20
21.930726056577161
 30
0.0
  0
SEQEND
  5
FE7
  8
LAYER_1
  0
LINE
  5
FE8
  8
LAYER_1
 10
53.476308346283417
 20
21.930726056577161
 30
0.0
 11
53.56054191802405
 21
21.846834897729771
 31
0.0
  0
POLYLINE
  5
FE9
  8
LAYER_1
 66
     1
 10
0.0
 20
0.0
 30
0.0
  0
VERTEX
  5
FEA
  8
LAYER_1
 10
53.56054191802405
 20
21.846834897729771
 30
0.0
  0
VERTEX
  5
FEB
  8
LAYER_1
 10
53.56054191802405
 20
21.762601325989149
 30
0.0
  0
VERTEX
  5
FEC
  8
LAYER_1
 10
53.644775489764669
 20
21.762601325989149
 30
0.0
  0
SEQEND
  5
FED
  8
LAYER_1
  0
LINE
  5
FEE
  8
LAYER_1
 10
53.644775489764669
 20
21.762601325989149
 30
0.0
 11
53.644775489764669
 21
21.678367754248491
 31
0.0
  0
LINE
  5
FEF
  8
LAYER_1
 10
53.644775489764669
 20
21.678367754248491
 30
0.0
 11
53.7288378550587
 21
21.594134182507869
 31
0.0
  0
LINE
  5
FF0
  8
LAYER_1
 10
53.7288378550587
 20
21.594134182507869
 30
0.0
 11
53.7288378550587
 21
21.5099006107672
 31
0.0
  0
LINE
  5
FF1
  8
LAYER_1
 10
53.7288378550587
 20
21.5099006107672
 30
0.0
 11
53.7288378550587
 21
21.426009451919828
 31
0.0
  0
POLYLINE
  5
FF2
  8
LAYER_1
 66
     1
 10
0.0
 20
0.0
 30
0.0
  0
VERTEX
  5
FF3
  8
LAYER_1
 10
53.7288378550587
 20
21.426009451919828
 30
0.0
  0
VERTEX
  5
FF4
  8
LAYER_1
 10
53.7288378550587
 20
21.341775880179181
 30
0.0
  0
VERTEX
  5
FF5
  8
LAYER_1
 10
53.813071426799361
 20
21.341775880179181
 30
0.0
  0
SEQEND
  5
FF6
  8
LAYER_1
  0
LINE
  5
FF7
  8
LAYER_1
 10
53.813071426799361
 20
21.341775880179181
 30
0.0
 11
53.813071426799361
 21
21.257542308438541
 31
0.0
  0
LINE
  5
FF8
  8
LAYER_1
 10
52.719062232850781
 20
21.762601325989149
 30
0.0
 11
52.803124598144798
 21
21.762601325989149
 31
0.0
  0
LINE
  5
FF9
  8
LAYER_1
 10
52.803124598144798
 20
21.762601325989149
 30
0.0
 11
52.887358169885438
 21
21.762601325989149
 31
0.0
  0
POLYLINE
  5
FFA
  8
LAYER_1
 66
     1
 10
0.0
 20
0.0
 30
0.0
  0
VERTEX
  5
FFB
  8
LAYER_1
 10
52.887358169885438
 20
21.762601325989149
 30
0.0
  0
VERTEX
  5
FFC
  8
LAYER_1
 10
52.887358169885438
 20
21.678367754248491
 30
0.0
  0
VERTEX
  5
FFD
  8
LAYER_1
 10
52.97142053517944
 20
21.678367754248491
 30
0.0
  0
SEQEND
  5
FFE
  8
LAYER_1
  0
LINE
  5
FFF
  8
LAYER_1
 10
52.97142053517944
 20
21.678367754248491
 30
0.0
 11
53.055654106920088
 21
21.678367754248491
 31
0.0
  0
LINE
  5
1000
  8
LAYER_1
 10
53.055654106920088
 20
21.678367754248491
 30
0.0
 11
53.055654106920088
 21
21.594134182507869
 31
0.0
  0
POLYLINE
  5
1001
  8
LAYER_1
 66
     1
 10
0.0
 20
0.0
 30
0.0
  0
VERTEX
  5
1002
  8
LAYER_1
 10
53.56054191802405
 20
21.341775880179181
 30
0.0
  0
VERTEX
  5
1003
  8
LAYER_1
 10
53.56054191802405
 20
21.257542308438541
 30
0.0
  0
VERTEX
  5
1004
  8
LAYER_1
 10
53.644775489764669
 20
21.257542308438541
 30
0.0
  0
SEQEND
  5
1005
  8
LAYER_1
  0
LINE
  5
1006
  8
LAYER_1
 10
52.382470358781482
 20
21.5099006107672
 30
0.0
 11
52.298236787040842
 21
21.5099006107672
 31
0.0
  0
LINE
  5
1007
  8
LAYER_1
 10
52.719062232850781
 20
21.678367754248491
 30
0.0
 11
51.877582547677527
 21
21.678367754248491
 31
0.0
  0
LINE
  5
1008
  8
LAYER_1
 10
51.709286610642877
 20
21.678367754248491
 30
0.0
 11
51.540990673608214
 21
21.678367754248491
 31
0.0
  0
LINE
  5
1009
  8
LAYER_1
 10
51.540990673608214
 20
21.678367754248491
 30
0.0
 11
51.456757101867581
 21
21.678367754248491
 31
0.0
  0
LINE
  5
100A
  8
LAYER_1
 10
51.372523530126927
 20
20.16353311448999
 30
0.0
 11
32.775223265234622
 21
20.16353311448999
 31
0.0
  0
LINE
  5
100B
  8
LAYER_1
 10
32.775223265234622
 20
20.247766686230619
 30
0.0
 11
51.372523530126927
 21
20.247766686230619
 31
0.0
  0
LINE
  5
100C
  8
LAYER_1
 10
32.775223265234622
 20
20.416233829711899
 30
0.0
 11
51.372523530126927
 21
20.416233829711899
 31
0.0
  0
LINE
  5
100D
  8
LAYER_1
 10
8.2029892194956133
 20
20.584358560299929
 30
0.0
 11
21.835473738642349
 21
20.584358560299929
 31
0.0
  0
LINE
  5
100E
  8
LAYER_1
 10
32.775223265234622
 20
20.584358560299929
 30
0.0
 11
51.372523530126927
 21
20.584358560299929
 31
0.0
  0
LINE
  5
100F
  8
LAYER_1
 10
3.929551979163584
 20
20.668592132040569
 30
0.0
 11
21.835473738642349
 21
20.668592132040569
 31
0.0
  0
LINE
  5
1010
  8
LAYER_1
 10
32.775223265234622
 20
20.668592132040569
 30
0.0
 11
51.372523530126927
 21
20.668592132040569
 31
0.0
  0
LINE
  5
1011
  8
LAYER_1
 10
22.08800324741765
 20
20.920950434369239
 30
0.0
 11
32.522693756459361
 21
20.920950434369239
 31
0.0
  0
LINE
  5
1012
  8
LAYER_1
 10
21.75124016690172
 20
20.920950434369239
 30
0.0
 11
32.859285630528667
 21
20.920950434369239
 31
0.0
  0
LINE
  5
1013
  8
LAYER_1
 10
43.041617837241667
 20
21.678367754248491
 30
0.0
 11
37.235151199876263
 21
21.678367754248491
 31
0.0
  0
LINE
  5
1014
  8
LAYER_1
 10
20.0682807965552
 20
21.678367754248491
 30
0.0
 11
11.569079166635291
 21
21.678367754248491
 31
0.0
  0
LINE
  5
1015
  8
LAYER_1
 10
37.235151199876263
 20
21.678367754248491
 30
0.0
 11
20.0682807965552
 21
21.678367754248491
 31
0.0
  0
LINE
  5
1016
  8
LAYER_1
 10
47.835274530308979
 20
21.678463672041332
 30
0.0
 11
45.899901773552557
 21
21.678463672041332
 31
0.0
  0
LINE
  5
1017
  8
LAYER_1
 10
51.035931656057627
 20
21.762601325989149
 30
0.0
 11
51.12016522779826
 21
21.762601325989149
 31
0.0
  0
LINE
  5
1018
  8
LAYER_1
 10
49.605501794486408
 20
21.762601325989149
 30
0.0
 11
49.77379773152105
 21
21.762601325989149
 31
0.0
  0
LINE
  5
1019
  8
LAYER_1
 10
35.04730401842577
 20
21.762601325989149
 30
0.0
 11
43.125851408982321
 21
21.762601325989149
 31
0.0
  0
LINE
  5
101A
  8
LAYER_1
 10
17.79620004336406
 20
21.762601325989149
 30
0.0
 11
35.04730401842577
 21
21.762601325989149
 31
0.0
  0
LINE
  5
101B
  8
LAYER_1
 10
43.125851408982321
 20
21.762601325989149
 30
0.0
 11
49.605501794486408
 21
21.762601325989149
 31
0.0
  0
LINE
  5
101C
  8
LAYER_1
 10
52.719062232850781
 20
22.014959628317818
 30
0.0
 11
3.8271236501480308
 21
22.014959628317818
 31
0.0
  0
LINE
  5
101D
  8
LAYER_1
 10
3.4062982043380852
 20
22.09919320005843
 30
0.0
 11
52.719062232850781
 21
22.09919320005843
 31
0.0
  0
LINE
  5
101E
  8
LAYER_1
 10
2.81717682149349
 20
22.267317930646449
 30
0.0
 11
52.719062232850781
 21
22.267317930646449
 31
0.0
  0
LINE
  5
101F
  8
LAYER_1
 10
4.5003073982866288
 20
21.762601325989149
 30
0.0
 11
6.0992044033391357
 21
21.762601325989149
 31
0.0
  0
LINE
  5
1020
  8
LAYER_1
 10
51.456757101867581
 20
21.5099006107672
 30
0.0
 11
6.0992044033391357
 21
21.5099006107672
 31
0.0
  0
LINE
  5
1021
  8
LAYER_1
 10
51.540990673608214
 20
21.5099006107672
 30
0.0
 11
51.456757101867581
 21
21.5099006107672
 31
0.0
  0
LINE
  5
1022
  8
LAYER_1
 10
51.62505303890223
 20
21.5099006107672
 30
0.0
 11
51.540990673608214
 21
21.5099006107672
 31
0.0
  0
LINE
  5
1023
  8
LAYER_1
 10
51.709286610642877
 20
21.5099006107672
 30
0.0
 11
51.62505303890223
 21
21.5099006107672
 31
0.0
  0
LINE
  5
1024
  8
LAYER_1
 10
51.877582547677527
 20
21.5099006107672
 30
0.0
 11
51.709286610642877
 21
21.5099006107672
 31
0.0
  0
LINE
  5
1025
  8
LAYER_1
 10
52.214174421746833
 20
21.5099006107672
 30
0.0
 11
52.045878484712162
 21
21.5099006107672
 31
0.0
  0
LINE
  5
1026
  8
LAYER_1
 10
52.298236787040842
 20
21.5099006107672
 30
0.0
 11
52.214174421746833
 21
21.5099006107672
 31
0.0
  0
LINE
  5
1027
  8
LAYER_1
 10
52.719062232850781
 20
21.5099006107672
 30
0.0
 11
52.298236787040842
 21
21.5099006107672
 31
0.0
  0
LINE
  5
1028
  8
LAYER_1
 10
52.719062232850781
 20
22.267317930646449
 30
0.0
 11
52.803124598144798
 21
22.267317930646449
 31
0.0
  0
LINE
  5
1029
  8
LAYER_1
 10
52.803124598144798
 20
22.267317930646449
 30
0.0
 11
52.887358169885438
 21
22.267317930646449
 31
0.0
  0
LINE
  5
102A
  8
LAYER_1
 10
52.887358169885438
 20
22.267317930646449
 30
0.0
 11
52.97142053517944
 21
22.267317930646449
 31
0.0
  0
POLYLINE
  5
102B
  8
LAYER_1
 66
     1
 10
0.0
 20
0.0
 30
0.0
  0
VERTEX
  5
102C
  8
LAYER_1
 10
52.97142053517944
 20
22.267317930646449
 30
0.0
  0
VERTEX
  5
102D
  8
LAYER_1
 10
53.055654106920088
 20
22.267317930646449
 30
0.0
  0
VERTEX
  5
102E
  8
LAYER_1
 10
53.055654106920088
 20
22.183426771799091
 30
0.0
  0
VERTEX
  5
102F
  8
LAYER_1
 10
53.139716472214118
 20
22.183426771799091
 30
0.0
  0
SEQEND
  5
1030
  8
LAYER_1
  0
POLYLINE
  5
1031
  8
LAYER_1
 66
     1
 10
0.0
 20
0.0
 30
0.0
  0
VERTEX
  5
1032
  8
LAYER_1
 10
53.139716472214118
 20
22.183426771799091
 30
0.0
  0
VERTEX
  5
1033
  8
LAYER_1
 10
53.223950043954723
 20
22.183426771799091
 30
0.0
  0
VERTEX
  5
1034
  8
LAYER_1
 10
53.223950043954723
 20
22.09919320005843
 30
0.0
  0
VERTEX
  5
1035
  8
LAYER_1
 10
53.308012409248732
 20
22.09919320005843
 30
0.0
  0
SEQEND
  5
1036
  8
LAYER_1
  0
LINE
  5
1037
  8
LAYER_1
 10
53.308012409248732
 20
22.09919320005843
 30
0.0
 11
53.392245980989443
 21
22.014959628317818
 31
0.0
  0
LINE
  5
1038
  8
LAYER_1
 10
-2.736760307096695
 20
24.679622081515451
 30
0.0
 11
30.5031425120435
 21
4.6796220815154523
 31
0.0
  0
LINE
  5
1039
  8
LAYER_1
 10
31.84951000832076
 20
16.292555356246339
 30
0.0
 11
31.84951000832076
 21
19.91117481216131
 31
0.0
  0
LINE
  5
103A
  8
LAYER_1
 10
32.01780594535537
 20
10.149668051258219
 30
0.0
 11
32.01780594535537
 21
19.91117481216131
 31
0.0
  0
LINE
  5
103B
  8
LAYER_1
 10
31.84951000832076
 20
10.149668051258219
 30
0.0
 11
31.84951000832076
 21
16.292555356246339
 31
0.0
  0
LINE
  5
103C
  8
LAYER_1
 10
32.101868310649387
 20
8.9714252855690262
 30
0.0
 11
32.101868310649387
 21
19.91117481216131
 31
0.0
  0
LINE
  5
103D
  8
LAYER_1
 10
32.438460184718721
 20
8.8871917138283791
 30
0.0
 11
32.438460184718721
 21
20.07964195564259
 31
0.0
  0
LINE
  5
103E
  8
LAYER_1
 10
32.522693756459361
 20
8.9714252855690262
 30
0.0
 11
32.522693756459361
 21
20.07964195564259
 31
0.0
  0
LINE
  5
103F
  8
LAYER_1
 10
32.606927328199987
 20
20.07964195564259
 30
0.0
 11
32.606927328199987
 21
8.9714252855690262
 31
0.0
  0
LINE
  5
1040
  8
LAYER_1
 10
51.877582547677527
 20
21.678367754248491
 30
0.0
 11
51.709286610642877
 21
21.678367754248491
 31
0.0
  0
LINE
  5
1041
  8
LAYER_1
 10
51.456757101867581
 20
21.678367754248491
 30
0.0
 11
47.838308852399237
 21
21.678367754248491
 31
0.0
  0
LINE
  5
1042
  8
LAYER_1
 10
11.569079166635291
 20
21.678367754248491
 30
0.0
 11
8.7078770305995619
 21
21.678367754248491
 31
0.0
  0
LINE
  5
1043
  8
LAYER_1
 10
45.899901773552557
 20
21.678463672041332
 30
0.0
 11
43.038871299345281
 21
21.678463672041332
 31
0.0
  0
LINE
  5
1044
  8
LAYER_1
 10
51.12016522779826
 20
21.762601325989149
 30
0.0
 11
52.719062232850781
 21
21.762601325989149
 31
0.0
  0
LINE
  5
1045
  8
LAYER_1
 10
50.78357335372899
 20
21.762601325989149
 30
0.0
 11
51.035931656057627
 21
21.762601325989149
 31
0.0
  0
LINE
  5
1046
  8
LAYER_1
 10
50.531043844953679
 20
21.762601325989149
 30
0.0
 11
50.78357335372899
 21
21.762601325989149
 31
0.0
  0
LINE
  5
1047
  8
LAYER_1
 10
50.278685542624999
 20
21.762601325989149
 30
0.0
 11
50.531043844953679
 21
21.762601325989149
 31
0.0
  0
LINE
  5
1048
  8
LAYER_1
 10
50.026156033849702
 20
21.762601325989149
 30
0.0
 11
50.278685542624999
 21
21.762601325989149
 31
0.0
  0
LINE
  5
1049
  8
LAYER_1
 10
49.77379773152105
 20
21.762601325989149
 30
0.0
 11
50.026156033849702
 21
21.762601325989149
 31
0.0
  0
LINE
  5
104A
  8
LAYER_1
 10
6.0992044033391357
 20
21.762601325989149
 30
0.0
 11
17.79620004336406
 21
21.762601325989149
 31
0.0
  0
LINE
  5
104B
  8
LAYER_1
 10
8.7078770305995619
 20
21.678367754248491
 30
0.0
 11
4.9209616376499588
 21
21.678367754248491
 31
0.0
  0
LINE
  5
104C
  8
LAYER_1
 10
52.045878484712162
 20
21.5099006107672
 30
0.0
 11
51.877582547677527
 21
21.5099006107672
 31
0.0
  0
LINE
  5
104D
  8
LAYER_1
 10
52.719062232850781
 20
22.09919320005843
 30
0.0
 11
52.803124598144798
 21
22.09919320005843
 31
0.0
  0
LINE
  5
104E
  8
LAYER_1
 10
52.803124598144798
 20
22.09919320005843
 30
0.0
 11
52.887358169885438
 21
22.09919320005843
 31
0.0
  0
LINE
  5
104F
  8
LAYER_1
 10
52.887358169885438
 20
22.09919320005843
 30
0.0
 11
52.97142053517944
 21
22.09919320005843
 31
0.0
  0
POLYLINE
  5
1050
  8
LAYER_1
 66
     1
 10
0.0
 20
0.0
 30
0.0
  0
VERTEX
  5
1051
  8
LAYER_1
 10
52.97142053517944
 20
22.09919320005843
 30
0.0
  0
VERTEX
  5
1052
  8
LAYER_1
 10
52.97142053517944
 20
22.014959628317818
 30
0.0
  0
VERTEX
  5
1053
  8
LAYER_1
 10
53.055654106920088
 20
22.014959628317818
 30
0.0
  0
SEQEND
  5
1054
  8
LAYER_1
  0
LINE
  5
1055
  8
LAYER_1
 10
53.055654106920088
 20
22.014959628317818
 30
0.0
 11
53.139716472214118
 21
22.014959628317818
 31
0.0
  0
POLYLINE
  5
1056
  8
LAYER_1
 66
     1
 10
0.0
 20
0.0
 30
0.0
  0
VERTEX
  5
1057
  8
LAYER_1
 10
53.139716472214118
 20
22.014959628317818
 30
0.0
  0
VERTEX
  5
1058
  8
LAYER_1
 10
53.139716472214118
 20
21.930726056577161
 30
0.0
  0
VERTEX
  5
1059
  8
LAYER_1
 10
53.223950043954723
 20
21.930726056577161
 30
0.0
  0
SEQEND
  5
105A
  8
LAYER_1
  0
LINE
  5
105B
  8
LAYER_1
 10
53.223950043954723
 20
21.930726056577161
 30
0.0
 11
53.308012409248732
 21
21.846834897729771
 31
0.0
  0
LINE
  5
105C
  8
LAYER_1
 10
53.308012409248732
 20
21.846834897729771
 30
0.0
 11
53.392245980989443
 21
21.762601325989149
 31
0.0
  0
LINE
  5
105D
  8
LAYER_1
 10
53.392245980989443
 20
21.762601325989149
 30
0.0
 11
53.476308346283417
 21
21.678367754248491
 31
0.0
  0
LINE
  5
105E
  8
LAYER_1
 10
53.476308346283417
 20
21.678367754248491
 30
0.0
 11
53.476308346283417
 21
21.594134182507869
 31
0.0
  0
LINE
  5
105F
  8
LAYER_1
 10
53.476308346283417
 20
21.594134182507869
 30
0.0
 11
53.56054191802405
 21
21.5099006107672
 31
0.0
  0
LINE
  5
1060
  8
LAYER_1
 10
53.56054191802405
 20
21.5099006107672
 30
0.0
 11
53.56054191802405
 21
21.426009451919828
 31
0.0
  0
LINE
  5
1061
  8
LAYER_1
 10
53.56054191802405
 20
21.426009451919828
 30
0.0
 11
53.56054191802405
 21
21.341775880179181
 31
0.0
  0
LINE
  5
1062
  8
LAYER_1
 10
-2.2318724959927181
 20
26.179622081515461
 30
0.0
 11
-2.1476389242520919
 21
26.179622081515461
 31
0.0
  0
LINE
  5
1063
  8
LAYER_1
 10
-2.1476389242520919
 20
26.179622081515461
 30
0.0
 11
-2.0635765589580539
 21
26.179622081515461
 31
0.0
  0
LINE
  5
1064
  8
LAYER_1
 10
57.094927802198377
 20
26.095730922668061
 30
0.0
 11
57.17899016749238
 21
26.095730922668061
 31
0.0
  0
LINE
  5
1065
  8
LAYER_1
 10
57.094927802198377
 20
26.095730922668061
 30
0.0
 11
57.17899016749238
 21
26.095730922668061
 31
0.0
  0
LINE
  5
1066
  8
LAYER_1
 10
57.17899016749238
 20
26.095730922668061
 30
0.0
 11
57.17899016749238
 21
26.011497350927421
 31
0.0
  0
LINE
  5
1067
  8
LAYER_1
 10
57.17899016749238
 20
26.095730922668061
 30
0.0
 11
57.17899016749238
 21
26.011497350927421
 31
0.0
  0
LINE
  5
1068
  8
LAYER_1
 10
-2.0635765589580539
 20
26.179622081515461
 30
0.0
 11
10.222540463911439
 21
26.179622081515461
 31
0.0
  0
LINE
  5
1069
  8
LAYER_1
 10
-2.7367603070966839
 20
25.759139048598751
 30
0.0
 11
-2.7367603070966839
 21
25.843030207446141
 31
0.0
  0
LINE
  5
106A
  8
LAYER_1
 10
-2.7367603070966839
 20
25.759139048598751
 30
0.0
 11
-2.7367603070966871
 21
24.679622081515461
 31
0.0
  0
LINE
  5
106B
  8
LAYER_1
 10
-2.7367603070966839
 20
25.843030207446141
 30
0.0
 11
-2.6525267353560622
 21
25.92726377918677
 31
0.0
  0
LINE
  5
106C
  8
LAYER_1
 10
-2.6525267353560622
 20
25.92726377918677
 30
0.0
 11
-2.6525267353560622
 21
26.011497350927421
 31
0.0
  0
POLYLINE
  5
106D
  8
LAYER_1
 66
     1
 10
0.0
 20
0.0
 30
0.0
  0
VERTEX
  5
106E
  8
LAYER_1
 10
-2.6525267353560622
 20
26.011497350927421
 30
0.0
  0
VERTEX
  5
106F
  8
LAYER_1
 10
-2.5684643700620242
 20
26.011497350927421
 30
0.0
  0
VERTEX
  5
1070
  8
LAYER_1
 10
-2.5684643700620242
 20
26.095730922668061
 30
0.0
  0
SEQEND
  5
1071
  8
LAYER_1
  0
LINE
  5
1072
  8
LAYER_1
 10
-2.5684643700620242
 20
26.095730922668061
 30
0.0
 11
-2.4842307983213838
 21
26.095730922668061
 31
0.0
  0
LINE
  5
1073
  8
LAYER_1
 10
-2.4842307983213838
 20
26.095730922668061
 30
0.0
 11
-2.4842307983213838
 21
26.179622081515461
 31
0.0
  0
LINE
  5
1074
  8
LAYER_1
 10
-2.4842307983213838
 20
26.179622081515461
 30
0.0
 11
-2.4001684330273738
 21
26.179622081515461
 31
0.0
  0
LINE
  5
1075
  8
LAYER_1
 10
-2.4001684330273738
 20
26.179622081515461
 30
0.0
 11
-2.3159348612867201
 21
26.179622081515461
 31
0.0
  0
LINE
  5
1076
  8
LAYER_1
 10
-2.3159348612867201
 20
26.179622081515461
 30
0.0
 11
-2.2318724959927181
 21
26.179622081515461
 31
0.0
  0
LINE
  5
1077
  8
LAYER_1
 10
-2.2318724959927181
 20
26.179622081515461
 30
0.0
 11
-2.1476389242520919
 21
26.179622081515461
 31
0.0
  0
LINE
  5
1078
  8
LAYER_1
 10
-2.4842307983213838
 20
26.179622081515461
 30
0.0
 11
-2.4001684330273738
 21
26.179622081515461
 31
0.0
  0
LINE
  5
1079
  8
LAYER_1
 10
-2.4001684330273738
 20
26.179622081515461
 30
0.0
 11
-2.3159348612867201
 21
26.179622081515461
 31
0.0
  0
LINE
  5
107A
  8
LAYER_1
 10
-2.3159348612867201
 20
26.179622081515461
 30
0.0
 11
-2.2318724959927181
 21
26.179622081515461
 31
0.0
  0
LINE
  5
107B
  8
LAYER_1
 10
40.43294520998127
 20
26.179622081515461
 30
0.0
 11
10.222540463911439
 21
26.179622081515461
 31
0.0
  0
LINE
  5
107C
  8
LAYER_1
 10
57.263223739233048
 20
24.679622081515461
 30
0.0
 11
-2.7367603070966839
 21
24.679622081515451
 31
0.0
  0
LINE
  5
107D
  8
LAYER_1
 10
40.43294520998127
 20
26.179622081515461
 30
0.0
 11
56.674102356388417
 21
26.179622081515461
 31
0.0
  0
POLYLINE
  5
107E
  8
LAYER_1
 66
     1
 10
0.0
 20
0.0
 30
0.0
  0
VERTEX
  5
107F
  8
LAYER_1
 10
57.17899016749238
 20
26.011497350927421
 30
0.0
  0
VERTEX
  5
1080
  8
LAYER_1
 10
57.263223739233048
 20
26.011497350927421
 30
0.0
  0
VERTEX
  5
1081
  8
LAYER_1
 10
57.263223739233048
 20
25.92726377918677
 30
0.0
  0
SEQEND
  5
1082
  8
LAYER_1
  0
LINE
  5
1083
  8
LAYER_1
 10
56.674102356388417
 20
26.179622081515461
 30
0.0
 11
56.758335928129092
 21
26.179622081515461
 31
0.0
  0
LINE
  5
1084
  8
LAYER_1
 10
56.842398293423059
 20
26.179622081515461
 30
0.0
 11
56.926631865163721
 21
26.179622081515461
 31
0.0
  0
LINE
  5
1085
  8
LAYER_1
 10
56.926631865163721
 20
26.179622081515461
 30
0.0
 11
57.01069423045773
 21
26.179622081515461
 31
0.0
  0
LINE
  5
1086
  8
LAYER_1
 10
56.926631865163721
 20
26.179622081515461
 30
0.0
 11
57.01069423045773
 21
26.179622081515461
 31
0.0
  0
LINE
  5
1087
  8
LAYER_1
 10
57.01069423045773
 20
26.179622081515461
 30
0.0
 11
57.094927802198377
 21
26.095730922668061
 31
0.0
  0
LINE
  5
1088
  8
LAYER_1
 10
56.758335928129092
 20
26.179622081515461
 30
0.0
 11
56.842398293423059
 21
26.179622081515461
 31
0.0
  0
LINE
  5
1089
  8
LAYER_1
 10
56.758335928129092
 20
26.179622081515461
 30
0.0
 11
56.842398293423059
 21
26.179622081515461
 31
0.0
  0
LINE
  5
108A
  8
LAYER_1
 10
56.842398293423059
 20
26.179622081515461
 30
0.0
 11
56.926631865163721
 21
26.179622081515461
 31
0.0
  0
LINE
  5
108B
  8
LAYER_1
 10
57.01069423045773
 20
26.179622081515461
 30
0.0
 11
57.094927802198377
 21
26.095730922668061
 31
0.0
  0
POLYLINE
  5
108C
  8
LAYER_1
 66
     1
 10
0.0
 20
0.0
 30
0.0
  0
VERTEX
  5
108D
  8
LAYER_1
 10
4.1637155242173298
 20
6.0263319906859163
 30
0.0
  0
VERTEX
  5
108E
  8
LAYER_1
 10
4.3320114612519873
 20
5.9420984189452764
 30
0.0
  0
VERTEX
  5
108F
  8
LAYER_1
 10
4.4160738265459818
 20
5.8578648472046364
 30
0.0
  0
SEQEND
  5
1090
  8
LAYER_1
  0
POLYLINE
  5
1091
  8
LAYER_1
 66
     1
 10
0.0
 20
0.0
 30
0.0
  0
VERTEX
  5
1092
  8
LAYER_1
 10
4.836899272355935
 20
5.6055065448759702
 30
0.0
  0
VERTEX
  5
1093
  8
LAYER_1
 10
4.6686033353212792
 20
5.6055065448759702
 30
0.0
  0
VERTEX
  5
1094
  8
LAYER_1
 10
4.5843697635806526
 20
5.6897401166166031
 30
0.0
  0
SEQEND
  5
1095
  8
LAYER_1
  0
LINE
  5
1096
  8
LAYER_1
 10
4.4160738265459818
 20
5.8578648472046364
 30
0.0
 11
4.5843697635806526
 21
5.6897401166166031
 31
0.0
  0
LINE
  5
1097
  8
LAYER_1
 10
5.0892575746846092
 20
5.6055065448759702
 30
0.0
 11
5.0892575746846092
 21
6.1944567212739461
 31
0.0
  0
LINE
  5
1098
  8
LAYER_1
 10
4.1637155242173298
 20
6.0263319906859163
 30
0.0
 11
5.0892575746846092
 21
6.0263319906859163
 31
0.0
  0
POLYLINE
  5
1099
  8
LAYER_1
 66
     1
 10
0.0
 20
0.0
 30
0.0
  0
VERTEX
  5
109A
  8
LAYER_1
 10
3.4062982043380852
 20
6.0263319906859163
 30
0.0
  0
VERTEX
  5
109B
  8
LAYER_1
 10
3.1539399020094332
 20
6.0263319906859163
 30
0.0
  0
VERTEX
  5
109C
  8
LAYER_1
 10
2.81717682149349
 20
6.1944567212739461
 30
0.0
  0
VERTEX
  5
109D
  8
LAYER_1
 10
2.6488808844588401
 20
6.1944567212739461
 30
0.0
  0
VERTEX
  5
109E
  8
LAYER_1
 10
2.4805849474241688
 20
6.3629238647552251
 30
0.0
  0
VERTEX
  5
109F
  8
LAYER_1
 10
2.312289010389541
 20
6.4468150236026052
 30
0.0
  0
VERTEX
  5
10A0
  8
LAYER_1
 10
1.975697136320228
 20
6.783406897671914
 30
0.0
  0
VERTEX
  5
10A1
  8
LAYER_1
 10
1.639105262250929
 20
7.4569330587037799
 30
0.0
  0
VERTEX
  5
10A2
  8
LAYER_1
 10
1.639105262250929
 20
7.7935249327730833
 30
0.0
  0
SEQEND
  5
10A3
  8
LAYER_1
  0
LINE
  5
10A4
  8
LAYER_1
 10
9.9701821615827821
 20
5.6897401166166031
 30
0.0
 11
27.83032629754052
 21
6.2878194514331058
 31
0.0
  0
LINE
  5
10A5
  8
LAYER_1
 10
9.9701821615827821
 20
4.6796220815154523
 30
0.0
 11
6.5198586427024594
 21
4.6796220815154523
 31
0.0
  0
LINE
  5
10A6
  8
LAYER_1
 10
9.9701821615827821
 20
4.6796220815154523
 30
0.0
 11
9.9701821615827821
 21
5.6897401166166031
 31
0.0
  0
LINE
  5
10A7
  8
LAYER_1
 10
1.4502797265447489
 20
9.4927626630445214
 30
0.0
 11
1.639105262250929
 21
7.7935249327730833
 31
0.0
  0
LINE
  5
10A8
  8
LAYER_1
 10
6.5198586427024594
 20
4.6796220815154523
 30
0.0
 11
6.5198586427024594
 21
5.773631275464
 31
0.0
  0
LINE
  5
10A9
  8
LAYER_1
 10
3.4062982043380852
 20
6.0263319906859163
 30
0.0
 11
4.1637155242173298
 21
6.0263319906859163
 31
0.0
  0
LINE
  5
10AA
  8
LAYER_1
 10
5.0892575746846092
 20
5.773631275464
 30
0.0
 11
6.0992044033391357
 21
5.773631275464
 31
0.0
  0
LINE
  5
10AB
  8
LAYER_1
 10
6.3515627056678019
 20
5.6055065448759702
 30
0.0
 11
5.0892575746846092
 21
5.6055065448759702
 31
0.0
  0
LINE
  5
10AC
  8
LAYER_1
 10
4.836899272355935
 20
5.6055065448759702
 30
0.0
 11
6.5198586427024594
 21
5.6055065448759702
 31
0.0
  0
LINE
  5
10AD
  8
LAYER_1
 10
5.0892575746846092
 20
6.1944567212739461
 30
0.0
 11
6.0992044033391357
 21
6.1944567212739461
 31
0.0
  0
LINE
  5
10AE
  8
LAYER_1
 10
6.0992044033391357
 20
5.773631275464
 30
0.0
 11
6.0992044033391357
 21
6.1944567212739461
 31
0.0
  0
LINE
  5
10AF
  8
LAYER_1
 10
6.5198586427024594
 20
5.6055065448759702
 30
0.0
 11
6.3515627056678019
 21
5.6055065448759702
 31
0.0
  0
LINE
  5
10B0
  8
0
 10
30.5031425120435
 20
4.6796220815154523
 30
0.0
 11
57.263223739233048
 21
4.6796220815154497
 31
0.0
  0
LINE
  5
10B1
  8
0
 62
     0
 10
57.263223739233048
 20
26.011497350927421
 30
0.0
 11
57.263223739233048
 21
4.6796220815154523
 31
0.0
  0
ENDBLK
  5
BEB
  8
0
  0
ENDSEC
  0
SECTION
  2
ENTITIES
  0
INSERT
  5
10B2
  8
0
  2
1184FRT
 10
0.0
 20
0.0
 30
0.0
  0
ATTDEF
  5
10B3
  8
0
 10
0.0
 20
0.0
 30
0.0
 40
0.001
  1
K-1184
  3

  2
MODELNUMBER
 70
     8
1001
ACDBATTR
1070
     0
1070
     1
  0
ATTDEF
  5
10B4
  8
0
 10
0.0
 20
-0.0016666666666667
 30
0.0
 40
0.001
  1
DEVONSHIRE
  3

  2
TRADENAME
 70
     8
1001
ACDBATTR
1070
     0
1070
     1
  0
ATTDEF
  5
10B5
  8
0
 10
0.0
 20
-0.0033333333333333
 30
0.0
 40
0.001
  1
BATH
  3

  2
PRODUCT
 70
     8
1001
ACDBATTR
1070
     0
1070
     1
  0
ATTDEF
  5
10B6
  8
0
 10
0.0
 20
-0.005
 30
0.0
 40
0.001
  1
ACRYLIC
  3

  2
MATERIAL
 70
     8
1001
ACDBATTR
1070
     0
1070
     1
  0
ENDSEC
  0
EOF
