  0
SECTION
  2
HEADER
  9
$ACADVER
  1
AC1009
  9
$INSBASE
 10
0.0
 20
0.0
 30
0.0
  9
$EXTMIN
 10
-9.0145606312516264
 20
-0.005
 30
0.0
  9
$EXTMAX
 10
23.237044983862969
 20
21.578557576509411
 30
0.0
  9
$LIMMIN
 10
0.0
 20
0.0
  9
$LIMMAX
 10
12.0
 20
9.0
  9
$ORTHOMODE
 70
     0
  9
$REGENMODE
 70
     1
  9
$FILLMODE
 70
     1
  9
$QTEXTMODE
 70
     0
  9
$MIRRTEXT
 70
     0
  9
$DRAGMODE
 70
     2
  9
$LTSCALE
 40
1.0
  9
$OSMODE
 70
    37
  9
$ATTMODE
 70
     1
  9
$TEXTSIZE
 40
0.001
  9
$TRACEWID
 40
0.05
  9
$TEXTSTYLE
  7
STANDARD
  9
$CLAYER
  8
0
  9
$CELTYPE
  6
BYLAYER
  9
$CECOLOR
 62
   256
  9
$DIMSCALE
 40
1.0
  9
$DIMASZ
 40
0.18
  9
$DIMEXO
 40
0.0625
  9
$DIMDLI
 40
0.38
  9
$DIMRND
 40
0.0
  9
$DIMDLE
 40
0.0
  9
$DIMEXE
 40
0.18
  9
$DIMTP
 40
0.0
  9
$DIMTM
 40
0.0
  9
$DIMTXT
 40
0.18
  9
$DIMCEN
 40
0.09
  9
$DIMTSZ
 40
0.0
  9
$DIMTOL
 70
     0
  9
$DIMLIM
 70
     0
  9
$DIMTIH
 70
     1
  9
$DIMTOH
 70
     1
  9
$DIMSE1
 70
     0
  9
$DIMSE2
 70
     0
  9
$DIMTAD
 70
     0
  9
$DIMZIN
 70
     0
  9
$DIMBLK
  1

  9
$DIMASO
 70
     1
  9
$DIMSHO
 70
     1
  9
$DIMPOST
  1

  9
$DIMAPOST
  1

  9
$DIMALT
 70
     0
  9
$DIMALTD
 70
     2
  9
$DIMALTF
 40
25.399999999999999
  9
$DIMLFAC
 40
1.0
  9
$DIMTOFL
 70
     0
  9
$DIMTVP
 40
0.0
  9
$DIMTIX
 70
     0
  9
$DIMSOXD
 70
     0
  9
$DIMSAH
 70
     0
  9
$DIMBLK1
  1

  9
$DIMBLK2
  1

  9
$DIMSTYLE
  2
STANDARD
  9
$DIMCLRD
 70
     0
  9
$DIMCLRE
 70
     0
  9
$DIMCLRT
 70
     0
  9
$DIMTFAC
 40
1.0
  9
$DIMGAP
 40
0.09
  9
$LUNITS
 70
     2
  9
$LUPREC
 70
     4
  9
$SKETCHINC
 40
0.1
  9
$FILLETRAD
 40
0.0
  9
$AUNITS
 70
     0
  9
$AUPREC
 70
     0
  9
$MENU
  1
.
  9
$ELEVATION
 40
0.0
  9
$PELEVATION
 40
0.0
  9
$THICKNESS
 40
0.0
  9
$LIMCHECK
 70
     0
  9
$BLIPMODE
 70
     0
  9
$CHAMFERA
 40
0.0
  9
$CHAMFERB
 40
0.0
  9
$SKPOLY
 70
     0
  9
$TDCREATE
 40
2454301.4702979629
  9
$TDUPDATE
 40
2454379.3845368521
  9
$TDINDWG
 40
0.0146043056
  9
$TDUSRTIMER
 40
0.0146043056
  9
$USRTIMER
 70
     1
  9
$ANGBASE
 50
0.0
  9
$ANGDIR
 70
     0
  9
$PDMODE
 70
     0
  9
$PDSIZE
 40
0.0
  9
$PLINEWID
 40
0.0
  9
$COORDS
 70
     2
  9
$SPLFRAME
 70
     0
  9
$SPLINETYPE
 70
     6
  9
$SPLINESEGS
 70
     8
  9
$ATTDIA
 70
     0
  9
$ATTREQ
 70
     1
  9
$HANDLING
 70
     1
  9
$HANDSEED
  5
464
  9
$SURFTAB1
 70
     6
  9
$SURFTAB2
 70
     6
  9
$SURFTYPE
 70
     6
  9
$SURFU
 70
     6
  9
$SURFV
 70
     6
  9
$UCSNAME
  2

  9
$UCSORG
 10
0.0
 20
0.0
 30
0.0
  9
$UCSXDIR
 10
1.0
 20
0.0
 30
0.0
  9
$UCSYDIR
 10
0.0
 20
1.0
 30
0.0
  9
$PUCSNAME
  2

  9
$PUCSORG
 10
0.0
 20
0.0
 30
0.0
  9
$PUCSXDIR
 10
1.0
 20
0.0
 30
0.0
  9
$PUCSYDIR
 10
0.0
 20
1.0
 30
0.0
  9
$USERI1
 70
     0
  9
$USERI2
 70
     0
  9
$USERI3
 70
     0
  9
$USERI4
 70
     0
  9
$USERI5
 70
     0
  9
$USERR1
 40
0.0
  9
$USERR2
 40
0.0
  9
$USERR3
 40
0.0
  9
$USERR4
 40
0.0
  9
$USERR5
 40
0.0
  9
$WORLDVIEW
 70
     1
  9
$SHADEDGE
 70
     3
  9
$SHADEDIF
 70
    70
  9
$TILEMODE
 70
     1
  9
$MAXACTVP
 70
    64
  9
$PLIMCHECK
 70
     0
  9
$PEXTMIN
 10
0.0
 20
0.0
 30
0.0
  9
$PEXTMAX
 10
0.0
 20
0.0
 30
0.0
  9
$PLIMMIN
 10
0.0
 20
0.0
  9
$PLIMMAX
 10
12.0
 20
9.0
  9
$UNITMODE
 70
     0
  9
$VISRETAIN
 70
     1
  9
$PLINEGEN
 70
     0
  9
$PSLTSCALE
 70
     1
  0
ENDSEC
  0
SECTION
  2
TABLES
  0
TABLE
  2
VPORT
 70
     2
  0
VPORT
  2
*ACTIVE
 70
     0
 10
0.0
 20
0.0
 11
1.0
 21
1.0
 12
11.8596045552561
 22
7.8124488294361853
 13
0.0
 23
0.0
 14
0.5
 24
0.5
 15
0.5
 25
0.5
 16
0.0
 26
0.0
 36
1.0
 17
0.0
 27
0.0
 37
0.0
 40
34.91526281928499
 41
1.8816466552315609
 42
50.0
 43
0.0
 44
0.0
 50
0.0
 51
0.0
 71
     0
 72
  1000
 73
     1
 74
     3
 75
     0
 76
     0
 77
     0
 78
     0
  0
ENDTAB
  0
TABLE
  2
LTYPE
 70
     1
  0
LTYPE
  2
CONTINUOUS
 70
     0
  3
Solid line
 72
    65
 73
     0
 40
0.0
  0
ENDTAB
  0
TABLE
  2
LAYER
 70
     3
  0
LAYER
  2
0
 70
     0
 62
     7
  6
CONTINUOUS
  0
LAYER
  2
LAYER_1
 70
     0
 62
     7
  6
CONTINUOUS
  0
LAYER
  2
DEFPOINTS
 70
     0
 62
     7
  6
CONTINUOUS
  0
ENDTAB
  0
TABLE
  2
STYLE
 70
     1
  0
STYLE
  2
STANDARD
 70
     0
 40
0.0
 41
1.0
 50
0.0
 71
     0
 42
0.001
  3
txt
  4

  0
ENDTAB
  0
TABLE
  2
VIEW
 70
     0
  0
ENDTAB
  0
TABLE
  2
UCS
 70
     0
  0
ENDTAB
  0
TABLE
  2
APPID
 70
     4
  0
APPID
  2
ACAD
 70
     0
  0
APPID
  2
ACAD_EXEMPT_FROM_CAD_STANDARDS
 70
     0
  0
APPID
  2
ACDBATTR
 70
     0
  0
APPID
  2
CONTENTBLOCKICON
 70
     0
  0
ENDTAB
  0
TABLE
  2
DIMSTYLE
 70
     1
  0
DIMSTYLE
  2
STANDARD
 70
     0
  3

  4

  5

  6

  7

 40
1.0
 41
0.18
 42
0.0625
 43
0.38
 44
0.18
 45
0.0
 46
0.0
 47
0.0
 48
0.0
140
0.18
141
0.09
142
0.0
143
25.399999999999999
144
1.0
145
0.0
146
1.0
147
0.09
 71
     0
 72
     0
 73
     1
 74
     1
 75
     0
 76
     0
 77
     0
 78
     0
170
     0
171
     2
172
     0
173
     0
174
     0
175
     0
176
     0
177
     0
178
     0
  0
ENDTAB
  0
ENDSEC
  0
SECTION
  2
BLOCKS
  0
BLOCK
  8
0
  2
$MODEL_SPACE
 70
     0
 10
0.0
 20
0.0
 30
0.0
  3
$MODEL_SPACE
  1

  0
ENDBLK
  5
21
  8
0
  0
BLOCK
 67
     1
  8
0
  2
$PAPER_SPACE
 70
     0
 10
0.0
 20
0.0
 30
0.0
  3
$PAPER_SPACE
  1

  0
ENDBLK
  5
5B
 67
     1
  8
0
  0
BLOCK
  8
0
 62
     1
  2
1184SDE
 70
     0
 10
0.0
 20
0.0
 30
0.0
  3
1184SDE
  1

  0
LINE
  5
37B
  8
LAYER_1
 10
-8.9310498512585497
 20
16.497458643797199
 30
0.0
 11
-8.9310498512585497
 21
16.246244583165051
 31
0.0
  0
LINE
  5
37C
  8
LAYER_1
 10
-8.9310498512585497
 20
3.6596565092216049
 30
0.0
 11
-8.9310498512585497
 21
3.4919532285824948
 31
0.0
  0
LINE
  5
37D
  8
LAYER_1
 10
-8.9310498512585497
 20
6.7590994581067463
 30
0.0
 11
-8.9310498512585497
 21
4.413639551444632
 31
0.0
  0
LINE
  5
37E
  8
LAYER_1
 10
-8.9310498512585497
 20
16.246244583165051
 30
0.0
 11
-8.9310498512585497
 21
15.82732724189375
 31
0.0
  0
LINE
  5
37F
  8
LAYER_1
 10
-8.9310498512585497
 20
4.2459362708055153
 30
0.0
 11
-8.9310498512585497
 21
3.6596565092216049
 31
0.0
  0
LINE
  5
380
  8
LAYER_1
 10
-9.0145606312516264
 20
3.5758048689020541
 30
0.0
 11
-9.0145606312516264
 21
17.90046009015991
 31
0.0
  0
LINE
  5
381
  8
LAYER_1
 10
-8.9310498512585497
 20
15.82732724189375
 30
0.0
 11
-8.9310498512585497
 21
5.1887355914314313
 31
0.0
  0
POLYLINE
  5
382
  8
LAYER_1
 66
     1
 10
0.0
 20
0.0
 30
0.0
  0
VERTEX
  5
383
  8
LAYER_1
 10
-9.0145606312516264
 20
3.5758048689020541
 30
0.0
  0
VERTEX
  5
384
  8
LAYER_1
 10
-9.0145606312516264
 20
3.4919532285824948
 30
0.0
  0
VERTEX
  5
385
  8
LAYER_1
 10
-8.9310498512585497
 20
3.4919532285824948
 30
0.0
  0
SEQEND
  5
386
  8
LAYER_1
  0
POLYLINE
  5
387
  8
LAYER_1
 66
     1
 10
0.0
 20
0.0
 30
0.0
  0
VERTEX
  5
388
  8
LAYER_1
 10
-8.9310498512585497
 20
16.497458643797199
 30
0.0
  0
VERTEX
  5
389
  8
LAYER_1
 10
-9.0145606312516264
 20
16.413947863804161
 30
0.0
  0
VERTEX
  5
38A
  8
LAYER_1
 10
-9.0145606312516264
 20
16.330096223484599
 30
0.0
  0
SEQEND
  5
38B
  8
LAYER_1
  0
POLYLINE
  5
38C
  8
LAYER_1
 66
     1
 10
0.0
 20
0.0
 30
0.0
  0
VERTEX
  5
38D
  8
LAYER_1
 10
-8.9310498512585497
 20
16.497458643797199
 30
0.0
  0
VERTEX
  5
38E
  8
LAYER_1
 10
-8.9310498512585497
 20
16.497458643797199
 30
0.0
  0
VERTEX
  5
38F
  8
LAYER_1
 10
-8.8471982109389984
 20
16.581310284116778
 30
0.0
  0
SEQEND
  5
390
  8
LAYER_1
  0
POLYLINE
  5
391
  8
LAYER_1
 66
     1
 10
0.0
 20
0.0
 30
0.0
  0
VERTEX
  5
392
  8
LAYER_1
 10
-8.8471982109389984
 20
3.3245908082698739
 30
0.0
  0
VERTEX
  5
393
  8
LAYER_1
 10
-8.9310498512585497
 20
3.4081015882629302
 30
0.0
  0
VERTEX
  5
394
  8
LAYER_1
 10
-8.9310498512585497
 20
3.4919532285824948
 30
0.0
  0
SEQEND
  5
395
  8
LAYER_1
  0
LINE
  5
396
  8
LAYER_1
 10
-8.3444292293481936
 20
20.078557576509411
 30
0.0
 11
-8.4282808696677165
 21
20.078557576509411
 31
0.0
  0
LINE
  5
397
  8
LAYER_1
 10
-8.4282808696677165
 20
20.078557576509411
 30
0.0
 11
-8.4282808696677165
 21
19.99470593618986
 31
0.0
  0
LINE
  5
398
  8
LAYER_1
 10
-8.2609184493551169
 20
20.078557576509411
 30
0.0
 11
-8.3444292293481936
 21
20.078557576509411
 31
0.0
  0
LINE
  5
399
  8
LAYER_1
 10
-8.1770668090355656
 20
20.078557576509411
 30
0.0
 11
-8.2609184493551169
 21
20.078557576509411
 31
0.0
  0
LINE
  5
39A
  8
LAYER_1
 10
-8.0932151687160285
 20
20.078557576509411
 30
0.0
 11
-8.1770668090355656
 21
20.078557576509411
 31
0.0
  0
LINE
  5
39B
  8
LAYER_1
 10
-8.4282808696677165
 20
19.99470593618986
 30
0.0
 11
-8.5121325099873104
 21
19.99470593618986
 31
0.0
  0
LINE
  5
39C
  8
LAYER_1
 10
-8.5121325099873104
 20
19.99470593618986
 30
0.0
 11
-8.5959841503068475
 21
19.910854295870291
 31
0.0
  0
LINE
  5
39D
  8
LAYER_1
 10
-8.5959841503068475
 20
19.910854295870291
 30
0.0
 11
-8.6794949302999242
 21
19.82700265555075
 31
0.0
  0
LINE
  5
39E
  8
LAYER_1
 10
-8.6794949302999242
 20
19.82700265555075
 30
0.0
 11
-8.6794949302999242
 21
19.743491875557691
 31
0.0
  0
LINE
  5
39F
  8
LAYER_1
 10
-8.6794949302999242
 20
19.743491875557691
 30
0.0
 11
-8.6794949302999242
 21
19.659640235238118
 31
0.0
  0
LINE
  5
3A0
  8
LAYER_1
 10
-8.6794949302999242
 20
19.659640235238118
 30
0.0
 11
-8.7633465706194613
 21
19.659640235238118
 31
0.0
  0
LINE
  5
3A1
  8
LAYER_1
 10
-8.7633465706194613
 20
19.659640235238118
 30
0.0
 11
-8.7633465706194613
 21
19.57578859491856
 31
0.0
  0
LINE
  5
3A2
  8
LAYER_1
 10
-8.7633465706194613
 20
1.7327730835042841
 30
0.0
 11
-8.7633465706194613
 21
19.57578859491856
 31
0.0
  0
LINE
  5
3A3
  8
LAYER_1
 10
-8.8471982109389984
 20
16.497458643797199
 30
0.0
 11
-8.8471982109389984
 21
16.246244583165051
 31
0.0
  0
LINE
  5
3A4
  8
LAYER_1
 10
-8.8471982109389984
 20
3.6596565092216049
 30
0.0
 11
-8.8471982109389984
 21
3.4919532285824948
 31
0.0
  0
LINE
  5
3A5
  8
LAYER_1
 10
-8.8471982109389984
 20
6.7590994581067463
 30
0.0
 11
-8.8471982109389984
 21
4.413639551444632
 31
0.0
  0
LINE
  5
3A6
  8
LAYER_1
 10
-8.8471982109389984
 20
16.246244583165051
 30
0.0
 11
-8.8471982109389984
 21
15.82732724189375
 31
0.0
  0
LINE
  5
3A7
  8
LAYER_1
 10
-8.8471982109389984
 20
4.2459362708055153
 30
0.0
 11
-8.8471982109389984
 21
3.6596565092216049
 31
0.0
  0
LINE
  5
3A8
  8
LAYER_1
 10
-8.8471982109389984
 20
3.5758048689020541
 30
0.0
 11
-8.8471982109389984
 21
17.90046009015991
 31
0.0
  0
LINE
  5
3A9
  8
LAYER_1
 10
-8.8471982109389984
 20
15.82732724189375
 30
0.0
 11
-8.8471982109389984
 21
5.1887355914314313
 31
0.0
  0
LINE
  5
3AA
  8
LAYER_1
 10
-8.8471982109389984
 20
3.5758048689020541
 30
0.0
 11
-8.8471982109389984
 21
3.4919532285824948
 31
0.0
  0
LINE
  5
3AB
  8
LAYER_1
 10
-8.8471982109389984
 20
16.497458643797199
 30
0.0
 11
-8.8471982109389984
 21
16.330096223484599
 31
0.0
  0
POLYLINE
  5
3AC
  8
LAYER_1
 66
     1
 10
0.0
 20
0.0
 30
0.0
  0
VERTEX
  5
3AD
  8
LAYER_1
 10
-8.8471982109389984
 20
16.497458643797199
 30
0.0
  0
VERTEX
  5
3AE
  8
LAYER_1
 10
-8.7633465706194613
 20
16.497458643797199
 30
0.0
  0
VERTEX
  5
3AF
  8
LAYER_1
 10
-8.7633465706194613
 20
16.581310284116778
 30
0.0
  0
SEQEND
  5
3B0
  8
LAYER_1
  0
POLYLINE
  5
3B1
  8
LAYER_1
 66
     1
 10
0.0
 20
0.0
 30
0.0
  0
VERTEX
  5
3B2
  8
LAYER_1
 10
-8.7633465706194613
 20
3.3245908082698739
 30
0.0
  0
VERTEX
  5
3B3
  8
LAYER_1
 10
-8.7633465706194613
 20
3.4081015882629302
 30
0.0
  0
VERTEX
  5
3B4
  8
LAYER_1
 10
-8.8471982109389984
 20
3.4919532285824948
 30
0.0
  0
SEQEND
  5
3B5
  8
LAYER_1
  0
LINE
  5
3B6
  8
LAYER_1
 10
11.00621150618565
 20
1.92158936190718
 30
0.0
 11
11.00621150618565
 21
2.6755724041301998
 31
0.0
  0
LINE
  5
3B7
  8
LAYER_1
 10
16.702669282691591
 20
1.5865236609554421
 30
0.0
 11
15.362406478884649
 21
1.5865236609554421
 31
0.0
  0
LINE
  5
3B8
  8
LAYER_1
 10
14.775785856974281
 20
1.1676063196841531
 30
0.0
 11
14.775785856974281
 21
2.591720763810641
 31
0.0
  0
LINE
  5
3B9
  8
LAYER_1
 10
14.44072015602252
 20
0.0785575765094109
 30
0.0
 11
14.44072015602252
 21
2.172803422539352
 31
0.0
  0
POLYLINE
  5
3BA
  8
LAYER_1
 66
     1
 10
0.0
 20
0.0
 30
0.0
  0
VERTEX
  5
3BB
  8
LAYER_1
 10
14.85963749729383
 20
1.5026720206358839
 30
0.0
  0
VERTEX
  5
3BC
  8
LAYER_1
 10
15.19470319824555
 20
1.5026720206358839
 30
0.0
  0
VERTEX
  5
3BD
  8
LAYER_1
 10
15.2785548385651
 20
1.5865236609554421
 30
0.0
  0
VERTEX
  5
3BE
  8
LAYER_1
 10
15.52976889919724
 20
1.5865236609554421
 30
0.0
  0
SEQEND
  5
3BF
  8
LAYER_1
  0
LINE
  5
3C0
  8
LAYER_1
 10
15.52976889919724
 20
1.5865236609554421
 30
0.0
 11
15.94868624046857
 21
1.5865236609554421
 31
0.0
  0
LINE
  5
3C1
  8
LAYER_1
 10
15.94868624046857
 20
1.5865236609554421
 30
0.0
 11
16.116389521107681
 21
1.5865236609554421
 31
0.0
  0
LINE
  5
3C2
  8
LAYER_1
 10
16.116389521107681
 20
1.5865236609554421
 30
0.0
 11
16.28375194142032
 21
1.5865236609554421
 31
0.0
  0
LINE
  5
3C3
  8
LAYER_1
 10
16.28375194142032
 20
1.5865236609554421
 30
0.0
 11
16.367603581739871
 21
1.5865236609554421
 31
0.0
  0
LINE
  5
3C4
  8
LAYER_1
 10
14.44072015602252
 20
1.1676063196841531
 30
0.0
 11
14.775785856974281
 21
1.1676063196841531
 31
0.0
  0
LINE
  5
3C5
  8
LAYER_1
 10
14.022143675077769
 20
2.591720763810641
 30
0.0
 11
14.10565445507082
 21
2.591720763810641
 31
0.0
  0
LINE
  5
3C6
  8
LAYER_1
 10
14.10565445507082
 20
2.591720763810641
 30
0.0
 11
14.189506095390341
 21
2.591720763810641
 31
0.0
  0
LINE
  5
3C7
  8
LAYER_1
 10
14.189506095390341
 20
2.591720763810641
 30
0.0
 11
14.27335773570991
 21
2.591720763810641
 31
0.0
  0
LINE
  5
3C8
  8
LAYER_1
 10
14.27335773570991
 20
2.591720763810641
 30
0.0
 11
14.357209376029459
 21
2.591720763810641
 31
0.0
  0
LINE
  5
3C9
  8
LAYER_1
 10
13.938292034758151
 20
2.591720763810641
 30
0.0
 11
14.022143675077769
 21
2.591720763810641
 31
0.0
  0
LINE
  5
3CA
  8
LAYER_1
 10
14.775785856974281
 20
2.591720763810641
 30
0.0
 11
14.524571796342061
 21
2.591720763810641
 31
0.0
  0
LINE
  5
3CB
  8
LAYER_1
 10
14.524571796342061
 20
2.591720763810641
 30
0.0
 11
14.357209376029459
 21
2.591720763810641
 31
0.0
  0
POLYLINE
  5
3CC
  8
LAYER_1
 66
     1
 10
0.0
 20
0.0
 30
0.0
  0
VERTEX
  5
3CD
  8
LAYER_1
 10
16.702669282691591
 20
1.5865236609554421
 30
0.0
  0
VERTEX
  5
3CE
  8
LAYER_1
 10
16.870031703004191
 20
1.6703753012750009
 30
0.0
  0
VERTEX
  5
3CF
  8
LAYER_1
 10
17.037734983643301
 20
1.6703753012750009
 30
0.0
  0
VERTEX
  5
3D0
  8
LAYER_1
 10
17.205438264282449
 20
1.7542269415945591
 30
0.0
  0
VERTEX
  5
3D1
  8
LAYER_1
 10
17.37280068459506
 20
1.7542269415945591
 30
0.0
  0
VERTEX
  5
3D2
  8
LAYER_1
 10
17.540503965234208
 20
1.8377377215876149
 30
0.0
  0
VERTEX
  5
3D3
  8
LAYER_1
 10
17.707866385546811
 20
2.005441002226739
 30
0.0
  0
VERTEX
  5
3D4
  8
LAYER_1
 10
17.875569666186038
 20
2.0892926425462899
 30
0.0
  0
VERTEX
  5
3D5
  8
LAYER_1
 10
18.126783726818189
 20
2.3405067031784692
 30
0.0
  0
VERTEX
  5
3D6
  8
LAYER_1
 10
18.461849427769948
 20
3.0106381050819229
 30
0.0
  0
VERTEX
  5
3D7
  8
LAYER_1
 10
18.461849427769948
 20
3.1783413857210401
 30
0.0
  0
SEQEND
  5
3D8
  8
LAYER_1
  0
POLYLINE
  5
3D9
  8
LAYER_1
 66
     1
 10
0.0
 20
0.0
 30
0.0
  0
VERTEX
  5
3DA
  8
LAYER_1
 10
23.153193343543482
 20
21.578557576509411
 30
0.0
  0
VERTEX
  5
3DB
  8
LAYER_1
 10
21.142799137832981
 20
21.495046796516341
 30
0.0
  0
VERTEX
  5
3DC
  8
LAYER_1
 10
7.2370612578463911
 20
21.495046796516341
 30
0.0
  0
SEQEND
  5
3DD
  8
LAYER_1
  0
LINE
  5
3DE
  8
LAYER_1
 10
19.939406462104809
 20
20.078557576509411
 30
0.0
 11
18.461849427769948
 21
3.1783413857210401
 31
0.0
  0
LINE
  5
3DF
  8
LAYER_1
 10
23.153193343543482
 20
21.578557576509411
 30
0.0
 11
23.237044983862969
 21
20.070932352389882
 31
0.0
  0
LINE
  5
3E0
  8
LAYER_1
 10
-1.726625990306587
 20
1.5865236609554421
 30
0.0
 11
-1.559263569994001
 21
1.5865236609554421
 31
0.0
  0
LINE
  5
3E1
  8
LAYER_1
 10
-1.559263569994001
 20
1.5865236609554421
 30
0.0
 11
-1.3077086490352909
 21
1.5865236609554421
 31
0.0
  0
POLYLINE
  5
3E2
  8
LAYER_1
 66
     1
 10
0.0
 20
0.0
 30
0.0
  0
VERTEX
  5
3E3
  8
LAYER_1
 10
-1.3077086490352909
 20
1.5865236609554421
 30
0.0
  0
VERTEX
  5
3E4
  8
LAYER_1
 10
-0.7214288874514239
 20
1.5865236609554421
 30
0.0
  0
VERTEX
  5
3E5
  8
LAYER_1
 10
-0.6375772471318442
 20
1.5026720206358839
 30
0.0
  0
VERTEX
  5
3E6
  8
LAYER_1
 10
-0.2190007661870794
 20
1.5026720206358839
 30
0.0
  0
SEQEND
  5
3E7
  8
LAYER_1
  0
LINE
  5
3E8
  8
LAYER_1
 10
-2.0616916912583458
 20
1.5865236609554421
 30
0.0
 11
-1.9781809112652831
 21
1.5865236609554421
 31
0.0
  0
LINE
  5
3E9
  8
LAYER_1
 10
-1.9781809112652831
 20
1.5865236609554421
 30
0.0
 11
-1.894329270945732
 21
1.5865236609554421
 31
0.0
  0
LINE
  5
3EA
  8
LAYER_1
 10
0.1160649347646938
 20
1.1676063196841531
 30
0.0
 11
-0.2190007661870794
 21
1.1676063196841531
 31
0.0
  0
LINE
  5
3EB
  8
LAYER_1
 10
-3.988575116975638
 20
3.2618521657141031
 30
0.0
 11
-3.988575116975638
 21
3.5969178666658301
 31
0.0
  0
LINE
  5
3EC
  8
LAYER_1
 10
-3.904723476656101
 20
3.1783413857210401
 30
0.0
 11
-3.988575116975638
 21
3.2618521657141031
 31
0.0
  0
LINE
  5
3ED
  8
LAYER_1
 10
0.1999165750842309
 20
2.591720763810641
 30
0.0
 11
-0.0512974855479769
 21
2.591720763810641
 31
0.0
  0
LINE
  5
3EE
  8
LAYER_1
 10
-0.0512974855479769
 20
2.591720763810641
 30
0.0
 11
-0.2190007661870794
 21
2.591720763810641
 31
0.0
  0
LINE
  5
3EF
  8
LAYER_1
 10
-7.7534895128026866
 20
20.078557576509411
 30
0.0
 11
-6.8368040052286574
 21
21.578557576509411
 31
0.0
  0
LINE
  5
3F0
  8
LAYER_1
 10
11.00621150618565
 20
2.591720763810641
 30
0.0
 11
13.938292034758151
 21
2.591720763810641
 31
0.0
  0
LINE
  5
3F1
  8
LAYER_1
 10
11.00621150618565
 20
2.172803422539352
 30
0.0
 11
14.775785856974281
 21
2.172803422539352
 31
0.0
  0
LINE
  5
3F2
  8
LAYER_1
 10
14.357209376029459
 20
2.591720763810641
 30
0.0
 11
11.00621150618565
 21
2.591720763810641
 31
0.0
  0
LINE
  5
3F3
  8
LAYER_1
 10
10.9227007261926
 20
0.0785575765094109
 30
0.0
 11
14.44072015602252
 21
0.0785575765094109
 31
0.0
  0
POLYLINE
  5
3F4
  8
LAYER_1
 66
     1
 10
0.0
 20
0.0
 30
0.0
  0
VERTEX
  5
3F5
  8
LAYER_1
 10
5.6451602909579597
 20
1.0002438993715359
 30
0.0
  0
VERTEX
  5
3F6
  8
LAYER_1
 10
5.7286710709510231
 20
1.0002438993715359
 30
0.0
  0
VERTEX
  5
3F7
  8
LAYER_1
 10
5.8125227112705877
 20
0.9163922590519781
 30
0.0
  0
SEQEND
  5
3F8
  8
LAYER_1
  0
LINE
  5
3F9
  8
LAYER_1
 10
5.6451602909579597
 20
2.6755724041301998
 30
0.0
 11
11.00621150618565
 21
2.6755724041301998
 31
0.0
  0
LINE
  5
3FA
  8
LAYER_1
 10
3.5509144449280252
 20
1.92158936190718
 30
0.0
 11
11.00621150618565
 21
1.92158936190718
 31
0.0
  0
LINE
  5
3FB
  8
LAYER_1
 10
9.7498003426982791
 20
1.0002438993715359
 30
0.0
 11
4.8073256084153817
 21
1.0002438993715359
 31
0.0
  0
LINE
  5
3FC
  8
LAYER_1
 10
3.5509144449280252
 20
0.0785575765094109
 30
0.0
 11
3.5509144449280252
 21
2.172803422539352
 31
0.0
  0
LINE
  5
3FD
  8
LAYER_1
 10
4.7234739680958446
 20
1.0002438993715359
 30
0.0
 11
3.5509144449280252
 21
1.0002438993715359
 31
0.0
  0
LINE
  5
3FE
  8
LAYER_1
 10
3.5509144449280252
 20
2.591720763810641
 30
0.0
 11
0.7865371969946012
 21
2.591720763810641
 31
0.0
  0
LINE
  5
3FF
  8
LAYER_1
 10
0.7865371969946012
 20
2.591720763810641
 30
0.0
 11
0.5349822760359473
 21
2.591720763810641
 31
0.0
  0
LINE
  5
400
  8
LAYER_1
 10
3.5509144449280252
 20
2.6755724041301998
 30
0.0
 11
5.3936053699992641
 21
2.6755724041301998
 31
0.0
  0
LINE
  5
401
  8
LAYER_1
 10
10.9227007261926
 20
0.0785575765094109
 30
0.0
 11
10.9227007261926
 21
2.172803422539352
 31
0.0
  0
POLYLINE
  5
402
  8
LAYER_1
 66
     1
 10
0.0
 20
0.0
 30
0.0
  0
VERTEX
  5
403
  8
LAYER_1
 10
8.660751599523536
 20
0.9163922590519781
 30
0.0
  0
VERTEX
  5
404
  8
LAYER_1
 10
8.7446032398430731
 20
1.0002438993715359
 30
0.0
  0
VERTEX
  5
405
  8
LAYER_1
 10
8.8284548801626812
 20
1.0002438993715359
 30
0.0
  0
SEQEND
  5
406
  8
LAYER_1
  0
LINE
  5
407
  8
LAYER_1
 10
9.7498003426982791
 20
1.0002438993715359
 30
0.0
 11
10.9227007261926
 21
1.0002438993715359
 31
0.0
  0
POLYLINE
  5
408
  8
LAYER_1
 66
     1
 10
0.0
 20
0.0
 30
0.0
  0
VERTEX
  5
409
  8
LAYER_1
 10
7.2366371553970623
 20
21.495046796516341
 30
0.0
  0
VERTEX
  5
40A
  8
LAYER_1
 10
-3.401954495065282
 20
21.495046796516341
 30
0.0
  0
VERTEX
  5
40B
  8
LAYER_1
 10
-6.8368040052286574
 20
21.578557576509411
 30
0.0
  0
SEQEND
  5
40C
  8
LAYER_1
  0
LINE
  5
40D
  8
LAYER_1
 10
0.5349822760359473
 20
2.591720763810641
 30
0.0
 11
0.4514714960428706
 21
2.591720763810641
 31
0.0
  0
LINE
  5
40E
  8
LAYER_1
 10
0.4514714960428706
 20
2.591720763810641
 30
0.0
 11
0.367619855723305
 21
2.591720763810641
 31
0.0
  0
LINE
  5
40F
  8
LAYER_1
 10
0.367619855723305
 20
2.591720763810641
 30
0.0
 11
0.2837682154037822
 21
2.591720763810641
 31
0.0
  0
LINE
  5
410
  8
LAYER_1
 10
0.2837682154037822
 20
2.591720763810641
 30
0.0
 11
0.1999165750842309
 21
2.591720763810641
 31
0.0
  0
LINE
  5
411
  8
LAYER_1
 10
-0.2190007661870794
 20
2.172803422539352
 30
0.0
 11
3.5509144449280252
 21
2.172803422539352
 31
0.0
  0
LINE
  5
412
  8
LAYER_1
 10
3.5509144449280252
 20
2.591720763810641
 30
0.0
 11
0.1999165750842309
 21
2.591720763810641
 31
0.0
  0
LINE
  5
413
  8
LAYER_1
 10
0.1160649347646938
 20
0.0785575765094109
 30
0.0
 11
3.5509144449280252
 21
0.0785575765094109
 31
0.0
  0
LINE
  5
414
  8
LAYER_1
 10
23.236620881413639
 20
20.078557576509411
 30
0.0
 11
-8.0932151687160285
 21
20.078557576509411
 31
0.0
  0
LINE
  5
415
  8
LAYER_1
 10
-3.988575116975638
 20
3.5969178666658301
 30
0.0
 11
-5.4699861565930936
 21
20.078557576509411
 31
0.0
  0
LINE
  5
416
  8
LAYER_1
 10
0.1160649347646938
 20
0.0785575765094109
 30
0.0
 11
0.1160649347646938
 21
2.172803422539352
 31
0.0
  0
LINE
  5
417
  8
LAYER_1
 10
-0.2190007661870794
 20
1.1676063196841531
 30
0.0
 11
-0.2190007661870794
 21
2.591720763810641
 31
0.0
  0
POLYLINE
  5
418
  8
LAYER_1
 66
     1
 10
0.0
 20
0.0
 30
0.0
  0
VERTEX
  5
419
  8
LAYER_1
 10
-3.988575116975638
 20
3.1783413857210401
 30
0.0
  0
VERTEX
  5
41A
  8
LAYER_1
 10
-3.904723476656101
 20
3.0944897454014821
 30
0.0
  0
VERTEX
  5
41B
  8
LAYER_1
 10
-3.904723476656101
 20
2.926786464762368
 30
0.0
  0
VERTEX
  5
41C
  8
LAYER_1
 10
-3.8208718363365501
 20
2.843275684769317
 30
0.0
  0
VERTEX
  5
41D
  8
LAYER_1
 10
-3.8208718363365501
 20
2.7594240444497582
 30
0.0
  0
VERTEX
  5
41E
  8
LAYER_1
 10
-3.7370201960170131
 20
2.6755724041301998
 30
0.0
  0
VERTEX
  5
41F
  8
LAYER_1
 10
-3.7370201960170131
 20
2.508209983817586
 30
0.0
  0
VERTEX
  5
420
  8
LAYER_1
 10
-3.401954495065282
 20
2.172803422539352
 30
0.0
  0
VERTEX
  5
421
  8
LAYER_1
 10
-3.401954495065282
 20
2.0892926425462899
 30
0.0
  0
VERTEX
  5
422
  8
LAYER_1
 10
-3.3184437150722061
 20
2.0892926425462899
 30
0.0
  0
VERTEX
  5
423
  8
LAYER_1
 10
-3.150740434433132
 20
1.92158936190718
 30
0.0
  0
VERTEX
  5
424
  8
LAYER_1
 10
-3.0668887941135519
 20
1.92158936190718
 30
0.0
  0
VERTEX
  5
425
  8
LAYER_1
 10
-2.9833780141204889
 20
1.8377377215876149
 30
0.0
  0
VERTEX
  5
426
  8
LAYER_1
 10
-2.8995263738009518
 20
1.8377377215876149
 30
0.0
  0
VERTEX
  5
427
  8
LAYER_1
 10
-2.8156747334813721
 20
1.7542269415945591
 30
0.0
  0
VERTEX
  5
428
  8
LAYER_1
 10
-2.7318230931618208
 20
1.7542269415945591
 30
0.0
  0
VERTEX
  5
429
  8
LAYER_1
 10
-2.6483123131687161
 20
1.6703753012750009
 30
0.0
  0
VERTEX
  5
42A
  8
LAYER_1
 10
-2.4806090325296131
 20
1.6703753012750009
 30
0.0
  0
SEQEND
  5
42B
  8
LAYER_1
  0
LINE
  5
42C
  8
LAYER_1
 10
-2.4806090325296131
 20
1.6703753012750009
 30
0.0
 11
-2.3132466122170139
 21
1.6703753012750009
 31
0.0
  0
LINE
  5
42D
  8
LAYER_1
 10
-2.3132466122170139
 20
1.6703753012750009
 30
0.0
 11
-2.2293949718974631
 21
1.5865236609554421
 31
0.0
  0
LINE
  5
42E
  8
LAYER_1
 10
-2.2293949718974631
 20
1.5865236609554421
 30
0.0
 11
-2.1455433315778691
 21
1.5865236609554421
 31
0.0
  0
LINE
  5
42F
  8
LAYER_1
 10
-2.1455433315778691
 20
1.5865236609554421
 30
0.0
 11
-2.0616916912583458
 21
1.5865236609554421
 31
0.0
  0
LINE
  5
430
  8
LAYER_1
 10
-1.894329270945732
 20
1.5865236609554421
 30
0.0
 11
-1.8104776306262089
 21
1.5865236609554421
 31
0.0
  0
LINE
  5
431
  8
LAYER_1
 10
-1.8104776306262089
 20
1.5865236609554421
 30
0.0
 11
-1.726625990306587
 21
1.5865236609554421
 31
0.0
  0
ENDBLK
  5
37A
  8
0
 62
     1
  0
ENDSEC
  0
SECTION
  2
ENTITIES
  0
INSERT
  5
432
  8
0
 62
     1
  2
1184SDE
 10
0.0
 20
0.0
 30
0.0
  0
ATTDEF
  5
433
  8
0
 10
0.0
 20
0.0
 30
0.0
 40
0.001
  1
K-1184
  3

  2
MODELNUMBER
 70
     8
1001
ACDBATTR
1070
     0
1070
     1
  0
ATTDEF
  5
434
  8
0
 10
0.0
 20
-0.0016666666666667
 30
0.0
 40
0.001
  1
DEVONSHIRE
  3

  2
TRADENAME
 70
     8
1001
ACDBATTR
1070
     0
1070
     1
  0
ATTDEF
  5
435
  8
0
 10
0.0
 20
-0.0033333333333333
 30
0.0
 40
0.001
  1
BATH
  3

  2
PRODUCT
 70
     8
1001
ACDBATTR
1070
     0
1070
     1
  0
ATTDEF
  5
436
  8
0
 10
0.0
 20
-0.005
 30
0.0
 40
0.001
  1
ACRYLIC
  3

  2
MATERIAL
 70
     8
1001
ACDBATTR
1070
     0
1070
     1
  0
ENDSEC
  0
EOF
