  0
SECTION
  2
HEADER
  9
$ACADVER
  1
AC1009
  9
$INSBASE
 10
0.0
 20
0.0
 30
0.0
  9
$EXTMIN
 10
-26.51372076482216
 20
-6.9674878688498909
 30
-0.0018084108984622
  9
$EXTMAX
 10
5.4969208703470747
 20
6.9543924548191907
 30
0.0012633649620693
  9
$LIMMIN
 10
0.0
 20
0.0
  9
$LIMMAX
 10
420.0
 20
297.0
  9
$ORTHOMODE
 70
     1
  9
$REGENMODE
 70
     1
  9
$FILLMODE
 70
     1
  9
$QTEXTMODE
 70
     0
  9
$MIRRTEXT
 70
     1
  9
$DRAGMODE
 70
     2
  9
$LTSCALE
 40
1.0
  9
$OSMODE
 70
    37
  9
$ATTMODE
 70
     1
  9
$TEXTSIZE
 40
0.001
  9
$TRACEWID
 40
1.0
  9
$TEXTSTYLE
  7
STANDARD
  9
$CLAYER
  8
0
  9
$CELTYPE
  6
BYLAYER
  9
$CECOLOR
 62
   256
  9
$DIMSCALE
 40
1.0
  9
$DIMASZ
 40
2.5
  9
$DIMEXO
 40
0.625
  9
$DIMDLI
 40
3.75
  9
$DIMRND
 40
0.0
  9
$DIMDLE
 40
0.0
  9
$DIMEXE
 40
1.25
  9
$DIMTP
 40
0.0
  9
$DIMTM
 40
0.0
  9
$DIMTXT
 40
2.5
  9
$DIMCEN
 40
2.5
  9
$DIMTSZ
 40
0.0
  9
$DIMTOL
 70
     0
  9
$DIMLIM
 70
     0
  9
$DIMTIH
 70
     0
  9
$DIMTOH
 70
     0
  9
$DIMSE1
 70
     0
  9
$DIMSE2
 70
     0
  9
$DIMTAD
 70
     1
  9
$DIMZIN
 70
     8
  9
$DIMBLK
  1

  9
$DIMASO
 70
     1
  9
$DIMSHO
 70
     1
  9
$DIMPOST
  1

  9
$DIMAPOST
  1

  9
$DIMALT
 70
     0
  9
$DIMALTD
 70
     3
  9
$DIMALTF
 40
0.03937007874016
  9
$DIMLFAC
 40
1.0
  9
$DIMTOFL
 70
     1
  9
$DIMTVP
 40
0.0
  9
$DIMTIX
 70
     0
  9
$DIMSOXD
 70
     0
  9
$DIMSAH
 70
     0
  9
$DIMBLK1
  1

  9
$DIMBLK2
  1

  9
$DIMSTYLE
  2
ISO-25
  9
$DIMCLRD
 70
     0
  9
$DIMCLRE
 70
     0
  9
$DIMCLRT
 70
     0
  9
$DIMTFAC
 40
1.0
  9
$DIMGAP
 40
0.625
  9
$LUNITS
 70
     2
  9
$LUPREC
 70
     4
  9
$SKETCHINC
 40
1.0
  9
$FILLETRAD
 40
0.0
  9
$AUNITS
 70
     0
  9
$AUPREC
 70
     0
  9
$MENU
  1
.
  9
$ELEVATION
 40
0.0
  9
$PELEVATION
 40
0.0
  9
$THICKNESS
 40
0.0
  9
$LIMCHECK
 70
     0
  9
$BLIPMODE
 70
     0
  9
$CHAMFERA
 40
10.0
  9
$CHAMFERB
 40
10.0
  9
$SKPOLY
 70
     0
  9
$TDCREATE
 40
2453378.22126956
  9
$TDUPDATE
 40
2453411.4567277888
  9
$TDINDWG
 40
0.2952805324
  9
$TDUSRTIMER
 40
0.295267037
  9
$USRTIMER
 70
     1
  9
$ANGBASE
 50
0.0
  9
$ANGDIR
 70
     0
  9
$PDMODE
 70
     0
  9
$PDSIZE
 40
0.0
  9
$PLINEWID
 40
0.0
  9
$COORDS
 70
     1
  9
$SPLFRAME
 70
     0
  9
$SPLINETYPE
 70
     6
  9
$SPLINESEGS
 70
     8
  9
$ATTDIA
 70
     0
  9
$ATTREQ
 70
     1
  9
$HANDLING
 70
     1
  9
$HANDSEED
  5
35E55
  9
$SURFTAB1
 70
     6
  9
$SURFTAB2
 70
     6
  9
$SURFTYPE
 70
     6
  9
$SURFU
 70
     6
  9
$SURFV
 70
     6
  9
$UCSNAME
  2

  9
$UCSORG
 10
0.0
 20
0.0
 30
0.0
  9
$UCSXDIR
 10
1.0
 20
0.0
 30
0.0
  9
$UCSYDIR
 10
0.0
 20
1.0
 30
0.0
  9
$PUCSNAME
  2

  9
$PUCSORG
 10
0.0
 20
0.0
 30
0.0
  9
$PUCSXDIR
 10
1.0
 20
0.0
 30
0.0
  9
$PUCSYDIR
 10
0.0
 20
1.0
 30
0.0
  9
$USERI1
 70
     0
  9
$USERI2
 70
     0
  9
$USERI3
 70
     0
  9
$USERI4
 70
     0
  9
$USERI5
 70
     0
  9
$USERR1
 40
0.0
  9
$USERR2
 40
0.0
  9
$USERR3
 40
0.0
  9
$USERR4
 40
0.0
  9
$USERR5
 40
0.0
  9
$WORLDVIEW
 70
     1
  9
$SHADEDGE
 70
     3
  9
$SHADEDIF
 70
    70
  9
$TILEMODE
 70
     1
  9
$MAXACTVP
 70
    64
  9
$PLIMCHECK
 70
     0
  9
$PEXTMIN
 10
1.0000000000000000E+020
 20
1.0000000000000000E+020
 30
1.0000000000000000E+020
  9
$PEXTMAX
 10
-1.0000000000000000E+020
 20
-1.0000000000000000E+020
 30
-1.0000000000000000E+020
  9
$PLIMMIN
 10
0.0
 20
0.0
  9
$PLIMMAX
 10
420.0
 20
297.0
  9
$UNITMODE
 70
     0
  9
$VISRETAIN
 70
     1
  9
$PLINEGEN
 70
     0
  9
$PSLTSCALE
 70
     1
  0
ENDSEC
  0
SECTION
  2
TABLES
  0
TABLE
  2
VPORT
 70
     2
  0
VPORT
  2
*ACTIVE
 70
     0
 10
0.0
 20
0.0
 11
1.0
 21
1.0
 12
0.2673797400902984
 22
3.1863019591808088
 13
0.0
 23
0.0
 14
10.0
 24
10.0
 15
10.0
 25
10.0
 16
0.0
 26
0.0
 36
1.0
 17
0.0
 27
0.0
 37
0.0
 40
10.21279896073383
 41
1.9608247422680409
 42
50.0
 43
0.0
 44
0.0
 50
0.0
 51
0.0
 71
     0
 72
  1000
 73
     1
 74
     3
 75
     0
 76
     0
 77
     0
 78
     0
  0
ENDTAB
  0
TABLE
  2
LTYPE
 70
     1
  0
LTYPE
  2
CONTINUOUS
 70
     0
  3
Solid line
 72
    65
 73
     0
 40
0.0
  0
ENDTAB
  0
TABLE
  2
LAYER
 70
     3
  0
LAYER
  2
0
 70
     0
 62
     1
  6
CONTINUOUS
  0
LAYER
  2
ASHADE
 70
     0
 62
     7
  6
CONTINUOUS
  0
LAYER
  2
DEFPOINTS
 70
     0
 62
     7
  6
CONTINUOUS
  0
ENDTAB
  0
TABLE
  2
STYLE
 70
     2
  0
STYLE
  2
STANDARD
 70
     0
 40
0.0
 41
1.0
 50
0.0
 71
     0
 42
0.001
  3
txt
  4

  0
STYLE
  2
ASHADE
 70
     0
 40
0.2
 41
1.0
 50
0.0
 71
     0
 42
2.5
  3
simplex.shx
  4

  0
ENDTAB
  0
TABLE
  2
VIEW
 70
     0
  0
ENDTAB
  0
TABLE
  2
UCS
 70
     0
  0
ENDTAB
  0
TABLE
  2
APPID
 70
     6
  0
APPID
  2
ACAD
 70
     0
  0
APPID
  2
AVE_RENDER
 70
     0
  0
APPID
  2
AVE_ENTITY_MATERIAL
 70
     0
  0
APPID
  2
AVE_FINISH
 70
     0
  0
APPID
  2
AVE_MATERIAL
 70
     0
  0
APPID
  2
AVE_GLOBAL
 70
     0
  0
ENDTAB
  0
TABLE
  2
DIMSTYLE
 70
     2
  0
DIMSTYLE
  2
ISO-25
 70
     0
  3

  4

  5

  6

  7

 40
1.0
 41
2.5
 42
0.625
 43
3.75
 44
1.25
 45
0.0
 46
0.0
 47
0.0
 48
0.0
140
2.5
141
2.5
142
0.0
143
0.03937007874016
144
1.0
145
0.0
146
1.0
147
0.625
 71
     0
 72
     0
 73
     0
 74
     0
 75
     0
 76
     0
 77
     1
 78
     8
170
     0
171
     3
172
     1
173
     0
174
     0
175
     0
176
     0
177
     0
178
     0
  0
DIMSTYLE
  2
STANDARD
 70
     0
  3

  4

  5

  6

  7

 40
1.0
 41
0.18
 42
0.0625
 43
0.38
 44
0.18
 45
0.0
 46
0.0
 47
0.0
 48
0.0
140
0.18
141
0.09
142
0.0
143
25.399999999999999
144
1.0
145
0.0
146
1.0
147
0.09
 71
     0
 72
     0
 73
     1
 74
     1
 75
     0
 76
     0
 77
     0
 78
     0
170
     0
171
     2
172
     0
173
     0
174
     0
175
     0
176
     0
177
     0
178
     0
  0
ENDTAB
  0
ENDSEC
  0
SECTION
  2
BLOCKS
  0
BLOCK
  8
0
  2
$MODEL_SPACE
 70
     0
 10
0.0
 20
0.0
 30
0.0
  3
$MODEL_SPACE
  1

  0
ENDBLK
  5
35CB1
  8
0
  0
BLOCK
 67
     1
  8
0
  2
$PAPER_SPACE
 70
     0
 10
0.0
 20
0.0
 30
0.0
  3
$PAPER_SPACE
  1

  0
ENDBLK
  5
35CAD
 67
     1
  8
0
  0
BLOCK
  8
ASHADE
  2
AVE_RENDER
 70
     0
 10
0.0
 20
0.0
 30
0.0
  3
AVE_RENDER
  1
AVE_RENDER
  0
ENDBLK
  5
31
  8
0
  0
BLOCK
  8
ASHADE
  2
AVE_GLOBAL
 70
     0
 10
0.0
 20
0.0
 30
0.0
  3
AVE_GLOBAL
  1
AVE_GLOBAL
  0
ENDBLK
  5
3F
  8
0
  0
BLOCK
  8
ASHADE
  2
RM_SDB
 70
     2
 10
0.0
 20
0.0
 30
0.0
  3
RM_SDB
  1
RM_SDB
  0
ATTDEF
  5
32E71
  8
ASHADE
  6
CONTINUOUS
 62
     1
 10
0.0000000000000001
 20
-0.15
 30
0.0
 40
0.2
  1

 41
100.0
  7
ASHADE
 72
     1
 11
0.0000000000000001
 21
-0.15
 31
0.0
  3
Name
  2
NAME
 70
     0
  0
ENDBLK
  5
620
  8
0
  0
ENDSEC
  0
SECTION
  2
ENTITIES
  0
CIRCLE
  5
32DEB
  8
ASHADE
 10
-3.999906362647407
 20
5.4517507728813568
 30
-0.0002113468033333
 40
0.3994545118808769
  0
CIRCLE
  5
32E1F
  8
ASHADE
 10
3.994279188409239
 20
5.4478587197186163
 30
0.0002397783954673
 40
0.3994545118808769
  0
ATTDEF
  5
35C20
  8
0
 10
0.0
 20
0.0
 30
0.0
 40
0.001
  1
13132-3B
  3

  2
MODELNUMBER
 70
     8
  0
ATTDEF
  5
35C21
  8
0
 10
0.0
 20
-0.0016666666666667
 30
0.0
 40
0.001
  1
PINSTRIPE
  3

  2
TRADENAME
 70
     8
  0
ATTDEF
  5
35C22
  8
0
 10
0.0
 20
-0.0033333333333333
 30
0.0
 40
0.001
  1
FAUCETS
  3

  2
PRODUCT
 70
     8
  0
ATTDEF
  5
35C23
  8
0
 10
0.0
 20
-0.005
 30
0.0
 40
0.001
  1
BRASS
  3

  2
MATERIAL
 70
     8
  0
POLYLINE
  5
35D0B
  8
ASHADE
 66
     1
 10
0.0
 20
0.0
 30
0.0008122397632687
  0
VERTEX
  5
35D98
  8
ASHADE
 10
-4.1480607086249712
 20
5.8227146482519272
 30
0.0008122397632687
  0
VERTEX
  5
35D99
  8
ASHADE
 10
-4.1480225284939642
 20
6.9301192214908189
 30
0.0008122397632687
 42
-0.2683623483046195
  0
VERTEX
  5
35D9A
  8
ASHADE
 10
-4.1266202798729692
 20
6.9515206487896091
 30
0.0008122397632687
  0
VERTEX
  5
35D9B
  8
ASHADE
 10
-3.8642388116961182
 20
6.9515207661213472
 30
0.0008122397632687
 42
-0.2683598086303611
  0
VERTEX
  5
35D9C
  8
ASHADE
 10
-3.8428370324021119
 20
6.9301193388225668
 30
0.0008122397632687
  0
VERTEX
  5
35D9D
  8
ASHADE
 10
-3.842818111038937
 20
5.8190206848923678
 30
0.0008122397632687
  0
SEQEND
  5
35D9E
  8
ASHADE
  0
POLYLINE
  5
35D10
  8
ASHADE
 66
     1
 10
0.0
 20
0.0
 30
0.0008122397632687
  0
VERTEX
  5
35D9F
  8
ASHADE
 10
-4.3708702380179627
 20
5.3035964269037921
 30
0.0008122397632687
  0
VERTEX
  5
35DA0
  8
ASHADE
 10
-5.4782748112568704
 20
5.303634607034807
 30
0.0008122397632687
 42
-0.2683623483046158
  0
VERTEX
  5
35DA1
  8
ASHADE
 10
-5.499676238555657
 20
5.325036855655795
 30
0.0008122397632687
  0
VERTEX
  5
35DA2
  8
ASHADE
 10
-5.4996763558873827
 20
5.587418323832634
 30
0.0008122397632687
 42
-0.2683598086303645
  0
VERTEX
  5
35DA3
  8
ASHADE
 10
-5.478274928588613
 20
5.608820103126658
 30
0.0008122397632687
  0
VERTEX
  5
35DA4
  8
ASHADE
 10
-4.3671762746584193
 20
5.6088390244898481
 30
0.0008122397632687
  0
SEQEND
  5
35DA5
  8
ASHADE
  0
POLYLINE
  5
35D15
  8
ASHADE
 66
     1
 10
0.0
 20
0.0
 30
0.0008122397632687
  0
VERTEX
  5
35DA6
  8
ASHADE
 10
-3.6289424872768481
 20
5.5999051188589073
 30
0.0008122397632687
  0
VERTEX
  5
35DA7
  8
ASHADE
 10
-2.5215379140379421
 20
5.5998669387279092
 30
0.0008122397632687
 42
-0.2683623483046191
  0
VERTEX
  5
35DA8
  8
ASHADE
 10
-2.5001364867391569
 20
5.5784646901069204
 30
0.0008122397632687
  0
VERTEX
  5
35DA9
  8
ASHADE
 10
-2.500136369407425
 20
5.3160832219300671
 30
0.0008122397632687
 42
-0.268359808630363
  0
VERTEX
  5
35DAA
  8
ASHADE
 10
-2.521537796706208
 20
5.2946814426360449
 30
0.0008122397632687
  0
VERTEX
  5
35DAB
  8
ASHADE
 10
-3.6326364506364031
 20
5.2946625212728682
 30
0.0008122397632687
  0
SEQEND
  5
35DAC
  8
ASHADE
  0
POLYLINE
  5
35D1A
  8
ASHADE
 66
     1
 10
0.0
 20
0.0
 30
0.0008122397632687
  0
VERTEX
  5
35DAD
  8
ASHADE
 10
-3.851752016669848
 20
5.0807868975107988
 30
0.0008122397632687
  0
VERTEX
  5
35DAE
  8
ASHADE
 10
-3.851790196800847
 20
3.9733823242718871
 30
0.0008122397632687
 42
-0.2683623483046172
  0
VERTEX
  5
35DAF
  8
ASHADE
 10
-3.87319244542185
 20
3.9519808969731072
 30
0.0008122397632687
  0
VERTEX
  5
35DB0
  8
ASHADE
 10
-4.1355739135986873
 20
3.9519807796413562
 30
0.0008122397632687
 42
-0.2683598086303622
  0
VERTEX
  5
35DB1
  8
ASHADE
 10
-4.1569756928926989
 20
3.973382206940145
 30
0.0008122397632687
  0
VERTEX
  5
35DB2
  8
ASHADE
 10
-4.1569946142559031
 20
5.0844808608703387
 30
0.0008122397632687
  0
SEQEND
  5
35DB3
  8
ASHADE
  0
POLYLINE
  5
35D1F
  8
ASHADE
 66
     1
 10
0.0
 20
0.0
 30
0.0012633649620693
  0
VERTEX
  5
35DB4
  8
ASHADE
 10
3.623315313038673
 20
5.2997043737410623
 30
0.0012633649620693
  0
VERTEX
  5
35DB5
  8
ASHADE
 10
2.5159107397997782
 20
5.2997425538720622
 30
0.0012633649620693
 42
-0.2683623483046172
  0
VERTEX
  5
35DB6
  8
ASHADE
 10
2.4945093125010001
 20
5.3211448024930572
 30
0.0012633649620693
  0
VERTEX
  5
35DB7
  8
ASHADE
 10
2.4945091951692602
 20
5.5835262706699007
 30
0.0012633649620693
 42
-0.2683598086303593
  0
VERTEX
  5
35DB8
  8
ASHADE
 10
2.5159106224680401
 20
5.6049280499639069
 30
0.0012633649620693
  0
VERTEX
  5
35DB9
  8
ASHADE
 10
3.6270092763982209
 20
5.6049469713270961
 30
0.0012633649620693
  0
SEQEND
  5
35DBA
  8
ASHADE
  0
POLYLINE
  5
35D24
  8
ASHADE
 66
     1
 10
0.0
 20
0.0
 30
0.0012633649620693
  0
VERTEX
  5
35DBB
  8
ASHADE
 10
4.1424335343868002
 20
5.0768948443480459
 30
0.0012633649620693
  0
VERTEX
  5
35DBC
  8
ASHADE
 10
4.1423953542558003
 20
3.9694902711091471
 30
0.0012633649620693
 42
-0.268362348304617
  0
VERTEX
  5
35DBD
  8
ASHADE
 10
4.1209931056348124
 20
3.9480888438103592
 30
0.0012633649620693
  0
VERTEX
  5
35DBE
  8
ASHADE
 10
3.85861163745796
 20
3.9480887264786202
 30
0.0012633649620693
 42
-0.2683598086303599
  0
VERTEX
  5
35DBF
  8
ASHADE
 10
3.8372098581639551
 20
3.9694901537774081
 30
0.0012633649620693
  0
VERTEX
  5
35DC0
  8
ASHADE
 10
3.8371909368007588
 20
5.0805888077075982
 30
0.0012633649620693
  0
SEQEND
  5
35DC1
  8
ASHADE
  0
POLYLINE
  5
35D29
  8
ASHADE
 66
     1
 10
0.0
 20
0.0
 30
0.0012633649620693
  0
VERTEX
  5
35DC2
  8
ASHADE
 10
3.846124842431681
 20
5.8188225950891868
 30
0.0012633649620693
  0
VERTEX
  5
35DC3
  8
ASHADE
 10
3.8461630225627021
 20
6.9262271683280767
 30
0.0012633649620693
 42
-0.2683623483046109
  0
VERTEX
  5
35DC4
  8
ASHADE
 10
3.8675652711836879
 20
6.9476285956268589
 30
0.0012633649620693
  0
VERTEX
  5
35DC5
  8
ASHADE
 10
4.1299467393605287
 20
6.9476287129586067
 30
0.0012633649620693
 42
-0.2683598086303636
  0
VERTEX
  5
35DC6
  8
ASHADE
 10
4.1513485186545331
 20
6.926227285659813
 30
0.0012633649620693
  0
VERTEX
  5
35DC7
  8
ASHADE
 10
4.1513674400177294
 20
5.8151286317296274
 30
0.0012633649620693
  0
SEQEND
  5
35DC8
  8
ASHADE
  0
POLYLINE
  5
35D2E
  8
ASHADE
 66
     1
 10
0.0
 20
0.0
 30
0.0012633649620693
  0
VERTEX
  5
35DC9
  8
ASHADE
 10
4.3652430637798201
 20
5.5960130656961669
 30
0.0012633649620693
  0
VERTEX
  5
35DCA
  8
ASHADE
 10
5.4726476370187047
 20
5.595974885565167
 30
0.0012633649620693
 42
-0.2683623483046134
  0
VERTEX
  5
35DCB
  8
ASHADE
 10
5.4940490643174957
 20
5.5745726369441773
 30
0.0012633649620693
  0
VERTEX
  5
35DCC
  8
ASHADE
 10
5.4940491816492312
 20
5.3121911687673284
 30
0.0012633649620693
 42
-0.2683598086303634
  0
VERTEX
  5
35DCD
  8
ASHADE
 10
5.472647754350449
 20
5.2907893894733213
 30
0.0012633649620693
  0
VERTEX
  5
35DCE
  8
ASHADE
 10
4.361549100420258
 20
5.290770468110126
 30
0.0012633649620693
  0
SEQEND
  5
35DCF
  8
ASHADE
  0
POLYLINE
  5
35D33
  8
ASHADE
 66
     1
 10
0.0
 20
0.0
 30
0.0010065798587166
  0
VERTEX
  5
35DD0
  8
ASHADE
 10
0.6117453135587212
 20
1.0911981186270701
 30
0.0010065798587166
  0
VERTEX
  5
35DD1
  8
ASHADE
 10
0.6117405029572467
 20
1.151558495283131
 30
0.0010065798587166
  0
VERTEX
  5
35DD2
  8
ASHADE
 10
0.5874055474139728
 20
1.2416749060153951
 30
0.0010065798587166
 42
-0.0098273914739779
  0
VERTEX
  5
35DD3
  8
ASHADE
 10
0.4702202341891777
 20
1.3681941940784379
 30
0.0010065798587166
 42
0.0184673370615879
  0
VERTEX
  5
35DD4
  8
ASHADE
 10
0.5420805296636999
 20
5.6479588182273854
 30
0.0010065798587166
 42
0.1183483805030054
  0
VERTEX
  5
35DD5
  8
ASHADE
 10
0.5226158974505957
 20
5.6949505333900481
 30
0.0010065798587166
  0
VERTEX
  5
35DD6
  8
ASHADE
 10
0.2423116534985645
 20
5.9752547773420721
 30
0.0010065798587166
 42
0.1183502910142592
  0
VERTEX
  5
35DD7
  8
ASHADE
 10
0.1953199383355617
 20
5.9947194095551959
 30
0.0010065798587166
  0
VERTEX
  5
35DD8
  8
ASHADE
 10
-0.0028851215671821
 20
5.9947194095551959
 30
0.0010065798587166
  0
VERTEX
  5
35DD9
  8
ASHADE
 10
-0.2010901814699117
 20
5.9947194095551959
 30
0.0010065798587166
 42
0.1183502910142584
  0
VERTEX
  5
35DDA
  8
ASHADE
 10
-0.2480818966329146
 20
5.9752547773420721
 30
0.0010065798587166
  0
VERTEX
  5
35DDB
  8
ASHADE
 10
-0.5283861405849529
 20
5.6949505333900481
 30
0.0010065798587166
 42
0.1183483805030053
  0
VERTEX
  5
35DDC
  8
ASHADE
 10
-0.5478507727980571
 20
5.6479588182270763
 30
0.0010065798587166
 42
0.0184673370615879
  0
VERTEX
  5
35DDD
  8
ASHADE
 10
-0.4759904773235438
 20
1.368194194078447
 30
0.0010065798587166
 42
-0.0098273914739779
  0
VERTEX
  5
35DDE
  8
ASHADE
 10
-0.5931757905483295
 20
1.2416749060153951
 30
0.0010065798587166
  0
VERTEX
  5
35DDF
  8
ASHADE
 10
-0.6175107460916041
 20
1.151558495283131
 30
0.0010065798587166
  0
VERTEX
  5
35DE0
  8
ASHADE
 10
-0.6175155566930748
 20
1.0911981186270701
 30
0.0010065798587166
  0
SEQEND
  5
35DE1
  8
ASHADE
  0
POLYLINE
  5
35D36
  8
ASHADE
 66
     1
 10
0.0
 20
0.0
 30
0.0
  0
VERTEX
  5
35DE2
  8
ASHADE
 10
-0.6306109525561398
 20
1.0926129047870681
 30
0.0
 42
0.1695473700707213
  0
VERTEX
  5
35DE3
  8
ASHADE
 10
-0.6928590209633186
 20
1.014053201437001
 30
0.0
 42
0.0747951721750471
  0
VERTEX
  5
35DE4
  8
ASHADE
 10
-0.6652503924518883
 20
0.0582458239793803
 30
0.0
 42
0.2292044660468641
  0
VERTEX
  5
35DE5
  8
ASHADE
 10
-0.5962918869853091
 20
0.0
 30
0.0
  0
VERTEX
  5
35DE6
  8
ASHADE
 10
0.0
 20
0.0
 30
0.0
  0
SEQEND
  5
35DE7
  8
ASHADE
  0
POLYLINE
  5
35D42
  8
ASHADE
 66
     1
 10
0.0
 20
0.0
 30
0.0
  0
VERTEX
  5
35DE8
  8
ASHADE
 10
0.6248407094217719
 20
1.0926129047870681
 30
0.0
 42
-0.1695473700707213
  0
VERTEX
  5
35DE9
  8
ASHADE
 10
0.6870887778289508
 20
1.0140532014370021
 30
0.0
 42
-0.0747951721750471
  0
VERTEX
  5
35DEA
  8
ASHADE
 10
0.659480149317542
 20
0.0582458239793802
 30
0.0
 42
-0.2292044660468641
  0
VERTEX
  5
35DEB
  8
ASHADE
 10
0.5905216438509556
 20
0.0
 30
0.0
  0
VERTEX
  5
35DEC
  8
ASHADE
 10
-0.0057702431343607
 20
0.0
 30
0.0
  0
SEQEND
  5
35DED
  8
ASHADE
  0
POLYLINE
  5
35D4B
  8
ASHADE
 66
     1
 10
0.0
 20
0.0
 30
-0.0013363559911158
  0
VERTEX
  5
35DEE
  8
ASHADE
 10
-0.559102995391374
 20
4.7224566361598974
 30
-0.0013363559911158
  0
VERTEX
  5
35DEF
  8
ASHADE
 10
-0.8771625966705416
 20
5.0403251755585421
 30
-0.0013363559911158
 42
-0.1186124369387867
  0
VERTEX
  5
35DF0
  8
ASHADE
 10
-0.9096250812909508
 20
5.118973114207888
 30
-0.0013363559911158
  0
VERTEX
  5
35DF1
  8
ASHADE
 10
-0.9096404365380086
 20
5.6260350925974878
 30
-0.0013363559911158
  0
VERTEX
  5
35DF2
  8
ASHADE
 10
-0.9096451263740801
 20
5.7809031679509646
 30
-0.0013363559911158
 42
-0.1169910524085859
  0
VERTEX
  5
35DF3
  8
ASHADE
 10
-0.8771272540239818
 20
5.8591900313529388
 30
-0.0013363559911158
  0
VERTEX
  5
35DF4
  8
ASHADE
 10
-0.40935413919068
 20
6.3274816808365912
 30
-0.0013363559911158
 42
-0.1101443067376736
  0
VERTEX
  5
35DF5
  8
ASHADE
 10
-0.3306370977547743
 20
6.3597940251468783
 30
-0.0013363559911158
  0
VERTEX
  5
35DF6
  8
ASHADE
 10
-0.1690896100456385
 20
6.359739730033577
 30
-0.0013363559911158
  0
SEQEND
  5
35DF7
  8
ASHADE
  0
POLYLINE
  5
35D53
  8
ASHADE
 66
     1
 10
0.0
 20
0.0
 30
-0.0013363559911158
  0
VERTEX
  5
35DF8
  8
ASHADE
 10
-0.1690896100456385
 20
6.359624431927366
 30
-0.0013363559911158
  0
VERTEX
  5
35DF9
  8
ASHADE
 10
0.3311070114672124
 20
6.3595716170370533
 30
-0.0013363559911158
 42
-0.118506662388456
  0
VERTEX
  5
35DFA
  8
ASHADE
 10
0.4095568730451369
 20
6.3270720753879681
 30
-0.0013363559911158
  0
VERTEX
  5
35DFB
  8
ASHADE
 10
0.8777385383226845
 20
5.8590154281288713
 30
-0.0013363559911158
 42
-0.120910298588901
  0
VERTEX
  5
35DFC
  8
ASHADE
 10
0.9101561852571398
 20
5.7808152069611891
 30
-0.0013363559911158
  0
VERTEX
  5
35DFD
  8
ASHADE
 10
0.9101430475798618
 20
5.6159851124002547
 30
-0.0013363559911158
  0
VERTEX
  5
35DFE
  8
ASHADE
 10
0.9101034350383938
 20
5.1189917086599941
 30
-0.0013363559911158
 42
-0.1200172744899764
  0
VERTEX
  5
35DFF
  8
ASHADE
 10
0.877635147893933
 20
5.0406105542419981
 30
-0.0013363559911158
  0
VERTEX
  5
35E00
  8
ASHADE
 10
0.5533586112148292
 20
4.7161790657338072
 30
-0.0013363559911158
  0
SEQEND
  5
35E01
  8
ASHADE
  0
POLYLINE
  5
35D5B
  8
ASHADE
 66
     1
 10
0.0
 20
0.0
 30
-0.0015320855195569
  0
VERTEX
  5
35E02
  8
ASHADE
 10
0.5537699404587441
 20
4.3920192363939314
 30
-0.0015320855195569
 42
4.045410473659965
  0
VERTEX
  5
35E03
  8
ASHADE
 10
-0.5595421104755705
 20
4.393290005456655
 30
-0.0015320855195569
  0
SEQEND
  5
35E04
  8
ASHADE
  0
POLYLINE
  5
35D5C
  8
ASHADE
 66
     1
 10
0.0
 20
0.0
 30
-0.0013572856996616
  0
VERTEX
  5
35E05
  8
ASHADE
 10
4.8063502037086892
 20
5.5959978575881424
 30
-0.0013572856996616
  0
VERTEX
  5
35E06
  8
ASHADE
 10
4.8063618925063167
 20
5.7426497789686017
 30
-0.0013572856996616
 42
0.1209102985889017
  0
VERTEX
  5
35E07
  8
ASHADE
 10
4.7775194033829713
 20
5.812225742733987
 30
-0.0013572856996616
  0
VERTEX
  5
35E08
  8
ASHADE
 10
4.3609708298294221
 20
6.228663085794957
 30
-0.0013572856996616
 42
0.1185066623884569
  0
VERTEX
  5
35E09
  8
ASHADE
 10
4.2911727570740803
 20
6.2575784379308468
 30
-0.0013572856996616
  0
VERTEX
  5
35E0A
  8
ASHADE
 10
4.1513599045549139
 20
6.2576254281674482
 30
-0.0013572856996616
  0
SEQEND
  5
35E0B
  8
ASHADE
  0
POLYLINE
  5
35D5E
  8
ASHADE
 66
     1
 10
0.0
 20
0.0
 30
-0.0013572856996616
  0
VERTEX
  5
35E0C
  8
ASHADE
 10
4.1424184235692909
 20
4.6386095900219404
 30
-0.0013572856996616
  0
VERTEX
  5
35E0D
  8
ASHADE
 10
4.2912473800627753
 20
4.6386588630442889
 30
-0.0013572856996616
 42
0.1136765551509907
  0
VERTEX
  5
35E0E
  8
ASHADE
 10
4.360979981705384
 20
4.6674316571121439
 30
-0.0013572856996616
  0
VERTEX
  5
35E0F
  8
ASHADE
 10
4.777427415296275
 20
5.0840780853395904
 30
-0.0013572856996616
 42
0.1200172744899769
  0
VERTEX
  5
35E10
  8
ASHADE
 10
4.8063149598090211
 20
5.1538150282566786
 30
-0.0013572856996616
  0
VERTEX
  5
35E11
  8
ASHADE
 10
4.8063258763584891
 20
5.2907780423996691
 30
-0.0013572856996616
  0
SEQEND
  5
35E12
  8
ASHADE
  0
POLYLINE
  5
35D62
  8
ASHADE
 66
     1
 10
0.0
 20
0.0
 30
-0.0013572856996616
  0
VERTEX
  5
35E13
  8
ASHADE
 10
3.8461399746305762
 20
6.2577280107016167
 30
-0.0013572856996616
  0
VERTEX
  5
35E14
  8
ASHADE
 10
3.7024086400715861
 20
6.2577763179158232
 30
-0.0013572856996616
 42
0.1101443067376742
  0
VERTEX
  5
35E15
  8
ASHADE
 10
3.6323728532044282
 20
6.2290275181894641
 30
-0.0013572856996616
  0
VERTEX
  5
35E16
  8
ASHADE
 10
3.2161877733914248
 20
5.8123810899620381
 30
-0.0013572856996616
 42
0.116991052408586
  0
VERTEX
  5
35E17
  8
ASHADE
 10
3.1872561121432299
 20
5.7427280392413467
 30
-0.0013572856996616
  0
VERTEX
  5
35E18
  8
ASHADE
 10
3.1872602847639779
 20
5.604939482657799
 30
-0.0013572856996616
  0
SEQEND
  5
35E19
  8
ASHADE
  0
POLYLINE
  5
35D65
  8
ASHADE
 66
     1
 10
0.0
 20
0.0
 30
-0.0000088235097978
  0
VERTEX
  5
35E1A
  8
ASHADE
 10
5.0477539603971726
 20
5.5959895346795152
 30
-0.0000088235097978
 42
0.3322645496786472
  0
VERTEX
  5
35E1B
  8
ASHADE
 10
4.1513557719191141
 20
6.5003017100667693
 30
-0.0000088235097978
  0
SEQEND
  5
35E1C
  8
ASHADE
  0
POLYLINE
  5
35D68
  8
ASHADE
 66
     1
 10
0.0
 20
0.0
 30
-0.0013572856996616
  0
VERTEX
  5
35E1D
  8
ASHADE
 10
3.1872695276768002
 20
5.2997194073481184
 30
-0.0013572856996616
  0
VERTEX
  5
35E1E
  8
ASHADE
 10
3.1872739465682041
 20
5.1537984844808911
 30
-0.0013572856996616
 42
0.1186124369387887
  0
VERTEX
  5
35E1F
  8
ASHADE
 10
3.2161563284842369
 20
5.0838241794472081
 30
-0.0013572856996616
  0
VERTEX
  5
35E20
  8
ASHADE
 10
3.6325817037074102
 20
4.6676489555006357
 30
-0.0013572856996616
 42
0.1165049776242777
  0
VERTEX
  5
35E21
  8
ASHADE
 10
3.7022345197646191
 20
4.638463857687027
 30
-0.0013572856996616
  0
VERTEX
  5
35E22
  8
ASHADE
 10
3.837198465170331
 20
4.6385085403996946
 30
-0.0013572856996616
  0
SEQEND
  5
35E23
  8
ASHADE
  0
POLYLINE
  5
35D6B
  8
ASHADE
 66
     1
 10
0.0
 20
0.0
 30
-0.0000088235097978
  0
VERTEX
  5
35E24
  8
ASHADE
 10
4.1424100139540041
 20
4.3946909294118486
 30
-0.0000088235097978
 42
0.332113717263025
  0
VERTEX
  5
35E25
  8
ASHADE
 10
5.0463743547823281
 20
5.29078213028549
 30
-0.0000088235097978
  0
SEQEND
  5
35E26
  8
ASHADE
  0
POLYLINE
  5
35D72
  8
ASHADE
 66
     1
 10
0.0
 20
0.0
 30
-0.0000088235097978
  0
VERTEX
  5
35E27
  8
ASHADE
 10
3.8461483828051111
 20
6.5016048826096107
 30
-0.0000088235097978
 42
0.3322764493823354
  0
VERTEX
  5
35E28
  8
ASHADE
 10
2.942053844652718
 20
5.6049353069348742
 30
-0.0000088235097978
  0
SEQEND
  5
35E29
  8
ASHADE
  0
POLYLINE
  5
35D73
  8
ASHADE
 66
     1
 10
0.0
 20
0.0
 30
-0.0000088235097978
  0
VERTEX
  5
35E2A
  8
ASHADE
 10
2.9408400859156609
 20
5.2997279035279137
 30
-0.0000088235097978
 42
0.3321256160764054
  0
VERTEX
  5
35E2B
  8
ASHADE
 10
3.8372025952710849
 20
4.3959811209287833
 30
-0.0000088235097978
  0
SEQEND
  5
35E2C
  8
ASHADE
  0
POLYLINE
  5
35D74
  8
ASHADE
 66
     1
 10
0.0
 20
0.0
 30
-0.0004599487085984
  0
VERTEX
  5
35E2D
  8
ASHADE
 10
-3.8517755371026539
 20
4.3985829825746032
 30
-0.0004599487085984
 42
0.332113717263025
  0
VERTEX
  5
35E2E
  8
ASHADE
 10
-2.9478111962743312
 20
5.2946741834482438
 30
-0.0004599487085984
  0
SEQEND
  5
35E2F
  8
ASHADE
  0
POLYLINE
  5
35D75
  8
ASHADE
 66
     1
 10
0.0
 20
0.0
 30
-0.0018084108984622
  0
VERTEX
  5
35E30
  8
ASHADE
 10
-4.1569870858863212
 20
4.6424005935624386
 30
-0.0018084108984622
  0
VERTEX
  5
35E31
  8
ASHADE
 10
-4.291951031292033
 20
4.6423559108497621
 30
-0.0018084108984622
 42
-0.1165049776242777
  0
VERTEX
  5
35E32
  8
ASHADE
 10
-4.3616038473492491
 20
4.6715410086633771
 30
-0.0018084108984622
  0
VERTEX
  5
35E33
  8
ASHADE
 10
-4.7780292225723962
 20
5.0877162326099468
 30
-0.0018084108984622
 42
-0.1186124369387887
  0
VERTEX
  5
35E34
  8
ASHADE
 10
-4.8069116044884481
 20
5.1576905376436359
 30
-0.0018084108984622
  0
VERTEX
  5
35E35
  8
ASHADE
 10
-4.8069160233798467
 20
5.3036114605108589
 30
-0.0018084108984622
  0
SEQEND
  5
35E36
  8
ASHADE
  0
POLYLINE
  5
35D76
  8
ASHADE
 66
     1
 10
0.0
 20
0.0
 30
-0.0004599487085984
  0
VERTEX
  5
35E37
  8
ASHADE
 10
-2.9464315906594858
 20
5.5998815878422681
 30
-0.0004599487085984
 42
0.3322645496786472
  0
VERTEX
  5
35E38
  8
ASHADE
 10
-3.842829779137543
 20
6.504193763229523
 30
-0.0004599487085984
  0
SEQEND
  5
35E39
  8
ASHADE
  0
POLYLINE
  5
35D77
  8
ASHADE
 66
     1
 10
0.0
 20
0.0
 30
-0.0018084108984622
  0
VERTEX
  5
35E3A
  8
ASHADE
 10
-3.18785967469816
 20
5.2946700955624069
 30
-0.0018084108984622
  0
VERTEX
  5
35E3B
  8
ASHADE
 10
-3.1878705912476351
 20
5.1577070814194217
 30
-0.0018084108984622
 42
-0.1200172744899769
  0
VERTEX
  5
35E3C
  8
ASHADE
 10
-3.216758135760367
 20
5.0879701385023202
 30
-0.0018084108984622
  0
VERTEX
  5
35E3D
  8
ASHADE
 10
-3.6332055693512628
 20
4.6713237102748888
 30
-0.0018084108984622
 42
-0.1136765551509907
  0
VERTEX
  5
35E3E
  8
ASHADE
 10
-3.7029381709938769
 20
4.6425509162070382
 30
-0.0018084108984622
  0
VERTEX
  5
35E3F
  8
ASHADE
 10
-3.8517671274873759
 20
4.6425016431846764
 30
-0.0018084108984622
  0
SEQEND
  5
35E40
  8
ASHADE
  0
POLYLINE
  5
35D78
  8
ASHADE
 66
     1
 10
0.0
 20
0.0
 30
-0.0004599487085984
  0
VERTEX
  5
35E41
  8
ASHADE
 10
-4.1480371682515482
 20
6.5054969357723653
 30
-0.0004599487085984
 42
0.3322764493823354
  0
VERTEX
  5
35E42
  8
ASHADE
 10
-5.0521317064039399
 20
5.6088273600976271
 30
-0.0004599487085984
  0
SEQEND
  5
35E43
  8
ASHADE
  0
POLYLINE
  5
35D79
  8
ASHADE
 66
     1
 10
0.0
 20
0.0
 30
-0.0018084108984622
  0
VERTEX
  5
35E44
  8
ASHADE
 10
-3.8428256465017512
 20
6.2615174813301868
 30
-0.0018084108984622
  0
VERTEX
  5
35E45
  8
ASHADE
 10
-3.7030127939825772
 20
6.2614704910935961
 30
-0.0018084108984622
 42
-0.1185066623884569
  0
VERTEX
  5
35E46
  8
ASHADE
 10
-3.6332147212272541
 20
6.2325551389576974
 30
-0.0018084108984622
  0
VERTEX
  5
35E47
  8
ASHADE
 10
-3.216666147673688
 20
5.8161177958967256
 30
-0.0018084108984622
 42
-0.1209102985889017
  0
VERTEX
  5
35E48
  8
ASHADE
 10
-3.1878236585503421
 20
5.7465418321313377
 30
-0.0018084108984622
  0
VERTEX
  5
35E49
  8
ASHADE
 10
-3.187835347347959
 20
5.5998899107508739
 30
-0.0018084108984622
  0
SEQEND
  5
35E4A
  8
ASHADE
  0
POLYLINE
  5
35D7A
  8
ASHADE
 66
     1
 10
0.0
 20
0.0
 30
-0.0018084108984622
  0
VERTEX
  5
35E4B
  8
ASHADE
 10
-4.80692526629268
 20
5.6088315358205358
 30
-0.0018084108984622
  0
VERTEX
  5
35E4C
  8
ASHADE
 10
-4.8069294389134143
 20
5.7466200924040871
 30
-0.0018084108984622
 42
-0.116991052408586
  0
VERTEX
  5
35E4D
  8
ASHADE
 10
-4.777997777665222
 20
5.8162731431247794
 30
-0.0018084108984622
  0
VERTEX
  5
35E4E
  8
ASHADE
 10
-4.3618126978522023
 20
6.2329195713522063
 30
-0.0018084108984622
 42
-0.1101443067376742
  0
VERTEX
  5
35E4F
  8
ASHADE
 10
-4.2917769109850674
 20
6.2616683710785681
 30
-0.0018084108984622
  0
VERTEX
  5
35E50
  8
ASHADE
 10
-4.1480455764260658
 20
6.2616200638643482
 30
-0.0018084108984622
  0
SEQEND
  5
35E51
  8
ASHADE
  0
POLYLINE
  5
35D8B
  8
ASHADE
 66
     1
 10
0.0
 20
0.0
 30
-0.0004599487085984
  0
VERTEX
  5
35E52
  8
ASHADE
 10
-5.053345465140997
 20
5.3036199566906683
 30
-0.0004599487085984
 42
0.3321256160764054
  0
VERTEX
  5
35E53
  8
ASHADE
 10
-4.1569829557855726
 20
4.3998731740915371
 30
-0.0004599487085984
  0
SEQEND
  5
35E54
  8
ASHADE
  0
ENDSEC
  0
EOF
