  0
SECTION
  2
HEADER
  9
$ACADVER
  1
AC1009
  9
$INSBASE
 10
0.0
 20
0.0
 30
0.0
  9
$EXTMIN
 10
-0.3066212417124575
 20
-9.5703898362516693
 30
-0.0016039422405796
  9
$EXTMAX
 10
9.3143336295922552
 20
3.192842540221482
 30
0.0
  9
$LIMMIN
 10
0.0
 20
0.0
  9
$LIMMAX
 10
420.0
 20
297.0
  9
$ORTHOMODE
 70
     1
  9
$REGENMODE
 70
     1
  9
$FILLMODE
 70
     1
  9
$QTEXTMODE
 70
     0
  9
$MIRRTEXT
 70
     1
  9
$DRAGMODE
 70
     2
  9
$LTSCALE
 40
1.0
  9
$OSMODE
 70
    37
  9
$ATTMODE
 70
     1
  9
$TEXTSIZE
 40
0.001
  9
$TRACEWID
 40
1.0
  9
$TEXTSTYLE
  7
STANDARD
  9
$CLAYER
  8
0
  9
$CELTYPE
  6
BYLAYER
  9
$CECOLOR
 62
   256
  9
$DIMSCALE
 40
1.0
  9
$DIMASZ
 40
2.5
  9
$DIMEXO
 40
0.625
  9
$DIMDLI
 40
3.75
  9
$DIMRND
 40
0.0
  9
$DIMDLE
 40
0.0
  9
$DIMEXE
 40
1.25
  9
$DIMTP
 40
0.0
  9
$DIMTM
 40
0.0
  9
$DIMTXT
 40
2.5
  9
$DIMCEN
 40
2.5
  9
$DIMTSZ
 40
0.0
  9
$DIMTOL
 70
     0
  9
$DIMLIM
 70
     0
  9
$DIMTIH
 70
     0
  9
$DIMTOH
 70
     0
  9
$DIMSE1
 70
     0
  9
$DIMSE2
 70
     0
  9
$DIMTAD
 70
     1
  9
$DIMZIN
 70
     8
  9
$DIMBLK
  1

  9
$DIMASO
 70
     1
  9
$DIMSHO
 70
     1
  9
$DIMPOST
  1

  9
$DIMAPOST
  1

  9
$DIMALT
 70
     0
  9
$DIMALTD
 70
     3
  9
$DIMALTF
 40
0.03937007874016
  9
$DIMLFAC
 40
1.0
  9
$DIMTOFL
 70
     1
  9
$DIMTVP
 40
0.0
  9
$DIMTIX
 70
     0
  9
$DIMSOXD
 70
     0
  9
$DIMSAH
 70
     0
  9
$DIMBLK1
  1

  9
$DIMBLK2
  1

  9
$DIMSTYLE
  2
ISO-25
  9
$DIMCLRD
 70
     0
  9
$DIMCLRE
 70
     0
  9
$DIMCLRT
 70
     0
  9
$DIMTFAC
 40
1.0
  9
$DIMGAP
 40
0.625
  9
$LUNITS
 70
     2
  9
$LUPREC
 70
     4
  9
$SKETCHINC
 40
1.0
  9
$FILLETRAD
 40
0.0
  9
$AUNITS
 70
     0
  9
$AUPREC
 70
     0
  9
$MENU
  1
.
  9
$ELEVATION
 40
0.0
  9
$PELEVATION
 40
0.0
  9
$THICKNESS
 40
0.0
  9
$LIMCHECK
 70
     0
  9
$BLIPMODE
 70
     0
  9
$CHAMFERA
 40
10.0
  9
$CHAMFERB
 40
10.0
  9
$SKPOLY
 70
     0
  9
$TDCREATE
 40
2453378.22126956
  9
$TDUPDATE
 40
2453411.4574676268
  9
$TDINDWG
 40
0.2974314699
  9
$TDUSRTIMER
 40
0.2974167361
  9
$USRTIMER
 70
     1
  9
$ANGBASE
 50
0.0
  9
$ANGDIR
 70
     0
  9
$PDMODE
 70
     0
  9
$PDSIZE
 40
0.0
  9
$PLINEWID
 40
0.0
  9
$COORDS
 70
     1
  9
$SPLFRAME
 70
     0
  9
$SPLINETYPE
 70
     6
  9
$SPLINESEGS
 70
     8
  9
$ATTDIA
 70
     0
  9
$ATTREQ
 70
     1
  9
$HANDLING
 70
     1
  9
$HANDSEED
  5
35F53
  9
$SURFTAB1
 70
     6
  9
$SURFTAB2
 70
     6
  9
$SURFTYPE
 70
     6
  9
$SURFU
 70
     6
  9
$SURFV
 70
     6
  9
$UCSNAME
  2

  9
$UCSORG
 10
0.0
 20
0.0
 30
0.0
  9
$UCSXDIR
 10
1.0
 20
0.0
 30
0.0
  9
$UCSYDIR
 10
0.0
 20
1.0
 30
0.0
  9
$PUCSNAME
  2

  9
$PUCSORG
 10
0.0
 20
0.0
 30
0.0
  9
$PUCSXDIR
 10
1.0
 20
0.0
 30
0.0
  9
$PUCSYDIR
 10
0.0
 20
1.0
 30
0.0
  9
$USERI1
 70
     0
  9
$USERI2
 70
     0
  9
$USERI3
 70
     0
  9
$USERI4
 70
     0
  9
$USERI5
 70
     0
  9
$USERR1
 40
0.0
  9
$USERR2
 40
0.0
  9
$USERR3
 40
0.0
  9
$USERR4
 40
0.0
  9
$USERR5
 40
0.0
  9
$WORLDVIEW
 70
     1
  9
$SHADEDGE
 70
     3
  9
$SHADEDIF
 70
    70
  9
$TILEMODE
 70
     1
  9
$MAXACTVP
 70
    64
  9
$PLIMCHECK
 70
     0
  9
$PEXTMIN
 10
1.0000000000000000E+020
 20
1.0000000000000000E+020
 30
1.0000000000000000E+020
  9
$PEXTMAX
 10
-1.0000000000000000E+020
 20
-1.0000000000000000E+020
 30
-1.0000000000000000E+020
  9
$PLIMMIN
 10
0.0
 20
0.0
  9
$PLIMMAX
 10
420.0
 20
297.0
  9
$UNITMODE
 70
     0
  9
$VISRETAIN
 70
     1
  9
$PLINEGEN
 70
     0
  9
$PSLTSCALE
 70
     1
  0
ENDSEC
  0
SECTION
  2
TABLES
  0
TABLE
  2
VPORT
 70
     2
  0
VPORT
  2
*ACTIVE
 70
     0
 10
0.0
 20
0.0
 11
1.0
 21
1.0
 12
2.9479741302037379
 22
1.5621127258174849
 13
0.0
 23
0.0
 14
10.0
 24
10.0
 15
10.0
 25
10.0
 16
0.0
 26
0.0
 36
1.0
 17
0.0
 27
0.0
 37
0.0
 40
5.7271953291700584
 41
1.9608247422680409
 42
50.0
 43
0.0
 44
0.0
 50
0.0
 51
0.0
 71
     0
 72
  1000
 73
     1
 74
     3
 75
     0
 76
     0
 77
     0
 78
     0
  0
ENDTAB
  0
TABLE
  2
LTYPE
 70
     1
  0
LTYPE
  2
CONTINUOUS
 70
     0
  3
Solid line
 72
    65
 73
     0
 40
0.0
  0
ENDTAB
  0
TABLE
  2
LAYER
 70
     3
  0
LAYER
  2
0
 70
     0
 62
     1
  6
CONTINUOUS
  0
LAYER
  2
ASHADE
 70
     0
 62
     7
  6
CONTINUOUS
  0
LAYER
  2
DEFPOINTS
 70
     0
 62
     7
  6
CONTINUOUS
  0
ENDTAB
  0
TABLE
  2
STYLE
 70
     2
  0
STYLE
  2
STANDARD
 70
     0
 40
0.0
 41
1.0
 50
0.0
 71
     0
 42
0.001
  3
txt
  4

  0
STYLE
  2
ASHADE
 70
     0
 40
0.2
 41
1.0
 50
0.0
 71
     0
 42
2.5
  3
simplex.shx
  4

  0
ENDTAB
  0
TABLE
  2
VIEW
 70
     0
  0
ENDTAB
  0
TABLE
  2
UCS
 70
     0
  0
ENDTAB
  0
TABLE
  2
APPID
 70
     6
  0
APPID
  2
ACAD
 70
     0
  0
APPID
  2
AVE_RENDER
 70
     0
  0
APPID
  2
AVE_ENTITY_MATERIAL
 70
     0
  0
APPID
  2
AVE_FINISH
 70
     0
  0
APPID
  2
AVE_MATERIAL
 70
     0
  0
APPID
  2
AVE_GLOBAL
 70
     0
  0
ENDTAB
  0
TABLE
  2
DIMSTYLE
 70
     2
  0
DIMSTYLE
  2
ISO-25
 70
     0
  3

  4

  5

  6

  7

 40
1.0
 41
2.5
 42
0.625
 43
3.75
 44
1.25
 45
0.0
 46
0.0
 47
0.0
 48
0.0
140
2.5
141
2.5
142
0.0
143
0.03937007874016
144
1.0
145
0.0
146
1.0
147
0.625
 71
     0
 72
     0
 73
     0
 74
     0
 75
     0
 76
     0
 77
     1
 78
     8
170
     0
171
     3
172
     1
173
     0
174
     0
175
     0
176
     0
177
     0
178
     0
  0
DIMSTYLE
  2
STANDARD
 70
     0
  3

  4

  5

  6

  7

 40
1.0
 41
0.18
 42
0.0625
 43
0.38
 44
0.18
 45
0.0
 46
0.0
 47
0.0
 48
0.0
140
0.18
141
0.09
142
0.0
143
25.399999999999999
144
1.0
145
0.0
146
1.0
147
0.09
 71
     0
 72
     0
 73
     1
 74
     1
 75
     0
 76
     0
 77
     0
 78
     0
170
     0
171
     2
172
     0
173
     0
174
     0
175
     0
176
     0
177
     0
178
     0
  0
ENDTAB
  0
ENDSEC
  0
SECTION
  2
BLOCKS
  0
BLOCK
  8
0
  2
$MODEL_SPACE
 70
     0
 10
0.0
 20
0.0
 30
0.0
  3
$MODEL_SPACE
  1

  0
ENDBLK
  5
35D1F
  8
0
  0
BLOCK
 67
     1
  8
0
  2
$PAPER_SPACE
 70
     0
 10
0.0
 20
0.0
 30
0.0
  3
$PAPER_SPACE
  1

  0
ENDBLK
  5
35D1B
 67
     1
  8
0
  0
BLOCK
  8
ASHADE
  2
AVE_RENDER
 70
     0
 10
0.0
 20
0.0
 30
0.0
  3
AVE_RENDER
  1
AVE_RENDER
  0
ENDBLK
  5
31
  8
0
  0
BLOCK
  8
ASHADE
  2
AVE_GLOBAL
 70
     0
 10
0.0
 20
0.0
 30
0.0
  3
AVE_GLOBAL
  1
AVE_GLOBAL
  0
ENDBLK
  5
3F
  8
0
  0
BLOCK
  8
ASHADE
  2
RM_SDB
 70
     2
 10
0.0
 20
0.0
 30
0.0
  3
RM_SDB
  1
RM_SDB
  0
ATTDEF
  5
32E71
  8
ASHADE
  6
CONTINUOUS
 62
     1
 10
0.0000000000000001
 20
-0.15
 30
0.0
 40
0.2
  1

 41
100.0
  7
ASHADE
 72
     1
 11
0.0000000000000001
 21
-0.15
 31
0.0
  3
Name
  2
NAME
 70
     0
  0
ENDBLK
  5
620
  8
0
  0
ENDSEC
  0
SECTION
  2
ENTITIES
  0
ATTDEF
  5
35C56
  8
0
 10
0.0
 20
0.0
 30
0.0
 40
0.001
  1
K-13132-3B
  3

  2
MODELNUMBER
 70
     8
  0
ATTDEF
  5
35C57
  8
0
 10
0.0
 20
-0.0016666666666667
 30
0.0
 40
0.001
  1
PINSTRIPE
  3

  2
TRADENAME
 70
     8
  0
ATTDEF
  5
35C58
  8
0
 10
0.0
 20
-0.0033333333333333
 30
0.0
 40
0.001
  1
FAUCETS
  3

  2
PRODUCT
 70
     8
  0
ATTDEF
  5
35C59
  8
0
 10
0.0
 20
-0.005
 30
0.0
 40
0.001
  1
BRASS
  3

  2
MATERIAL
 70
     8
  0
POLYLINE
  5
35DC3
  8
ASHADE
 66
     1
 10
0.0
 20
0.0
 30
0.0
  0
VERTEX
  5
35E79
  8
ASHADE
 10
2.104742041632528
 20
0.3162441076953524
 30
0.0
  0
VERTEX
  5
35E7A
  8
ASHADE
 10
2.1702810307741118
 20
0.3164614060838373
 30
0.0
 42
-0.325599045907375
  0
VERTEX
  5
35E7B
  8
ASHADE
 10
2.3218782189786391
 20
0.1959086864945103
 30
0.0
  0
VERTEX
  5
35E7C
  8
ASHADE
 10
2.3218782189786391
 20
0.1377950220574284
 30
0.0
  0
VERTEX
  5
35E7D
  8
ASHADE
 10
2.3697028721868949
 20
0.1377950073909578
 30
0.0
 42
-0.4085180996423878
  0
VERTEX
  5
35E7E
  8
ASHADE
 10
2.3895117780868351
 20
0.1205145935770719
 30
0.0
  0
VERTEX
  5
35E7F
  8
ASHADE
 10
2.389505771815772
 20
0.0
 30
0.0
  0
VERTEX
  5
35E80
  8
ASHADE
 10
1.1947528859078851
 20
0.0
 30
0.0
  0
VERTEX
  5
35E81
  8
ASHADE
 10
0.0
 20
0.0
 30
0.0
  0
VERTEX
  5
35E82
  8
ASHADE
 10
-0.0000060062710654
 20
0.1205145935770719
 30
0.0
 42
-0.4085180996423894
  0
VERTEX
  5
35E83
  8
ASHADE
 10
0.0198028996288793
 20
0.1377950073909577
 30
0.0
  0
VERTEX
  5
35E84
  8
ASHADE
 10
0.0676275528371333
 20
0.1377950220574284
 30
0.0
  0
VERTEX
  5
35E85
  8
ASHADE
 10
0.0676275528371333
 20
0.1959086864945103
 30
0.0
 42
-0.3255990459073752
  0
VERTEX
  5
35E86
  8
ASHADE
 10
0.2192247410416588
 20
0.3164614060838371
 30
0.0
  0
VERTEX
  5
35E87
  8
ASHADE
 10
0.28476373018324
 20
0.3162441076953524
 30
0.0
  0
SEQEND
  5
35E88
  8
ASHADE
  0
POLYLINE
  5
35DCA
  8
ASHADE
 66
     1
 10
0.0
 20
0.0
 30
-0.0015263760818291
  0
VERTEX
  5
35E89
  8
ASHADE
 10
1.196419583320615
 20
3.1067489171270761
 30
-0.0015263760818291
  0
VERTEX
  5
35E8A
  8
ASHADE
 10
0.8525041694343061
 20
3.1067489171270761
 30
-0.0015263760818291
 42
0.2748553011985118
  0
VERTEX
  5
35E8B
  8
ASHADE
 10
0.8342083960473543
 20
3.093240982854788
 30
-0.0015263760818291
  0
VERTEX
  5
35E8C
  8
ASHADE
 10
0.8342083960473543
 20
2.982389706457083
 30
-0.0015263760818291
  0
VERTEX
  5
35E8D
  8
ASHADE
 10
0.8514566316306551
 20
2.9727410478834559
 30
-0.0015263760818291
  0
VERTEX
  5
35E8E
  8
ASHADE
 10
0.8340912113423373
 20
2.9630923893098262
 30
-0.0015263760818291
  0
VERTEX
  5
35E8F
  8
ASHADE
 10
0.8340971655547635
 20
2.937306157434417
 30
-0.0015263760818291
  0
VERTEX
  5
35E90
  8
ASHADE
 10
-0.2823481629192841
 20
2.9373664659504382
 30
-0.0015263760818291
 42
0.2683702392242544
  0
VERTEX
  5
35E91
  8
ASHADE
 10
-0.3037494728863255
 20
2.9159649213199081
 30
-0.0015263760818291
  0
VERTEX
  5
35E92
  8
ASHADE
 10
-0.3037494728863255
 20
2.464839856350856
 30
-0.0015263760818291
 42
0.2683702392242544
  0
VERTEX
  5
35E93
  8
ASHADE
 10
-0.2823481629192841
 20
2.443438311720326
 30
-0.0015263760818291
  0
VERTEX
  5
35E94
  8
ASHADE
 10
0.9241267507970292
 20
2.443438311720326
 30
-0.0015263760818291
  0
VERTEX
  5
35E95
  8
ASHADE
 10
0.9233471986949426
 20
2.206130637073946
 30
-0.0015263760818291
  0
VERTEX
  5
35E96
  8
ASHADE
 10
0.9456885705888231
 20
2.1667606746201078
 30
-0.0015263760818291
  0
VERTEX
  5
35E97
  8
ASHADE
 10
0.9456885705888231
 20
1.9841945941094881
 30
-0.0015263760818291
  0
VERTEX
  5
35E98
  8
ASHADE
 10
0.9352375975549204
 20
1.974848651433416
 30
-0.0015263760818291
  0
VERTEX
  5
35E99
  8
ASHADE
 10
0.8667749947011436
 20
1.974848651433416
 30
-0.0015263760818291
  0
VERTEX
  5
35E9A
  8
ASHADE
 10
0.8563191425121225
 20
1.9654780690912741
 30
-0.0015263760818291
  0
VERTEX
  5
35E9B
  8
ASHADE
 10
0.8563244909942152
 20
1.9349400189463659
 30
-0.0015263760818291
  0
VERTEX
  5
35E9C
  8
ASHADE
 10
0.8094255852401293
 20
1.9349400189463659
 30
-0.0015263760818291
  0
VERTEX
  5
35E9D
  8
ASHADE
 10
0.7989274950046426
 20
1.9246487344150081
 30
-0.0015263760818291
  0
VERTEX
  5
35E9E
  8
ASHADE
 10
0.7989328421056304
 20
1.898320547217567
 30
-0.0015263760818291
  0
VERTEX
  5
35E9F
  8
ASHADE
 10
0.7907505956590182
 20
1.886363269263936
 30
-0.0015263760818291
 42
0.2612092009744782
  0
VERTEX
  5
35EA0
  8
ASHADE
 10
0.7692549509704083
 20
1.853089746857123
 30
-0.0015263760818291
  0
VERTEX
  5
35EA1
  8
ASHADE
 10
0.7692554202973838
 20
1.6996924550477961
 30
-0.0015263760818291
  0
VERTEX
  5
35EA2
  8
ASHADE
 10
0.7585533573329464
 20
1.6793877275530851
 30
-0.0015263760818291
  0
VERTEX
  5
35EA3
  8
ASHADE
 10
0.7274088194072208
 20
1.679598572695685
 30
-0.0015263760818291
 42
0.1297609527671271
  0
VERTEX
  5
35EA4
  8
ASHADE
 10
0.6668844129741185
 20
1.6158402687553961
 30
-0.0015263760818291
  0
VERTEX
  5
35EA5
  8
ASHADE
 10
0.5338663543164773
 20
0.6971577108447065
 30
-0.0015263760818291
  0
VERTEX
  5
35EA6
  8
ASHADE
 10
0.5234102186858644
 20
0.6884454769138773
 30
-0.0015263760818291
  0
VERTEX
  5
35EA7
  8
ASHADE
 10
0.4685482421815365
 20
0.6884454769138773
 30
-0.0015263760818291
  0
VERTEX
  5
35EA8
  8
ASHADE
 10
0.4595470201671114
 20
0.6796172018889896
 30
-0.0015263760818291
  0
VERTEX
  5
35EA9
  8
ASHADE
 10
0.4595470201671114
 20
0.6292723215017979
 30
-0.0015263760818291
  0
VERTEX
  5
35EAA
  8
ASHADE
 10
0.3684319403022496
 20
0.6292723215017979
 30
-0.0015263760818291
  0
VERTEX
  5
35EAB
  8
ASHADE
 10
0.6710926332771763
 20
2.1862846766952959
 30
-0.0015263760818291
 42
-0.3339899969321005
  0
VERTEX
  5
35EAC
  8
ASHADE
 10
0.7269824358522891
 20
2.2483449556474162
 30
-0.0015263760818291
  0
VERTEX
  5
35EAD
  8
ASHADE
 10
0.7581547814011582
 20
2.2483449556474149
 30
-0.0015263760818291
 42
0.007738853709425
  0
VERTEX
  5
35EAE
  8
ASHADE
 10
0.7687544137537481
 20
2.271225818896716
 30
-0.0015263760818291
  0
VERTEX
  5
35EAF
  8
ASHADE
 10
0.7687542964220074
 20
2.361724027121495
 30
-0.0015263760818291
 42
-0.3562813145040696
  0
VERTEX
  5
35EB0
  8
ASHADE
 10
0.8145820806920552
 20
2.4068125040773869
 30
-0.0015263760818291
  0
VERTEX
  5
35EB1
  8
ASHADE
 10
0.8576043456494812
 20
2.4068125040773869
 30
-0.0015263760818291
 42
0.1065885753786756
  0
VERTEX
  5
35EB2
  8
ASHADE
 10
0.9027101751058859
 20
2.443438311720326
 30
-0.0015263760818291
  0
SEQEND
  5
35EB3
  8
ASHADE
  0
POLYLINE
  5
35DD2
  8
ASHADE
 66
     1
 10
0.0
 20
0.0
 30
-0.0015263760818291
  0
VERTEX
  5
35EB4
  8
ASHADE
 10
0.2847560084193272
 20
0.3162448673322373
 30
-0.0015263760818291
 42
0.1543580159779758
  0
VERTEX
  5
35EB5
  8
ASHADE
 10
0.3066029794087726
 20
0.3713067214806252
 30
-0.0015263760818291
  0
VERTEX
  5
35EB6
  8
ASHADE
 10
0.3066029222160562
 20
0.5556189623270778
 30
-0.0015263760818291
 42
-0.285733369719421
  0
VERTEX
  5
35EB7
  8
ASHADE
 10
0.3514647142440062
 20
0.6103406100664871
 30
-0.0015263760818291
 42
0.0064324717497143
  0
VERTEX
  5
35EB8
  8
ASHADE
 10
0.3684319403022497
 20
0.629272321501798
 30
-0.0015263760818291
  0
SEQEND
  5
35EB9
  8
ASHADE
  0
POLYLINE
  5
35DD6
  8
ASHADE
 66
     1
 10
0.0
 20
0.0
 30
-0.0011948474635428
  0
VERTEX
  5
35EBA
  8
ASHADE
 10
1.4660198997263361
 20
2.2483449556474162
 30
-0.0011948474635428
  0
VERTEX
  5
35EBB
  8
ASHADE
 10
1.6313509904146151
 20
2.2483449556474162
 30
-0.0011948474635428
  0
VERTEX
  5
35EBC
  8
ASHADE
 10
1.6625233359634839
 20
2.248344955647422
 30
-0.0011948474635428
 42
-0.2616851864666088
  0
VERTEX
  5
35EBD
  8
ASHADE
 10
1.714974849134681
 20
2.2032447455172042
 30
-0.0011948474635428
 42
0.1619931819874152
  0
VERTEX
  5
35EBE
  8
ASHADE
 10
1.8093602580130059
 20
2.1899956450705051
 30
-0.0011948474635428
  0
VERTEX
  5
35EBF
  8
ASHADE
 10
1.8298412177860699
 20
2.160982320928996
 30
-0.0011948474635428
 42
0.1873820949108339
  0
VERTEX
  5
35EC0
  8
ASHADE
 10
2.114930836886165
 20
2.128047769928409
 30
-0.0011948474635428
  0
VERTEX
  5
35EC1
  8
ASHADE
 10
5.2186815668317044
 20
2.715890448179326
 30
-0.0011948474635428
 42
-0.0914831147738006
  0
VERTEX
  5
35EC2
  8
ASHADE
 10
5.669720805972811
 20
2.722145553315114
 30
-0.0011948474635428
 42
-0.2991594493756856
  0
VERTEX
  5
35EC3
  8
ASHADE
 10
6.5530908504426391
 20
1.868270714456276
 30
-0.0011948474635428
 42
0.1453045590344842
  0
VERTEX
  5
35EC4
  8
ASHADE
 10
6.5748790844948246
 20
1.8419364952085271
 30
-0.0011948474635428
  0
VERTEX
  5
35EC5
  8
ASHADE
 10
6.6176283899771189
 20
1.8265581199962571
 30
-0.0011948474635428
  0
VERTEX
  5
35EC6
  8
ASHADE
 10
6.644557514876122
 20
1.665472417468258
 30
-0.0011948474635428
  0
VERTEX
  5
35EC7
  8
ASHADE
 10
6.6320551136434034
 20
1.647808240855168
 30
-0.0011948474635428
  0
VERTEX
  5
35EC8
  8
ASHADE
 10
6.452957124799485
 20
1.6196541370694171
 30
-0.0011948474635428
  0
VERTEX
  5
35EC9
  8
ASHADE
 10
6.4805465109050244
 20
1.4454606150929441
 30
-0.0011948474635428
  0
VERTEX
  5
35ECA
  8
ASHADE
 10
6.4669763908088171
 20
1.4271532258634081
 30
-0.0011948474635428
  0
VERTEX
  5
35ECB
  8
ASHADE
 10
5.6009296742379631
 20
1.2899851434473451
 30
-0.0011948474635428
  0
VERTEX
  5
35ECC
  8
ASHADE
 10
5.5823668538033919
 20
1.3032030336503451
 30
-0.0011948474635428
  0
VERTEX
  5
35ECD
  8
ASHADE
 10
5.5547769983708806
 20
1.477396555626818
 30
-0.0011948474635428
  0
VERTEX
  5
35ECE
  8
ASHADE
 10
5.4404954111278032
 20
1.4594613426868459
 30
-0.0011948474635428
  0
VERTEX
  5
35ECF
  8
ASHADE
 10
5.4227970909774257
 20
1.4723559839372149
 30
-0.0011948474635428
  0
VERTEX
  5
35ED0
  8
ASHADE
 10
5.3962017101764204
 20
1.633477076560204
 30
-0.0011948474635428
  0
VERTEX
  5
35ED1
  8
ASHADE
 10
5.3927972415387604
 20
1.661208112591936
 30
-0.0011948474635428
 42
0.2925970682575987
  0
VERTEX
  5
35ED2
  8
ASHADE
 10
5.2381204470694041
 20
1.7717298041228751
 30
-0.0011948474635428
  0
VERTEX
  5
35ED3
  8
ASHADE
 10
2.2786776097714849
 20
1.0102982991282441
 30
-0.0011948474635428
 42
0.1971907731970843
  0
VERTEX
  5
35ED4
  8
ASHADE
 10
1.991456072896715
 20
0.7971470011119362
 30
-0.0011948474635428
  0
SEQEND
  5
35ED5
  8
ASHADE
  0
POLYLINE
  5
35DF4
  8
ASHADE
 66
     1
 10
0.0
 20
0.0
 30
0.0
  0
VERTEX
  5
35ED6
  8
ASHADE
 10
0.4595470201671114
 20
0.6292723215017979
 30
0.0
  0
VERTEX
  5
35ED7
  8
ASHADE
 10
0.4454878613650807
 20
0.6103405514006166
 30
0.0
 42
0.2721363403977222
  0
VERTEX
  5
35ED8
  8
ASHADE
 10
0.4062192735373973
 20
0.5556189623270864
 30
0.0
  0
VERTEX
  5
35ED9
  8
ASHADE
 10
0.4062192735373973
 20
0.3260767424423854
 30
0.0
 42
-0.1951144251445674
  0
VERTEX
  5
35EDA
  8
ASHADE
 10
0.3868431820381852
 20
0.2953155273218328
 30
0.0
  0
VERTEX
  5
35EDB
  8
ASHADE
 10
0.3268105576932392
 20
0.2953155273218328
 30
0.0
 42
0.2441729553637663
  0
VERTEX
  5
35EDC
  8
ASHADE
 10
0.1919374313838515
 20
0.1771650138442098
 30
0.0
  0
VERTEX
  5
35EDD
  8
ASHADE
 10
0.1919320869147762
 20
0.137795022057432
 30
0.0
  0
VERTEX
  5
35EDE
  8
ASHADE
 10
0.1493819648921484
 20
0.1377950073909631
 30
0.0
 42
0.411410540583879
  0
VERTEX
  5
35EDF
  8
ASHADE
 10
0.1317629610002031
 20
0.1205145935770737
 30
0.0
  0
VERTEX
  5
35EE0
  8
ASHADE
 10
0.1317629610002031
 20
0.0
 30
0.0
  0
VERTEX
  5
35EE1
  8
ASHADE
 10
1.1947528859078851
 20
0.0
 30
0.0
  0
VERTEX
  5
35EE2
  8
ASHADE
 10
2.2577428108155679
 20
0.0
 30
0.0
  0
VERTEX
  5
35EE3
  8
ASHADE
 10
2.2577428108155679
 20
0.1205145935770737
 30
0.0
 42
0.4114105405838785
  0
VERTEX
  5
35EE4
  8
ASHADE
 10
2.240123806923624
 20
0.1377950073909631
 30
0.0
  0
VERTEX
  5
35EE5
  8
ASHADE
 10
2.1975736849009961
 20
0.137795022057432
 30
0.0
  0
VERTEX
  5
35EE6
  8
ASHADE
 10
2.1975683404319231
 20
0.1771650138442098
 30
0.0
 42
0.2441729553637664
  0
VERTEX
  5
35EE7
  8
ASHADE
 10
2.0626952141225301
 20
0.2953155273218328
 30
0.0
  0
VERTEX
  5
35EE8
  8
ASHADE
 10
2.0026625897775872
 20
0.2953155273218328
 30
0.0
 42
-0.1951144251445671
  0
VERTEX
  5
35EE9
  8
ASHADE
 10
1.983286498278376
 20
0.3260767424423854
 30
0.0
  0
VERTEX
  5
35EEA
  8
ASHADE
 10
1.983286498278376
 20
0.5556189623270864
 30
0.0
 42
0.2721363403977221
  0
VERTEX
  5
35EEB
  8
ASHADE
 10
1.9440179104506941
 20
0.6103405514006166
 30
0.0
  0
VERTEX
  5
35EEC
  8
ASHADE
 10
1.9299587516486609
 20
0.6292723215017979
 30
0.0
  0
VERTEX
  5
35EED
  8
ASHADE
 10
1.9299587516486609
 20
0.6796172018889896
 30
0.0
  0
VERTEX
  5
35EEE
  8
ASHADE
 10
1.9209575296342341
 20
0.6884454769138773
 30
0.0
  0
VERTEX
  5
35EEF
  8
ASHADE
 10
1.866095553129907
 20
0.6884454769138773
 30
0.0
  0
VERTEX
  5
35EF0
  8
ASHADE
 10
1.8556394174993001
 20
0.6971577108447065
 30
0.0
  0
VERTEX
  5
35EF1
  8
ASHADE
 10
1.722621358841655
 20
1.6158402687553961
 30
0.0
 42
0.129760952767127
  0
VERTEX
  5
35EF2
  8
ASHADE
 10
1.662096952408548
 20
1.679598572695685
 30
0.0
  0
VERTEX
  5
35EF3
  8
ASHADE
 10
1.630952414482828
 20
1.6793877275530851
 30
0.0
  0
VERTEX
  5
35EF4
  8
ASHADE
 10
1.620250351518389
 20
1.6996924550477961
 30
0.0
  0
VERTEX
  5
35EF5
  8
ASHADE
 10
1.620250820845363
 20
1.853089746857123
 30
0.0
 42
0.2612092009744785
  0
VERTEX
  5
35EF6
  8
ASHADE
 10
1.5987551761567551
 20
1.886363269263936
 30
0.0
  0
VERTEX
  5
35EF7
  8
ASHADE
 10
1.590572929710147
 20
1.898320547217567
 30
0.0
  0
VERTEX
  5
35EF8
  8
ASHADE
 10
1.5905782768111261
 20
1.9246487344150081
 30
0.0
  0
VERTEX
  5
35EF9
  8
ASHADE
 10
1.580080186575648
 20
1.9349400189463659
 30
0.0
  0
VERTEX
  5
35EFA
  8
ASHADE
 10
1.5331812808215559
 20
1.9349400189463659
 30
0.0
  0
VERTEX
  5
35EFB
  8
ASHADE
 10
1.533186629303654
 20
1.9654780690912741
 30
0.0
  0
VERTEX
  5
35EFC
  8
ASHADE
 10
1.522730777114625
 20
1.974848651433416
 30
0.0
  0
VERTEX
  5
35EFD
  8
ASHADE
 10
1.4542681742608521
 20
1.974848651433416
 30
0.0
  0
VERTEX
  5
35EFE
  8
ASHADE
 10
1.443817201226945
 20
1.9841945941094881
 30
0.0
  0
VERTEX
  5
35EFF
  8
ASHADE
 10
1.443817201226945
 20
2.1667606746201078
 30
0.0
  0
VERTEX
  5
35F00
  8
ASHADE
 10
1.4661585731208291
 20
2.206130637073946
 30
0.0
  0
VERTEX
  5
35F01
  8
ASHADE
 10
1.465379021018739
 20
2.443438311720326
 30
0.0
  0
VERTEX
  5
35F02
  8
ASHADE
 10
2.6718539347350561
 20
2.443438311720326
 30
0.0
 42
0.2683702392242555
  0
VERTEX
  5
35F03
  8
ASHADE
 10
2.693255244702097
 20
2.464839856350856
 30
0.0
  0
VERTEX
  5
35F04
  8
ASHADE
 10
2.693255244702097
 20
2.9159649213199081
 30
0.0
 42
0.2683702392242548
  0
VERTEX
  5
35F05
  8
ASHADE
 10
2.6718539347350561
 20
2.9373664659504382
 30
0.0
  0
VERTEX
  5
35F06
  8
ASHADE
 10
1.5554086062610111
 20
2.937306157434417
 30
0.0
  0
VERTEX
  5
35F07
  8
ASHADE
 10
1.5554145604734391
 20
2.9630923893098262
 30
0.0
  0
VERTEX
  5
35F08
  8
ASHADE
 10
1.538049140185114
 20
2.9727410478834559
 30
0.0
  0
VERTEX
  5
35F09
  8
ASHADE
 10
1.5552973757684201
 20
2.982389706457083
 30
0.0
  0
VERTEX
  5
35F0A
  8
ASHADE
 10
1.5552973757684201
 20
3.093240982854788
 30
0.0
 42
0.2748553011985144
  0
VERTEX
  5
35F0B
  8
ASHADE
 10
1.537001602381465
 20
3.1067489171270761
 30
0.0
  0
VERTEX
  5
35F0C
  8
ASHADE
 10
1.193086188495154
 20
3.1067489171270761
 30
0.0
  0
SEQEND
  5
35F0D
  8
ASHADE
  0
POLYLINE
  5
35E4A
  8
ASHADE
 66
     1
 10
0.0
 20
0.0
 30
-0.0015263760818291
  0
VERTEX
  5
35F0E
  8
ASHADE
 10
0.64983813417732
 20
2.937316110800205
 30
-0.0015263760818291
  0
VERTEX
  5
35F0F
  8
ASHADE
 10
0.6498383345999576
 20
3.1599142766241539
 30
-0.0015263760818291
 42
-0.2852123500675858
  0
VERTEX
  5
35F10
  8
ASHADE
 10
0.6773651882708043
 20
3.188917040908763
 30
-0.0015263760818291
  0
VERTEX
  5
35F11
  8
ASHADE
 10
1.1948035030492561
 20
3.188917040908763
 30
-0.0015263760818291
  0
SEQEND
  5
35F12
  8
ASHADE
  0
POLYLINE
  5
35E4D
  8
ASHADE
 66
     1
 10
0.0
 20
0.0
 30
-0.3162434545866884
210
0.0000003103034217
220
-0.9999999999999518
230
0.0
  0
VERTEX
  5
35F13
  8
ASHADE
 10
0.4033619645372633
 20
-0.0014442409293024
 30
-0.3162434545866884
  0
VERTEX
  5
35F14
  8
ASHADE
 10
0.2152267029947029
 20
-0.0016039422405796
 30
-0.3162434545866884
  0
SEQEND
  5
35F15
  8
ASHADE
  0
POLYLINE
  5
35E4E
  8
ASHADE
 66
     1
 10
0.0
 20
0.0
 30
-0.0015263760818291
  0
VERTEX
  5
35F16
  8
ASHADE
 10
1.9299587516486609
 20
0.6292723215017979
 30
-0.0015263760818291
  0
VERTEX
  5
35F17
  8
ASHADE
 10
2.021073831513521
 20
0.6292723215017992
 30
-0.0015263760818291
 42
0.0064324717497134
  0
VERTEX
  5
35F18
  8
ASHADE
 10
2.0380410575717649
 20
0.6103406100664821
 30
-0.0015263760818291
 42
-0.2857333697194228
  0
VERTEX
  5
35F19
  8
ASHADE
 10
2.0829028495997162
 20
0.5556189623270778
 30
-0.0015263760818291
  0
VERTEX
  5
35F1A
  8
ASHADE
 10
2.0829027924069972
 20
0.3713067214806252
 30
-0.0015263760818291
 42
0.1543580159779767
  0
VERTEX
  5
35F1B
  8
ASHADE
 10
2.1047497633964469
 20
0.3162448673322419
 30
-0.0015263760818291
  0
SEQEND
  5
35F1C
  8
ASHADE
  0
POLYLINE
  5
35E50
  8
ASHADE
 66
     1
 10
0.0
 20
0.0
 30
0.0
  0
VERTEX
  5
35F1D
  8
ASHADE
 10
1.538049140185114
 20
2.9727410478834559
 30
0.0
  0
VERTEX
  5
35F1E
  8
ASHADE
 10
0.8514566316306551
 20
2.9727410478834559
 30
0.0
  0
SEQEND
  5
35F1F
  8
ASHADE
  0
POLYLINE
  5
35E51
  8
ASHADE
 66
     1
 10
0.0
 20
0.0
 30
0.0
  0
VERTEX
  5
35F20
  8
ASHADE
 10
0.8340971655547635
 20
2.937306157434417
 30
0.0
  0
VERTEX
  5
35F21
  8
ASHADE
 10
1.5554086062610111
 20
2.937306157434417
 30
0.0
  0
SEQEND
  5
35F22
  8
ASHADE
  0
POLYLINE
  5
35E52
  8
ASHADE
 66
     1
 10
0.0
 20
0.0
 30
0.0
  0
VERTEX
  5
35F23
  8
ASHADE
 10
1.465379021018739
 20
2.443438311720326
 30
0.0
  0
VERTEX
  5
35F24
  8
ASHADE
 10
0.9241267507970292
 20
2.443438311720326
 30
0.0
  0
SEQEND
  5
35F25
  8
ASHADE
  0
POLYLINE
  5
35E53
  8
ASHADE
 66
     1
 10
0.0
 20
0.0
 30
0.0
  0
VERTEX
  5
35F26
  8
ASHADE
 10
0.9456885705888231
 20
2.1667606746201078
 30
0.0
  0
VERTEX
  5
35F27
  8
ASHADE
 10
1.443817201226945
 20
2.1667606746201078
 30
0.0
  0
SEQEND
  5
35F28
  8
ASHADE
  0
POLYLINE
  5
35E54
  8
ASHADE
 66
     1
 10
0.0
 20
0.0
 30
0.0
  0
VERTEX
  5
35F29
  8
ASHADE
 10
0.8563244909942152
 20
1.9349400189463659
 30
0.0
  0
VERTEX
  5
35F2A
  8
ASHADE
 10
1.533181260059268
 20
1.9348214731880751
 30
0.0
  0
SEQEND
  5
35F2B
  8
ASHADE
  0
POLYLINE
  5
35E55
  8
ASHADE
 66
     1
 10
0.0
 20
0.0
 30
0.0
  0
VERTEX
  5
35F2C
  8
ASHADE
 10
0.7585533573329464
 20
1.6793877275530851
 30
0.0
  0
VERTEX
  5
35F2D
  8
ASHADE
 10
1.630952414482828
 20
1.6793877275530851
 30
0.0
  0
SEQEND
  5
35F2E
  8
ASHADE
  0
POLYLINE
  5
35E56
  8
ASHADE
 66
     1
 10
0.0
 20
0.0
 30
0.0
  0
VERTEX
  5
35F2F
  8
ASHADE
 10
0.5234102186858644
 20
0.6884454769138773
 30
0.0
  0
VERTEX
  5
35F30
  8
ASHADE
 10
1.866095553129907
 20
0.6884454769138773
 30
0.0
  0
SEQEND
  5
35F31
  8
ASHADE
  0
POLYLINE
  5
35E57
  8
ASHADE
 66
     1
 10
0.0
 20
0.0
 30
0.0
  0
VERTEX
  5
35F32
  8
ASHADE
 10
2.1975736849009961
 20
0.137795022057432
 30
0.0
  0
VERTEX
  5
35F33
  8
ASHADE
 10
0.1919321238747651
 20
0.1380672875268427
 30
0.0
  0
SEQEND
  5
35F34
  8
ASHADE
  0
POLYLINE
  5
35E58
  8
ASHADE
 66
     1
 10
0.0
 20
0.0
 30
0.0
  0
VERTEX
  5
35F35
  8
ASHADE
 10
0.3868431820381799
 20
0.2953155273218328
 30
0.0
  0
VERTEX
  5
35F36
  8
ASHADE
 10
2.0026625897775889
 20
0.2953155273218328
 30
0.0
  0
SEQEND
  5
35F37
  8
ASHADE
  0
POLYLINE
  5
35E5A
  8
ASHADE
 66
     1
 10
0.0
 20
0.0
 30
-0.3162434545867035
210
0.0000003103034105
220
-0.9999999999999518
230
0.0
  0
VERTEX
  5
35F38
  8
ASHADE
 10
2.1047421397640531
 20
0.0
 30
-0.3162434545867035
  0
VERTEX
  5
35F39
  8
ASHADE
 10
1.9861438022995741
 20
-0.0001006738973496
 30
-0.3162434545867035
  0
SEQEND
  5
35F3A
  8
ASHADE
  0
POLYLINE
  5
35E5B
  8
ASHADE
 66
     1
 10
0.0
 20
0.0
 30
0.0
  0
VERTEX
  5
35F3B
  8
ASHADE
 10
0.0676275528371333
 20
0.1377950220574284
 30
0.0
  0
VERTEX
  5
35F3C
  8
ASHADE
 10
2.3218782189786391
 20
0.1377950220574284
 30
0.0
  0
SEQEND
  5
35F3D
  8
ASHADE
  0
POLYLINE
  5
35E5C
  8
ASHADE
 66
     1
 10
0.0
 20
0.0
 30
-0.0015263760818291
  0
VERTEX
  5
35F3E
  8
ASHADE
 10
0.7581547814011583
 20
2.2483449556474162
 30
-0.0015263760818291
  0
VERTEX
  5
35F3F
  8
ASHADE
 10
0.9234858720894337
 20
2.2483449556474162
 30
-0.0015263760818291
  0
SEQEND
  5
35F40
  8
ASHADE
  0
POLYLINE
  5
35E5D
  8
ASHADE
 66
     1
 10
0.0
 20
0.0
 30
-0.0011948474635428
  0
VERTEX
  5
35F41
  8
ASHADE
 10
5.5547769983708806
 20
1.477396555626818
 30
-0.0011948474635428
  0
VERTEX
  5
35F42
  8
ASHADE
 10
6.4529572231123922
 20
1.619653516342608
 30
-0.0011948474635428
  0
SEQEND
  5
35F43
  8
ASHADE
  0
POLYLINE
  5
35E5E
  8
ASHADE
 66
     1
 10
0.0
 20
0.0
 30
2.099667436112008
210
0.9847907712035716
220
0.1737444587671059
230
0.0
  0
VERTEX
  5
35F44
  8
ASHADE
 10
0.439018552443732
 20
-0.0011948474635428
 30
2.099667436112008
  0
VERTEX
  5
35F45
  8
ASHADE
 10
0.2685511958041397
 20
-0.0015263760818291
 30
2.099667436112008
  0
SEQEND
  5
35F46
  8
ASHADE
  0
POLYLINE
  5
35E5F
  8
ASHADE
 66
     1
 10
0.0
 20
0.0
 30
-0.0015263760818291
  0
VERTEX
  5
35F47
  8
ASHADE
 10
1.739667637638459
 20
2.937316110800205
 30
-0.0015263760818291
  0
VERTEX
  5
35F48
  8
ASHADE
 10
1.739667437215819
 20
3.159914276624157
 30
-0.0015263760818291
 42
0.2852123500675904
  0
VERTEX
  5
35F49
  8
ASHADE
 10
1.712140583544965
 20
3.188917040908763
 30
-0.0015263760818291
  0
VERTEX
  5
35F4A
  8
ASHADE
 10
1.1947022687665161
 20
3.188917040908763
 30
-0.0015263760818291
  0
SEQEND
  5
35F4B
  8
ASHADE
  0
POLYLINE
  5
35E62
  8
ASHADE
 66
     1
 10
0.0
 20
0.0
 30
-0.0015263760818291
  0
VERTEX
  5
35F4C
  8
ASHADE
 10
1.486795596709886
 20
2.4434383117203242
 30
-0.0015263760818291
 42
0.1065885753786745
  0
VERTEX
  5
35F4D
  8
ASHADE
 10
1.531901426166292
 20
2.4068125040773869
 30
-0.0015263760818291
  0
VERTEX
  5
35F4E
  8
ASHADE
 10
1.5749236911237201
 20
2.406812504077382
 30
-0.0015263760818291
 42
-0.356281314504077
  0
VERTEX
  5
35F4F
  8
ASHADE
 10
1.6207514753937691
 20
2.361724027121495
 30
-0.0015263760818291
  0
VERTEX
  5
35F50
  8
ASHADE
 10
1.620751358062025
 20
2.27122581889672
 30
-0.0015263760818291
 42
0.0077388537094244
  0
VERTEX
  5
35F51
  8
ASHADE
 10
1.6313509904146151
 20
2.2483449556474189
 30
-0.0015263760818291
  0
SEQEND
  5
35F52
  8
ASHADE
  0
ENDSEC
  0
EOF
