  0
SECTION
  2
HEADER
  9
$ACADVER
  1
AC1009
  9
$INSBASE
 10
3897.8257516369908444
 20
117.9003383764215016
 30
0.0
  9
$EXTMIN
 10
3893.0277078566609816
 20
112.8685383764214976
 30
0.0
  9
$EXTMAX
 10
3902.6237954173197977
 20
119.2163383764216036
 30
0.0
  9
$LIMMIN
 10
0.0
 20
0.0
  9
$LIMMAX
 10
11.6929133858000007
 20
8.2677165353999982
  9
$ORTHOMODE
 70
     1
  9
$REGENMODE
 70
     1
  9
$FILLMODE
 70
     1
  9
$QTEXTMODE
 70
     0
  9
$MIRRTEXT
 70
     0
  9
$DRAGMODE
 70
     2
  9
$LTSCALE
 40
0.6431102362
  9
$OSMODE
 70
  4095
  9
$ATTMODE
 70
     1
  9
$TEXTSIZE
 40
0.2
  9
$TRACEWID
 40
0.05
  9
$TEXTSTYLE
  7
STANDARD
  9
$CLAYER
  8
0
  9
$CELTYPE
  6
BYLAYER
  9
$CECOLOR
 62
   256
  9
$DIMSCALE
 40
1.0
  9
$DIMASZ
 40
0.1875
  9
$DIMEXO
 40
0.0625
  9
$DIMDLI
 40
0.4443307087
  9
$DIMRND
 40
0.0
  9
$DIMDLE
 40
0.0
  9
$DIMEXE
 40
0.125
  9
$DIMTP
 40
0.01
  9
$DIMTM
 40
0.01
  9
$DIMTXT
 40
2.0
  9
$DIMCEN
 40
0.1052362205
  9
$DIMTSZ
 40
0.0
  9
$DIMTOL
 70
     1
  9
$DIMLIM
 70
     0
  9
$DIMTIH
 70
     1
  9
$DIMTOH
 70
     1
  9
$DIMSE1
 70
     0
  9
$DIMSE2
 70
     0
  9
$DIMTAD
 70
     0
  9
$DIMZIN
 70
     0
  9
$DIMBLK
  1

  9
$DIMASO
 70
     1
  9
$DIMSHO
 70
     1
  9
$DIMPOST
  1
\X
  9
$DIMAPOST
  1

  9
$DIMALT
 70
     1
  9
$DIMALTD
 70
     2
  9
$DIMALTF
 40
25.3999999999999986
  9
$DIMLFAC
 40
1.0
  9
$DIMTOFL
 70
     0
  9
$DIMTVP
 40
0.0
  9
$DIMTIX
 70
     0
  9
$DIMSOXD
 70
     0
  9
$DIMSAH
 70
     0
  9
$DIMBLK1
  1

  9
$DIMBLK2
  1

  9
$DIMSTYLE
  2
STANDARD
  9
$DIMCLRD
 70
     0
  9
$DIMCLRE
 70
     0
  9
$DIMCLRT
 70
     0
  9
$DIMTFAC
 40
1.0
  9
$DIMGAP
 40
0.09
  9
$LUNITS
 70
     2
  9
$LUPREC
 70
     4
  9
$SKETCHINC
 40
0.1
  9
$FILLETRAD
 40
0.0
  9
$AUNITS
 70
     0
  9
$AUPREC
 70
     0
  9
$MENU
  1
.
  9
$ELEVATION
 40
0.0
  9
$PELEVATION
 40
0.0
  9
$THICKNESS
 40
0.0
  9
$LIMCHECK
 70
     0
  9
$BLIPMODE
 70
     0
  9
$CHAMFERA
 40
0.0
  9
$CHAMFERB
 40
0.0
  9
$SKPOLY
 70
     0
  9
$TDCREATE
 40
2458060.468368056230247
  9
$TDUPDATE
 40
2458927.5835185190662742
  9
$TDINDWG
 40
0.3075533565
  9
$TDUSRTIMER
 40
0.3075533565
  9
$USRTIMER
 70
     1
  9
$ANGBASE
 50
0.0
  9
$ANGDIR
 70
     0
  9
$PDMODE
 70
     0
  9
$PDSIZE
 40
0.3125
  9
$PLINEWID
 40
0.0
  9
$COORDS
 70
     1
  9
$SPLFRAME
 70
     0
  9
$SPLINETYPE
 70
     6
  9
$SPLINESEGS
 70
     8
  9
$ATTDIA
 70
     1
  9
$ATTREQ
 70
     1
  9
$HANDLING
 70
     1
  9
$HANDSEED
  5
762E
  9
$SURFTAB1
 70
     6
  9
$SURFTAB2
 70
     6
  9
$SURFTYPE
 70
     6
  9
$SURFU
 70
     6
  9
$SURFV
 70
     6
  9
$UCSNAME
  2

  9
$UCSORG
 10
0.0
 20
0.0
 30
0.0
  9
$UCSXDIR
 10
1.0
 20
0.0
 30
0.0
  9
$UCSYDIR
 10
0.0
 20
1.0
 30
0.0
  9
$PUCSNAME
  2

  9
$PUCSORG
 10
0.0
 20
0.0
 30
0.0
  9
$PUCSXDIR
 10
1.0
 20
0.0
 30
0.0
  9
$PUCSYDIR
 10
0.0
 20
1.0
 30
0.0
  9
$USERI1
 70
     0
  9
$USERI2
 70
     0
  9
$USERI3
 70
     0
  9
$USERI4
 70
     0
  9
$USERI5
 70
     0
  9
$USERR1
 40
0.0
  9
$USERR2
 40
0.0
  9
$USERR3
 40
0.0
  9
$USERR4
 40
0.0
  9
$USERR5
 40
0.0
  9
$WORLDVIEW
 70
     1
  9
$SHADEDGE
 70
     3
  9
$SHADEDIF
 70
    70
  9
$TILEMODE
 70
     1
  9
$MAXACTVP
 70
    64
  9
$PLIMCHECK
 70
     0
  9
$PEXTMIN
 10
1.0000000000000000E+20
 20
1.0000000000000000E+20
 30
1.0000000000000000E+20
  9
$PEXTMAX
 10
-1.0000000000000000E+20
 20
-1.0000000000000000E+20
 30
-1.0000000000000000E+20
  9
$PLIMMIN
 10
0.0
 20
0.0
  9
$PLIMMAX
 10
12.0
 20
9.0
  9
$UNITMODE
 70
     0
  9
$VISRETAIN
 70
     1
  9
$PLINEGEN
 70
     0
  9
$PSLTSCALE
 70
     1
  0
ENDSEC
  0
SECTION
  2
TABLES
  0
TABLE
  2
VPORT
 70
     1
  0
VPORT
  2
*ACTIVE
 70
     0
 10
0.0
 20
0.0
 11
1.0
 21
1.0
 12
0.0
 22
0.0
 13
0.0
 23
0.0
 14
1.0
 24
1.0
 15
0.0
 25
0.0
 16
0.0
 26
0.0
 36
32.9621561812302915
 17
3897.82568359375
 27
116.0424385070800071
 37
0.0
 40
11.5074145236633907
 41
2.1481900452488678
 42
50.0
 43
0.0
 44
0.0
 50
0.0
 51
0.0
 71
     0
 72
   100
 73
     1
 74
     1
 75
     0
 76
     0
 77
     0
 78
     0
  0
ENDTAB
  0
TABLE
  2
LTYPE
 70
     2
  0
LTYPE
  2
CONTINUOUS
 70
     0
  3
Solid line
 72
    65
 73
     0
 40
0.0
  0
LTYPE
  2
PHANTOM2
 70
     0
  3
___ _ _ ___ _ _ ___ _ _ ___ _ _
 72
    65
 73
     6
 40
1.25
 49
0.625
 49
-0.125
 49
0.125
 49
-0.125
 49
0.125
 49
-0.125
  0
ENDTAB
  0
TABLE
  2
LAYER
 70
     2
  0
LAYER
  2
0
 70
     0
 62
   255
  6
CONTINUOUS
  0
LAYER
  2
DEFPOINTS
 70
     0
 62
     7
  6
CONTINUOUS
  0
ENDTAB
  0
TABLE
  2
STYLE
 70
     1
  0
STYLE
  2
STANDARD
 70
     0
 40
0.0
 41
0.8
 50
0.0
 71
     0
 42
0.2
  3
txt
  4

  0
ENDTAB
  0
TABLE
  2
VIEW
 70
     0
  0
ENDTAB
  0
TABLE
  2
UCS
 70
     0
  0
ENDTAB
  0
TABLE
  2
APPID
 70
    10
  0
APPID
  2
ACAD
 70
     0
  0
APPID
  2
ACAD_MLEADERVER
 70
     0
  0
APPID
  2
ACAD_EXEMPT_FROM_CAD_STANDARDS
 70
     0
  0
APPID
  2
ACAD_NAV_VCDISPLAY
 70
     0
  0
APPID
  2
ACAECLAYERSTANDARD
 70
     0
  0
APPID
  2
ACCMTRANSPARENCY
 70
     0
  0
APPID
  2
ACAD_DSTYLE_DIMJAG
 70
     0
  0
APPID
  2
ACAD_DSTYLE_DIMTALN
 70
     0
  0
APPID
  2
ACDBATTR
 70
     0
  0
APPID
  2
ACADANNOTATIVE
 70
     0
  0
ENDTAB
  0
TABLE
  2
DIMSTYLE
 70
     1
  0
DIMSTYLE
  2
STANDARD
 70
     0
  3

  4

  5

  6

  7

 40
1.0
 41
0.1875
 42
0.0625
 43
0.38
 44
0.125
 45
0.0
 46
0.0
 47
0.01
 48
0.01
140
0.15625
141
0.09
142
0.0
143
25.3999999999999986
144
1.0
145
0.0
146
1.0
147
0.09
 71
     1
 72
     0
 73
     1
 74
     1
 75
     0
 76
     0
 77
     0
 78
     4
170
     0
171
     2
172
     0
173
     0
174
     0
175
     0
176
     0
177
     0
178
     0
  0
ENDTAB
  0
ENDSEC
  0
SECTION
  2
BLOCKS
  0
BLOCK
  8
0
  2
$MODEL_SPACE
 70
     0
 10
0.0
 20
0.0
 30
0.0
  3
$MODEL_SPACE
  1

  0
ENDBLK
  5
21
  8
0
  0
BLOCK
 67
     1
  8
0
  2
$PAPER_SPACE
 70
     0
 10
0.0
 20
0.0
 30
0.0
  3
$PAPER_SPACE
  1

  0
ENDBLK
  5
1D
 67
     1
  8
0
  0
ENDSEC
  0
SECTION
  2
ENTITIES
  0
ATTDEF
  5
3930
  8
DEFPOINTS
 10
3897.8218359984671224
 20
117.9055298801808931
 30
0.0
 40
0.001
  1
K-13490-4
  3

  2
MODELNUMBER
 70
     0
1001
ACDBATTR
1070
     0
1070
     1
  0
ATTDEF
  5
3931
  8
DEFPOINTS
 10
3897.8218359984671224
 20
117.9038632135141995
 30
0.0
 40
0.001
  1
KELSTON
  3

  2
TRADENAME
 70
     0
1001
ACDBATTR
1070
     0
1070
     1
  0
ATTDEF
  5
3932
  8
DEFPOINTS
 10
3897.8218359984671224
 20
117.9021965468476054
 30
0.0
 40
0.001
  1
BATHROOM SINK FAUCET
  3

  2
PRODUCT
 70
     0
1001
ACDBATTR
1070
     0
1070
     1
  0
LINE
  5
73C1
  8
0
 10
3895.7657514476400138
 20
118.2099966263215975
 30
0.0
 11
3895.7657514476318283
 21
118.2140229010844052
 31
0.0
  0
LINE
  5
73C2
  8
0
 10
3895.8857514476408141
 20
118.2099966263215975
 30
0.0
 11
3895.8857514476408141
 21
118.2140229011214956
 31
0.0
  0
ARC
  5
73C3
  8
0
 10
3887.0895404222401339
 20
89.2742934293215882
 30
0.0
 40
31.1310532321999993
 50
72.2739785783954005
 51
73.0405216792056962
  0
ARC
  5
73C4
  8
0
 10
3887.0896328295780222
 20
89.2745858958103611
 30
0.0
 40
31.0038321354902315
 50
72.2739766825607859
 51
73.040527366805776
  0
ARC
  5
73C5
  8
0
 10
3887.0899398244878284
 20
89.2755875974132636
 30
0.0
 40
30.8401718514486198
 50
72.273953330835198
 51
73.0405300952993031
  0
ARC
  5
73C6
  8
0
 10
3887.0900758639559172
 20
89.2759880871124096
 30
0.0
 40
30.7339304991310804
 50
72.2739765949995103
 51
73.0405508128514782
  0
ARC
  5
73C7
  8
0
 10
3896.5933594433399776
 20
115.3747596423216066
 30
0.0
 40
1.8332922477
 50
68.9937942603900751
 51
107.0396986129974977
  0
ARC
  5
73C8
  8
0
 10
3896.5933594433399776
 20
115.3747596423216066
 30
0.0
 40
1.7274737516000001
 50
68.9942340938045788
 51
107.0410161372980014
  0
ARC
  5
73C9
  8
0
 10
3896.5933594433399776
 20
115.3747596423216066
 30
0.0
 40
1.5648611458999999
 50
68.9942340938045788
 51
107.0410161371897999
  0
ARC
  5
73CA
  8
0
 10
3896.5933594433399776
 20
115.3747596423216066
 30
0.0
 40
1.4379467677999991
 50
68.9942341360899718
 51
107.0410161371064959
  0
ARC
  5
73CB
  8
0
 10
3895.8192514476409087
 20
117.9002851442215984
 30
0.0
 40
1.2035532321999991
 50
73.0405216793972585
 51
171.2372857706475884
  0
ARC
  5
73CC
  8
0
 10
3895.8192514476409087
 20
117.9002851442215984
 30
0.0
 40
1.2035532321999991
 50
188.7627142292413112
 51
287.0410163941987207
  0
ARC
  5
73CD
  8
0
 10
3895.8192514476409087
 20
117.9002851442215984
 30
0.0
 40
1.0766388378
 50
73.0405216793972585
 51
168.744381101061407
  0
ARC
  5
73CE
  8
0
 10
3895.8192514476409087
 20
117.9002851442215984
 30
0.0
 40
1.0766388378
 50
191.255618898804812
 51
287.0410161372980156
  0
ARC
  5
73CF
  8
0
 10
3895.8192514476409087
 20
117.9002851442215984
 30
0.0
 40
0.9140262094
 50
197.6193401463634132
 51
287.0410161371897857
  0
ARC
  5
73D0
  8
0
 10
3895.8192514938327804
 20
117.9002851056252013
 30
0.0
 40
0.9140262650687423
 50
73.0405251514263369
 51
162.3806584223275138
  0
ARC
  5
73D1
  8
0
 10
3895.8192514476409087
 20
117.9002851442215984
 30
0.0
 40
0.8082076443
 50
201.8581511192967923
 51
287.0440047300994024
  0
ARC
  5
73D2
  8
0
 10
3895.8192514476409087
 20
117.9002851442215984
 30
0.0
 40
0.8082076443
 50
73.0403653676885938
 51
158.141848880515397
  0
ARC
  5
73D3
  8
0
 10
3895.8257514476408687
 20
117.8255787394062963
 30
0.0
 40
0.3835362478467232
 50
82.5092704745573258
 51
97.4907295254426742
  0
ARC
  5
73D4
  8
0
 10
3895.8257514476408687
 20
117.9002851442215984
 30
0.0
 40
0.7827170533
 50
202.4455798168314971
 51
344.326038401089022
  0
ARC
  5
73D5
  8
0
 10
3895.8257514476408687
 20
117.9002851442215984
 30
0.0
 40
0.7827167893000002
 50
15.6739843903450993
 51
157.5544151211074109
  0
ARC
  5
73D6
  8
0
 10
3895.8257514476408687
 20
117.9002851442215984
 30
0.0
 40
0.4587500000000001
 50
21.7069556639433294
 51
154.4798832464462066
  0
ARC
  5
73D7
  8
0
 10
3895.8257514476408687
 20
117.9002851442215984
 30
0.0
 40
0.4587500000000001
 50
205.520116753216314
 51
338.3251286473064283
  0
ARC
  5
73D8
  8
0
 10
3895.8257514476408687
 20
117.9002851442215984
 30
0.0
 40
0.3194235121
 50
100.8266622339988032
 51
79.1733377660011826
  0
ARC
  5
73D9
  8
0
 10
3896.7265415503079566
 20
119.424321386637402
 30
0.0
 40
0.9170327200560771
 50
252.2849767620566865
 51
299.7750694792107993
  0
ARC
  5
73DA
  8
0
 10
3896.7264525031641824
 20
119.4234482804952933
 30
0.0
 40
0.8103554802220106
 50
252.2739713451549903
 51
301.8554511900687771
  0
ARC
  5
73DB
  8
0
 10
3896.7264525298728586
 20
119.4234488047393938
 30
0.0
 40
0.6477433172009474
 50
252.2739813987593891
 51
301.85542982278929
  0
ARC
  5
73DC
  8
0
 10
3896.7264525474402035
 20
119.4234487550214965
 30
0.0
 40
0.5208288945000001
 50
252.2739785783954005
 51
301.8554308233893266
  0
ARC
  5
73DD
  8
0
 10
3897.8629198293360787
 20
117.5240436427934014
 30
0.0
 40
1.692702850469606
 50
91.2581958607248254
 51
120.5972279930459052
  0
ARC
  5
73DE
  8
0
 10
3897.8879975112167813
 20
117.4361690851846021
 30
0.0
 40
1.6544263008987761
 50
92.1561962783539741
 51
119.6992269861172957
  0
ARC
  5
73DF
  8
0
 10
3897.8660664275630552
 20
117.5130176597157998
 30
0.0
 40
1.4143684292185901
 50
91.6333652525206048
 51
120.2220570459339939
  0
ARC
  5
73E0
  8
0
 10
3897.8257516088410739
 20
117.9002779818216027
 30
0.0
 40
0.8561611560999999
 50
89.9999981161638942
 51
238.1333316982561996
  0
ARC
  5
73E1
  8
0
 10
3897.8257514476408687
 20
117.9002851442215984
 30
0.0
 40
0.8065172814
 50
89.9999865484012105
 51
235.6954304406253868
  0
ARC
  5
73E2
  8
0
 10
3897.8258541072409571
 20
117.9002851496215953
 30
0.0
 40
0.7538418785
 50
106.6125799116341994
 51
232.5302965680552063
  0
ARC
  5
73E3
  8
0
 10
3897.8259013707402119
 20
118.3802851442216024
 30
0.0
 40
0.3243711207
 50
90.0264484464961896
 51
269.9735515535037962
  0
ARC
  5
73E4
  8
0
 10
3897.8259013707402119
 20
118.3802851442216024
 30
0.0
 40
0.126724227
 50
90.067699082680349
 51
269.9323009173197079
  0
ARC
  5
73E5
  8
0
 10
3897.8259013707402119
 20
118.3802851442216024
 30
0.0
 40
0.0934365788
 50
90.0918175270051051
 51
269.9081824729948949
  0
ARC
  5
73E6
  8
0
 10
3897.8257514476408687
 20
118.5842851442215959
 30
0.0
 40
2.0000532321999991
 50
248.9942340938044936
 51
257.077935146522691
  0
ARC
  5
73E7
  8
0
 10
3897.8257514476408687
 20
118.5842851442215959
 30
0.0
 40
1.8731388671999989
 50
248.9942340938044936
 51
256.1621574396853021
  0
ARC
  5
73E8
  8
0
 10
3897.8257514476408687
 20
118.5842851442215959
 30
0.0
 40
1.7105262792999989
 50
248.9942340938044936
 51
254.7810495832532922
  0
ARC
  5
73E9
  8
0
 10
3897.8257514476408687
 20
118.5842851442215959
 30
0.0
 40
1.6047074449000001
 50
248.9947365800979924
 51
253.7247778603330914
  0
ARC
  5
73EA
  8
0
 10
3895.3182240416358582
 20
118.3798471997087063
 30
0.0
 40
0.3004499763827023
 50
297.4448248622239248
 51
306.3798503552712873
  0
ARC
  5
73EB
  8
0
 10
3895.3912587144818644
 20
118.2319192240059067
 30
0.0
 40
0.1355510372122719
 50
268.2752528373105747
 51
298.8669594024697176
  0
ARC
  5
73EC
  8
0
 10
3895.4113167382220126
 20
118.4132721599803943
 30
0.0
 40
0.3177606714663905
 50
235.2978343498448055
 51
265.6434836051242883
  0
ARC
  5
73ED
  8
0
 10
3895.0594575938730486
 20
117.8848280855465021
 30
0.0
 40
0.3172135889014335
 50
57.3894482905647507
 51
87.3135622567584022
  0
ARC
  5
73EE
  8
0
 10
3895.1338087456210815
 20
117.5638509770722067
 30
0.0
 40
0.6406096988714415
 50
95.3278328519867273
 51
116.2355245233889036
  0
ARC
  5
73EF
  8
0
 10
3894.4981788600921391
 20
119.0859200853285955
 30
0.0
 40
1.010880805538253
 50
268.4138183056181788
 51
290.4045858689274837
  0
ARC
  5
73F0
  8
0
 10
3894.3729791196137739
 20
119.6789047379294999
 30
0.0
 40
1.60642254226093
 50
254.9321387923654072
 51
273.4695644976353037
  0
ARC
  5
73F1
  8
0
 10
3890.6098044914720049
 20
107.4557679935489034
 30
0.0
 40
11.1840608156228605
 50
72.5942342614636402
 51
74.6952609532444995
  0
ARC
  5
73F2
  8
0
 10
3893.4910546146538763
 20
117.9297695041027936
 30
0.0
 40
0.3213234625242815
 50
77.2684439262979197
 51
92.2161915733505282
  0
ARC
  5
73F3
  8
0
 10
3893.4974857631232226
 20
118.167368324138593
 30
0.0
 40
0.0855874239032397
 50
102.7279443668103056
 51
174.3864031414977944
  0
ARC
  5
73F4
  8
0
 10
3893.3955823648489059
 20
118.1804624454868957
 30
0.0
 40
0.0173801962221926
 50
274.8295928083110766
 51
344.2350981283352098
  0
ARC
  5
73F5
  8
0
 10
3893.4086860710399378
 20
117.9203516961239018
 30
0.0
 40
0.2430711452669225
 50
92.7448850100803668
 51
112.3828856863809023
  0
ARC
  5
73F6
  8
0
 10
3893.3604715711508106
 20
118.0592197118762954
 30
0.0
 40
0.0966625097636906
 50
117.3075808037878005
 51
152.4113060724230024
  0
ARC
  5
73F7
  8
0
 10
3893.0549187483461537
 20
118.2588479183225019
 30
0.0
 40
0.2689422984775289
 50
312.6203692852234894
 51
324.8430790260320009
  0
ARC
  5
73F8
  8
0
 10
3893.1872584132711381
 20
118.1117687806762007
 30
0.0
 40
0.07113534031221
 50
279.3857899427844131
 51
314.4005552146891205
  0
ARC
  5
73F9
  8
0
 10
3893.2001690801607765
 20
118.0976812704618055
 30
0.0
 40
0.0561108056123496
 50
227.8926464636028868
 51
268.6623921334415854
  0
ARC
  5
73FA
  8
0
 10
3893.1131971264057938
 20
117.997034794259207
 30
0.0
 40
0.0769314265470546
 50
50.0992254401099615
 51
86.7514061595626345
  0
ARC
  5
73FB
  8
0
 10
3893.1289400489999935
 20
118.0025811565364933
 30
0.0
 40
0.0721649051219672
 50
99.0757890114503539
 51
163.1067340883668066
  0
ARC
  5
73FC
  8
0
 10
3893.4441117087540079
 20
117.8574079047062071
 30
0.0
 40
0.4186055729521472
 50
156.6156121060635087
 51
174.120954885987004
  0
LINE
  5
73FD
  8
0
 10
3893.4123087981402023
 20
118.1757404067226958
 30
0.0
 11
3893.4123087981402023
 21
117.6248298817227038
 31
0.0
  0
ARC
  5
73FE
  8
0
 10
3896.3772858345819259
 20
118.2926185520664006
 30
0.0
 40
0.2753079555692537
 50
216.022264245580601
 51
231.0642285564817087
  0
ARC
  5
73FF
  8
0
 10
3896.240322601599928
 20
118.142601596332895
 30
0.0
 40
0.0735712770474926
 50
240.6560237021294881
 51
281.7634785886805275
  0
ARC
  5
7400
  8
0
 10
3893.742944192692903
 20
123.1194071571783013
 30
0.0
 40
5.6393919902093312
 50
296.4556554088165967
 51
297.8804524595415728
  0
ARC
  5
7401
  8
0
 10
3896.4577538879548229
 20
117.9316627143142995
 30
0.0
 40
0.2172989435653616
 50
33.7394173639379034
 51
110.9428404557472021
  0
ARC
  5
7402
  8
0
 10
3896.3449841644269327
 20
117.8836677325699043
 30
0.0
 40
0.3384958676266637
 50
2.8138907829212978
 51
29.8903144555098592
  0
ARC
  5
7403
  8
0
 10
3895.3163167237471498
 20
117.417376298047401
 30
0.0
 40
0.304299211610582
 50
52.7553134875666672
 51
62.5269051656935275
  0
ARC
  5
7404
  8
0
 10
3895.3912587144818644
 20
117.5686510644395071
 30
0.0
 40
0.1355510372122719
 50
61.1330405975302966
 51
91.7247471626633626
  0
ARC
  5
7405
  8
0
 10
3895.4113167382220126
 20
117.3872981284651047
 30
0.0
 40
0.3177606714663905
 50
94.3565163948756549
 51
124.702165650155095
  0
ARC
  5
7406
  8
0
 10
3895.0594575938730486
 20
117.9157422028988975
 30
0.0
 40
0.3172135889014335
 50
272.6864377432415836
 51
302.6105517094351853
  0
ARC
  5
7407
  8
0
 10
3895.1338087456210815
 20
118.2367193113731929
 30
0.0
 40
0.6406096988714415
 50
243.7644754766110964
 51
264.6721671480132727
  0
ARC
  5
7408
  8
0
 10
3894.4981788600921391
 20
116.7146502031168041
 30
0.0
 40
1.010880805538253
 50
69.5954141310725163
 51
91.5861816943818354
  0
ARC
  5
7409
  8
0
 10
3894.3729791196137739
 20
116.1216655505158997
 30
0.0
 40
1.60642254226093
 50
86.5304355023646394
 51
105.0678612076344933
  0
ARC
  5
740A
  8
0
 10
3890.6098044914720049
 20
128.3448022948965104
 30
0.0
 40
11.1840608156228605
 50
285.3047390467555147
 51
287.4057657385363882
  0
ARC
  5
740B
  8
0
 10
3893.4910546146538763
 20
117.8708007843427055
 30
0.0
 40
0.3213234625242815
 50
267.7838084266495002
 51
282.731556073701995
  0
ARC
  5
740C
  8
0
 10
3893.4974857631232226
 20
117.633201964306906
 30
0.0
 40
0.0855874239032397
 50
185.6135968585022056
 51
257.2720556331897228
  0
ARC
  5
740D
  8
0
 10
3893.3955823648489059
 20
117.6201078429585039
 30
0.0
 40
0.0173801962221926
 50
15.7649018716648506
 51
85.1704071916889376
  0
ARC
  5
740E
  8
0
 10
3893.4086860710399378
 20
117.8802185923214978
 30
0.0
 40
0.2430711452669225
 50
247.617114313619112
 51
267.2551149899196048
  0
ARC
  5
740F
  8
0
 10
3893.3604715711508106
 20
117.7413505765691042
 30
0.0
 40
0.0966625097636906
 50
207.5886939275769123
 51
242.6924191962121995
  0
ARC
  5
7410
  8
0
 10
3893.0549187483461537
 20
117.5417223701229972
 30
0.0
 40
0.2689422984775289
 50
35.1569209739680275
 51
47.3796307147764608
  0
ARC
  5
7411
  8
0
 10
3893.1872584132711381
 20
117.6888015077692984
 30
0.0
 40
0.07113534031221
 50
45.5994447853109079
 51
80.6142100572156437
  0
ARC
  5
7412
  8
0
 10
3893.2001690801607765
 20
117.7028890179836935
 30
0.0
 40
0.0561108056123496
 50
91.3376078665583435
 51
132.1073535363971132
  0
ARC
  5
7413
  8
0
 10
3893.1131971264057938
 20
117.8035354941862067
 30
0.0
 40
0.0769314265470546
 50
273.2485938404374224
 51
309.9007745598901238
  0
ARC
  5
7414
  8
0
 10
3893.1289400489999935
 20
117.7979891319089063
 30
0.0
 40
0.0721649051219672
 50
196.8932659116331934
 51
260.9242109885495893
  0
ARC
  5
7415
  8
0
 10
3893.4441117087540079
 20
117.9431623837392067
 30
0.0
 40
0.4186055729521472
 50
185.8790451140129107
 51
203.3843878939364913
  0
ARC
  5
7416
  8
0
 10
3893.742944192692903
 20
112.6811631312670983
 30
0.0
 40
5.6393919902093312
 50
62.1195475404583917
 51
63.5443445911834033
  0
ARC
  5
7417
  8
0
 10
3896.4577538879548229
 20
117.8689075741311001
 30
0.0
 40
0.2172989435653616
 50
249.0571595442528121
 51
326.2605826360621109
  0
ARC
  5
7418
  8
0
 10
3896.3449841644269327
 20
117.9169025558755948
 30
0.0
 40
0.3384958676266637
 50
330.1096855444901053
 51
357.1861092170786947
  0
ARC
  5
7419
  8
0
 10
3895.8229799558698687
 20
117.9030218094406024
 30
0.0
 40
0.4022772721188059
 50
34.4716433868880827
 51
144.2671933939342921
  0
ARC
  5
741A
  8
0
 10
3895.8301121468639394
 20
117.9081170164298982
 30
0.0
 40
0.4128037074007968
 50
217.0120592638747894
 51
332.1393892250894169
  0
ARC
  5
741B
  8
0
 10
3896.2402390253441808
 20
117.6622876577000056
 30
0.0
 40
0.0695755945323984
 50
77.4512823854544052
 51
130.4856063991124131
  0
ARC
  5
741C
  8
0
 10
3895.7742477155197776
 20
118.2163343619507998
 30
0.0
 40
0.0105996915415036
 50
216.7208580405587099
 51
278.1558177315931175
  0
ARC
  5
741D
  8
0
 10
3895.8775484222778687
 20
118.215628561172295
 30
0.0
 40
0.0099502922200446
 50
259.5955716133839815
 51
325.5277529388632161
  0
LINE
  5
741E
  8
0
 10
3897.8257516369908444
 20
118.0559140580810009
 30
0.0
 11
3897.8257516369908444
 21
112.868538376421597
 31
0.0
  0
ARC
  5
741F
  8
0
 10
3897.856933953250973
 20
113.5001602174754964
 30
0.0
 40
0.632391087021165
 50
226.0126131020124944
 51
267.173679508556404
  0
ARC
  5
7420
  8
0
 10
3897.46529591307808
 20
113.1162038515811048
 30
0.0
 40
0.0854928665551961
 50
211.1317140385889957
 51
236.2014019056259997
  0
ARC
  5
7421
  8
0
 10
3898.5522467914970548
 20
113.7762483624420042
 30
0.0
 40
1.3571533528080679
 50
194.8387064323945879
 51
211.259386694267107
  0
ARC
  5
7422
  8
0
 10
3897.299124235625186
 20
113.4474221161134011
 30
0.0
 40
0.0616857616688546
 50
151.9015248849638056
 51
197.685029061589205
  0
ARC
  5
7423
  8
0
 10
3906.7725767194469881
 20
109.0541102286755972
 30
0.0
 40
10.50416968877885
 50
153.3482756175170039
 51
155.101602382906691
  0
ARC
  5
7424
  8
0
 10
3897.008215758336064
 20
113.7691445146588052
 30
0.0
 40
0.3762767201717702
 50
308.9401521236100052
 51
359.5097258768172992
  0
ARC
  5
7425
  8
0
 10
3482.3311163834150648
 20
114.3338158619826999
 30
0.0
 40
415.0537508239929139
 50
359.9216058845652242
 51
0.3738556378510879
  0
ARC
  5
7426
  8
0
 10
3893.4195668495422069
 20
117.0386560880256042
 30
0.0
 40
3.9564662070509291
 50
0.0488199522090036
 51
13.2135403604311108
  0
ARC
  5
7427
  8
0
 10
3897.1042782609301867
 20
117.8997254191494051
 30
0.0
 40
0.1725297852575228
 50
14.5361706878699497
 51
47.2225795715080991
  0
ARC
  5
7428
  8
0
 10
3897.2081853440540726
 20
118.0073710843440011
 30
0.0
 40
0.0231659188574365
 50
55.0620016453754602
 51
142.6580117439382889
  0
ARC
  5
7429
  8
0
 10
3896.3992135009270896
 20
118.4520020763758055
 30
0.0
 40
0.9002080312042505
 50
323.2904103840332937
 51
331.4248650539477126
  0
ARC
  5
742A
  8
0
 10
3897.0568180846121322
 20
117.9762136624419071
 30
0.0
 40
0.0893795006680076
 50
284.8221323805609018
 51
315.7936789874264036
  0
ARC
  5
742B
  8
0
 10
3897.859936207472856
 20
117.6441315585706064
 30
0.0
 40
1.1951472420986879
 50
91.6390438840309116
 51
124.5617261413440957
  0
ARC
  5
742C
  8
0
 10
3897.814722651296961
 20
117.9098722153565006
 30
0.0
 40
0.7353133589468842
 50
134.1497464820702987
 51
232.3390934099089975
  0
ARC
  5
742D
  8
0
 10
3896.8779023280580986
 20
117.6286243694820968
 30
0.0
 40
0.507031688234893
 50
329.4477599883048811
 51
339.9201052272164247
  0
ARC
  5
742E
  8
0
 10
3897.3349509019981269
 20
118.3970251753391949
 30
0.0
 40
0.0518269091733711
 50
108.0407465891802019
 51
128.6944921067540974
  0
ARC
  5
742F
  8
0
 10
3897.2756437338198339
 20
118.5410365217289979
 30
0.0
 40
0.1041411404961727
 50
294.5423880171347264
 51
318.5466815182318783
  0
ARC
  5
7430
  8
0
 10
3897.4120830918718639
 20
118.4421074975071946
 30
0.0
 40
0.0656363258212627
 50
107.3697008692536059
 51
152.8153500393046045
  0
ARC
  5
7431
  8
0
 10
3896.8866289655179571
 20
120.2032362433456996
 30
0.0
 40
1.7722152218798679
 50
286.5850905272245086
 51
292.2595299469172119
  0
ARC
  5
7432
  8
0
 10
3896.4723736938508409
 20
113.5393424494027954
 30
0.0
 40
1.066738564984729
 50
332.4019844055196131
 51
357.4757061311640882
  0
ARC
  5
7433
  8
0
 10
3707.4727453888449418
 20
114.0428428542977031
 30
0.0
 40
190.0661289210727887
 50
359.8340557413599754
 51
0.3273415711048753
  0
ARC
  5
7434
  8
0
 10
3854.4571798609899815
 20
115.898860950736605
 30
0.0
 40
43.0854760976169828
 50
358.9757999468449157
 51
2.91988567753378
  0
ARC
  5
7435
  8
0
 10
3896.4166447795109889
 20
118.0647226696760015
 30
0.0
 40
1.070464944438021
 50
1.546695159658646
 51
24.2715987373637603
  0
ARC
  5
7436
  8
0
 10
3895.8255720981378545
 20
117.899920954110101
 30
0.0
 40
0.7158925581062724
 50
20.0344431088394508
 51
156.7164598345302124
  0
ARC
  5
7437
  8
0
 10
3895.8255624474800243
 20
117.9006541015940002
 30
0.0
 40
0.715897296189156
 50
203.2841422128805959
 51
339.9651792235688958
  0
ARC
  5
7438
  8
0
 10
3895.8260668355292182
 20
117.9162993787282971
 30
0.0
 40
0.6871168695338766
 50
19.7459034323964815
 51
157.947097290869209
  0
ARC
  5
7439
  8
0
 10
3895.8260170459620895
 20
117.8843670668019996
 30
0.0
 40
0.6871961944893352
 50
202.0621633280063065
 51
340.2479522621317756
  0
LINE
  5
743A
  8
0
 10
3895.2390400611811856
 20
118.1462654355738948
 30
0.0
 11
3895.341366986840967
 21
118.3767764106216021
 31
0.0
  0
LINE
  5
743B
  8
0
 10
3895.3496198391408143
 20
118.3848420081215949
 30
0.0
 11
3895.8180159540402201
 21
118.5787586210216062
 31
0.0
  0
LINE
  5
743C
  8
0
 10
3895.8317078142408718
 20
118.5795921968215936
 30
0.0
 11
3896.3007092084108081
 21
118.386215771493994
 31
0.0
  0
LINE
  5
743D
  8
0
 10
3896.311086873739896
 20
118.3746790484215978
 30
0.0
 11
3896.4134271351849748
 21
118.144392519145299
 31
0.0
  0
LINE
  5
743E
  8
0
 10
3895.2389158590731313
 20
117.6542246749142038
 30
0.0
 11
3895.3411946063401956
 21
117.4241535157215992
 31
0.0
  0
LINE
  5
743F
  8
0
 10
3895.3494404369907897
 20
117.4158143024215946
 30
0.0
 11
3895.8180150623861664
 21
117.2216679213454
 31
0.0
  0
LINE
  5
7440
  8
0
 10
3895.8335235062318134
 20
117.2203014580725977
 30
0.0
 11
3896.3018851141409868
 21
117.4157277625215983
 31
0.0
  0
LINE
  5
7441
  8
0
 10
3896.3103092068408841
 20
117.424152274921596
 30
0.0
 11
3896.4132629224018274
 21
117.6562120526485984
 31
0.0
  0
ARC
  5
7442
  8
0
 10
3895.3572334738501013
 20
117.4317664262242005
 30
0.0
 40
0.0177539200546905
 50
205.3915348884376897
 51
243.9632602872142968
  0
ARC
  5
7443
  8
0
 10
3895.8282662308620274
 20
117.2493233623779929
 30
0.0
 40
0.0294942345861944
 50
249.6615382211641077
 51
280.2677017848736227
  0
ARC
  5
7444
  8
0
 10
3896.294541457545165
 20
117.4314951459743952
 30
0.0
 40
0.0173936676160686
 50
294.9737429524702748
 51
335.0291115317701838
  0
ARC
  5
7445
  8
0
 10
3895.3575472821880794
 20
118.3684754917364046
 30
0.0
 40
0.0181853570722795
 50
115.8441370997291955
 51
152.8409783386941001
  0
ARC
  5
7446
  8
0
 10
3895.8258336276658156
 20
118.563214081225496
 30
0.0
 40
0.0173996763874442
 50
70.2690843162016137
 51
116.698777948286903
  0
ARC
  5
7447
  8
0
 10
3896.2889948812621697
 20
118.3652424566575974
 30
0.0
 40
0.0240230180402042
 50
23.1297445981332217
 51
60.8151197951428415
  0
LINE
  5
7448
  8
0
 10
3895.3448366870647988
 20
118.3814811821630997
 30
0.0
 11
3895.5019903126490135
 21
118.2252932825331015
 31
0.0
  0
LINE
  5
7449
  8
0
 10
3895.8247762735941251
 20
118.5805816009320068
 30
0.0
 11
3895.8253963082061091
 21
118.3590350067566987
 31
0.0
  0
LINE
  5
744A
  8
0
 10
3896.3068551949909306
 20
118.3813084016744028
 30
0.0
 11
3896.1507593278238346
 21
118.2240465383352017
 31
0.0
  0
LINE
  5
744B
  8
0
 10
3895.3446090714451202
 20
117.4192833920886017
 30
0.0
 11
3895.5020143268920947
 21
117.5752530855730953
 31
0.0
  0
LINE
  5
744C
  8
0
 10
3895.825677496121898
 20
117.2199429551944974
 30
0.0
 11
3895.8257454676167981
 21
117.4415351442604987
 31
0.0
  0
LINE
  5
744D
  8
0
 10
3896.3068409442357733
 20
117.4191962720307032
 30
0.0
 11
3896.1498201729527864
 21
117.5755837063218934
 31
0.0
  0
LINE
  5
744E
  8
0
 10
3899.8857518263412203
 20
118.2099966263215975
 30
0.0
 11
3899.885751826348951
 21
118.2140229010844052
 31
0.0
  0
LINE
  5
744F
  8
0
 10
3899.7657518263399652
 20
118.2099966263215975
 30
0.0
 11
3899.7657518263399652
 21
118.2140229011214956
 31
0.0
  0
ARC
  5
7450
  8
0
 10
3908.5619628517401907
 20
89.2742934293215882
 30
0.0
 40
31.1310532321999993
 50
106.9594783207943038
 51
107.7260214216045995
  0
ARC
  5
7451
  8
0
 10
3908.5618704444032119
 20
89.2745858958103611
 30
0.0
 40
31.0038321354902315
 50
106.9594726331941956
 51
107.7260233174391999
  0
ARC
  5
7452
  8
0
 10
3908.5615634494938604
 20
89.2755875974132636
 30
0.0
 40
30.8401718514486198
 50
106.9594699047006969
 51
107.726046669164802
  0
ARC
  5
7453
  8
0
 10
3908.5614274100239527
 20
89.2759880871124096
 30
0.0
 40
30.7339304991310804
 50
106.9594491871484934
 51
107.7260234050005039
  0
ARC
  5
7454
  8
0
 10
3899.0581438306408018
 20
115.3747596423216066
 30
0.0
 40
1.8332922477
 50
72.9603013870025023
 51
111.0062057396098965
  0
ARC
  5
7455
  8
0
 10
3899.0581438306408018
 20
115.3747596423216066
 30
0.0
 40
1.7274737516000001
 50
72.958983862701956
 51
111.005765906195407
  0
ARC
  5
7456
  8
0
 10
3899.0581438306408018
 20
115.3747596423216066
 30
0.0
 40
1.5648611458999999
 50
72.9589838628102001
 51
111.005765906195407
  0
ARC
  5
7457
  8
0
 10
3899.0581438306408018
 20
115.3747596423216066
 30
0.0
 40
1.4379467677999991
 50
72.9589838628935041
 51
111.0057658639099998
  0
ARC
  5
7458
  8
0
 10
3899.8322518263407801
 20
117.9002851442215984
 30
0.0
 40
1.2035532321999991
 50
8.7627142293524027
 51
106.9594783206026989
  0
ARC
  5
7459
  8
0
 10
3899.8322518263407801
 20
117.9002851442215984
 30
0.0
 40
1.2035532321999991
 50
252.958983605801393
 51
351.2372857707587173
  0
ARC
  5
745A
  8
0
 10
3899.8322518263407801
 20
117.9002851442215984
 30
0.0
 40
1.0766388378
 50
11.2556188989385202
 51
106.9594783206026989
  0
ARC
  5
745B
  8
0
 10
3899.8322518263407801
 20
117.9002851442215984
 30
0.0
 40
1.0766388378
 50
252.9589838627018992
 51
348.7443811011950743
  0
ARC
  5
745C
  8
0
 10
3899.8322518263407801
 20
117.9002851442215984
 30
0.0
 40
0.9140262094
 50
252.9589838628101859
 51
342.3806598536365868
  0
ARC
  5
745D
  8
0
 10
3899.8322517801489084
 20
117.9002851056252013
 30
0.0
 40
0.9140262650687423
 50
17.6193415776725111
 51
106.9594748485737057
  0
ARC
  5
745E
  8
0
 10
3899.8322518263407801
 20
117.9002851442215984
 30
0.0
 40
0.8082076443
 50
252.9559952699007113
 51
338.1418488807033214
  0
ARC
  5
745F
  8
0
 10
3899.8322518263407801
 20
117.9002851442215984
 30
0.0
 40
0.8082076443
 50
21.8581511194845604
 51
106.9596346323114062
  0
ARC
  5
7460
  8
0
 10
3899.8257518263408201
 20
117.8255787394062963
 30
0.0
 40
0.3835362478467232
 50
82.5092704745573258
 51
97.4907295254426742
  0
ARC
  5
7461
  8
0
 10
3899.8257518263408201
 20
117.9002851442215984
 30
0.0
 40
0.7827170533
 50
195.6739615989110064
 51
337.5544201831684745
  0
ARC
  5
7462
  8
0
 10
3899.8257518263408201
 20
117.9002851442215984
 30
0.0
 40
0.7827167893000002
 50
22.4455848788925998
 51
164.3260156096548883
  0
ARC
  5
7463
  8
0
 10
3899.8257518263408201
 20
117.9002851442215984
 30
0.0
 40
0.4587500000000001
 50
25.5201167535538005
 51
158.2930443360567097
  0
ARC
  5
7464
  8
0
 10
3899.8257518263408201
 20
117.9002851442215984
 30
0.0
 40
0.4587500000000001
 50
201.6748713526936001
 51
334.4798832467837997
  0
ARC
  5
7465
  8
0
 10
3899.8257518263408201
 20
117.9002851442215984
 30
0.0
 40
0.3194235121
 50
100.8266622339988032
 51
79.1733377660011826
  0
ARC
  5
7466
  8
0
 10
3898.9249617236728227
 20
119.424321386637402
 30
0.0
 40
0.9170327200560771
 50
240.2249305207895986
 51
287.715023237943285
  0
ARC
  5
7467
  8
0
 10
3898.9250507708170517
 20
119.4234482804952933
 30
0.0
 40
0.8103554802220106
 50
238.1445488099311945
 51
287.7260286548449812
  0
ARC
  5
7468
  8
0
 10
3898.9250507441079208
 20
119.4234488047393938
 30
0.0
 40
0.6477433172009474
 50
238.1445701772105963
 51
287.7260186012405825
  0
ARC
  5
7469
  8
0
 10
3898.9250507265410306
 20
119.4234487550214965
 30
0.0
 40
0.5208288945000001
 50
238.1445691766107018
 51
287.7260214216046279
  0
ARC
  5
746A
  8
0
 10
3897.7885834446460649
 20
117.5240436427934014
 30
0.0
 40
1.692702850469606
 50
59.402772006954109
 51
88.7418041392751746
  0
ARC
  5
746B
  8
0
 10
3897.7635057627639981
 20
117.4361690851846021
 30
0.0
 40
1.6544263008987761
 50
60.3007730138826403
 51
87.8438037216460259
  0
ARC
  5
746C
  8
0
 10
3897.7854368464181789
 20
117.5130176597157998
 30
0.0
 40
1.4143684292185901
 50
59.7779429540660132
 51
88.3666347474793952
  0
ARC
  5
746D
  8
0
 10
3897.8257516651401602
 20
117.9002779818216027
 30
0.0
 40
0.8561611560999999
 50
301.8666683017438004
 51
90.00000188383612
  0
ARC
  5
746E
  8
0
 10
3897.8257518263408201
 20
117.9002851442215984
 30
0.0
 40
0.8065172814
 50
304.3045695593741016
 51
90.0000134515987753
  0
ARC
  5
746F
  8
0
 10
3897.8256491667398222
 20
117.9002851496215953
 30
0.0
 40
0.7538418785
 50
307.469703431944879
 51
73.3874200883657863
  0
ARC
  5
7470
  8
0
 10
3897.8256019032410222
 20
118.3802851442216024
 30
0.0
 40
0.3243711207
 50
270.0264484464962038
 51
89.9735515535038246
  0
ARC
  5
7471
  8
0
 10
3897.8256019032410222
 20
118.3802851442216024
 30
0.0
 40
0.126724227
 50
270.0676990826802921
 51
89.9323009173196652
  0
ARC
  5
7472
  8
0
 10
3897.8256019032410222
 20
118.3802851442216024
 30
0.0
 40
0.0934365788
 50
270.0918175270051051
 51
89.9081824729948806
  0
ARC
  5
7473
  8
0
 10
3897.8257518263408201
 20
118.5842851442215959
 30
0.0
 40
2.0000532321999991
 50
282.9220648534771954
 51
291.0057659061953927
  0
ARC
  5
7474
  8
0
 10
3897.8257518263408201
 20
118.5842851442215959
 30
0.0
 40
1.8731388671999989
 50
283.8378425603146979
 51
291.0057659061953927
  0
ARC
  5
7475
  8
0
 10
3897.8257518263408201
 20
118.5842851442215959
 30
0.0
 40
1.7105262792999989
 50
285.2189504167466794
 51
291.0057659061953927
  0
ARC
  5
7476
  8
0
 10
3897.8257518263408201
 20
118.5842851442215959
 30
0.0
 40
1.6047074449000001
 50
286.2752221396668801
 51
291.0052634199018939
  0
ARC
  5
7477
  8
0
 10
3900.3332792323449212
 20
118.3798471997087063
 30
0.0
 40
0.3004499763827023
 50
233.620149644728599
 51
242.5551751377761036
  0
ARC
  5
7478
  8
0
 10
3900.2602445594980054
 20
118.2319192240059067
 30
0.0
 40
0.1355510372122719
 50
241.1330405975303108
 51
271.7247471626632773
  0
ARC
  5
7479
  8
0
 10
3900.2401865357592214
 20
118.4132721599803943
 30
0.0
 40
0.3177606714663905
 50
274.3565163948757117
 51
304.7021656501552229
  0
ARC
  5
747A
  8
0
 10
3900.5920456801081855
 20
117.8848280855465021
 30
0.0
 40
0.3172135889014335
 50
92.6864377432415836
 51
122.6105517094351995
  0
ARC
  5
747B
  8
0
 10
3900.5176945283601526
 20
117.5638509770722067
 30
0.0
 40
0.6406096988714415
 50
63.7644754766110893
 51
84.6721671480132585
  0
ARC
  5
747C
  8
0
 10
3901.153324413889095
 20
119.0859200853285955
 30
0.0
 40
1.010880805538253
 50
249.5954141310724879
 51
271.5861816943818212
  0
ARC
  5
747D
  8
0
 10
3901.2785241543660959
 20
119.6789047379294999
 30
0.0
 40
1.60642254226093
 50
266.5304355023646963
 51
285.0678612076346212
  0
ARC
  5
747E
  8
0
 10
3905.0416987825087745
 20
107.4557679935489034
 30
0.0
 40
11.1840608156228605
 50
105.3047390467555005
 51
107.4057657385363029
  0
ARC
  5
747F
  8
0
 10
3902.160448659326903
 20
117.9297695041027936
 30
0.0
 40
0.3213234625242815
 50
87.7838084266494718
 51
102.731556073701995
  0
ARC
  5
7480
  8
0
 10
3902.1540175108580115
 20
118.167368324138593
 30
0.0
 40
0.0855874239032397
 50
5.6135968585021629
 51
77.2720556331897228
  0
ARC
  5
7481
  8
0
 10
3902.255920909130964
 20
118.1804624454868957
 30
0.0
 40
0.0173801962221926
 50
195.7649018716647902
 51
265.1704071916889234
  0
ARC
  5
7482
  8
0
 10
3902.2428172029408415
 20
117.9203516961239018
 30
0.0
 40
0.2430711452669225
 50
67.617114313619112
 51
87.2551149899196474
  0
ARC
  5
7483
  8
0
 10
3902.2910317028299687
 20
118.0592197118762954
 30
0.0
 40
0.0966625097636906
 50
27.5886939275769585
 51
62.6924191962121924
  0
ARC
  5
7484
  8
0
 10
3902.5965845256350804
 20
118.2588479183225019
 30
0.0
 40
0.2689422984775289
 50
215.1569209739679991
 51
227.3796307147765106
  0
ARC
  5
7485
  8
0
 10
3902.4642448607091865
 20
118.1117687806762007
 30
0.0
 40
0.07113534031221
 50
225.5994447853109079
 51
260.6142100572155869
  0
ARC
  5
7486
  8
0
 10
3902.4513341938200028
 20
118.0976812704618055
 30
0.0
 40
0.0561108056123496
 50
271.3376078665584146
 51
312.1073535363969995
  0
ARC
  5
7487
  8
0
 10
3902.5383061475749855
 20
117.997034794259207
 30
0.0
 40
0.0769314265470546
 50
93.2485938404373655
 51
129.9007745598900101
  0
ARC
  5
7488
  8
0
 10
3902.5225632249807859
 20
118.0025811565364933
 30
0.0
 40
0.0721649051219672
 50
16.8932659116332111
 51
80.9242109885496745
  0
ARC
  5
7489
  8
0
 10
3902.2073915652272262
 20
117.8574079047062071
 30
0.0
 40
0.4186055729521472
 50
5.8790451140129836
 51
23.3843878939364913
  0
LINE
  5
748A
  8
0
 10
3902.2391944758410318
 20
118.1757404067226958
 30
0.0
 11
3902.2391944758410318
 21
117.6248298817227038
 31
0.0
  0
ARC
  5
748B
  8
0
 10
3899.2742174393988535
 20
118.2926185520664006
 30
0.0
 40
0.2753079555692537
 50
308.9357714435183198
 51
323.9777357544194274
  0
ARC
  5
748C
  8
0
 10
3899.4111806723808513
 20
118.142601596332895
 30
0.0
 40
0.0735712770474926
 50
258.2365214113194725
 51
299.3439762978704834
  0
ARC
  5
748D
  8
0
 10
3901.9085590812878763
 20
123.1194071571783013
 30
0.0
 40
5.6393919902093312
 50
242.1195475404583988
 51
243.5443445911834033
  0
ARC
  5
748E
  8
0
 10
3899.193749386025047
 20
117.9316627143142995
 30
0.0
 40
0.2172989435653616
 50
69.0571595442527837
 51
146.2605826360621109
  0
ARC
  5
748F
  8
0
 10
3899.3065191095538466
 20
117.8836677325699043
 30
0.0
 40
0.3384958676266637
 50
150.1096855444901053
 51
177.1861092170786947
  0
ARC
  5
7490
  8
0
 10
3900.3351865502340843
 20
117.417376298047401
 30
0.0
 40
0.304299211610582
 50
117.4730948343064938
 51
127.2446865124333044
  0
ARC
  5
7491
  8
0
 10
3900.2602445594980054
 20
117.5686510644395071
 30
0.0
 40
0.1355510372122719
 50
88.2752528373105889
 51
118.8669594024697034
  0
ARC
  5
7492
  8
0
 10
3900.2401865357592214
 20
117.3872981284651047
 30
0.0
 40
0.3177606714663905
 50
55.2978343498448126
 51
85.6434836051243593
  0
ARC
  5
7493
  8
0
 10
3900.5920456801081855
 20
117.9157422028988975
 30
0.0
 40
0.3172135889014335
 50
237.389448290564701
 51
267.3135622567584164
  0
ARC
  5
7494
  8
0
 10
3900.5176945283601526
 20
118.2367193113731929
 30
0.0
 40
0.6406096988714415
 50
275.3278328519867273
 51
296.2355245233889036
  0
ARC
  5
7495
  8
0
 10
3901.153324413889095
 20
116.7146502031168041
 30
0.0
 40
1.010880805538253
 50
88.4138183056181646
 51
110.4045858689273985
  0
ARC
  5
7496
  8
0
 10
3901.2785241543660959
 20
116.1216655505158997
 30
0.0
 40
1.60642254226093
 50
74.9321387923654783
 51
93.4695644976353748
  0
ARC
  5
7497
  8
0
 10
3905.0416987825087745
 20
128.3448022948965104
 30
0.0
 40
11.1840608156228605
 50
252.5942342614636118
 51
254.6952609532445138
  0
ARC
  5
7498
  8
0
 10
3902.160448659326903
 20
117.8708007843427055
 30
0.0
 40
0.3213234625242815
 50
257.2684439262978913
 51
272.2161915733506135
  0
ARC
  5
7499
  8
0
 10
3902.1540175108580115
 20
117.633201964306906
 30
0.0
 40
0.0855874239032397
 50
282.7279443668102772
 51
354.3864031414979081
  0
ARC
  5
749A
  8
0
 10
3902.255920909130964
 20
117.6201078429585039
 30
0.0
 40
0.0173801962221926
 50
94.8295928083110766
 51
164.2350981283350961
  0
ARC
  5
749B
  8
0
 10
3902.2428172029408415
 20
117.8802185923214978
 30
0.0
 40
0.2430711452669225
 50
272.7448850100802815
 51
292.3828856863809165
  0
ARC
  5
749C
  8
0
 10
3902.2910317028299687
 20
117.7413505765691042
 30
0.0
 40
0.0966625097636906
 50
297.3075808037878005
 51
332.411306072422974
  0
ARC
  5
749D
  8
0
 10
3902.5965845256350804
 20
117.5417223701229972
 30
0.0
 40
0.2689422984775289
 50
132.6203692852234894
 51
144.8430790260318872
  0
ARC
  5
749E
  8
0
 10
3902.4642448607091865
 20
117.6888015077692984
 30
0.0
 40
0.07113534031221
 50
99.3857899427843705
 51
134.4005552146890921
  0
ARC
  5
749F
  8
0
 10
3902.4513341938200028
 20
117.7028890179836935
 30
0.0
 40
0.0561108056123496
 50
47.8926464636029294
 51
88.6623921334416565
  0
ARC
  5
74A0
  8
0
 10
3902.5383061475749855
 20
117.8035354941862067
 30
0.0
 40
0.0769314265470546
 50
230.0992254401099046
 51
266.7514061595625776
  0
ARC
  5
74A1
  8
0
 10
3902.5225632249807859
 20
117.7979891319089063
 30
0.0
 40
0.0721649051219672
 50
279.075789011450297
 51
343.1067340883668066
  0
ARC
  5
74A2
  8
0
 10
3902.2073915652272262
 20
117.9431623837392067
 30
0.0
 40
0.4186055729521472
 50
336.6156121060635087
 51
354.1209548859869756
  0
ARC
  5
74A3
  8
0
 10
3901.9085590812878763
 20
112.6811631312670983
 30
0.0
 40
5.6393919902093312
 50
116.4556554088165967
 51
117.8804524595416012
  0
ARC
  5
74A4
  8
0
 10
3899.193749386025047
 20
117.8689075741311001
 30
0.0
 40
0.2172989435653616
 50
213.7394173639378891
 51
290.9428404557472163
  0
ARC
  5
74A5
  8
0
 10
3899.3065191095538466
 20
117.9169025558755948
 30
0.0
 40
0.3384958676266637
 50
182.8138907829203958
 51
209.8903144555098095
  0
ARC
  5
74A6
  8
0
 10
3899.8285233181109106
 20
117.9030218094406024
 30
0.0
 40
0.4022772721188059
 50
35.7328066060656795
 51
145.528356613111896
  0
ARC
  5
74A7
  8
0
 10
3899.8213911271168399
 20
117.9081170164298982
 30
0.0
 40
0.4128037074007968
 50
207.8606107749106116
 51
322.9879407361252106
  0
ARC
  5
74A8
  8
0
 10
3899.4112642486361437
 20
117.6622876577000056
 30
0.0
 40
0.0695755945323984
 50
49.5143936008875514
 51
102.5487176145455948
  0
ARC
  5
74A9
  8
0
 10
3899.8772555584610018
 20
118.2163343619507998
 30
0.0
 40
0.0105996915415036
 50
261.8441822684068825
 51
323.2791419594414037
  0
ARC
  5
74AA
  8
0
 10
3899.7739548517029107
 20
118.215628561172295
 30
0.0
 40
0.0099502922200446
 50
214.4722470611366987
 51
280.4044283866157912
  0
ARC
  5
74AB
  8
0
 10
3898.1862073609017898
 20
113.1162038515811048
 30
0.0
 40
0.0854928665551961
 50
303.7985980943739719
 51
328.8682859614110043
  0
ARC
  5
74AC
  8
0
 10
3897.0992564824841793
 20
113.7762483624420042
 30
0.0
 40
1.3571533528080679
 50
328.740613305732893
 51
345.1612935676052984
  0
ARC
  5
74AD
  8
0
 10
3898.3523790383569576
 20
113.4474221161134011
 30
0.0
 40
0.0616857616688546
 50
342.3149709384109087
 51
28.0984751150361909
  0
ARC
  5
74AE
  8
0
 10
3888.8789265545337912
 20
109.0541102286755972
 30
0.0
 40
10.50416968877885
 50
24.8983976170932486
 51
26.6517243824829784
  0
ARC
  5
74AF
  8
0
 10
3898.6432875156451701
 20
113.7691445146588052
 30
0.0
 40
0.3762767201717702
 50
180.4902741231827008
 51
231.0598478763901085
  0
ARC
  5
74B0
  8
0
 10
4313.3203868905648051
 20
114.3338158619826999
 30
0.0
 40
415.0537508239929139
 50
179.6261443621488922
 51
180.0783941154348042
  0
ARC
  5
74B1
  8
0
 10
3902.2319364244390272
 20
117.0386560880256042
 30
0.0
 40
3.9564662070509291
 50
166.7864596395689034
 51
179.9511800477910128
  0
ARC
  5
74B2
  8
0
 10
3898.5472250130501379
 20
117.8997254191494051
 30
0.0
 40
0.1725297852575228
 50
132.7774204284918937
 51
165.4638293121300023
  0
ARC
  5
74B3
  8
0
 10
3898.443317929928071
 20
118.0073710843440011
 30
0.0
 40
0.0231659188574365
 50
37.3419882560616614
 51
124.9379983546244972
  0
ARC
  5
74B4
  8
0
 10
3899.2522897730541445
 20
118.4520020763758055
 30
0.0
 40
0.9002080312042505
 50
208.5751349460522874
 51
216.7095896159667063
  0
ARC
  5
74B5
  8
0
 10
3898.5946851893691019
 20
117.9762136624419071
 30
0.0
 40
0.0893795006680076
 50
224.2063210125735964
 51
255.1778676194390982
  0
ARC
  5
74B6
  8
0
 10
3897.7915670665079233
 20
117.6441315585706064
 30
0.0
 40
1.1951472420986879
 50
55.4382738586558972
 51
88.3609561159690742
  0
ARC
  5
74B7
  8
0
 10
3897.8367806226838184
 20
117.9098722153565006
 30
0.0
 40
0.7353133589468842
 50
307.6609065900909741
 51
45.8502535179296515
  0
ARC
  5
74B8
  8
0
 10
3898.7736009459222259
 20
117.6286243694820968
 30
0.0
 40
0.507031688234893
 50
200.0798947727828931
 51
210.5522400116950905
  0
ARC
  5
74B9
  8
0
 10
3898.3165523719840166
 20
118.3970251753391949
 30
0.0
 40
0.0518269091733711
 50
51.3055078932458883
 51
71.9592534108198123
  0
ARC
  5
74BA
  8
0
 10
3898.3758595401591265
 20
118.5410365217289979
 30
0.0
 40
0.1041411404961727
 50
221.4533184817674112
 51
245.457611982865302
  0
ARC
  5
74BB
  8
0
 10
3898.2394201821089155
 20
118.4421074975071946
 30
0.0
 40
0.0656363258212627
 50
27.1846499606954097
 51
72.6302991307464225
  0
ARC
  5
74BC
  8
0
 10
3898.7648743084619127
 20
120.2032362433456996
 30
0.0
 40
1.7722152218798679
 50
247.7404700530827881
 51
253.4149094727756051
  0
ARC
  5
74BD
  8
0
 10
3899.1791295801299384
 20
113.5393424494027954
 30
0.0
 40
1.066738564984729
 50
182.5242938688359118
 51
207.5980155944797048
  0
ARC
  5
74BE
  8
0
 10
4088.1787578851349281
 20
114.0428428542977031
 30
0.0
 40
190.0661289210727887
 50
179.6726584288950903
 51
180.1659442586399962
  0
ARC
  5
74BF
  8
0
 10
3941.194323412992162
 20
115.898860950736605
 30
0.0
 40
43.0854760976169828
 50
177.0801143224670113
 51
181.0242000531551128
  0
ARC
  5
74C0
  8
0
 10
3899.2348584944697905
 20
118.0647226696760015
 30
0.0
 40
1.070464944438021
 50
155.7284012626369929
 51
178.4533048403413034
  0
ARC
  5
74C1
  8
0
 10
3899.8259311758429249
 20
117.899920954110101
 30
0.0
 40
0.7158925581062724
 50
23.2835401654698195
 51
159.965556891160503
  0
ARC
  5
74C2
  8
0
 10
3899.8259408265012098
 20
117.9006541015940002
 30
0.0
 40
0.715897296189156
 50
200.0348207764303936
 51
336.7158577871193756
  0
ARC
  5
74C3
  8
0
 10
3899.8254364384529254
 20
117.9162993787282971
 30
0.0
 40
0.6871168695338766
 50
22.0529027091307306
 51
160.2540965676035114
  0
ARC
  5
74C4
  8
0
 10
3899.8254862280191446
 20
117.8843670668019996
 30
0.0
 40
0.6871961944893352
 50
199.7520477378681107
 51
337.9378366719936935
  0
LINE
  5
74C5
  8
0
 10
3900.412463212800958
 20
118.1462654355738948
 30
0.0
 11
3900.3101362871411766
 21
118.3767764106216021
 31
0.0
  0
LINE
  5
74C6
  8
0
 10
3900.301883434839965
 20
118.3848420081215949
 30
0.0
 11
3899.8334873199401045
 21
118.5787586210216062
 31
0.0
  0
LINE
  5
74C7
  8
0
 10
3899.8197954597399075
 20
118.5795921968215936
 30
0.0
 11
3899.3507940655708808
 21
118.386215771493994
 31
0.0
  0
LINE
  5
74C8
  8
0
 10
3899.3404164002408834
 20
118.3746790484215978
 30
0.0
 11
3899.2380761387971688
 21
118.144392519145299
 31
0.0
  0
LINE
  5
74C9
  8
0
 10
3900.4125874149081028
 20
117.6542246749142038
 30
0.0
 11
3900.310308667640129
 21
117.4241535157215992
 31
0.0
  0
LINE
  5
74CA
  8
0
 10
3900.3020628369908991
 20
117.4158143024215946
 30
0.0
 11
3899.8334882115950677
 21
117.2216679213454
 31
0.0
  0
LINE
  5
74CB
  8
0
 10
3899.817979767748966
 20
117.2203014580725977
 30
0.0
 11
3899.3496181598397925
 21
117.4157277625215983
 31
0.0
  0
LINE
  5
74CC
  8
0
 10
3899.3411940671408047
 20
117.424152274921596
 30
0.0
 11
3899.238240351578952
 21
117.6562120526485984
 31
0.0
  0
ARC
  5
74CD
  8
0
 10
3900.2942698001311328
 20
117.4317664262242005
 30
0.0
 40
0.0177539200546905
 50
296.0367397127856179
 51
334.6084651115622819
  0
ARC
  5
74CE
  8
0
 10
3899.8232370431178424
 20
117.2493233623779929
 30
0.0
 40
0.0294942345861944
 50
259.7322982151263773
 51
290.3384617788357787
  0
ARC
  5
74CF
  8
0
 10
3899.3569618164360691
 20
117.4314951459743952
 30
0.0
 40
0.0173936676160686
 50
204.9708884682297878
 51
245.0262570475296968
  0
ARC
  5
74D0
  8
0
 10
3900.2939559917940642
 20
118.3684754917364046
 30
0.0
 40
0.0181853570722795
 50
27.1590216613052107
 51
64.1558629002708045
  0
ARC
  5
74D1
  8
0
 10
3899.8256696463149638
 20
118.563214081225496
 30
0.0
 40
0.0173996763874442
 50
63.3012220517131112
 51
109.7309156837984006
  0
ARC
  5
74D2
  8
0
 10
3899.3625083927190644
 20
118.3652424566575974
 30
0.0
 40
0.0240230180402042
 50
119.1848802048570946
 51
156.8702554018668138
  0
LINE
  5
74D3
  8
0
 10
3900.3066665869159806
 20
118.3814811821630997
 30
0.0
 11
3900.1495129613331301
 21
118.2252932825331015
 31
0.0
  0
LINE
  5
74D4
  8
0
 10
3899.826727000387109
 20
118.5805816009320068
 30
0.0
 11
3899.826106965775125
 21
118.3590350067566987
 31
0.0
  0
LINE
  5
74D5
  8
0
 10
3899.3446480789898487
 20
118.3813084016744028
 30
0.0
 11
3899.5007439461569447
 21
118.2240465383352017
 31
0.0
  0
LINE
  5
74D6
  8
0
 10
3900.3068942025361139
 20
117.4192833920886017
 30
0.0
 11
3900.1494889470891394
 21
117.5752530855730953
 31
0.0
  0
LINE
  5
74D7
  8
0
 10
3899.8258257778597908
 20
117.2199429551944974
 30
0.0
 11
3899.8257578063648907
 21
117.4415351442604987
 31
0.0
  0
LINE
  5
74D8
  8
0
 10
3899.344662329745006
 20
117.4191962720307032
 30
0.0
 11
3899.501683101027993
 21
117.5755837063218934
 31
0.0
  0
ARC
  5
74D9
  8
0
 10
3897.7945693207298063
 20
113.5001602174754964
 30
0.0
 40
0.632391087021165
 50
272.826320491443596
 51
313.9873868979876192
  0
ENDSEC
  0
EOF
