  0
SECTION
  2
HEADER
  9
$ACADVER
  1
AC1009
  9
$INSBASE
 10
27.091506063600001
 20
9.3385252388999991
 30
0.0
  9
$EXTMIN
 10
22.064707321023871
 20
9.3261871842273791
 30
-0.0000000349181948
  9
$EXTMAX
 10
28.200725180108002
 20
15.329986609902679
 30
0.0000000814935746
  9
$LIMMIN
 10
0.0
 20
0.0
  9
$LIMMAX
 10
22.0
 20
17.0
  9
$ORTHOMODE
 70
     0
  9
$REGENMODE
 70
     1
  9
$FILLMODE
 70
     1
  9
$QTEXTMODE
 70
     0
  9
$MIRRTEXT
 70
     0
  9
$DRAGMODE
 70
     2
  9
$LTSCALE
 40
1.2099999999999991
  9
$OSMODE
 70
  3071
  9
$ATTMODE
 70
     1
  9
$TEXTSIZE
 40
0.2
  9
$TRACEWID
 40
0.05
  9
$TEXTSTYLE
  7
STANDARD
  9
$CLAYER
  8
0
  9
$CELTYPE
  6
BYLAYER
  9
$CECOLOR
 62
   256
  9
$DIMSCALE
 40
1.0
  9
$DIMASZ
 40
0.1875
  9
$DIMEXO
 40
0.0625
  9
$DIMDLI
 40
0.8359999999999999
  9
$DIMRND
 40
0.0
  9
$DIMDLE
 40
0.0
  9
$DIMEXE
 40
0.125
  9
$DIMTP
 40
0.0
  9
$DIMTM
 40
0.0
  9
$DIMTXT
 40
1.0
  9
$DIMCEN
 40
0.198
  9
$DIMTSZ
 40
0.0
  9
$DIMTOL
 70
     0
  9
$DIMLIM
 70
     0
  9
$DIMTIH
 70
     1
  9
$DIMTOH
 70
     1
  9
$DIMSE1
 70
     0
  9
$DIMSE2
 70
     0
  9
$DIMTAD
 70
     0
  9
$DIMZIN
 70
     0
  9
$DIMBLK
  1

  9
$DIMASO
 70
     1
  9
$DIMSHO
 70
     1
  9
$DIMPOST
  1
\X
  9
$DIMAPOST
  1

  9
$DIMALT
 70
     1
  9
$DIMALTD
 70
     2
  9
$DIMALTF
 40
25.399999999999999
  9
$DIMLFAC
 40
1.0
  9
$DIMTOFL
 70
     0
  9
$DIMTVP
 40
0.0
  9
$DIMTIX
 70
     0
  9
$DIMSOXD
 70
     0
  9
$DIMSAH
 70
     0
  9
$DIMBLK1
  1

  9
$DIMBLK2
  1

  9
$DIMSTYLE
  2
STANDARD
  9
$DIMCLRD
 70
     0
  9
$DIMCLRE
 70
     0
  9
$DIMCLRT
 70
     0
  9
$DIMTFAC
 40
1.0
  9
$DIMGAP
 40
0.09
  9
$LUNITS
 70
     2
  9
$LUPREC
 70
     4
  9
$SKETCHINC
 40
0.1
  9
$FILLETRAD
 40
0.0
  9
$AUNITS
 70
     0
  9
$AUPREC
 70
     0
  9
$MENU
  1
.
  9
$ELEVATION
 40
0.0
  9
$PELEVATION
 40
0.0
  9
$THICKNESS
 40
0.0
  9
$LIMCHECK
 70
     0
  9
$BLIPMODE
 70
     0
  9
$CHAMFERA
 40
0.0
  9
$CHAMFERB
 40
0.0
  9
$SKPOLY
 70
     0
  9
$TDCREATE
 40
2457968.5935470602
  9
$TDUPDATE
 40
2457973.684693669
  9
$TDINDWG
 40
0.2146221065
  9
$TDUSRTIMER
 40
0.2146221065
  9
$USRTIMER
 70
     1
  9
$ANGBASE
 50
0.0
  9
$ANGDIR
 70
     0
  9
$PDMODE
 70
     0
  9
$PDSIZE
 40
0.3125
  9
$PLINEWID
 40
0.0
  9
$COORDS
 70
     1
  9
$SPLFRAME
 70
     0
  9
$SPLINETYPE
 70
     6
  9
$SPLINESEGS
 70
     8
  9
$ATTDIA
 70
     1
  9
$ATTREQ
 70
     1
  9
$HANDLING
 70
     1
  9
$HANDSEED
  5
180C
  9
$SURFTAB1
 70
     6
  9
$SURFTAB2
 70
     6
  9
$SURFTYPE
 70
     6
  9
$SURFU
 70
     6
  9
$SURFV
 70
     6
  9
$UCSNAME
  2

  9
$UCSORG
 10
0.0
 20
0.0
 30
0.0
  9
$UCSXDIR
 10
1.0
 20
0.0
 30
0.0
  9
$UCSYDIR
 10
0.0
 20
1.0
 30
0.0
  9
$PUCSNAME
  2

  9
$PUCSORG
 10
0.0
 20
0.0
 30
0.0
  9
$PUCSXDIR
 10
1.0
 20
0.0
 30
0.0
  9
$PUCSYDIR
 10
0.0
 20
1.0
 30
0.0
  9
$USERI1
 70
     0
  9
$USERI2
 70
     0
  9
$USERI3
 70
     0
  9
$USERI4
 70
     0
  9
$USERI5
 70
     0
  9
$USERR1
 40
0.0
  9
$USERR2
 40
0.0
  9
$USERR3
 40
0.0
  9
$USERR4
 40
0.0
  9
$USERR5
 40
0.0
  9
$WORLDVIEW
 70
     1
  9
$SHADEDGE
 70
     3
  9
$SHADEDIF
 70
    70
  9
$TILEMODE
 70
     1
  9
$MAXACTVP
 70
    48
  9
$PLIMCHECK
 70
     0
  9
$PEXTMIN
 10
1.0000000000000000E+020
 20
1.0000000000000000E+020
 30
1.0000000000000000E+020
  9
$PEXTMAX
 10
-1.0000000000000000E+020
 20
-1.0000000000000000E+020
 30
-1.0000000000000000E+020
  9
$PLIMMIN
 10
0.0
 20
0.0
  9
$PLIMMAX
 10
12.0
 20
9.0
  9
$UNITMODE
 70
     0
  9
$VISRETAIN
 70
     1
  9
$PLINEGEN
 70
     0
  9
$PSLTSCALE
 70
     1
  0
ENDSEC
  0
SECTION
  2
TABLES
  0
TABLE
  2
VPORT
 70
     1
  0
VPORT
  2
*ACTIVE
 70
     0
 10
0.0
 20
0.0
 11
1.0
 21
1.0
 12
-0.0000394614730017
 22
0.0002128703557407
 13
0.0
 23
0.0
 14
1.0
 24
1.0
 15
0.0
 25
0.0
 16
-0.0000000000000036
 26
0.0
 36
20.689175346072009
 17
25.132755712038939
 27
12.32787402670929
 37
0.0
 40
6.0425495003352889
 41
1.786624203821656
 42
50.0
 43
0.0
 44
0.0
 50
0.0
 51
0.0
 71
     0
 72
   100
 73
     1
 74
     1
 75
     0
 76
     0
 77
     0
 78
     0
  0
ENDTAB
  0
TABLE
  2
LTYPE
 70
     2
  0
LTYPE
  2
CONTINUOUS
 70
     0
  3
Solid line
 72
    65
 73
     0
 40
0.0
  0
LTYPE
  2
PHANTOM2
 70
     0
  3
___ _ _ ___ _ _ ___ _ _ ___ _ _
 72
    65
 73
     6
 40
1.25
 49
0.625
 49
-0.125
 49
0.125
 49
-0.125
 49
0.125
 49
-0.125
  0
ENDTAB
  0
TABLE
  2
LAYER
 70
     2
  0
LAYER
  2
0
 70
     0
 62
     7
  6
CONTINUOUS
  0
LAYER
  2
DEFPOINTS
 70
     0
 62
     7
  6
CONTINUOUS
  0
ENDTAB
  0
TABLE
  2
STYLE
 70
     1
  0
STYLE
  2
STANDARD
 70
     0
 40
0.0
 41
0.8
 50
0.0
 71
     0
 42
0.2
  3
txt
  4

  0
ENDTAB
  0
TABLE
  2
VIEW
 70
     0
  0
ENDTAB
  0
TABLE
  2
UCS
 70
     0
  0
ENDTAB
  0
TABLE
  2
APPID
 70
     7
  0
APPID
  2
ACAD
 70
     0
  0
APPID
  2
ACAD_MLEADERVER
 70
     0
  0
APPID
  2
ACAD_NAV_VCDISPLAY
 70
     0
  0
APPID
  2
ACAD_EXEMPT_FROM_CAD_STANDARDS
 70
     0
  0
APPID
  2
ACAD_DSTYLE_DIMJAG
 70
     0
  0
APPID
  2
ACAD_DSTYLE_DIMTALN
 70
     0
  0
APPID
  2
ACDBATTR
 70
     0
  0
ENDTAB
  0
TABLE
  2
DIMSTYLE
 70
     1
  0
DIMSTYLE
  2
STANDARD
 70
     0
  3

  4

  5

  6

  7

 40
1.0
 41
0.1875
 42
0.0625
 43
0.38
 44
0.125
 45
0.0
 46
0.0
 47
1.5
 48
1.5
140
0.15625
141
0.09
142
0.0
143
25.399999999999999
144
1.0
145
0.0
146
1.0
147
0.09
 71
     0
 72
     0
 73
     1
 74
     1
 75
     0
 76
     0
 77
     0
 78
     4
170
     0
171
     2
172
     0
173
     0
174
     0
175
     0
176
     0
177
     0
178
     0
  0
ENDTAB
  0
ENDSEC
  0
SECTION
  2
BLOCKS
  0
BLOCK
  8
0
  2
$MODEL_SPACE
 70
     0
 10
0.0
 20
0.0
 30
0.0
  3
$MODEL_SPACE
  1

  0
ENDBLK
  5
21
  8
0
  0
BLOCK
 67
     1
  8
0
  2
$PAPER_SPACE
 70
     0
 10
0.0
 20
0.0
 30
0.0
  3
$PAPER_SPACE
  1

  0
ENDBLK
  5
1D
 67
     1
  8
0
  0
ENDSEC
  0
SECTION
  2
ENTITIES
  0
LINE
  5
D38
  8
0
 10
26.417110823293079
 20
10.358330800375329
 30
0.0
 11
26.347737444300002
 21
10.142814553899999
 31
0.0
  0
LINE
  5
D4A
  8
0
 10
26.0140106361
 20
9.3385252388999991
 30
0.0
 11
28.169001491100001
 21
9.3385252388999991
 31
0.0
  0
LINE
  5
D4F
  8
0
 10
26.1889150405
 20
9.4590790672999994
 30
0.0
 11
27.9940879418
 21
9.4590790672999994
 31
0.0
  0
LINE
  5
D51
  8
0
 10
26.0987120604
 20
9.4909814832000006
 30
0.0
 11
26.251370420400001
 21
9.4909814832000006
 31
0.0
  0
LINE
  5
D52
  8
0
 10
27.931632561800001
 20
9.4909814832000006
 30
0.0
 11
28.08429332615793
 21
9.4909814827853527
 31
0.0
  0
LINE
  5
D57
  8
0
 10
26.3375030437
 20
9.6525252388999991
 30
0.0
 11
27.845502339300001
 21
9.6525252388999991
 31
0.0
  0
LINE
  5
D86
  8
0
 10
26.282623513620749
 20
9.7778961231000014
 30
0.0
 11
26.39453731465245
 21
9.7778961230999997
 31
0.0
  0
LINE
  5
D87
  8
0
 10
27.788465188000249
 20
9.7778961230999997
 30
0.0
 11
27.900381869379238
 21
9.7778961230999997
 31
0.0
  0
LINE
  5
D8F
  8
0
 10
26.393368945902399
 20
9.8675252388999972
 30
0.0
 11
26.335574687299999
 21
9.8675252388999972
 31
0.0
  0
LINE
  5
DC4
  8
0
 10
27.502603853299998
 20
13.4804817787
 30
0.0
 11
27.502603853299998
 21
12.82341282469786
 31
0.0
  0
LINE
  5
DDB
  8
0
 10
27.6403991289
 20
13.4804817787
 30
0.0
 11
27.6403991289
 21
12.443005709357941
 31
0.0
  0
LINE
  5
E22
  8
0
 10
26.782080081
 20
12.552525238899999
 30
0.0
 11
26.840628963094041
 21
12.552525238899999
 31
0.0
  0
LINE
  5
E46
  8
0
 10
27.452196343200001
 20
13.4804817787
 30
0.0
 11
27.691088656600002
 21
13.4804817787
 31
0.0
  0
LINE
  5
E51
  8
0
 10
27.656625145
 20
14.213609018
 30
0.0
 11
27.4866776834
 21
14.213609018
 31
0.0
  0
ARC
  5
EBA
  8
0
 10
28.057501491099998
 20
9.3705252388999991
 30
0.0
 40
0.032
 50
270.0
 51
360.0
  0
ARC
  5
EBB
  8
0
 10
26.1255014911
 20
9.3705252388999991
 30
0.0
 40
0.032
 50
180.0
 51
270.0
  0
ARC
  5
EBC
  8
0
 10
28.169001491100001
 20
9.3686666276999997
 30
0.0
 40
0.0301413888
 50
270.0
 51
5.5517945901000001
  0
ARC
  5
EBD
  8
0
 10
26.0140014911
 20
9.3686666276999997
 30
0.0
 40
0.0301413888
 50
174.4482054099
 51
270.0
  0
ARC
  5
EC3
  8
0
 10
27.09150148461897
 20
12.3071394961134
 30
0.0
 40
0.4049517678599974
 50
145.7518077213972
 51
217.33087136969931
  0
ARC
  5
EC4
  8
0
 10
27.09150269145772
 20
12.37733539382252
 30
0.0
 40
0.3704187511258039
 50
30.595977291000331
 51
149.4040226446777
  0
ARC
  5
ECB
  8
0
 10
26.782077979099999
 20
12.562525238899999
 30
0.0
 40
0.01
 50
160.4502354096999
 51
270.0
  0
ARC
  5
1235
  8
0
 10
26.121477814657229
 20
9.3599876407047873
 30
0.0
 40
0.1379644312982962
 50
130.65398583080531
 51
175.17896776578411
  0
ARC
  5
1236
  8
0
 10
26.11508041650605
 20
9.3505336078194006
 30
0.0
 40
0.1413984751704938
 50
96.647490608378291
 51
126.18705430597269
  0
ARC
  5
1237
  8
0
 10
26.1728508706341
 20
9.3744527165937086
 30
0.0
 40
0.0794465173149885
 50
104.99009034404359
 51
182.8336000235532
  0
ARC
  5
1238
  8
0
 10
26.191232077088738
 20
9.3593537626607315
 30
0.0
 40
0.099752218231474
 50
91.330981282611631
 51
112.97124269310829
  0
ARC
  5
1239
  8
0
 10
26.184669421469611
 20
9.5189286682654295
 30
0.0
 40
0.0600000001671663
 50
274.05765814652898
 51
299.45944934339718
  0
ARC
  5
123A
  8
0
 10
25.270311246445399
 20
10.9354256958904
 30
0.0
 40
1.745874919517056
 50
302.72631222845177
 51
304.5376653377366
  0
ARC
  5
123B
  8
0
 10
26.12369079526556
 20
9.6834889139276878
 30
0.0
 40
0.2308660937768204
 50
306.22759654947771
 51
331.65138683890711
  0
ARC
  5
123C
  8
0
 10
26.029344063949249
 20
9.7235580867495912
 30
0.0
 40
0.3330610444279503
 50
333.29194303266752
 51
345.25933423099781
  0
ARC
  5
123D
  8
0
 10
26.368632600994349
 20
9.6285239471583655
 30
0.0
 40
0.0200332493851339
 50
93.236734341020593
 51
149.097593890784
  0
LINE
  5
123E
  8
0
 10
26.36750149110004
 20
9.6485252388999996
 30
0.0
 11
26.383333692099999
 21
9.6525252388999991
 31
0.0
  0
ARC
  5
123F
  8
0
 10
26.33170287347664
 20
9.6854847641221991
 30
0.0
 40
0.0334659868746281
 50
233.15578043446379
 51
279.98063850613192
  0
ARC
  5
1240
  8
0
 10
26.327007302855272
 20
9.6735117962532016
 30
0.0
 40
0.0213447912336635
 50
161.434202743409
 51
223.93093092041539
  0
ARC
  5
1241
  8
0
 10
26.438888881533099
 20
9.6574432070616378
 30
0.0
 40
0.1340794989999138
 50
156.9384219495314
 51
170.18134051401179
  0
ARC
  5
1242
  8
0
 10
26.409301567648971
 20
9.6695693950893453
 30
0.0
 40
0.1021075179427892
 50
124.3533260622973
 51
156.69554518241111
  0
ARC
  5
1243
  8
0
 10
26.42455553327984
 20
9.6202438489758677
 30
0.0
 40
0.1522021116297854
 50
108.6130575570769
 51
118.606338072019
  0
ARC
  5
1244
  8
0
 10
26.369219986037361
 20
9.7933857973834577
 30
0.0
 40
0.0296799113477834
 50
283.15828407672029
 51
5.493751874457705
  0
LINE
  5
1245
  8
0
 10
26.398763567000021
 20
9.7962272690997843
 30
0.0
 11
26.386009930899998
 21
9.9647856061999995
 31
0.0
  0
ARC
  5
1246
  8
0
 10
25.711170015453821
 20
10.03116376820752
 30
0.0
 40
0.6394194164584397
 50
348.48055428449101
 51
5.7626158925102029
  0
ARC
  5
1247
  8
0
 10
26.368010996221361
 20
9.8982580566248313
 30
0.0
 40
0.0307466041373514
 50
170.23787710807821
 51
268.28414369128512
  0
ARC
  5
1248
  8
0
 10
26.335565002030641
 20
9.8275252358528782
 30
0.0
 40
0.0400000042196763
 50
89.986126874886324
 51
151.52917629459111
  0
ARC
  5
1249
  8
0
 10
26.42198464970248
 20
9.7813474121766006
 30
0.0
 40
0.1379828654749754
 50
151.78003830155021
 51
177.3567891953254
  0
ARC
  5
1253
  8
0
 10
26.328404427509732
 20
9.7758080424489595
 30
0.0
 40
0.0458285081288433
 50
164.94647577736359
 51
208.6052029887814
  0
ARC
  5
1254
  8
0
 10
26.253441628337551
 20
9.7340183263465487
 30
0.0
 40
0.0399999995474024
 50
344.82214295263032
 51
29.749447493840869
  0
ARC
  5
1255
  8
0
 10
25.85238598568543
 20
9.8260411660495794
 30
0.0
 40
0.4514493885725598
 50
323.68033327848389
 51
346.87733949222132
  0
ARC
  5
1256
  8
0
 10
26.070494304284171
 20
9.6756465231796511
 30
0.0
 40
0.1868085081125767
 50
278.68788207178932
 51
321.22388760330978
  0
ARC
  5
1257
  8
0
 10
26.566460903359989
 20
9.9560050906586088
 30
0.0
 40
0.1806644705384232
 50
160.25887295269561
 51
177.2142571982254
  0
ARC
  5
1258
  8
0
 10
25.293963483345522
 20
10.25515921794285
 30
0.0
 40
1.127876022731622
 50
347.81129128780282
 51
5.2484237099452127
  0
ARC
  5
1259
  8
0
 10
28.970964944053041
 20
10.51742964322613
 30
0.0
 40
2.558805055471729
 50
174.07620932769251
 51
183.56477956839879
  0
ARC
  5
125A
  8
0
 10
27.389918764484111
 20
10.60622023694974
 30
0.0
 40
0.9799012840644346
 50
146.4253366063011
 51
169.69502106938751
  0
ARC
  5
125B
  8
0
 10
18.078047578928061
 20
16.25062023183423
 30
0.0
 40
9.9100004528897951
 50
329.0103576089931
 51
329.57255768600498
  0
ARC
  5
125C
  8
0
 10
26.29127667643473
 20
11.32996061863437
 30
0.0
 40
0.3461104570883911
 50
343.51245344212958
 51
3.4317336478417348
  0
ARC
  5
125D
  8
0
 10
26.758992366560172
 20
11.37703627074773
 30
0.0
 40
0.1250355689686344
 50
124.6058955040109
 51
192.16935236048201
  0
ARC
  5
125E
  8
0
 10
26.42204120223559
 20
11.80010339014364
 30
0.0
 40
0.4161995235912789
 50
309.71521872273979
 51
338.0521853551611
  0
ARC
  5
125F
  8
0
 10
26.488657406161181
 20
11.7434611999611
 30
0.0
 40
0.3343848340728102
 50
342.7933507874219
 51
26.46809207063102
  0
ARC
  5
1260
  8
0
 10
26.982285075651209
 20
11.947649835962419
 30
0.0
 40
0.2019686871360233
 50
164.45073690282291
 51
195.84760419419661
  0
ARC
  5
1261
  8
0
 10
26.719971086393631
 20
12.013827283143129
 30
0.0
 40
0.0687968098393972
 50
349.87450068796551
 51
43.944834707761473
  0
ARC
  5
1262
  8
0
 10
26.79189104007202
 20
12.508625928853
 30
0.0
 40
0.0439477281625919
 50
92.689758183904601
 51
143.0596364689172
  0
LINE
  5
1264
  8
0
 10
26.801540522432472
 20
11.8614331153065
 30
0.0
 11
27.38146480277846
 21
11.86143296203922
 31
0.0
  0
ARC
  5
12A2
  8
0
 10
26.645569166940259
 20
11.299001617804869
 30
0.0
 40
0.0644052526204493
 50
251.32206600511029
 51
271.92492788402387
  0
ARC
  5
12A3
  8
0
 10
26.613292265354819
 20
14.48181167827107
 30
0.0
 40
3.2473616042944231
 50
270.60766850660588
 51
272.62264866224712
  0
ARC
  5
12A4
  8
0
 10
26.926694054281288
 20
15.264790335497199
 30
0.0
 40
4.030309981297167
 50
267.65637911433748
 51
272.34359248259392
  0
LINE
  5
12AE
  8
0
 10
26.761884619951921
 20
11.23785149029081
 30
0.0
 11
26.759271184199999
 21
11.2288874036
 31
0.0
  0
ARC
  5
12AF
  8
0
 10
30.106152168210372
 20
9.7361204597100102
 30
0.0
 40
3.6646917284479281
 50
155.96230012160831
 51
159.38773040328411
  0
ARC
  5
12B0
  8
0
 10
27.708285801990939
 20
10.65094358293106
 30
0.0
 40
1.0983372868245811
 50
160.01947606197251
 51
174.37582134767061
  0
ARC
  5
12B1
  8
0
 10
29.12057325784053
 20
10.54281492275809
 30
0.0
 40
2.5146117299654489
 50
175.07762317458651
 51
183.36358526698291
  0
ARC
  5
12B2
  8
0
 10
24.149540166498461
 20
10.28241262555167
 30
0.0
 40
2.463340219553285
 50
352.63342810574858
 51
2.6260943309059841
  0
ARC
  5
12B3
  8
0
 10
26.35124127758964
 20
10.071160104419571
 30
0.0
 40
0.2629973235246869
 50
305.5690680213749
 51
336.56667891965071
  0
ARC
  5
12B4
  8
0
 10
26.456962993208169
 20
9.9175416629957986
 30
0.0
 40
0.0766189570148381
 50
232.04747916976271
 51
308.0838029964421
  0
ARC
  5
12B5
  8
0
 10
26.673107488238131
 20
9.9740141317449655
 30
0.0
 40
0.288048090275487
 50
189.2728783673432
 51
203.94087383896931
  0
ARC
  5
12B7
  8
0
 10
26.796992267039869
 20
10.07381504115197
 30
0.0
 40
0.2308654641770205
 50
207.68003538747641
 51
238.8621181150632
  0
ARC
  5
12B8
  8
0
 10
26.82696055703186
 20
10.155384540106409
 30
0.0
 40
0.3166111984552348
 50
241.85464574369911
 51
273.32745367159271
  0
ARC
  5
12B9
  8
0
 10
26.829921849305901
 20
10.179589907810669
 30
0.0
 40
0.3406317987740622
 50
272.59385420111892
 51
310.09970418452849
  0
LINE
  5
12BA
  8
0
 10
27.049329494700022
 20
9.9190322223000251
 30
0.0
 11
27.09149412150003
 21
9.9664977446001402
 31
0.0
  0
ARC
  5
12BB
  8
0
 10
411.87193475293469
 20
10.599944140889409
 30
0.0
 40
384.78096203796002
 50
179.9050124226913
 51
180.0943233294509
  0
LINE
  5
12BE
  8
0
 10
27.789636437097599
 20
9.8675252388999972
 30
0.0
 11
27.847430695700002
 21
9.8675252388999972
 31
0.0
  0
LINE
  5
12BF
  8
0
 10
27.400925302000001
 20
12.552525238899999
 30
0.0
 11
27.342374019105971
 21
12.552525238899999
 31
0.0
  0
ARC
  5
12C0
  8
0
 10
28.057503891899991
 20
9.3705252388999991
 30
0.0
 40
0.032
 50
270.0
 51
0.000000000000007
  0
ARC
  5
12C1
  8
0
 10
28.169003891900001
 20
9.3686666276999997
 30
0.0
 40
0.0301413888
 50
270.0
 51
5.5517945900999832
  0
ARC
  5
12C2
  8
0
 10
27.09150389189999
 20
12.307139498399991
 30
0.0
 40
0.4049517744000014
 50
322.66912892912779
 51
34.25848642870023
  0
ARC
  5
12C3
  8
0
 10
27.400927403899999
 20
12.562525238899999
 30
0.0
 40
0.01
 50
270.0
 51
19.549764590300089
  0
ARC
  5
12C4
  8
0
 10
28.061527568342768
 20
9.3599876407047873
 30
0.0
 40
0.1379644312982962
 50
4.8210322342158491
 51
49.346014169194603
  0
ARC
  5
12C5
  8
0
 10
28.067924966493951
 20
9.3505336078194006
 30
0.0
 40
0.1413984751704938
 50
53.812945694027491
 51
83.352509391621538
  0
ARC
  5
12C6
  8
0
 10
28.010154512365901
 20
9.3744527165937086
 30
0.0
 40
0.0794465173149885
 50
357.16639997644683
 51
75.009909655956534
  0
ARC
  5
12C7
  8
0
 10
27.991773305911249
 20
9.3593537626607315
 30
0.0
 40
0.099752218231474
 50
67.028757306891706
 51
88.669018717388454
  0
ARC
  5
12C8
  8
0
 10
27.99833596153038
 20
9.5189286682654295
 30
0.0
 40
0.0600000001671663
 50
240.54055065660299
 51
265.94234185347102
  0
ARC
  5
12C9
  8
0
 10
28.912694136554592
 20
10.9354256958904
 30
0.0
 40
1.745874919517056
 50
235.46233466226329
 51
237.27368777154811
  0
ARC
  5
12CA
  8
0
 10
28.059314587734431
 20
9.6834889139276878
 30
0.0
 40
0.2308660937768204
 50
208.348613161093
 51
233.77240345052249
  0
ARC
  5
12CB
  8
0
 10
28.153661319050741
 20
9.7235580867495912
 30
0.0
 40
0.3330610444279503
 50
194.74066576900231
 51
206.70805696733251
  0
ARC
  5
12CC
  8
0
 10
27.814372782005648
 20
9.6285239471583655
 30
0.0
 40
0.0200332493851339
 50
30.902406109215931
 51
86.763265658979321
  0
LINE
  5
12CD
  8
0
 10
27.815503891899962
 20
9.6485252388999996
 30
0.0
 11
27.799671690899999
 21
9.6525252388999991
 31
0.0
  0
ARC
  5
12CE
  8
0
 10
27.85130250952335
 20
9.6854847641221991
 30
0.0
 40
0.0334659868746281
 50
260.01936149386802
 51
306.84421956553621
  0
ARC
  5
12CF
  8
0
 10
27.85599808014473
 20
9.6735117962532016
 30
0.0
 40
0.0213447912336635
 50
316.06906907958449
 51
18.565797256591019
  0
ARC
  5
12D0
  8
0
 10
27.744116501466898
 20
9.6574432070616378
 30
0.0
 40
0.1340794989999138
 50
9.8186594859882117
 51
23.061578050468519
  0
ARC
  5
12D1
  8
0
 10
27.77370381535102
 20
9.6695693950893453
 30
0.0
 40
0.1021075179427892
 50
23.304454817588869
 51
55.646673937702801
  0
ARC
  5
12D2
  8
0
 10
27.753955106348219
 20
9.6110721851337697
 30
0.0
 40
0.1624068344723586
 50
61.55073253951619
 51
70.842712231890502
  0
ARC
  5
12D3
  8
0
 10
27.813683383990028
 20
9.7933583159821627
 30
0.0
 40
0.0295810212417412
 50
174.4343468918515
 51
257.44061083605811
  0
LINE
  5
12D4
  8
0
 10
27.78424181599997
 20
9.7962272690997843
 30
0.0
 11
27.796995452099988
 21
9.9647856061999995
 31
0.0
  0
ARC
  5
12D5
  8
0
 10
28.561328605912021
 20
10.042543550945339
 30
0.0
 40
0.7294130217468652
 50
176.00506958527021
 51
190.99066288709679
  0
ARC
  5
12D6
  8
0
 10
27.81499438677864
 20
9.8982580566248313
 30
0.0
 40
0.0307466041373514
 50
271.71585630871499
 51
9.7621228919217113
  0
ARC
  5
12D7
  8
0
 10
27.847440380969349
 20
9.8275252358528782
 30
0.0
 40
0.0400000042196763
 50
28.470823705408861
 51
90.013873125113804
  0
ARC
  5
12D8
  8
0
 10
27.761020733297521
 20
9.7813474121766006
 30
0.0
 40
0.1379828654749754
 50
2.6432108046745921
 51
28.21996169844985
  0
ARC
  5
12D9
  8
0
 10
27.854600955490259
 20
9.7758080424489595
 30
0.0
 40
0.0458285081288433
 50
331.3947970112186
 51
15.05352422263635
  0
ARC
  5
12DA
  8
0
 10
27.92956375466245
 20
9.7340183263465487
 30
0.0
 40
0.0399999995474024
 50
150.25055250615901
 51
195.17785704736971
  0
ARC
  5
12DB
  8
0
 10
28.33061939731456
 20
9.8260411660495794
 30
0.0
 40
0.4514493885725598
 50
193.1226605077787
 51
216.319666721516
  0
ARC
  5
12DC
  8
0
 10
28.11251107871583
 20
9.6756465231796511
 30
0.0
 40
0.1868085081125767
 50
218.77611239669031
 51
261.31211792821063
  0
ARC
  5
12DD
  8
0
 10
27.616544479640002
 20
9.9560050906586088
 30
0.0
 40
0.1806644705384232
 50
2.7857428017746
 51
19.741127047304371
  0
ARC
  5
12DE
  8
0
 10
28.889041899654391
 20
10.255159217942831
 30
0.0
 40
1.1278760227315341
 50
174.7591767541366
 51
192.1887087121975
  0
ARC
  5
12DF
  8
0
 10
25.212678563265769
 20
10.51746924064088
 30
0.0
 40
2.5581662521691828
 50
356.43009708306658
 51
5.9243835713391348
  0
ARC
  5
12E0
  8
0
 10
26.7931095746859
 20
10.606232319965081
 30
0.0
 40
0.9798754755830662
 50
10.316126468843381
 51
33.574817067522318
  0
ARC
  5
12E1
  8
0
 10
36.104957804071937
 20
16.25062023183423
 30
0.0
 40
9.9100004528897951
 50
210.42744231399499
 51
210.98964239100681
  0
ARC
  5
12E2
  8
0
 10
27.891728706565271
 20
11.32996061863437
 30
0.0
 40
0.3461104570883911
 50
176.56826635215819
 51
196.4875465578705
  0
ARC
  5
12E3
  8
0
 10
27.424013016439829
 20
11.37703627074773
 30
0.0
 40
0.1250355689686344
 50
347.83064763951802
 51
55.394104495989048
  0
ARC
  5
12E4
  8
0
 10
27.7609641807644
 20
11.80010339014364
 30
0.0
 40
0.4161995235912789
 50
201.94781464483879
 51
230.28478127726021
  0
ARC
  5
12E5
  8
0
 10
27.69434797683882
 20
11.7434611999611
 30
0.0
 40
0.3343848340728102
 50
153.53190792936891
 51
197.2066492125781
  0
ARC
  5
12E6
  8
0
 10
27.200720307348789
 20
11.947649835962419
 30
0.0
 40
0.2019686871360233
 50
344.15239580580328
 51
15.54926309717702
  0
ARC
  5
12E7
  8
0
 10
27.46303429660637
 20
12.013827283143129
 30
0.0
 40
0.0687968098393972
 50
136.05516529223851
 51
190.12549931203449
  0
ARC
  5
12E8
  8
0
 10
27.391114342927981
 20
12.508625928853
 30
0.0
 40
0.0439477281625919
 50
36.940363531082717
 51
87.310241816095413
  0
ARC
  5
12E9
  8
0
 10
27.537436216059739
 20
11.299001617804869
 30
0.0
 40
0.0644052526204493
 50
268.0750721159759
 51
288.67793399488971
  0
ARC
  5
12EA
  8
0
 10
27.569713117645179
 20
14.48181167827107
 30
0.0
 40
3.2473616042944231
 50
267.37735133775288
 51
269.39233149339401
  0
ARC
  5
12EB
  8
0
 10
27.256311328718699
 20
15.264790335497199
 30
0.0
 40
4.030309981297167
 50
267.65640751740631
 51
272.34362088566229
  0
LINE
  5
12EC
  8
0
 10
27.421120763048069
 20
11.23785149029081
 30
0.0
 11
27.423734198799998
 21
11.2288874036
 31
0.0
  0
ARC
  5
12ED
  8
0
 10
24.076853214789629
 20
9.7361204597100102
 30
0.0
 40
3.6646917284479281
 50
20.61226959671594
 51
24.037699878391638
  0
ARC
  5
12EE
  8
0
 10
26.474719581009051
 20
10.65094358293106
 30
0.0
 40
1.0983372868245811
 50
5.6241786523294257
 51
19.980523938027581
  0
ARC
  5
12EF
  8
0
 10
25.062432125159461
 20
10.54281492275809
 30
0.0
 40
2.5146117299654489
 50
356.63641473301709
 51
4.9223768254134814
  0
ARC
  5
12F0
  8
0
 10
30.033437933540441
 20
10.28241268646811
 30
0.0
 40
2.4633129624537919
 50
177.3738780088016
 51
187.3666605847111
  0
ARC
  5
12F1
  8
0
 10
27.831771451486439
 20
10.07116789485287
 30
0.0
 40
0.2630079334775891
 50
203.4343165458221
 51
234.43061744124881
  0
ARC
  5
12F2
  8
0
 10
27.726042389791829
 20
9.9175416629957986
 30
0.0
 40
0.0766189570148381
 50
231.91619700355781
 51
307.95252083023729
  0
ARC
  5
12F3
  8
0
 10
27.50989789476187
 20
9.9740141317449655
 30
0.0
 40
0.288048090275487
 50
336.05912616103069
 51
350.7271216326568
  0
ARC
  5
12F4
  8
0
 10
27.386013115960129
 20
10.07381504115197
 30
0.0
 40
0.2308654641770133
 50
300.99507206056279
 51
332.31996461252311
  0
ARC
  5
12F5
  8
0
 10
27.35604482596813
 20
10.155384540106409
 30
0.0
 40
0.3166111984552348
 50
266.67254632840741
 51
298.14535425630078
  0
ARC
  5
12F6
  8
0
 10
27.35308353369409
 20
10.179589907810669
 30
0.0
 40
0.3406317987740622
 50
229.90029581547171
 51
267.40614579888131
  0
LINE
  5
12F7
  8
0
 10
27.133675888299969
 20
9.9190322223000251
 30
0.0
 11
27.09149412150003
 21
9.9664977446001402
 31
0.0
  0
CIRCLE
  5
12FA
  8
0
 10
27.091501491100001
 20
12.308734946
 30
0.0
 40
0.1719613322000004
  0
CIRCLE
  5
12FB
  8
0
 10
27.091501491100001
 20
12.308734946
 30
0.0
 40
0.2612554567000007
  0
CIRCLE
  5
12FC
  8
0
 10
27.091501491100001
 20
12.308734946
 30
0.0
 40
0.3498152830000016
  0
LINE
  5
12FD
  8
0
 10
26.375976379410741
 20
9.7644851350001112
 30
0.0
 11
27.80725094761787
 21
9.7644851350001112
 31
0.0
  0
ARC
  5
12FE
  8
0
 10
27.133688674226399
 20
10.220286462014201
 30
0.0
 40
0.7114134709632151
 50
349.72261560663122
 51
6.56753570352737
  0
ARC
  5
12FF
  8
0
 10
31.060100325664902
 20
10.439297096051041
 30
0.0
 40
3.222607501416745
 50
174.60698797380201
 51
182.4479481507411
  0
ARC
  5
1300
  8
0
 10
22.16020405645661
 20
11.178664798431621
 30
0.0
 40
5.7082663077876044
 50
355.6145748687876
 51
4.779538547464691
  0
ARC
  5
1301
  8
0
 10
17.307958071958339
 20
10.1599745913613
 30
0.0
 40
10.64605784092795
 50
8.0688606659475468
 51
10.767737087165511
  0
ARC
  5
130B
  8
0
 10
33.463972010644618
 20
14.76764515548393
 30
0.0
 40
6.2704026715575649
 50
194.5952310552957
 51
204.6848367651956
  0
ARC
  5
130C
  8
0
 10
27.5387427758222
 20
13.75992915636224
 30
0.0
 40
0.3182853072527434
 50
298.6006405764914
 51
344.21479405925828
  0
ARC
  5
130D
  8
0
 10
26.871223699553379
 20
14.03304564297594
 30
0.0
 40
1.038110397300521
 50
339.72690855242769
 51
349.7249673871321
  0
LINE
  5
130F
  8
0
 10
27.892685775
 20
13.847874302299999
 30
0.0
 11
27.8888807881
 21
13.881939796699999
 31
0.0
  0
ARC
  5
1310
  8
0
 10
27.43138071567569
 20
13.525382891350411
 30
0.0
 40
0.5800337430018445
 50
37.931397824375239
 51
59.264852234139582
  0
ARC
  5
1311
  8
0
 10
27.783135404284579
 20
14.10951380846174
 30
0.0
 40
0.1018923270265595
 50
196.3811059293925
 51
237.1191757207705
  0
ARC
  5
1312
  8
0
 10
27.75804201832738
 20
14.08940210718297
 30
0.0
 40
0.0731728675050007
 50
150.15635501640429
 51
186.7688794340942
  0
ARC
  5
1313
  8
0
 10
27.641188428216861
 20
14.146018415122681
 30
0.0
 40
0.0570793780870316
 50
339.27122223229497
 51
56.914650932289767
  0
ARC
  5
1317
  8
0
 10
27.676447974652181
 20
14.216265222047451
 30
0.0
 40
0.0199999998465178
 50
187.63201359453041
 51
235.38918646295861
  0
LINE
  5
1318
  8
0
 10
27.665087993243478
 20
14.199804638300041
 30
0.0
 11
27.67234736049998
 21
14.19384284760001
 31
0.0
  0
ARC
  5
1319
  8
0
 10
27.619633006399891
 20
14.20829989200136
 30
0.0
 40
0.0373711806057957
 50
8.1673398590785826
 51
77.345783481800424
  0
ARC
  5
131A
  8
0
 10
27.564542504325761
 20
13.994760553636601
 30
0.0
 40
0.257886406970796
 50
75.796369894314054
 51
88.420381515358102
  0
ARC
  5
131C
  8
0
 10
27.604560052477801
 20
13.75992915636224
 30
0.0
 40
0.3182853072527434
 50
195.78520594074169
 51
241.39935942350871
  0
ARC
  5
131D
  8
0
 10
28.272079128746618
 20
14.03304564297594
 30
0.0
 40
1.038110397300521
 50
190.2750326128679
 51
200.27309144757231
  0
ARC
  5
131E
  8
0
 10
27.711922112624311
 20
13.525382891350411
 30
0.0
 40
0.5800337430018445
 50
120.7351477658603
 51
142.0686021756247
  0
ARC
  5
131F
  8
0
 10
27.360167424015408
 20
14.10951380846174
 30
0.0
 40
0.1018923270265595
 50
302.88082427922961
 51
343.61889407060738
  0
ARC
  5
1320
  8
0
 10
27.385260809972621
 20
14.08940210718297
 30
0.0
 40
0.0731728675050007
 50
353.23112056590571
 51
29.843644983595699
  0
ARC
  5
1321
  8
0
 10
27.50211440008313
 20
14.146018415122681
 30
0.0
 40
0.0570793780870316
 50
123.0853490677102
 51
200.72877776770511
  0
ARC
  5
1322
  8
0
 10
27.46685485364781
 20
14.216265222047451
 30
0.0
 40
0.0199999998465178
 50
304.61081353704162
 51
352.36798640546959
  0
LINE
  5
1323
  8
0
 10
27.478214835056519
 20
14.199804638300041
 30
0.0
 11
27.47095546780001
 21
14.19384284760001
 31
0.0
  0
ARC
  5
1324
  8
0
 10
27.5236698219001
 20
14.20829989200136
 30
0.0
 40
0.0373711806057957
 50
102.6542165181996
 51
171.8326601409214
  0
ARC
  5
1325
  8
0
 10
27.57876032397424
 20
13.994760553636601
 30
0.0
 40
0.257886406970796
 50
91.579618484641955
 51
104.2036301056859
  0
LINE
  5
1326
  8
0
 10
27.25061705329999
 20
13.847874302299999
 30
0.0
 11
27.254422040200001
 21
13.881939796699999
 31
0.0
  0
ARC
  5
1327
  8
0
 10
23.55373225395924
 20
11.319032356845531
 30
0.0
 40
4.2724477994336736
 50
25.934720324978912
 51
42.454729958307311
  0
ARC
  5
1328
  8
0
 10
24.191687522618089
 20
12.05048323364948
 30
0.0
 40
3.3098195222011522
 50
40.566677464434513
 51
78.220219343210445
  0
ARC
  5
1329
  8
0
 10
24.44961644949834
 20
13.05415559487018
 30
0.0
 40
2.2751265863577128
 50
79.418955843679754
 51
120.9564339836916
  0
ARC
  5
132A
  8
0
 10
25.21819893803282
 20
12.097770103409131
 30
0.0
 40
3.4946313279815451
 50
123.6980175262523
 51
143.8355682082294
  0
ARC
  5
132B
  8
0
 10
21.464580255552839
 20
14.92114321764004
 30
0.0
 40
1.2035729649462661
 50
302.02666276713001
 51
320.77040387948142
  0
ARC
  5
132C
  8
0
 10
22.126258406876531
 20
13.86580231901662
 30
0.0
 40
0.0420639806148551
 50
123.811250984704
 51
204.4574395870051
  0
ARC
  5
132D
  8
0
 10
22.19203975583045
 20
13.900357094128021
 30
0.0
 40
0.1163255321627315
 50
206.53621367988671
 51
266.36550296930159
  0
ARC
  5
132E
  8
0
 10
22.23914402639442
 20
13.757974732581911
 30
0.0
 40
0.0230084953642941
 50
49.49793749206578
 51
82.328375562986565
  0
LINE
  5
132F
  8
0
 10
22.1846657167
 20
13.7842655226
 30
0.0
 11
22.242215554400001
 21
13.7807772889
 31
0.0
  0
ARC
  5
1330
  8
0
 10
22.720131372378869
 20
14.344527425761431
 30
0.0
 40
0.7355428431269883
 50
230.68337620187799
 51
262.16351509212882
  0
ARC
  5
1331
  8
0
 10
22.612756667803801
 20
13.5774443337933
 30
0.0
 40
0.0390575002548308
 50
52.272864559969527
 51
79.547147739421916
  0
ARC
  5
1332
  8
0
 10
23.082500117390509
 20
14.149753952105851
 30
0.0
 40
0.7013630360780933
 50
230.52938895050599
 51
262.30580873448162
  0
ARC
  5
1333
  8
0
 10
22.986464147528171
 20
13.434461857410691
 30
0.0
 40
0.0203556988622878
 50
47.965146695254177
 51
83.983791716297546
  0
ARC
  5
1334
  8
0
 10
23.107053571896412
 20
13.50491235759883
 30
0.0
 40
0.1204239924419997
 50
207.35309734107619
 51
285.60401790988021
  0
ARC
  5
1335
  8
0
 10
23.115937271402299
 20
13.436973973116579
 30
0.0
 40
0.0534901965633455
 50
296.07185379222398
 51
354.3900249030583
  0
ARC
  5
1336
  8
0
 10
23.727569339386999
 20
13.4830577745218
 30
0.0
 40
0.5607507169153385
 50
163.39578760451411
 51
185.2502845423644
  0
ARC
  5
1337
  8
0
 10
24.13441720891203
 20
13.34483180551592
 30
0.0
 40
0.9902655065399574
 50
115.17973526410741
 51
162.45832601762129
  0
ARC
  5
1338
  8
0
 10
24.43930922853799
 20
12.988099107435159
 30
0.0
 40
1.448150824343982
 50
81.738392263554175
 51
120.09755073339279
  0
ARC
  5
1339
  8
0
 10
24.351345882421398
 20
12.394783787585951
 30
0.0
 40
2.047949407412589
 50
48.71545632867992
 51
81.688168758107551
  0
ARC
  5
133A
  8
0
 10
23.835670487757699
 20
11.8940366000224
 30
0.0
 40
2.7650638455675991
 50
13.14492513337113
 51
47.532024206571663
  0
ARC
  5
133B
  8
0
 10
23.112292451212991
 20
11.660133059139829
 30
0.0
 40
3.523249155990904
 50
352.52879794195451
 51
14.173854457621021
  0
ARC
  5
133C
  8
0
 10
23.4052071312164
 20
11.253078678023471
 30
0.0
 40
4.2910012695419182
 50
356.662852722742
 51
12.377326654712871
  0
ARC
  5
133D
  8
0
 10
23.288767790842059
 20
11.231319299552631
 30
0.0
 40
4.4093998846489129
 50
12.32918377256536
 51
34.619240732640371
  0
ARC
  5
133E
  8
0
 10
24.115188646386841
 20
11.952116797640381
 30
0.0
 40
3.3223421535639401
 50
32.376074725139532
 51
67.552626574813047
  0
ARC
  5
133F
  8
0
 10
24.441355332251909
 20
13.043882361168251
 30
0.0
 40
2.168359933828528
 50
89.932306281521448
 51
129.93879506406671
  0
ARC
  5
1340
  8
0
 10
24.426122755361209
 20
12.698714013259529
 30
0.0
 40
2.5135897552083
 50
67.605010874062174
 51
89.594382816926185
  0
ARC
  5
1341
  8
0
 10
25.463266066970512
 20
12.03186143998655
 30
0.0
 40
3.6028293370214381
 50
132.0678101385389
 51
144.18625002834611
  0
ARC
  5
1342
  8
0
 10
21.416231482876469
 20
14.91636130502007
 30
0.0
 40
1.3671855921450951
 50
307.63990264659009
 51
325.40263678934969
  0
ARC
  5
1343
  8
0
 10
22.283711559919698
 20
13.80099918384064
 30
0.0
 40
0.0461605346942451
 50
134.83137233732759
 51
205.98100902242771
  0
ARC
  5
1344
  8
0
 10
22.7488276641791
 20
13.62839291580644
 30
0.0
 40
0.1295930044731183
 50
161.23661616353641
 51
185.5525560995477
  0
ARC
  5
1345
  8
0
 10
41.441952350359323
 20
2.2302844143183229
 30
0.0
 40
22.020543566854052
 50
147.25229180180401
 51
148.7009144859426
  0
ARC
  5
1346
  8
0
 10
24.392772532297709
 20
13.08812401614091
 30
0.0
 40
1.8099642780979219
 50
116.3696180302871
 51
144.3863832383731
  0
ARC
  5
1347
  8
0
 10
24.453453445643611
 20
12.938428827102291
 30
0.0
 40
1.971072612078911
 50
81.506474854360874
 51
116.01725739757239
  0
ARC
  5
1348
  8
0
 10
24.364599790579831
 20
12.458375806631
 30
0.0
 40
2.4590427564210779
 50
54.896641836204338
 51
81.110919668298578
  0
ARC
  5
1349
  8
0
 10
23.962525242279721
 20
11.869433306021291
 30
0.0
 40
3.172095226536729
 50
34.19815056902307
 51
55.072383236566189
  0
ARC
  5
134A
  8
0
 10
23.327353404176542
 20
11.451501020042461
 30
0.0
 40
3.932362998266981
 50
19.193654161815271
 51
34.033049443865501
  0
ARC
  5
134B
  8
0
 10
23.720516840342452
 20
11.774416060088599
 30
0.0
 40
3.0861044207069019
 50
13.20526276821697
 51
32.55916854044996
  0
ARC
  5
134C
  8
0
 10
24.21728894599104
 20
12.1976348067783
 30
0.0
 40
2.441279048346618
 50
30.461551104887171
 51
61.044584521097534
  0
ARC
  5
134D
  8
0
 10
24.429369285179291
 20
12.614228643843241
 30
0.0
 40
1.974152376853721
 50
60.576859058874177
 51
95.985350481132642
  0
ARC
  5
1357
  8
0
 10
24.414361435254929
 20
13.04596098077516
 30
0.0
 40
1.54350203243189
 50
97.102473995051668
 51
140.87925704177641
  0
ARC
  5
1358
  8
0
 10
23.985156198018469
 20
13.396346802828409
 30
0.0
 40
0.9894391129488973
 50
140.93865315950819
 51
174.1176877497038
  0
ARC
  5
1359
  8
0
 10
22.92917729764498
 20
13.495013376800671
 30
0.0
 40
0.0718018435922479
 50
325.8488906793969
 51
2.1842133095077361
  0
LINE
  5
13ED
  8
0
 10
27.457923638699999
 20
14.080777615300009
 30
0.0
 11
27.685379189599999
 21
14.080777615300009
 31
0.0
  0
ARC
  5
143C
  8
0
 10
26.382912151514152
 20
10.12944571903242
 30
0.0
 40
0.0376295864090748
 50
159.1897273532262
 51
187.93454759980699
  0
LINE
  5
143D
  8
0
 10
26.347358083584759
 20
10.09536604318183
 30
0.0
 11
26.345642808228021
 21
10.124251385176469
 31
0.0
  0
ATTDEF
  5
1542
  8
DEFPOINTS
 10
27.085744951865738
 20
9.3314725005510812
 30
0.0
 40
0.001
  1
K-13491-4
  3

  2
MODELNUMBER
 70
     0
1001
ACDBATTR
1070
     0
1070
     1
  0
ATTDEF
  5
1543
  8
DEFPOINTS
 10
27.085744951865738
 20
9.3298058338844161
 30
0.0
 40
0.001
  1
KELSTON
  3

  2
TRADENAME
 70
     0
1001
ACDBATTR
1070
     0
1070
     1
  0
ATTDEF
  5
1544
  8
DEFPOINTS
 10
27.085744951865738
 20
9.3281391672177492
 30
0.0
 40
0.001
  1
BATHROOM SINK FAUCET
  3

  2
PRODUCT
 70
     0
1001
ACDBATTR
1070
     0
1070
     1
  0
ATTDEF
  5
1545
  8
DEFPOINTS
 10
27.085744951865738
 20
9.3264725005510858
 30
0.0
 40
0.001
  1
METAL
  3

  2
MATERIAL
 70
     0
1001
ACDBATTR
1070
     0
1070
     1
  0
LINE
  5
168B
  8
0
 10
23.013167612977441
 20
13.23331894717108
 30
0.0
 11
22.07561272937744
 21
13.64517483947108
 31
0.0
  0
ARC
  5
168F
  8
0
 10
23.019472711477441
 20
13.24693423407108
 30
0.0
 40
0.015000158
 50
245.15162165690001
 51
354.50910815259999
  0
ARC
  5
1690
  8
0
 10
22.081373727977439
 20
13.65902715777108
 30
0.0
 40
0.0150001365
 50
138.05366321049999
 51
247.41823851080011
  0
ARC
  5
169B
  8
0
 10
21.96420937420611
 20
13.772728676245769
 30
0.0
 40
0.1483068715491099
 50
315.64174114145322
 51
21.0172679944063
  0
ARC
  5
169D
  8
0
 10
23.208707010186519
 20
13.22802354488844
 30
0.0
 40
0.1751768067978627
 50
113.28949786080329
 51
174.2747406450527
  0
ENDSEC
  0
EOF
