  0
SECTION
  2
HEADER
  9
$ACADVER
  1
AC1009
  9
$INSBASE
 10
2880.3266121884048516
 20
169.5197572626410079
 30
0.0
  9
$EXTMIN
 10
2870.12174697133878
 20
168.3148071165383897
 30
0.0
  9
$EXTMAX
 10
2890.5314774054709233
 20
170.7251430416027915
 30
0.0
  9
$LIMMIN
 10
0.0
 20
0.0
  9
$LIMMAX
 10
11.6929133858000007
 20
8.2677165353999982
  9
$ORTHOMODE
 70
     0
  9
$REGENMODE
 70
     1
  9
$FILLMODE
 70
     1
  9
$QTEXTMODE
 70
     0
  9
$MIRRTEXT
 70
     0
  9
$DRAGMODE
 70
     2
  9
$LTSCALE
 40
0.6431102362
  9
$OSMODE
 70
  4095
  9
$ATTMODE
 70
     1
  9
$TEXTSIZE
 40
0.2
  9
$TRACEWID
 40
0.05
  9
$TEXTSTYLE
  7
STANDARD
  9
$CLAYER
  8
0
  9
$CELTYPE
  6
BYLAYER
  9
$CECOLOR
 62
   256
  9
$DIMSCALE
 40
1.0
  9
$DIMASZ
 40
0.1875
  9
$DIMEXO
 40
0.0625
  9
$DIMDLI
 40
0.4443307087
  9
$DIMRND
 40
0.0
  9
$DIMDLE
 40
0.0
  9
$DIMEXE
 40
0.125
  9
$DIMTP
 40
0.01
  9
$DIMTM
 40
0.01
  9
$DIMTXT
 40
2.0
  9
$DIMCEN
 40
0.1052362205
  9
$DIMTSZ
 40
0.0
  9
$DIMTOL
 70
     1
  9
$DIMLIM
 70
     0
  9
$DIMTIH
 70
     1
  9
$DIMTOH
 70
     1
  9
$DIMSE1
 70
     0
  9
$DIMSE2
 70
     0
  9
$DIMTAD
 70
     0
  9
$DIMZIN
 70
     0
  9
$DIMBLK
  1

  9
$DIMASO
 70
     1
  9
$DIMSHO
 70
     1
  9
$DIMPOST
  1
\X
  9
$DIMAPOST
  1

  9
$DIMALT
 70
     1
  9
$DIMALTD
 70
     2
  9
$DIMALTF
 40
25.3999999999999986
  9
$DIMLFAC
 40
1.0
  9
$DIMTOFL
 70
     0
  9
$DIMTVP
 40
0.0
  9
$DIMTIX
 70
     0
  9
$DIMSOXD
 70
     0
  9
$DIMSAH
 70
     0
  9
$DIMBLK1
  1

  9
$DIMBLK2
  1

  9
$DIMSTYLE
  2
STANDARD
  9
$DIMCLRD
 70
     0
  9
$DIMCLRE
 70
     0
  9
$DIMCLRT
 70
     0
  9
$DIMTFAC
 40
1.0
  9
$DIMGAP
 40
0.09
  9
$LUNITS
 70
     2
  9
$LUPREC
 70
     4
  9
$SKETCHINC
 40
0.1
  9
$FILLETRAD
 40
0.0
  9
$AUNITS
 70
     0
  9
$AUPREC
 70
     0
  9
$MENU
  1
.
  9
$ELEVATION
 40
0.0
  9
$PELEVATION
 40
0.0
  9
$THICKNESS
 40
0.0
  9
$LIMCHECK
 70
     0
  9
$BLIPMODE
 70
     0
  9
$CHAMFERA
 40
0.0
  9
$CHAMFERB
 40
0.0
  9
$SKPOLY
 70
     0
  9
$TDCREATE
 40
2458060.468368056230247
  9
$TDUPDATE
 40
2458781.6410995381884277
  9
$TDINDWG
 40
0.3735106366
  9
$TDUSRTIMER
 40
0.3735106366
  9
$USRTIMER
 70
     1
  9
$ANGBASE
 50
0.0
  9
$ANGDIR
 70
     0
  9
$PDMODE
 70
     0
  9
$PDSIZE
 40
0.3125
  9
$PLINEWID
 40
0.0
  9
$COORDS
 70
     1
  9
$SPLFRAME
 70
     0
  9
$SPLINETYPE
 70
     6
  9
$SPLINESEGS
 70
     8
  9
$ATTDIA
 70
     1
  9
$ATTREQ
 70
     1
  9
$HANDLING
 70
     1
  9
$HANDSEED
  5
630B
  9
$SURFTAB1
 70
     6
  9
$SURFTAB2
 70
     6
  9
$SURFTYPE
 70
     6
  9
$SURFU
 70
     6
  9
$SURFV
 70
     6
  9
$UCSNAME
  2

  9
$UCSORG
 10
0.0
 20
0.0
 30
0.0
  9
$UCSXDIR
 10
1.0
 20
0.0
 30
0.0
  9
$UCSYDIR
 10
0.0
 20
1.0
 30
0.0
  9
$PUCSNAME
  2

  9
$PUCSORG
 10
0.0
 20
0.0
 30
0.0
  9
$PUCSXDIR
 10
1.0
 20
0.0
 30
0.0
  9
$PUCSYDIR
 10
0.0
 20
1.0
 30
0.0
  9
$USERI1
 70
     0
  9
$USERI2
 70
     0
  9
$USERI3
 70
     0
  9
$USERI4
 70
     0
  9
$USERI5
 70
     0
  9
$USERR1
 40
0.0
  9
$USERR2
 40
0.0
  9
$USERR3
 40
0.0
  9
$USERR4
 40
0.0
  9
$USERR5
 40
0.0
  9
$WORLDVIEW
 70
     1
  9
$SHADEDGE
 70
     3
  9
$SHADEDIF
 70
    70
  9
$TILEMODE
 70
     1
  9
$MAXACTVP
 70
    64
  9
$PLIMCHECK
 70
     0
  9
$PEXTMIN
 10
1.0000000000000000E+20
 20
1.0000000000000000E+20
 30
1.0000000000000000E+20
  9
$PEXTMAX
 10
-1.0000000000000000E+20
 20
-1.0000000000000000E+20
 30
-1.0000000000000000E+20
  9
$PLIMMIN
 10
0.0
 20
0.0
  9
$PLIMMAX
 10
12.0
 20
9.0
  9
$UNITMODE
 70
     0
  9
$VISRETAIN
 70
     1
  9
$PLINEGEN
 70
     0
  9
$PSLTSCALE
 70
     1
  0
ENDSEC
  0
SECTION
  2
TABLES
  0
TABLE
  2
VPORT
 70
     1
  0
VPORT
  2
*ACTIVE
 70
     0
 10
0.0
 20
0.0
 11
1.0
 21
1.0
 12
0.0
 22
0.0
 13
0.0
 23
0.0
 14
1.0
 24
1.0
 15
0.0
 25
0.0
 16
0.0
 26
0.0
 36
58.2813430316824821
 17
2880.32666015625
 27
169.519966125488196
 37
0.0
 40
20.5513296283974007
 41
2.1209039548022588
 42
50.0
 43
0.0
 44
0.0
 50
0.0
 51
0.0
 71
     0
 72
   100
 73
     1
 74
     1
 75
     0
 76
     0
 77
     0
 78
     0
  0
ENDTAB
  0
TABLE
  2
LTYPE
 70
     2
  0
LTYPE
  2
CONTINUOUS
 70
     0
  3
Solid line
 72
    65
 73
     0
 40
0.0
  0
LTYPE
  2
PHANTOM2
 70
     0
  3
___ _ _ ___ _ _ ___ _ _ ___ _ _
 72
    65
 73
     6
 40
1.25
 49
0.625
 49
-0.125
 49
0.125
 49
-0.125
 49
0.125
 49
-0.125
  0
ENDTAB
  0
TABLE
  2
LAYER
 70
     2
  0
LAYER
  2
0
 70
     0
 62
   255
  6
CONTINUOUS
  0
LAYER
  2
DEFPOINTS
 70
     0
 62
     7
  6
CONTINUOUS
  0
ENDTAB
  0
TABLE
  2
STYLE
 70
     1
  0
STYLE
  2
STANDARD
 70
     0
 40
0.0
 41
0.8
 50
0.0
 71
     0
 42
0.2
  3
txt
  4

  0
ENDTAB
  0
TABLE
  2
VIEW
 70
     0
  0
ENDTAB
  0
TABLE
  2
UCS
 70
     0
  0
ENDTAB
  0
TABLE
  2
APPID
 70
     9
  0
APPID
  2
ACAD
 70
     0
  0
APPID
  2
ACAD_MLEADERVER
 70
     0
  0
APPID
  2
ACAD_EXEMPT_FROM_CAD_STANDARDS
 70
     0
  0
APPID
  2
ACAD_NAV_VCDISPLAY
 70
     0
  0
APPID
  2
ACAECLAYERSTANDARD
 70
     0
  0
APPID
  2
ACCMTRANSPARENCY
 70
     0
  0
APPID
  2
ACAD_DSTYLE_DIMJAG
 70
     0
  0
APPID
  2
ACAD_DSTYLE_DIMTALN
 70
     0
  0
APPID
  2
ACDBATTR
 70
     0
  0
ENDTAB
  0
TABLE
  2
DIMSTYLE
 70
     1
  0
DIMSTYLE
  2
STANDARD
 70
     0
  3

  4

  5

  6

  7

 40
1.0
 41
0.1875
 42
0.0625
 43
0.38
 44
0.125
 45
0.0
 46
0.0
 47
0.01
 48
0.01
140
0.15625
141
0.09
142
0.0
143
25.3999999999999986
144
1.0
145
0.0
146
1.0
147
0.09
 71
     1
 72
     0
 73
     1
 74
     1
 75
     0
 76
     0
 77
     0
 78
     4
170
     0
171
     2
172
     0
173
     0
174
     0
175
     0
176
     0
177
     0
178
     0
  0
ENDTAB
  0
ENDSEC
  0
SECTION
  2
BLOCKS
  0
BLOCK
  8
0
  2
$MODEL_SPACE
 70
     0
 10
0.0
 20
0.0
 30
0.0
  3
$MODEL_SPACE
  1

  0
ENDBLK
  5
21
  8
0
  0
BLOCK
 67
     1
  8
0
  2
$PAPER_SPACE
 70
     0
 10
0.0
 20
0.0
 30
0.0
  3
$PAPER_SPACE
  1

  0
ENDBLK
  5
1D
 67
     1
  8
0
  0
BLOCK
  8
0
  2
_CLOSED
 70
     0
 10
0.0
 20
0.0
 30
0.0
  3
_CLOSED
  1

  0
LINE
  5
57DF
  8
0
  6
BYBLOCK
 62
     0
 10
0.0
 20
0.0
 30
0.0
 11
-1.0
 21
0.1666666667
 31
0.0
  0
LINE
  5
57E0
  8
0
  6
BYBLOCK
 62
     0
 10
-1.0
 20
0.1666666667
 30
0.0
 11
-1.0
 21
-0.1666666667
 31
0.0
  0
LINE
  5
57E1
  8
0
  6
BYBLOCK
 62
     0
 10
-1.0
 20
-0.1666666667
 30
0.0
 11
0.0
 21
0.0
 31
0.0
  0
LINE
  5
57E2
  8
0
  6
BYBLOCK
 62
     0
 10
-1.0
 20
0.0
 30
0.0
 11
0.0
 21
0.0
 31
0.0
  0
ENDBLK
  5
57E3
  8
0
  6
BYBLOCK
 62
     0
  0
ENDSEC
  0
SECTION
  2
ENTITIES
  0
ATTDEF
  5
3930
  8
DEFPOINTS
 10
2880.3248991872819715
 20
169.5151572208758068
 30
0.0
 40
0.001
  1
K-13500
  3

  2
MODELNUMBER
 70
     0
1001
ACDBATTR
1070
     0
1070
     1
  0
ATTDEF
  5
3931
  8
DEFPOINTS
 10
2880.3248991872819715
 20
169.5134905542091133
 30
0.0
 40
0.001
  1
KELSTON
  3

  2
TRADENAME
 70
     0
1001
ACDBATTR
1070
     0
1070
     1
  0
ATTDEF
  5
3932
  8
DEFPOINTS
 10
2880.3248991872819715
 20
169.511823887542505
 30
0.0
 40
0.001
  1
TOWEL BAR
  3

  2
PRODUCT
 70
     0
1001
ACDBATTR
1070
     0
1070
     1
  0
ARC
  5
622E
  8
0
 10
2871.3266971174411992
 20
169.5197572626410079
 30
0.0
 40
1.1081843460086691
 50
16.4201261473747699
 51
343.6511574291134252
  0
ARC
  5
622F
  8
0
 10
2871.3266109250512272
 20
169.5204204803349057
 30
0.0
 40
0.887521048983649
 50
20.6227406384849594
 51
339.3770044034710054
  0
ARC
  5
6230
  8
0
 10
2871.3253420548990107
 20
169.5204186382815976
 30
0.0
 40
0.7887924637906544
 50
23.3470737144088289
 51
336.6529491532363068
  0
LINE
  5
6231
  8
0
 10
2870.852007963656888
 20
170.0055888013166907
 30
0.0
 11
2871.3193832711708637
 21
170.1991818987027898
 31
0.0
  0
ARC
  5
6232
  8
0
 10
2871.3267531092660647
 20
170.1813895270078092
 30
0.0
 40
0.0192583229821843
 50
67.4944276930547744
 51
112.4999901950015015
  0
LINE
  5
6233
  8
0
 10
2871.3341246807708558
 20
170.1991811806028068
 30
0.0
 11
2871.8029877036701691
 21
170.0048990699027911
 31
0.0
  0
ARC
  5
6234
  8
0
 10
2871.7969905712798209
 20
169.9904261284096947
 30
0.0
 40
0.0156662577653042
 50
17.5975894501302292
 51
67.4924186843633862
  0
LINE
  5
6235
  8
0
 10
2871.8119237012638223
 20
169.9951625047957862
 30
0.0
 11
2871.8850657011707881
 21
169.8330170574027989
 31
0.0
  0
ARC
  5
6236
  8
0
 10
2870.8579313235059089
 20
169.9892406087543861
 30
0.0
 40
0.0173882026662208
 50
109.9167209848182978
 51
160.0776379106955005
  0
LINE
  5
6237
  8
0
 10
2870.8415837142129021
 20
169.9951655781505906
 30
0.0
 11
2870.6479911623819135
 21
169.527792261435394
 31
0.0
  0
ARC
  5
6238
  8
0
 10
2870.6650291769110481
 20
169.5204188524471078
 30
0.0
 40
0.0185650504763011
 50
156.5988621874502087
 51
203.392751056382906
  0
LINE
  5
6239
  8
0
 10
2870.6479900832700878
 20
169.5130479375027903
 30
0.0
 11
2870.8415822909710187
 21
169.0456747595027878
 31
0.0
  0
ARC
  5
623A
  8
0
 10
2870.8593931594941751
 20
169.0530522589417046
 30
0.0
 40
0.0192783436924932
 50
202.4999893983836898
 51
242.5900194087917043
  0
LINE
  5
623B
  8
0
 10
2870.8505182885710383
 20
169.0359381945027906
 30
0.0
 11
2871.3193793675500274
 21
168.8416567981529113
 31
0.0
  0
ARC
  5
623C
  8
0
 10
2871.3267530276211801
 20
168.8598107293115049
 30
0.0
 40
0.0195942869062069
 50
247.8942751923596859
 51
292.1074258407637103
  0
LINE
  5
623D
  8
0
 10
2871.3341272266548003
 20
168.8416570170747093
 30
0.0
 11
2871.8014980285702222
 21
169.0352484630028016
 31
0.0
  0
ARC
  5
623E
  8
0
 10
2871.7941264499418139
 20
169.0530450169696053
 30
0.0
 40
0.0192628529706672
 50
292.5000126735338881
 51
337.4943460702301081
  0
LINE
  5
623F
  8
0
 10
2871.8119222780278506
 20
169.0456716861548898
 30
0.0
 11
2871.8850657011707881
 21
169.2078202070026975
 31
0.0
  0
ARC
  5
6240
  8
0
 10
2871.311209899511141
 20
169.6042813958102045
 30
0.0
 40
0.3764592499953989
 50
42.4765972869392385
 51
87.6275817634038958
  0
ARC
  5
6241
  8
0
 10
2871.3340711998539518
 20
169.6271123335309881
 30
0.0
 40
0.3533805910792002
 50
91.1800928373390178
 51
135.1150603791992069
  0
ARC
  5
6242
  8
0
 10
2871.3755938485242041
 20
169.5857528392745053
 30
0.0
 40
0.4119872298936111
 50
135.1147370155678118
 51
163.9003694512265952
  0
ARC
  5
6243
  8
0
 10
2871.8654609233490191
 20
169.444363395342009
 30
0.0
 40
0.9218506683287586
 50
163.9003694512265952
 51
175.2675601694299985
  0
ARC
  5
6244
  8
0
 10
2871.5287032073201772
 20
169.532008866997387
 30
0.0
 40
0.5820656165040906
 50
181.1409631665138988
 51
209.3351933082161054
  0
ARC
  5
6245
  8
0
 10
2871.3429833624159073
 20
169.418919925901406
 30
0.0
 40
0.3648357590674427
 50
208.1415808537817895
 51
247.6345681383328099
  0
ARC
  5
6246
  8
0
 10
2871.2869977312648189
 20
169.4714348645291011
 30
0.0
 40
0.4179755648279321
 50
287.2974331289157135
 51
316.2381899512525933
  0
ARC
  5
6247
  8
0
 10
2871.5813356450380525
 20
169.1895513185108939
 30
0.0
 40
0.0104303023106396
 50
316.2381899512525933
 51
2.85635929676276
  0
ARC
  5
6248
  8
0
 10
2871.5799419651721109
 20
169.8507661806029887
 30
0.0
 40
0.0118110235985913
 50
359.9999999987591082
 51
40.9054500567886521
  0
LINE
  5
6249
  8
0
 10
2871.5917529887701676
 20
169.8507661806027897
 30
0.0
 11
2871.5917529887701676
 21
169.1900710837028043
 31
0.0
  0
LINE
  5
624A
  8
0
 10
2871.5917529887701676
 20
169.8330170574027989
 30
0.0
 11
2889.0614713880390809
 21
169.8330170574027989
 31
0.0
  0
LINE
  5
624B
  8
0
 10
2889.0614713880390809
 20
169.2078202070026975
 30
0.0
 11
2871.5917529887701676
 21
169.2078202070026975
 31
0.0
  0
ARC
  5
624C
  8
0
 10
2871.3266971174411992
 20
169.5197572626410079
 30
0.0
 40
0.4556248585897126
 50
101.9935493689069972
 51
255.8269641748208016
  0
ARC
  5
624D
  8
0
 10
2871.3266971174411992
 20
169.5197572626410079
 30
0.0
 40
0.4556248585897126
 50
280.1441556291741222
 51
316.7930342406402247
  0
ARC
  5
624E
  8
0
 10
2871.3266971174411992
 20
169.5197572626410079
 30
0.0
 40
0.4556248585897126
 50
43.435602489860571
 51
79.6976902210771954
  0
LINE
  5
624F
  8
0
 10
2871.3315274074711851
 20
170.3091868503352941
 30
0.0
 11
2871.3267933091610757
 21
169.9804179724027904
 31
0.0
  0
LINE
  5
6250
  8
0
 10
2871.6484316783898976
 20
169.8423729536050928
 30
0.0
 11
2871.8871903289918919
 21
170.0740611835011009
 31
0.0
  0
LINE
  5
6251
  8
0
 10
2870.8710728428518451
 20
169.5204867622126983
 30
0.0
 11
2870.5365495911169091
 21
169.5204149165508909
 31
0.0
  0
LINE
  5
6252
  8
0
 10
2871.0050185346822218
 20
169.842428769220902
 30
0.0
 11
2870.7682801327700872
 21
170.0788768424887962
 31
0.0
  0
LINE
  5
6253
  8
0
 10
2871.0043416308872111
 20
169.1977619955125078
 30
0.0
 11
2870.7682809286279735
 21
168.9619596402069135
 31
0.0
  0
LINE
  5
6254
  8
0
 10
2871.3267495427089671
 20
169.0424283183336911
 30
0.0
 11
2871.3267530052530674
 21
168.7316274364087008
 31
0.0
  0
ARC
  5
6255
  8
0
 10
2871.3284627172620276
 20
169.1302035351741893
 30
0.0
 40
0.0877919339030504
 50
227.5035504760469109
 51
314.3425272630101972
  0
LINE
  5
6256
  8
0
 10
2871.6490936202208104
 20
169.1978030628542911
 30
0.0
 11
2871.8838066949269887
 21
168.9633631681784038
 31
0.0
  0
ARC
  5
6257
  8
0
 10
2871.3253420548990107
 20
169.5204186382815976
 30
0.0
 40
0.7887924637906539
 50
23.3470737144088289
 51
336.6529253237430908
  0
ARC
  5
6258
  8
0
 10
2871.3177949588221054
 20
169.4288258704646069
 30
0.0
 40
0.3685167917282746
 50
271.3929033873843082
 51
284.6945769806916928
  0
ARC
  5
6259
  8
0
 10
2871.3331687533218428
 20
169.4641962311877137
 30
0.0
 40
0.403829226540721
 50
251.3693285131658968
 51
269.0896862970856205
  0
ARC
  5
625A
  8
0
 10
2889.3268088746999638
 20
169.5197572626410079
 30
0.0
 40
1.1081843460086691
 50
196.3488425708864895
 51
163.5798738526252123
  0
ARC
  5
625B
  8
0
 10
2889.3268950670908453
 20
169.5204204803349057
 30
0.0
 40
0.887521048983649
 50
200.6229955965289946
 51
159.3772593615150015
  0
ARC
  5
625C
  8
0
 10
2889.3281639372421523
 20
169.5204186382815976
 30
0.0
 40
0.7887924637906544
 50
203.3470508467638069
 51
156.6529262855912066
  0
LINE
  5
625D
  8
0
 10
2889.8014980284838202
 20
170.0055888013166907
 30
0.0
 11
2889.3341227209712088
 21
170.1991818987027898
 31
0.0
  0
ARC
  5
625E
  8
0
 10
2889.3267528828750983
 20
170.1813895270078092
 30
0.0
 40
0.0192583229821843
 50
67.5000098049984985
 51
112.5055723069451972
  0
LINE
  5
625F
  8
0
 10
2889.3193813113698525
 20
170.1991811806028068
 30
0.0
 11
2888.8505182884709939
 21
170.0048990699027911
 31
0.0
  0
ARC
  5
6260
  8
0
 10
2888.8565154208608874
 20
169.9904261284096947
 30
0.0
 40
0.0156662577653042
 50
112.5075813156365996
 51
162.4024105498712913
  0
LINE
  5
6261
  8
0
 10
2888.841582290876886
 20
169.9951625047957862
 30
0.0
 11
2888.7684402909699202
 21
169.8330170574027989
 31
0.0
  0
ARC
  5
6262
  8
0
 10
2889.7955746686338898
 20
169.9892406087543861
 30
0.0
 40
0.0173882026662208
 50
19.9223620893044888
 51
70.0832790151816738
  0
LINE
  5
6263
  8
0
 10
2889.8119222779278061
 20
169.9951655781505906
 30
0.0
 11
2890.005514829760159
 21
169.527792261435394
 31
0.0
  0
ARC
  5
6264
  8
0
 10
2889.9884768152310244
 20
169.5204188524471078
 30
0.0
 40
0.0185650504763011
 50
336.607248943617094
 51
23.4011378125497984
  0
LINE
  5
6265
  8
0
 10
2890.0055159088710752
 20
169.5130479375027903
 30
0.0
 11
2889.8119237011701443
 21
169.0456747595027878
 31
0.0
  0
ARC
  5
6266
  8
0
 10
2889.794112832646988
 20
169.0530522589417046
 30
0.0
 40
0.0192783436924932
 50
297.4099805912082957
 51
337.5000106016162249
  0
LINE
  5
6267
  8
0
 10
2889.8029877035710342
 20
169.0359381945027906
 30
0.0
 11
2889.3341266245911356
 21
168.8416567981529113
 31
0.0
  0
ARC
  5
6268
  8
0
 10
2889.3267529645199829
 20
168.8598107293115049
 30
0.0
 40
0.0195942869062069
 50
247.8925741592362897
 51
292.1057248076403994
  0
LINE
  5
6269
  8
0
 10
2889.3193787654868174
 20
168.8416570170747093
 30
0.0
 11
2888.8520079635709408
 21
169.0352484630028016
 31
0.0
  0
ARC
  5
626A
  8
0
 10
2888.8593795421988943
 20
169.0530450169696053
 30
0.0
 40
0.0192628529706672
 50
202.5056539297700056
 51
247.4999873264661119
  0
LINE
  5
626B
  8
0
 10
2888.8415837141128577
 20
169.0456716861548898
 30
0.0
 11
2888.7684402909699202
 21
169.2078202070026975
 31
0.0
  0
ARC
  5
626C
  8
0
 10
2889.342296092630022
 20
169.6042813958102045
 30
0.0
 40
0.376459249995397
 50
92.3724182365961468
 51
137.5234027130618983
  0
ARC
  5
626D
  8
0
 10
2889.3194347922872112
 20
169.6271123335311017
 30
0.0
 40
0.3533805910791941
 50
44.8849396207996278
 51
88.8199071626609964
  0
ARC
  5
626E
  8
0
 10
2889.2779121436169589
 20
169.5857528392745053
 30
0.0
 40
0.4119872298936111
 50
16.099630548773419
 51
44.8852629844321882
  0
ARC
  5
626F
  8
0
 10
2888.7880450687930534
 20
169.444363395342009
 30
0.0
 40
0.9218506683287586
 50
4.7324398305700281
 51
16.099630548773419
  0
ARC
  5
6270
  8
0
 10
2889.1248027848209858
 20
169.532008866997387
 30
0.0
 40
0.5820656165040906
 50
330.6648066917838946
 51
358.8590368334860159
  0
ARC
  5
6271
  8
0
 10
2889.3105226297248009
 20
169.418919925901406
 30
0.0
 40
0.3648357590674427
 50
292.3654318616671048
 51
331.858419146218182
  0
ARC
  5
6272
  8
0
 10
2889.3665082608758894
 20
169.4714348645291011
 30
0.0
 40
0.4179755648279321
 50
223.7618100487474067
 51
252.7025668710844002
  0
ARC
  5
6273
  8
0
 10
2889.0739329201260261
 20
169.1906572900606136
 30
0.0
 40
0.0124753124149046
 50
182.6932810540604066
 51
221.8308968490811139
  0
ARC
  5
6274
  8
0
 10
2889.0759304398820859
 20
169.8493622754058094
 30
0.0
 40
0.0145270482204865
 50
141.021586672506487
 51
174.4542361289728092
  0
ARC
  5
6275
  8
0
 10
2889.3268088746999638
 20
169.5197572626410079
 30
0.0
 40
0.4556248585897126
 50
284.1730358251792268
 51
78.0064506310929318
  0
ARC
  5
6276
  8
0
 10
2889.3268088746999638
 20
169.5197572626410079
 30
0.0
 40
0.4556248585897126
 50
223.2069657593596901
 51
259.855844370825821
  0
ARC
  5
6277
  8
0
 10
2889.3268088746999638
 20
169.5197572626410079
 30
0.0
 40
0.4556248585897126
 50
100.3023097789228046
 51
136.5643975101394005
  0
LINE
  5
6278
  8
0
 10
2889.3219785846699779
 20
170.3091868503352941
 30
0.0
 11
2889.3267126829800873
 21
169.9804179724027904
 31
0.0
  0
LINE
  5
6279
  8
0
 10
2889.0050743137508107
 20
169.8423729536050928
 30
0.0
 11
2888.7663156631488164
 21
170.0740611835011009
 31
0.0
  0
LINE
  5
627A
  8
0
 10
2889.7824331492888632
 20
169.5204867622126983
 30
0.0
 11
2890.1169564010237991
 21
169.5204149165508909
 31
0.0
  0
LINE
  5
627B
  8
0
 10
2889.6484874574598507
 20
169.842428769220902
 30
0.0
 11
2889.8852258593710758
 21
170.0788768424887962
 31
0.0
  0
LINE
  5
627C
  8
0
 10
2889.6491643612539519
 20
169.1977619955125078
 30
0.0
 11
2889.8852250635131895
 21
168.9619596402069135
 31
0.0
  0
LINE
  5
627D
  8
0
 10
2889.326756449432196
 20
169.0424283183336911
 30
0.0
 11
2889.3267529868871861
 21
168.7316274364087008
 31
0.0
  0
ARC
  5
627E
  8
0
 10
2889.3250432748800449
 20
169.1302035351741893
 30
0.0
 40
0.0877919339030504
 50
225.6574727369898028
 51
312.4964495239531175
  0
LINE
  5
627F
  8
0
 10
2889.0044123719198979
 20
169.1978030628542911
 30
0.0
 11
2888.7696992972141743
 21
168.9633631681784038
 31
0.0
  0
ARC
  5
6280
  8
0
 10
2889.3281639372421523
 20
169.5204186382815976
 30
0.0
 40
0.7887924637906539
 50
203.3470746762569092
 51
156.6529262855912066
  0
ARC
  5
6281
  8
0
 10
2889.3357110333190576
 20
169.4288258704646069
 30
0.0
 40
0.3685167917282746
 50
255.3054230193083072
 51
268.6070966126155781
  0
ARC
  5
6282
  8
0
 10
2889.3203372388188654
 20
169.4641962311877137
 30
0.0
 40
0.403829226540721
 50
270.9103137029143795
 51
288.6306714868339895
  0
ARC
  5
6283
  8
0
 10
2889.3267529960698994
 20
169.5204186322027908
 30
0.0
 40
1.2047244094
 50
195.0390388151431864
 51
164.9609611848566999
  0
ARC
  5
6284
  8
0
 10
2871.3266971174411992
 20
169.5197572626410079
 30
0.0
 40
1.2049501461026191
 50
15.0687205865317804
 51
344.9964058816743773
  0
LINE
  5
6286
  8
0
 10
2889.0614713880390809
 20
169.8507661806027897
 30
0.0
 11
2889.0614713880390809
 21
169.1900710837028043
 31
0.0
  0
ENDSEC
  0
EOF
