  0
SECTION
  2
HEADER
  9
$ACADVER
  1
AC1009
  9
$INSBASE
 10
2918.812651461104906
 20
176.607903723257408
 30
0.0
  9
$EXTMIN
 10
2908.6077862440388344
 20
172.6799036499594138
 30
0.0
  9
$EXTMAX
 10
2929.0175166781709777
 20
176.6134968230844038
 30
0.0
  9
$LIMMIN
 10
0.0
 20
0.0
  9
$LIMMAX
 10
11.6929133858000007
 20
8.2677165353999982
  9
$ORTHOMODE
 70
     0
  9
$REGENMODE
 70
     1
  9
$FILLMODE
 70
     1
  9
$QTEXTMODE
 70
     0
  9
$MIRRTEXT
 70
     0
  9
$DRAGMODE
 70
     2
  9
$LTSCALE
 40
0.6431102362
  9
$OSMODE
 70
  4095
  9
$ATTMODE
 70
     1
  9
$TEXTSIZE
 40
0.2
  9
$TRACEWID
 40
0.05
  9
$TEXTSTYLE
  7
STANDARD
  9
$CLAYER
  8
0
  9
$CELTYPE
  6
BYLAYER
  9
$CECOLOR
 62
   256
  9
$DIMSCALE
 40
1.0
  9
$DIMASZ
 40
0.1875
  9
$DIMEXO
 40
0.0625
  9
$DIMDLI
 40
0.4443307087
  9
$DIMRND
 40
0.0
  9
$DIMDLE
 40
0.0
  9
$DIMEXE
 40
0.125
  9
$DIMTP
 40
0.01
  9
$DIMTM
 40
0.01
  9
$DIMTXT
 40
2.0
  9
$DIMCEN
 40
0.1052362205
  9
$DIMTSZ
 40
0.0
  9
$DIMTOL
 70
     1
  9
$DIMLIM
 70
     0
  9
$DIMTIH
 70
     1
  9
$DIMTOH
 70
     1
  9
$DIMSE1
 70
     0
  9
$DIMSE2
 70
     0
  9
$DIMTAD
 70
     0
  9
$DIMZIN
 70
     0
  9
$DIMBLK
  1

  9
$DIMASO
 70
     1
  9
$DIMSHO
 70
     1
  9
$DIMPOST
  1
\X
  9
$DIMAPOST
  1

  9
$DIMALT
 70
     1
  9
$DIMALTD
 70
     2
  9
$DIMALTF
 40
25.3999999999999986
  9
$DIMLFAC
 40
1.0
  9
$DIMTOFL
 70
     0
  9
$DIMTVP
 40
0.0
  9
$DIMTIX
 70
     0
  9
$DIMSOXD
 70
     0
  9
$DIMSAH
 70
     0
  9
$DIMBLK1
  1

  9
$DIMBLK2
  1

  9
$DIMSTYLE
  2
STANDARD
  9
$DIMCLRD
 70
     0
  9
$DIMCLRE
 70
     0
  9
$DIMCLRT
 70
     0
  9
$DIMTFAC
 40
1.0
  9
$DIMGAP
 40
0.09
  9
$LUNITS
 70
     2
  9
$LUPREC
 70
     4
  9
$SKETCHINC
 40
0.1
  9
$FILLETRAD
 40
0.0
  9
$AUNITS
 70
     0
  9
$AUPREC
 70
     0
  9
$MENU
  1
.
  9
$ELEVATION
 40
0.0
  9
$PELEVATION
 40
0.0
  9
$THICKNESS
 40
0.0
  9
$LIMCHECK
 70
     0
  9
$BLIPMODE
 70
     0
  9
$CHAMFERA
 40
0.0
  9
$CHAMFERB
 40
0.0
  9
$SKPOLY
 70
     0
  9
$TDCREATE
 40
2458060.468368056230247
  9
$TDUPDATE
 40
2458781.6361226849257946
  9
$TDINDWG
 40
0.3590805903
  9
$TDUSRTIMER
 40
0.3590805903
  9
$USRTIMER
 70
     1
  9
$ANGBASE
 50
0.0
  9
$ANGDIR
 70
     0
  9
$PDMODE
 70
     0
  9
$PDSIZE
 40
0.3125
  9
$PLINEWID
 40
0.0
  9
$COORDS
 70
     1
  9
$SPLFRAME
 70
     0
  9
$SPLINETYPE
 70
     6
  9
$SPLINESEGS
 70
     8
  9
$ATTDIA
 70
     1
  9
$ATTREQ
 70
     1
  9
$HANDLING
 70
     1
  9
$HANDSEED
  5
6A3C
  9
$SURFTAB1
 70
     6
  9
$SURFTAB2
 70
     6
  9
$SURFTYPE
 70
     6
  9
$SURFU
 70
     6
  9
$SURFV
 70
     6
  9
$UCSNAME
  2

  9
$UCSORG
 10
0.0
 20
0.0
 30
0.0
  9
$UCSXDIR
 10
1.0
 20
0.0
 30
0.0
  9
$UCSYDIR
 10
0.0
 20
1.0
 30
0.0
  9
$PUCSNAME
  2

  9
$PUCSORG
 10
0.0
 20
0.0
 30
0.0
  9
$PUCSXDIR
 10
1.0
 20
0.0
 30
0.0
  9
$PUCSYDIR
 10
0.0
 20
1.0
 30
0.0
  9
$USERI1
 70
     0
  9
$USERI2
 70
     0
  9
$USERI3
 70
     0
  9
$USERI4
 70
     0
  9
$USERI5
 70
     0
  9
$USERR1
 40
0.0
  9
$USERR2
 40
0.0
  9
$USERR3
 40
0.0
  9
$USERR4
 40
0.0
  9
$USERR5
 40
0.0
  9
$WORLDVIEW
 70
     1
  9
$SHADEDGE
 70
     3
  9
$SHADEDIF
 70
    70
  9
$TILEMODE
 70
     1
  9
$MAXACTVP
 70
    64
  9
$PLIMCHECK
 70
     0
  9
$PEXTMIN
 10
1.0000000000000000E+20
 20
1.0000000000000000E+20
 30
1.0000000000000000E+20
  9
$PEXTMAX
 10
-1.0000000000000000E+20
 20
-1.0000000000000000E+20
 30
-1.0000000000000000E+20
  9
$PLIMMIN
 10
0.0
 20
0.0
  9
$PLIMMAX
 10
12.0
 20
9.0
  9
$UNITMODE
 70
     0
  9
$VISRETAIN
 70
     1
  9
$PLINEGEN
 70
     0
  9
$PSLTSCALE
 70
     1
  0
ENDSEC
  0
SECTION
  2
TABLES
  0
TABLE
  2
VPORT
 70
     1
  0
VPORT
  2
*ACTIVE
 70
     0
 10
0.0
 20
0.0
 11
1.0
 21
1.0
 12
0.0
 22
0.0
 13
0.0
 23
0.0
 14
1.0
 24
1.0
 15
0.0
 25
0.0
 16
0.0
 26
0.0
 36
58.9454710179380967
 17
2918.8126220703120453
 27
174.646698973065611
 37
0.0
 40
20.7855162900459511
 41
2.1209039548022588
 42
50.0
 43
0.0
 44
0.0
 50
0.0
 51
0.0
 71
     0
 72
   100
 73
     1
 74
     1
 75
     0
 76
     0
 77
     0
 78
     0
  0
ENDTAB
  0
TABLE
  2
LTYPE
 70
     2
  0
LTYPE
  2
CONTINUOUS
 70
     0
  3
Solid line
 72
    65
 73
     0
 40
0.0
  0
LTYPE
  2
PHANTOM2
 70
     0
  3
___ _ _ ___ _ _ ___ _ _ ___ _ _
 72
    65
 73
     6
 40
1.25
 49
0.625
 49
-0.125
 49
0.125
 49
-0.125
 49
0.125
 49
-0.125
  0
ENDTAB
  0
TABLE
  2
LAYER
 70
     2
  0
LAYER
  2
0
 70
     0
 62
   255
  6
CONTINUOUS
  0
LAYER
  2
DEFPOINTS
 70
     0
 62
     7
  6
CONTINUOUS
  0
ENDTAB
  0
TABLE
  2
STYLE
 70
     1
  0
STYLE
  2
STANDARD
 70
     0
 40
0.0
 41
0.8
 50
0.0
 71
     0
 42
0.2
  3
txt
  4

  0
ENDTAB
  0
TABLE
  2
VIEW
 70
     0
  0
ENDTAB
  0
TABLE
  2
UCS
 70
     0
  0
ENDTAB
  0
TABLE
  2
APPID
 70
     9
  0
APPID
  2
ACAD
 70
     0
  0
APPID
  2
ACAD_MLEADERVER
 70
     0
  0
APPID
  2
ACAD_EXEMPT_FROM_CAD_STANDARDS
 70
     0
  0
APPID
  2
ACAD_NAV_VCDISPLAY
 70
     0
  0
APPID
  2
ACAECLAYERSTANDARD
 70
     0
  0
APPID
  2
ACCMTRANSPARENCY
 70
     0
  0
APPID
  2
ACAD_DSTYLE_DIMJAG
 70
     0
  0
APPID
  2
ACAD_DSTYLE_DIMTALN
 70
     0
  0
APPID
  2
ACDBATTR
 70
     0
  0
ENDTAB
  0
TABLE
  2
DIMSTYLE
 70
     1
  0
DIMSTYLE
  2
STANDARD
 70
     0
  3

  4

  5

  6

  7

 40
1.0
 41
0.1875
 42
0.0625
 43
0.38
 44
0.125
 45
0.0
 46
0.0
 47
0.01
 48
0.01
140
0.15625
141
0.09
142
0.0
143
25.3999999999999986
144
1.0
145
0.0
146
1.0
147
0.09
 71
     1
 72
     0
 73
     1
 74
     1
 75
     0
 76
     0
 77
     0
 78
     4
170
     0
171
     2
172
     0
173
     0
174
     0
175
     0
176
     0
177
     0
178
     0
  0
ENDTAB
  0
ENDSEC
  0
SECTION
  2
BLOCKS
  0
BLOCK
  8
0
  2
$MODEL_SPACE
 70
     0
 10
0.0
 20
0.0
 30
0.0
  3
$MODEL_SPACE
  1

  0
ENDBLK
  5
21
  8
0
  0
BLOCK
 67
     1
  8
0
  2
$PAPER_SPACE
 70
     0
 10
0.0
 20
0.0
 30
0.0
  3
$PAPER_SPACE
  1

  0
ENDBLK
  5
1D
 67
     1
  8
0
  0
BLOCK
  8
0
  2
_CLOSED
 70
     0
 10
0.0
 20
0.0
 30
0.0
  3
_CLOSED
  1

  0
LINE
  5
57DF
  8
0
  6
BYBLOCK
 62
     0
 10
0.0
 20
0.0
 30
0.0
 11
-1.0
 21
0.1666666667
 31
0.0
  0
LINE
  5
57E0
  8
0
  6
BYBLOCK
 62
     0
 10
-1.0
 20
0.1666666667
 30
0.0
 11
-1.0
 21
-0.1666666667
 31
0.0
  0
LINE
  5
57E1
  8
0
  6
BYBLOCK
 62
     0
 10
-1.0
 20
-0.1666666667
 30
0.0
 11
0.0
 21
0.0
 31
0.0
  0
LINE
  5
57E2
  8
0
  6
BYBLOCK
 62
     0
 10
-1.0
 20
0.0
 30
0.0
 11
0.0
 21
0.0
 31
0.0
  0
ENDBLK
  5
57E3
  8
0
  6
BYBLOCK
 62
     0
  0
BLOCK
  8
0
  2
A$C2D0A3CA3
 70
     0
 10
0.0
 20
0.0
 30
0.0
  3
A$C2D0A3CA3
  1

  0
LINE
  5
5DF1
  8
0
 10
42.8615446502472466
 20
24.0958155314325992
 30
0.0
 11
45.2709934691472498
 21
24.0958155314325992
 31
0.0
  0
LINE
  5
5DF2
  8
0
 10
42.95830441064723
 20
23.9750678685326015
 30
0.0
 11
45.1742337081930785
 21
23.9750678685326015
 31
0.0
  0
ARC
  5
5DF3
  8
0
 10
42.8023307821426329
 20
23.6053515874269308
 30
0.0
 40
0.4012703593632391
 50
20.2159515069998506
 51
67.1263910617932282
  0
ARC
  5
5DF4
  8
0
 10
43.0613451602872104
 20
23.6999183421178188
 30
0.0
 40
0.1255359677083261
 50
13.7777528392708994
 51
20.5645251462087906
  0
ARC
  5
5DF5
  8
0
 10
43.2871270419195611
 20
23.7566001207854214
 30
0.0
 40
0.1072562104854697
 50
194.4612574630513961
 51
238.8814064723970887
  0
ARC
  5
5DF6
  8
0
 10
43.1804343905730121
 20
23.5807556219222398
 30
0.0
 40
0.0984251968823797
 50
358.8308606885046856
 51
58.6129793570431019
  0
LINE
  5
5DF7
  8
0
 10
43.2788390971472481
 20
23.5787473626326012
 30
0.0
 11
43.2764024418135378
 21
23.4592358357559405
 31
0.0
  0
ARC
  5
5DF8
  8
0
 10
43.299480130542662
 20
23.4583450193214205
 30
0.0
 40
0.023094875427197
 50
177.7894365828566094
 51
203.621078911094088
  0
ARC
  5
5DF9
  8
0
 10
41.6861343649504121
 20
22.8220298630281917
 30
0.0
 40
1.711216480524552
 50
356.3159637295203765
 51
21.4963445605491508
  0
ARC
  5
5DFA
  8
0
 10
-689.1937133096149637
 20
40.2250610897323213
 30
0.0
 40
732.7968278024984556
 50
358.6049531938435848
 51
358.6305677304163737
  0
ARC
  5
5DFB
  8
0
 10
44.4626960037858083
 20
22.3925243669277307
 30
0.0
 40
1.0768131955339371
 50
180.4232690044848084
 51
216.139885660469389
  0
ARC
  5
5DFC
  8
0
 10
43.5444346853335773
 20
21.7252423463636717
 30
0.0
 40
0.0583522977021552
 50
17.9741891236833915
 51
33.5180111352390426
  0
ARC
  5
5DFD
  8
0
 10
43.2526096422765818
 20
21.6511593196802892
 30
0.0
 40
0.3593303804895346
 50
0.1836887167905457
 51
14.8495576221371994
  0
ARC
  5
5DFE
  8
0
 10
48.9022312382817503
 20
21.4946380236464982
 30
0.0
 40
5.2926422089813103
 50
178.2928467564184132
 51
178.8846512564894908
  0
ARC
  5
5DFF
  8
0
 10
43.7127464555369087
 20
21.5956719324927988
 30
0.0
 40
0.1021740064896509
 50
178.8846512564896898
 51
225.0300421534670079
  0
ARC
  5
5E00
  8
0
 10
40.7185758788936312
 20
18.5983598145242901
 30
0.0
 40
4.1344446186118846
 50
43.4723734756704232
 51
45.0300421534670505
  0
ARC
  5
5E01
  8
0
 10
43.491180125311061
 20
21.2331950776506808
 30
0.0
 40
0.3096028541257104
 50
339.3336084463837778
 51
42.6300497863920071
  0
ARC
  5
5E02
  8
0
 10
43.8826573038893173
 20
21.0943021742148211
 30
0.0
 40
0.106020311437462
 50
163.7734016280494984
 51
242.7619083938118081
  0
ARC
  5
5E03
  8
0
 10
45.3316218627807928
 20
23.6039894182910288
 30
0.0
 40
0.403075982214528
 50
112.983604634113604
 51
159.7132692967225012
  0
ARC
  5
5E04
  8
0
 10
45.0596833351494865
 20
23.7035073160291816
 30
0.0
 40
0.1135052175466629
 50
159.2380730992325937
 51
166.5981219443700923
  0
ARC
  5
5E05
  8
0
 10
44.8451185805184522
 20
23.7565703312441698
 30
0.0
 40
0.1075320493459838
 50
301.129937608828925
 51
345.5930318996461779
  0
ARC
  5
5E06
  8
0
 10
44.951488602856692
 20
23.5809222331581303
 30
0.0
 40
0.0978137624224504
 50
121.2738934159851993
 51
181.2740658605100919
  0
LINE
  5
5E07
  8
0
 10
44.8536990223423118
 20
23.5787473625743011
 30
0.0
 11
44.856135678402687
 21
23.4592358378628099
 31
0.0
  0
ARC
  5
5E08
  8
0
 10
46.4440224126325489
 20
22.8213942815178115
 30
0.0
 40
1.7092343132180381
 50
158.4545803420047889
 51
183.6738631023862922
  0
ARC
  5
5E09
  8
0
 10
777.331144468672619
 20
40.001059886182361
 30
0.0
 40
732.796827802498683
 50
181.3519292270659093
 51
181.3775437636386982
  0
ARC
  5
5E0A
  8
0
 10
43.6693232549373107
 20
22.3926453095878699
 30
0.0
 40
1.0768117417813281
 50
323.8426589514363059
 51
359.5592401063470902
  0
ARC
  5
5E0B
  8
0
 10
44.5873827090000603
 20
21.7250816484199696
 30
0.0
 40
0.0583560343637671
 50
146.4636936455864031
 51
162.0080586008056969
  0
ARC
  5
5E0C
  8
0
 10
44.8791816315979872
 20
21.6509108724198605
 30
0.0
 40
0.3593303804895347
 50
165.1329393353452133
 51
179.7988082406918124
  0
ARC
  5
5E0D
  8
0
 10
39.2295124841882412
 20
21.4961154623895396
 30
0.0
 40
5.2926422089813112
 50
1.097845700992883
 51
1.689650201063839
  0
ARC
  5
5E0E
  8
0
 10
44.4190278892037682
 20
21.5955640530454396
 30
0.0
 40
0.1021740064896509
 50
314.9524548040153036
 51
1.097845700992679
  0
ARC
  5
5E0F
  8
0
 10
47.4122826900974417
 20
18.5973373985904793
 30
0.0
 40
4.1344446186118864
 50
134.9524548040153036
 51
136.5101234818120872
  0
ARC
  5
5E10
  8
0
 10
44.6377665658076097
 20
21.2343935971144688
 30
0.0
 40
0.3066746811295746
 50
137.1973793611822998
 51
201.1124025772101049
  0
ARC
  5
5E11
  8
0
 10
44.2464890213186877
 20
21.0957671387172105
 30
0.0
 40
0.1088930447099516
 50
298.4617494888236138
 51
14.9885757862429596
  0
LINE
  5
5E12
  8
0
 10
43.1832690597472535
 20
23.7298155314325996
 30
0.0
 11
44.9492690597472375
 21
23.7298155314325996
 31
0.0
  0
LINE
  5
5E13
  8
0
 10
43.5930837123472514
 20
21.7574644322325987
 30
0.0
 11
44.5387408587173397
 21
21.757321331230731
 31
0.0
  0
ARC
  5
5E14
  8
0
 10
43.5792116747872598
 20
23.4575046392638811
 30
0.0
 40
0.3028141816616651
 50
167.5525339435639864
 51
179.6724367653613967
  0
ARC
  5
5E15
  8
0
 10
43.3367919678653166
 20
23.527503512067991
 30
0.0
 40
0.0480918343990624
 50
87.7040939508266746
 51
140.6711234014190097
  0
ARC
  5
5E16
  8
0
 10
43.3698537538176012
 20
23.5046258187179298
 30
0.0
 40
0.0882251784533855
 50
142.7869301330526071
 51
168.1289947231909139
  0
ARC
  5
5E17
  8
0
 10
43.332074763045199
 20
23.4528393188070901
 30
0.0
 40
0.1228971342899516
 50
59.7414101559113035
 51
86.9010964214724737
  0
ARC
  5
5E18
  8
0
 10
43.1729204455045306
 20
23.1962559930247707
 30
0.0
 40
0.4248006783177701
 50
37.9874091960993709
 51
58.6383328483381234
  0
ARC
  5
5E19
  8
0
 10
43.753432600886498
 20
23.2576405223321316
 30
0.0
 40
0.3168629900173572
 50
107.4680732736784989
 51
140.844641305837996
  0
ARC
  5
5E1A
  8
0
 10
43.7604760465068523
 20
23.2352581798865216
 30
0.0
 40
0.3403274179788158
 50
89.2538768062416636
 51
107.468078038150793
  0
ARC
  5
5E1B
  8
0
 10
43.7589974937741175
 20
23.1217245927157187
 30
0.0
 40
0.4538706323689984
 50
70.0864436787850167
 51
89.2538768062416636
  0
ARC
  5
5E1C
  8
0
 10
43.7645647789749077
 20
23.13709268637162
 30
0.0
 40
0.4375252058794989
 50
55.6221710014815613
 51
70.0864436787850167
  0
ARC
  5
5E1D
  8
0
 10
43.4990393982227985
 20
22.7489805650487398
 30
0.0
 40
0.9077748699318043
 50
51.3282930459803879
 51
55.6221710014815613
  0
ARC
  5
5E1E
  8
0
 10
44.8330579896759502
 20
23.4583450213667284
 30
0.0
 40
0.023094875427197
 50
336.3789212417348722
 51
2.2105635699724622
  0
ARC
  5
5E1F
  8
0
 10
44.5533264454335978
 20
23.4575046405630516
 30
0.0
 40
0.3028141816616651
 50
0.327563387467662
 51
12.4474662092650004
  0
ARC
  5
5E20
  8
0
 10
44.795747626681738
 20
23.5275054405490884
 30
0.0
 40
0.0480894728538974
 50
39.3282146531568984
 51
92.2978738006483042
  0
ARC
  5
5E21
  8
0
 10
44.7626843662775613
 20
23.5046258205755301
 30
0.0
 40
0.0882251784533855
 50
11.8710054296381493
 51
37.2130700197764881
  0
ARC
  5
5E22
  8
0
 10
44.8004598125946103
 20
23.4528474849783315
 30
0.0
 40
0.122888296241215
 50
93.0975095807574604
 51
120.2590806229438982
  0
ARC
  5
5E23
  8
0
 10
44.9596177120314806
 20
23.1962559459650102
 30
0.0
 40
0.4248007395943877
 50
121.3616680512358954
 51
142.0125921511811953
  0
ARC
  5
5E24
  8
0
 10
44.3791056509626074
 20
23.2576407942024694
 30
0.0
 40
0.3168626921290607
 50
39.1553351437219987
 51
72.531934779557389
  0
ARC
  5
5E25
  8
0
 10
44.372062074306811
 20
23.2352581807021892
 30
0.0
 40
0.3403274179788158
 50
72.5319221146781246
 51
90.7461233465873391
  0
ARC
  5
5E26
  8
0
 10
44.373540627342372
 20
23.1217245935353297
 30
0.0
 40
0.4538706323689984
 50
90.7461233465873391
 51
109.9135564740440003
  0
ARC
  5
5E27
  8
0
 10
44.3679733421005906
 20
23.1370926871763913
 30
0.0
 40
0.4375252058794989
 50
109.9135564740440998
 51
124.3778291513474983
  0
ARC
  5
5E28
  8
0
 10
44.6334987238879535
 20
22.7489805665617517
 30
0.0
 40
0.9077748699318043
 50
124.3778291513474983
 51
128.671707106848487
  0
ARC
  5
5E29
  8
0
 10
43.531150887947021
 20
23.4704247389131808
 30
0.0
 40
0.0266508737752074
 50
208.480927969849489
 51
225.0852929709242005
  0
ARC
  5
5E2A
  8
0
 10
41.3560866556143267
 20
22.8305093606469711
 30
0.0
 40
2.2439019513751899
 50
356.9741025554728822
 51
16.0674583521809886
  0
LINE
  5
5E2B
  8
0
 10
43.5968601075472506
 20
22.7120597743326016
 30
0.0
 11
43.5935401592472473
 21
22.5527785633325983
 31
0.0
  0
ARC
  5
5E2C
  8
0
 10
47.1809904850467206
 20
22.3986294486696593
 30
0.0
 40
3.590760614358766
 50
177.5395717758061949
 51
182.0036005358269904
  0
ARC
  5
5E2D
  8
0
 10
44.7871898916570075
 20
22.3342523836225908
 30
0.0
 40
1.196329324271233
 50
182.9306128411814996
 51
204.374690568722599
  0
LINE
  5
5E2E
  8
0
 10
43.6974941210472494
 20
21.8405247465326013
 30
0.0
 11
43.7316854072157426
 21
21.7574434584140484
 31
0.0
  0
LINE
  5
5E2F
  8
0
 10
43.7336769132566516
 20
21.7527554650626804
 30
0.0
 11
43.7336774806472519
 21
21.7527540887326012
 31
0.0
  0
ARC
  5
5E30
  8
0
 10
43.8034821534540697
 20
23.5749494426492987
 30
0.0
 40
0.0385791645444612
 50
179.098033414341387
 51
196.3747217029790022
  0
ARC
  5
5E31
  8
0
 10
42.4244794377777694
 20
23.2194068355770611
 30
0.0
 40
1.3855424105167851
 50
6.7703995449432259
 51
14.4041009195041099
  0
ARC
  5
5E32
  8
0
 10
38.7428139317274329
 20
22.8280815028871906
 30
0.0
 40
5.0878706167635439
 50
358.9140498044644119
 51
6.2586968634347828
  0
LINE
  5
5E33
  8
0
 10
43.8297707138584371
 20
22.7316547967465503
 30
0.0
 11
43.826545413947251
 21
22.5516283901325991
 31
0.0
  0
ARC
  5
5E34
  8
0
 10
65.9777644729332451
 20
22.1547736941608306
 30
0.0
 40
22.1547737395103788
 50
178.9736155468895049
 51
179.6996180128431035
  0
ARC
  5
5E35
  8
0
 10
45.7415682067611797
 20
22.2608660554145388
 30
0.0
 40
1.918299369893715
 50
179.6996180128431035
 51
192.5878691768348858
  0
LINE
  5
5E36
  8
0
 10
43.8693791408449698
 20
21.8427983886446704
 30
0.0
 11
43.8856991436386892
 21
21.7574201523775415
 31
0.0
  0
ARC
  5
5E37
  8
0
 10
44.6013874343928265
 20
23.470424562423549
 30
0.0
 40
0.0266506051110385
 50
314.9146651087642113
 51
331.519148232809016
  0
ARC
  5
5E38
  8
0
 10
46.7764514632259889
 20
22.8305093606469711
 30
0.0
 40
2.2439019513751899
 50
163.9325416478189936
 51
183.0258974445270894
  0
LINE
  5
5E39
  8
0
 10
44.5356780112930721
 20
22.7120597743326016
 30
0.0
 11
44.5389979595930825
 21
22.5527785633325983
 31
0.0
  0
ARC
  5
5E3A
  8
0
 10
40.951547633793588
 20
22.3986294486696593
 30
0.0
 40
3.590760614358766
 50
357.9963994641728959
 51
2.4604282241937461
  0
ARC
  5
5E3B
  8
0
 10
43.3453482271833082
 20
22.3342523836225908
 30
0.0
 40
1.196329324271233
 50
335.625309431277401
 51
357.069387158818472
  0
LINE
  5
5E3C
  8
0
 10
44.4350439977930733
 20
21.8405247465326013
 30
0.0
 11
44.4008097095187608
 21
21.7573422035793484
 31
0.0
  0
ARC
  5
5E3D
  8
0
 10
44.3290559187800568
 20
23.5749494526029792
 30
0.0
 40
0.0385792120663405
 50
343.6252836274882156
 51
0.9019518839932006
  0
ARC
  5
5E3E
  8
0
 10
45.7080586810625533
 20
23.2194068355770611
 30
0.0
 40
1.3855424105167851
 50
165.5958990804959114
 51
173.2296004550566977
  0
ARC
  5
5E3F
  8
0
 10
49.3897241871128969
 20
22.8280815028871906
 30
0.0
 40
5.0878706167635439
 50
173.7413031365653069
 51
181.0859501955355029
  0
LINE
  5
5E40
  8
0
 10
44.3027674049818927
 20
22.7316547967465503
 30
0.0
 11
44.3059927048930717
 21
22.5516283901325991
 31
0.0
  0
ARC
  5
5E41
  8
0
 10
22.1547736459070812
 20
22.1547736941608306
 30
0.0
 40
22.1547737395103788
 50
0.3003819871568485
 51
1.0263844531104951
  0
ARC
  5
5E42
  8
0
 10
42.390969912079143
 20
22.2608660554145388
 30
0.0
 40
1.918299369893715
 50
347.4121308231651142
 51
0.3003819871569502
  0
LINE
  5
5E43
  8
0
 10
44.2631589779953529
 20
21.8427983886446704
 30
0.0
 11
44.2468293320312114
 21
21.7573655045678507
 31
0.0
  0
LINE
  5
5E44
  8
0
 10
43.7808604105388213
 20
21.1239281584429293
 30
0.0
 11
44.3516772429472397
 21
21.123929759632599
 31
0.0
  0
ARC
  5
5E45
  8
0
 10
43.8388187806976433
 20
21.0093765299348902
 30
0.0
 40
0.0104480184223866
 50
243.3532207272706103
 51
270.5957687136370282
  0
LINE
  5
5E46
  8
0
 10
43.838927418548117
 20
20.9989290763326011
 30
0.0
 11
44.2938279765472416
 21
20.9989290763326011
 31
0.0
  0
ARC
  5
5E47
  8
0
 10
44.2935532853129175
 20
21.0099963963860006
 30
0.0
 40
0.0110707284511278
 50
271.4217911532713856
 51
295.8735006548986917
  0
ARC
  5
5E48
  8
0
 10
45.0891580048931218
 20
24.0957964245959211
 30
0.0
 40
0.1818354652579776
 50
332.5868361060487928
 51
0.0060205033419358
  0
ARC
  5
5E49
  8
0
 10
45.1747841025426311
 20
24.0711718217385418
 30
0.0
 40
0.0961055292673053
 50
269.6718664792390996
 51
322.056980340230723
  0
ARC
  5
5E4A
  8
0
 10
43.0355527893150196
 20
24.0938878160570304
 30
0.0
 40
0.174018816650375
 50
179.3652857988033134
 51
208.0418588069306907
  0
ARC
  5
5E4B
  8
0
 10
42.9577540327234928
 20
24.0711718465933409
 30
0.0
 40
0.0961055540276258
 50
217.9430228309041979
 51
270.3281236433994081
  0
LINE
  5
5E4C
  8
0
 10
43.231695833647251
 20
23.6647781417326009
 30
0.0
 11
44.9007105710396814
 21
23.6645232116453705
 31
0.0
  0
LINE
  5
5E4D
  8
0
 10
44.0662690601101374
 20
23.4577158648291793
 30
0.0
 11
44.0662690596972482
 21
21.7573928277430291
 31
0.0
  0
ARC
  5
5E4E
  8
0
 10
43.8499999759050425
 20
20.9645760015992515
 30
0.0
 40
0.0344000397327193
 50
92.9942960771472826
 51
137.7325119310715991
  0
ARC
  5
5E4F
  8
0
 10
44.2181327378956226
 20
20.6299826161201594
 30
0.0
 40
0.5318680930358287
 50
137.7325119310715991
 51
180.2334510222063102
  0
ARC
  5
5E50
  8
0
 10
44.2453207263187878
 20
20.6300933938923912
 30
0.0
 40
0.5590563071407098
 50
180.2334510222061965
 51
213.2772013459581899
  0
ARC
  5
5E51
  8
0
 10
44.0660442941423085
 20
20.5124328792495199
 30
0.0
 40
0.3446174211149803
 50
213.2772013459581899
 51
270.0373693280332077
  0
ARC
  5
5E52
  8
0
 10
44.0660452152424966
 20
20.5110206209050787
 30
0.0
 40
0.3432051624701705
 50
270.0373693280328098
 51
319.851956305963995
  0
ARC
  5
5E53
  8
0
 10
44.3190241049323177
 20
20.2976298116951099
 30
0.0
 40
0.0122460168283216
 50
319.8519563059622897
 51
359.2428256972863778
  0
LINE
  5
5E54
  8
0
 10
44.3312690524472472
 20
20.2974679830326004
 30
0.0
 11
44.3312690523472526
 21
20.9581630799326
 31
0.0
  0
ARC
  5
5E55
  8
0
 10
44.3178440000782032
 20
20.9575611369524886
 30
0.0
 40
0.0134385402398449
 50
2.567268083965335
 51
43.5777750359280773
  0
ARC
  5
5E56
  8
0
 10
44.0339943425469613
 20
20.7111796584323891
 30
0.0
 40
0.3892899299003547
 50
41.048383502745672
 51
45.845242094591498
  0
ARC
  5
5E57
  8
0
 10
44.2840935752381597
 20
20.9684122033653288
 30
0.0
 40
0.030517828964659
 50
46.3118598942226569
 51
89.5464864163494809
  0
LINE
  5
5E58
  8
0
 10
63.2709934692472515
 20
24.0958155314325992
 30
0.0
 11
60.8615446503472484
 21
24.0958155314325992
 31
0.0
  0
LINE
  5
5E59
  8
0
 10
63.1742337088472681
 20
23.9750678685326015
 30
0.0
 11
60.9583044113014125
 21
23.9750678685326015
 31
0.0
  0
ARC
  5
5E5A
  8
0
 10
63.3302073373518581
 20
23.6053515874269308
 30
0.0
 40
0.4012703593632391
 50
112.8736089382067007
 51
159.7840484930001139
  0
ARC
  5
5E5B
  8
0
 10
63.0711929592072877
 20
23.6999183421178188
 30
0.0
 40
0.1255359677083261
 50
159.4354748537911917
 51
166.222247160729097
  0
ARC
  5
5E5C
  8
0
 10
62.8454110775749371
 20
23.7566001207854214
 30
0.0
 40
0.1072562104854697
 50
301.1185935276029113
 51
345.5387425369485186
  0
ARC
  5
5E5D
  8
0
 10
62.9521037289214931
 20
23.5807556219222398
 30
0.0
 40
0.0984251968823797
 50
121.3870206429568981
 51
181.1691393114952859
  0
LINE
  5
5E5E
  8
0
 10
62.85369902234725
 20
23.5787473626326012
 30
0.0
 11
62.8561356776809532
 21
23.4592358357559405
 31
0.0
  0
ARC
  5
5E5F
  8
0
 10
62.8330579889518503
 20
23.4583450193214205
 30
0.0
 40
0.023094875427197
 50
336.3789210889058268
 51
2.2105634171433519
  0
ARC
  5
5E60
  8
0
 10
64.4464037545440931
 20
22.8220298630281917
 30
0.0
 40
1.711216480524552
 50
158.5036554394507959
 51
183.684036270479595
  0
ARC
  5
5E61
  8
0
 10
795.3262514291094476
 20
40.2250610897323213
 30
0.0
 40
732.7968278024984556
 50
181.3694322695835126
 51
181.3950468061563868
  0
ARC
  5
5E62
  8
0
 10
61.6698421157086898
 20
22.3925243669277307
 30
0.0
 40
1.0768131955339371
 50
323.8601143395305826
 51
359.5767309955151063
  0
ARC
  5
5E63
  8
0
 10
62.5881034341609066
 20
21.7252423463636717
 30
0.0
 40
0.0583522977021552
 50
146.4819888647608934
 51
162.0258108763165978
  0
ARC
  5
5E64
  8
0
 10
62.8799284772179234
 20
21.6511593196802892
 30
0.0
 40
0.3593303804895346
 50
165.1504423778627881
 51
179.8163112832093873
  0
ARC
  5
5E65
  8
0
 10
57.2303068812127478
 20
21.4946380236464982
 30
0.0
 40
5.2926422089813103
 50
1.1153487435105209
 51
1.707153243581534
  0
ARC
  5
5E66
  8
0
 10
62.4197916639575823
 20
21.5956719324927988
 30
0.0
 40
0.1021740064896509
 50
314.9699578465329068
 51
1.1153487435103171
  0
ARC
  5
5E67
  8
0
 10
65.4139622406008669
 20
18.5983598145242901
 30
0.0
 40
4.1344446186118846
 50
134.9699578465329068
 51
136.5276265243294915
  0
ARC
  5
5E68
  8
0
 10
62.6413579941834371
 20
21.2331950776506808
 30
0.0
 40
0.3096028541257104
 50
137.3699502136080071
 51
200.6663915536161937
  0
ARC
  5
5E69
  8
0
 10
62.2498808156051808
 20
21.0943021742148211
 30
0.0
 40
0.106020311437462
 50
297.2380916061882203
 51
16.2265983719505194
  0
ARC
  5
5E6A
  8
0
 10
60.8009162567137125
 20
23.6039894182910288
 30
0.0
 40
0.403075982214528
 50
20.2867307032774988
 51
67.0163953658864102
  0
ARC
  5
5E6B
  8
0
 10
61.0728547843449974
 20
23.7035073160291816
 30
0.0
 40
0.1135052175466629
 50
13.4018780556299006
 51
20.7619269007673601
  0
ARC
  5
5E6C
  8
0
 10
61.2874195389760601
 20
23.7565703312441698
 30
0.0
 40
0.1075320493459838
 50
194.4069681003537085
 51
238.8700623911711034
  0
ARC
  5
5E6D
  8
0
 10
61.181049516637799
 20
23.5809222331581303
 30
0.0
 40
0.0978137624224504
 50
358.7259341394898797
 51
58.726106584014758
  0
LINE
  5
5E6E
  8
0
 10
61.2788390971521935
 20
23.5787473625743011
 30
0.0
 11
61.2764024410918111
 21
23.4592358378628099
 31
0.0
  0
ARC
  5
5E6F
  8
0
 10
59.6885157068619492
 20
22.8213942815178115
 30
0.0
 40
1.7092343132180381
 50
356.3261368976135941
 51
21.5454196579950583
  0
ARC
  5
5E70
  8
0
 10
-671.1986063491781351
 20
40.001059886182361
 30
0.0
 40
732.796827802498683
 50
358.6224562363613018
 51
358.6480707729340907
  0
ARC
  5
5E71
  8
0
 10
62.4632148645571874
 20
22.3926453095878699
 30
0.0
 40
1.0768117417813281
 50
180.4407598936529098
 51
216.1573410485638078
  0
ARC
  5
5E72
  8
0
 10
61.5451554104944378
 20
21.7250816484199696
 30
0.0
 40
0.0583560343637671
 50
17.9919413991942889
 51
33.5363063544135613
  0
ARC
  5
5E73
  8
0
 10
61.2533564878965109
 20
21.6509108724198605
 30
0.0
 40
0.3593303804895347
 50
0.2011917593082272
 51
14.8670606646547796
  0
ARC
  5
5E74
  8
0
 10
66.9030256353062498
 20
21.4961154623895396
 30
0.0
 40
5.2926422089813112
 50
178.310349798935988
 51
178.9021542990070941
  0
ARC
  5
5E75
  8
0
 10
61.7135102302907228
 20
21.5955640530454396
 30
0.0
 40
0.1021740064896509
 50
178.902154299007293
 51
225.0475451959846964
  0
ARC
  5
5E76
  8
0
 10
58.7202554293970493
 20
18.5973373985904793
 30
0.0
 40
4.1344446186118864
 50
43.4898765181879128
 51
45.0475451959846325
  0
ARC
  5
5E77
  8
0
 10
61.4947715536868813
 20
21.2343935971144688
 30
0.0
 40
0.3066746811295746
 50
338.8875974227900087
 51
42.8026206388177002
  0
ARC
  5
5E78
  8
0
 10
61.8860490981758105
 20
21.0957671387172105
 30
0.0
 40
0.1088930447099516
 50
165.0114242137570102
 51
241.5382505111763862
  0
LINE
  5
5E79
  8
0
 10
62.9492690597472517
 20
23.7298155314325996
 30
0.0
 11
61.1832690597472606
 21
23.7298155314325996
 31
0.0
  0
LINE
  5
5E7A
  8
0
 10
62.5394544071472467
 20
21.7574644322325987
 30
0.0
 11
61.5937972607771584
 21
21.757321331230731
 31
0.0
  0
ARC
  5
5E7B
  8
0
 10
62.5533264447072384
 20
23.4575046392638811
 30
0.0
 40
0.3028141816616651
 50
0.3275632346385431
 51
12.44746605643601
  0
ARC
  5
5E7C
  8
0
 10
62.7957461516291815
 20
23.527503512067991
 30
0.0
 40
0.0480918343990624
 50
39.3288765985810471
 51
92.2959060491733254
  0
ARC
  5
5E7D
  8
0
 10
62.7626843656768898
 20
23.5046258187179298
 30
0.0
 40
0.0882251784533855
 50
11.8710052768090506
 51
37.2130698669473787
  0
ARC
  5
5E7E
  8
0
 10
62.800463356449292
 20
23.4528393188070901
 30
0.0
 40
0.1228971342899516
 50
93.0989035785275263
 51
120.2585898440886041
  0
ARC
  5
5E7F
  8
0
 10
62.9596176739899605
 20
23.1962559930247707
 30
0.0
 40
0.4248006783177701
 50
121.361667151661905
 51
142.0125908039005935
  0
ARC
  5
5E80
  8
0
 10
62.3791055186080001
 20
23.2576405223321316
 30
0.0
 40
0.3168629900173572
 50
39.1553586941619471
 51
72.5319267263214442
  0
ARC
  5
5E81
  8
0
 10
62.3720620729876387
 20
23.2352581798865216
 30
0.0
 40
0.3403274179788158
 50
72.5319219618491786
 51
90.7461231937583364
  0
ARC
  5
5E82
  8
0
 10
62.3735406257203735
 20
23.1217245927157187
 30
0.0
 40
0.4538706323689984
 50
90.7461231937583364
 51
109.9135563212149975
  0
ARC
  5
5E83
  8
0
 10
62.3679733405195833
 20
23.13709268637162
 30
0.0
 40
0.4375252058794989
 50
109.9135563212149975
 51
124.377828998518396
  0
ARC
  5
5E84
  8
0
 10
62.6334987212716996
 20
22.7489805650487398
 30
0.0
 40
0.9077748699318043
 50
124.377828998518396
 51
128.6717069540196121
  0
ARC
  5
5E85
  8
0
 10
61.2994801298185479
 20
23.4583450213667284
 30
0.0
 40
0.023094875427197
 50
177.7894364300275072
 51
203.6210787582650994
  0
ARC
  5
5E86
  8
0
 10
61.5792116740609004
 20
23.4575046405630516
 30
0.0
 40
0.3028141816616651
 50
167.5525337907349979
 51
179.6724366125322945
  0
ARC
  5
5E87
  8
0
 10
61.336790492812753
 20
23.5275054405490884
 30
0.0
 40
0.0480894728538974
 50
87.7021261993517243
 51
140.6717853468429951
  0
ARC
  5
5E88
  8
0
 10
61.3698537532169368
 20
23.5046258205755301
 30
0.0
 40
0.0882251784533855
 50
142.7869299802235048
 51
168.1289945703618969
  0
ARC
  5
5E89
  8
0
 10
61.3320783068998878
 20
23.4528474849783315
 30
0.0
 40
0.122888296241215
 50
59.7409193770560805
 51
86.9024904192425254
  0
ARC
  5
5E8A
  8
0
 10
61.1729204074630175
 20
23.1962559459650102
 30
0.0
 40
0.4248007395943877
 50
37.9874078488188189
 51
58.6383319487640691
  0
ARC
  5
5E8B
  8
0
 10
61.7534324685318765
 20
23.2576407942024694
 30
0.0
 40
0.3168626921290607
 50
107.4680652204425968
 51
140.8446648562780013
  0
ARC
  5
5E8C
  8
0
 10
61.7604760451876871
 20
23.2352581807021892
 30
0.0
 40
0.3403274179788158
 50
89.2538766534126751
 51
107.4680778853219039
  0
ARC
  5
5E8D
  8
0
 10
61.758997492152119
 20
23.1217245935353297
 30
0.0
 40
0.4538706323689984
 50
70.0864435259559428
 51
89.2538766534126751
  0
ARC
  5
5E8E
  8
0
 10
61.7645647773939004
 20
23.1370926871763913
 30
0.0
 40
0.4375252058794989
 50
55.6221708486524165
 51
70.0864435259559428
  0
ARC
  5
5E8F
  8
0
 10
61.4990393956065518
 20
22.7489805665617517
 30
0.0
 40
0.9077748699318043
 50
51.3282928931511719
 51
55.6221708486523809
  0
ARC
  5
5E90
  8
0
 10
62.6013872315474771
 20
23.4704247389131808
 30
0.0
 40
0.0266508737752074
 50
314.9147070290757142
 51
331.5190720301504825
  0
ARC
  5
5E91
  8
0
 10
64.7764514638801643
 20
22.8305093606469711
 30
0.0
 40
2.2439019513751899
 50
163.9325416478189936
 51
183.0258974445270894
  0
LINE
  5
5E92
  8
0
 10
62.5356780119472475
 20
22.7120597743326016
 30
0.0
 11
62.5389979602472508
 21
22.5527785633325983
 31
0.0
  0
ARC
  5
5E93
  8
0
 10
58.9515476344477776
 20
22.3986294486696593
 30
0.0
 40
3.590760614358766
 50
357.9963994641728959
 51
2.4604282241937461
  0
ARC
  5
5E94
  8
0
 10
61.3453482278374906
 20
22.3342523836225908
 30
0.0
 40
1.196329324271233
 50
335.625309431277401
 51
357.069387158818472
  0
LINE
  5
5E95
  8
0
 10
62.4350439984472487
 20
21.8405247465326013
 30
0.0
 11
62.4008527122787484
 21
21.7574434584140484
 31
0.0
  0
LINE
  5
5E96
  8
0
 10
62.3988612062378465
 20
21.7527554650626804
 30
0.0
 11
62.3988606388472533
 21
21.7527540887326012
 31
0.0
  0
ARC
  5
5E97
  8
0
 10
62.3290559660404284
 20
23.5749494426492987
 30
0.0
 40
0.0385791645444612
 50
343.6252782970209978
 51
0.9019665856585731
  0
ARC
  5
5E98
  8
0
 10
63.7080586817167287
 20
23.2194068355770611
 30
0.0
 40
1.3855424105167851
 50
165.5958990804959114
 51
173.2296004550566977
  0
ARC
  5
5E99
  8
0
 10
67.3897241877670723
 20
22.8280815028871906
 30
0.0
 40
5.0878706167635439
 50
173.7413031365653069
 51
181.0859501955355029
  0
LINE
  5
5E9A
  8
0
 10
62.302767405636061
 20
22.7316547967465503
 30
0.0
 11
62.3059927055472471
 21
22.5516283901325991
 31
0.0
  0
ARC
  5
5E9B
  8
0
 10
40.1547736465612601
 20
22.1547736941608306
 30
0.0
 40
22.1547737395103788
 50
0.3003819871568485
 51
1.0263844531104951
  0
ARC
  5
5E9C
  8
0
 10
60.3909699127333184
 20
22.2608660554145388
 30
0.0
 40
1.918299369893715
 50
347.4121308231651142
 51
0.3003819871569502
  0
LINE
  5
5E9D
  8
0
 10
62.2631589786495283
 20
21.8427983886446704
 30
0.0
 11
62.2468389758558089
 21
21.7574201523775415
 31
0.0
  0
ARC
  5
5E9E
  8
0
 10
61.5311506851016716
 20
23.470424562423549
 30
0.0
 40
0.0266506051110385
 50
208.4808517671910124
 51
225.0853348912357035
  0
ARC
  5
5E9F
  8
0
 10
59.3560866562685092
 20
22.8305093606469711
 30
0.0
 40
2.2439019513751899
 50
356.9741025554728822
 51
16.0674583521809886
  0
LINE
  5
5EA0
  8
0
 10
61.5968601082014189
 20
22.7120597743326016
 30
0.0
 11
61.5935401599014227
 21
22.5527785633325983
 31
0.0
  0
ARC
  5
5EA1
  8
0
 10
65.180990485700903
 20
22.3986294486696593
 30
0.0
 40
3.590760614358766
 50
177.5395717758061949
 51
182.0036005358269051
  0
ARC
  5
5EA2
  8
0
 10
62.78718989231119
 20
22.3342523836225908
 30
0.0
 40
1.196329324271233
 50
182.9306128411814996
 51
204.374690568722599
  0
LINE
  5
5EA3
  8
0
 10
61.6974941217014319
 20
21.8405247465326013
 30
0.0
 11
61.7317284099757373
 21
21.7573422035793484
 31
0.0
  0
ARC
  5
5EA4
  8
0
 10
61.8034822007144271
 20
23.5749494526029792
 30
0.0
 40
0.0385792120663405
 50
179.0980481160067939
 51
196.3747163725118128
  0
ARC
  5
5EA5
  8
0
 10
60.4244794384319377
 20
23.2194068355770611
 30
0.0
 40
1.3855424105167851
 50
6.7703995449432259
 51
14.4041009195041099
  0
ARC
  5
5EA6
  8
0
 10
56.7428139323816012
 20
22.8280815028871906
 30
0.0
 40
5.0878706167635439
 50
358.9140498044644119
 51
6.2586968634346807
  0
LINE
  5
5EA7
  8
0
 10
61.8297707145126125
 20
22.7316547967465503
 30
0.0
 11
61.8265454146014193
 21
22.5516283901325991
 31
0.0
  0
ARC
  5
5EA8
  8
0
 10
83.9777644735874134
 20
22.1547736941608306
 30
0.0
 40
22.1547737395103788
 50
178.9736155468895049
 51
179.6996180128431035
  0
ARC
  5
5EA9
  8
0
 10
63.7415682074153622
 20
22.2608660554145388
 30
0.0
 40
1.918299369893715
 50
179.6996180128431035
 51
192.5878691768348858
  0
LINE
  5
5EAA
  8
0
 10
61.8693791414991523
 20
21.8427983886446704
 30
0.0
 11
61.8857087874632867
 21
21.7573655045678507
 31
0.0
  0
LINE
  5
5EAB
  8
0
 10
62.3516777089556768
 20
21.1239281584429293
 30
0.0
 11
61.7808608765472513
 21
21.123929759632599
 31
0.0
  0
ARC
  5
5EAC
  8
0
 10
62.293719338796862
 20
21.0093765299348902
 30
0.0
 40
0.0104480184223866
 50
269.4042312863629718
 51
296.6467792727290202
  0
LINE
  5
5EAD
  8
0
 10
62.2936107009463811
 20
20.9989290763326011
 30
0.0
 11
61.8387101429472494
 21
20.9989290763326011
 31
0.0
  0
ARC
  5
5EAE
  8
0
 10
61.8389848341815807
 20
21.0099963963860006
 30
0.0
 40
0.0110707284511278
 50
244.1264993451011946
 51
268.5782088467286144
  0
ARC
  5
5EAF
  8
0
 10
61.0355527903494632
 20
24.0938878116794299
 30
0.0
 40
0.1740188176332326
 50
179.3652843614202936
 51
208.0418590291891121
  0
ARC
  5
5EB0
  8
0
 10
60.957754016951867
 20
24.0711718217385418
 30
0.0
 40
0.0961055292673053
 50
217.9430196597693055
 51
270.3281335207606162
  0
ARC
  5
5EB1
  8
0
 10
63.0969853301794785
 20
24.0938878160570304
 30
0.0
 40
0.174018816650375
 50
331.9581411930693093
 51
0.6347142011966631
  0
ARC
  5
5EB2
  8
0
 10
63.1747840867710124
 20
24.0711718465933409
 30
0.0
 40
0.0961055540276258
 50
269.6718763566003076
 51
322.0569771690957168
  0
LINE
  5
5EB3
  8
0
 10
62.90084228584724
 20
23.6647781417326009
 30
0.0
 11
61.2318275484548167
 21
23.6645232116453705
 31
0.0
  0
LINE
  5
5EB4
  8
0
 10
62.0662690593843465
 20
23.4577158648291793
 30
0.0
 11
62.0662690597972428
 21
21.7573928277430291
 31
0.0
  0
ARC
  5
5EB5
  8
0
 10
62.2825381435894627
 20
20.9645760015992515
 30
0.0
 40
0.0344000397327193
 50
42.2674880689284933
 51
87.0057039228527032
  0
ARC
  5
5EB6
  8
0
 10
61.9144053815988684
 20
20.6299826161201594
 30
0.0
 40
0.5318680930358287
 50
359.7665489777937182
 51
42.2674880689284933
  0
ARC
  5
5EB7
  8
0
 10
61.8872173931757033
 20
20.6300933938923912
 30
0.0
 40
0.5590563071407098
 50
326.7227986540419238
 51
359.7665489777937751
  0
ARC
  5
5EB8
  8
0
 10
62.0664938253521825
 20
20.5124328792495199
 30
0.0
 40
0.3446174211149803
 50
269.9626306719666786
 51
326.7227986540418101
  0
ARC
  5
5EB9
  8
0
 10
62.0664929042520015
 20
20.5110206209050787
 30
0.0
 40
0.3432051624701705
 50
220.148043694036005
 51
269.9626306719666786
  0
ARC
  5
5EBA
  8
0
 10
61.8135140145621804
 20
20.2976298116951099
 30
0.0
 40
0.0122460168283216
 50
180.7571743027135938
 51
220.1480436940377103
  0
LINE
  5
5EBB
  8
0
 10
61.8012690670472509
 20
20.2974679830326004
 30
0.0
 11
61.8012690671472527
 21
20.9581630799326
 31
0.0
  0
ARC
  5
5EBC
  8
0
 10
61.814694119416302
 20
20.9575611369524886
 30
0.0
 40
0.0134385402398449
 50
136.4222249640718019
 51
177.4327319160346974
  0
ARC
  5
5EBD
  8
0
 10
62.0985437769475297
 20
20.7111796584323891
 30
0.0
 40
0.3892899299003547
 50
134.154757905408502
 51
138.9516164972542924
  0
ARC
  5
5EBE
  8
0
 10
61.8484445442563384
 20
20.9684122033653288
 30
0.0
 40
0.030517828964659
 50
90.4535135836505333
 51
133.6881401057773076
  0
LINE
  5
5EBF
  8
0
 10
44.3312690524472472
 20
20.9404139566326108
 30
0.0
 11
61.8012690670472509
 21
20.9404139566326108
 31
0.0
  0
LINE
  5
5EC0
  8
0
 10
44.3312690524472472
 20
20.3152171062325984
 30
0.0
 11
61.8012690670472509
 21
20.3152171062325984
 31
0.0
  0
LINE
  5
5EC1
  8
0
 62
     1
 10
53.0662690597472491
 20
20.9404139566326108
 30
0.0
 11
56.7026777318832771
 21
24.2947958226450602
 31
0.0
  0
ENDBLK
  5
5EC5
  8
0
  0
BLOCK
  8
0
  2
A$C641D51C8
 70
     0
 10
0.0
 20
0.0
 30
0.0
  3
A$C641D51C8
  1

  0
LINE
  5
606F
  8
0
 10
42.8615446502472466
 20
24.0958155314325992
 30
0.0
 11
45.2709934691472498
 21
24.0958155314325992
 31
0.0
  0
LINE
  5
6070
  8
0
 10
42.95830441064723
 20
23.9750678685326015
 30
0.0
 11
45.1742337081930785
 21
23.9750678685326015
 31
0.0
  0
ARC
  5
6071
  8
0
 10
42.8023307821426329
 20
23.6053515874269308
 30
0.0
 40
0.4012703593632391
 50
20.2159515069997617
 51
67.1263910617932709
  0
ARC
  5
6072
  8
0
 10
43.0613451602872104
 20
23.6999183421178188
 30
0.0
 40
0.1255359677083261
 50
13.7777528392710007
 51
20.5645251462087906
  0
ARC
  5
6073
  8
0
 10
43.2871270419195611
 20
23.7566001207854214
 30
0.0
 40
0.1072562104854697
 50
194.4612574630513961
 51
238.8814064723970887
  0
ARC
  5
6074
  8
0
 10
43.1804343905730121
 20
23.5807556219222398
 30
0.0
 40
0.0984251968823797
 50
358.830860688504572
 51
58.6129793570430309
  0
LINE
  5
6075
  8
0
 10
43.2788390971472481
 20
23.5787473626326012
 30
0.0
 11
43.2764024418135378
 21
23.4592358357559405
 31
0.0
  0
ARC
  5
6076
  8
0
 10
43.299480130542662
 20
23.4583450193214205
 30
0.0
 40
0.023094875427197
 50
177.7894365828566094
 51
203.621078911094088
  0
ARC
  5
6077
  8
0
 10
41.6861343649504121
 20
22.8220298630281917
 30
0.0
 40
1.711216480524552
 50
356.3159637295204902
 51
21.4963445605491508
  0
ARC
  5
6078
  8
0
 10
-689.1937133096149637
 20
40.2250610897323213
 30
0.0
 40
732.7968278024984556
 50
358.6049531938435848
 51
358.6305677304163737
  0
ARC
  5
6079
  8
0
 10
44.4626960037858083
 20
22.3925243669277307
 30
0.0
 40
1.0768131955339371
 50
180.4232690044848084
 51
216.1398856604695027
  0
ARC
  5
607A
  8
0
 10
43.5444346853335773
 20
21.7252423463636717
 30
0.0
 40
0.0583522977021552
 50
17.9741891236832991
 51
33.5180111352389503
  0
ARC
  5
607B
  8
0
 10
43.2526096422765818
 20
21.6511593196802892
 30
0.0
 40
0.3593303804895346
 50
0.1836887167905463
 51
14.8495576221371497
  0
ARC
  5
607C
  8
0
 10
48.9022312382817503
 20
21.4946380236464982
 30
0.0
 40
5.2926422089813103
 50
178.2928467564186121
 51
178.8846512564894908
  0
ARC
  5
607D
  8
0
 10
43.7127464555369087
 20
21.5956719324927988
 30
0.0
 40
0.1021740064896509
 50
178.8846512564896898
 51
225.0300421534670932
  0
ARC
  5
607E
  8
0
 10
40.7185758788936312
 20
18.5983598145242901
 30
0.0
 40
4.1344446186118846
 50
43.4723734756704232
 51
45.0300421534671216
  0
ARC
  5
607F
  8
0
 10
43.491180125311061
 20
21.2331950776506808
 30
0.0
 40
0.3096028541257104
 50
339.333608446383721
 51
42.6300497863919432
  0
ARC
  5
6080
  8
0
 10
43.8826573038893173
 20
21.0943021742148211
 30
0.0
 40
0.106020311437462
 50
163.7734016280494131
 51
242.7619083938118933
  0
ARC
  5
6081
  8
0
 10
45.3316218627807928
 20
23.6039894182910288
 30
0.0
 40
0.403075982214528
 50
112.9836046341135045
 51
159.7132692967225864
  0
ARC
  5
6082
  8
0
 10
45.0596833351494865
 20
23.7035073160291816
 30
0.0
 40
0.1135052175466629
 50
159.2380730992325084
 51
166.5981219443700923
  0
ARC
  5
6083
  8
0
 10
44.8451185805184522
 20
23.7565703312441698
 30
0.0
 40
0.1075320493459838
 50
301.129937608828925
 51
345.593031899646121
  0
ARC
  5
6084
  8
0
 10
44.951488602856692
 20
23.5809222331581303
 30
0.0
 40
0.0978137624224504
 50
121.2738934159851993
 51
181.2740658605100066
  0
LINE
  5
6085
  8
0
 10
44.8536990223423118
 20
23.5787473625743011
 30
0.0
 11
44.856135678402687
 21
23.4592358378628099
 31
0.0
  0
ARC
  5
6086
  8
0
 10
46.4440224126325489
 20
22.8213942815178115
 30
0.0
 40
1.7092343132180381
 50
158.4545803420047037
 51
183.6738631023862069
  0
ARC
  5
6087
  8
0
 10
777.331144468672619
 20
40.001059886182361
 30
0.0
 40
732.796827802498683
 50
181.3519292270659093
 51
181.3775437636386982
  0
ARC
  5
6088
  8
0
 10
43.6693232549373107
 20
22.3926453095878699
 30
0.0
 40
1.0768117417813281
 50
323.8426589514360785
 51
359.5592401063469765
  0
ARC
  5
6089
  8
0
 10
44.5873827090000603
 20
21.7250816484199696
 30
0.0
 40
0.0583560343637671
 50
146.4636936455862894
 51
162.0080586008056116
  0
ARC
  5
608A
  8
0
 10
44.8791816315979872
 20
21.6509108724198605
 30
0.0
 40
0.3593303804895347
 50
165.1329393353452133
 51
179.7988082406918124
  0
ARC
  5
608B
  8
0
 10
39.2295124841882412
 20
21.4961154623895396
 30
0.0
 40
5.2926422089813112
 50
1.0978457009927849
 51
1.689650201063839
  0
ARC
  5
608C
  8
0
 10
44.4190278892037682
 20
21.5955640530454396
 30
0.0
 40
0.1021740064896509
 50
314.9524548040151899
 51
1.0978457009925811
  0
ARC
  5
608D
  8
0
 10
47.4122826900974417
 20
18.5973373985904793
 30
0.0
 40
4.1344446186118864
 50
134.9524548040151899
 51
136.5101234818120872
  0
ARC
  5
608E
  8
0
 10
44.6377665658076097
 20
21.2343935971144688
 30
0.0
 40
0.3066746811295746
 50
137.1973793611821861
 51
201.1124025772099913
  0
ARC
  5
608F
  8
0
 10
44.2464890213186877
 20
21.0957671387172105
 30
0.0
 40
0.1088930447099516
 50
298.4617494888236138
 51
14.9885757862429596
  0
LINE
  5
6090
  8
0
 10
43.1832690597472535
 20
23.7298155314325996
 30
0.0
 11
44.9492690597472375
 21
23.7298155314325996
 31
0.0
  0
LINE
  5
6091
  8
0
 10
43.5930837123472514
 20
21.7574644322325987
 30
0.0
 11
44.5387408587173397
 21
21.757321331230731
 31
0.0
  0
ARC
  5
6092
  8
0
 10
43.5792116747872598
 20
23.4575046392638811
 30
0.0
 40
0.3028141816616651
 50
167.5525339435639864
 51
179.6724367653613967
  0
ARC
  5
6093
  8
0
 10
43.3367919678653166
 20
23.527503512067991
 30
0.0
 40
0.0480918343990624
 50
87.7040939508266746
 51
140.6711234014190097
  0
ARC
  5
6094
  8
0
 10
43.3698537538176012
 20
23.5046258187179298
 30
0.0
 40
0.0882251784533855
 50
142.7869301330526923
 51
168.1289947231909991
  0
ARC
  5
6095
  8
0
 10
43.332074763045199
 20
23.4528393188070901
 30
0.0
 40
0.1228971342899516
 50
59.7414101559113035
 51
86.9010964214724737
  0
ARC
  5
6096
  8
0
 10
43.1729204455045306
 20
23.1962559930247707
 30
0.0
 40
0.4248006783177701
 50
37.9874091960993709
 51
58.6383328483380595
  0
ARC
  5
6097
  8
0
 10
43.753432600886498
 20
23.2576405223321316
 30
0.0
 40
0.3168629900173572
 50
107.4680732736784989
 51
140.8446413058381097
  0
ARC
  5
6098
  8
0
 10
43.7604760465068523
 20
23.2352581798865216
 30
0.0
 40
0.3403274179788158
 50
89.2538768062416636
 51
107.468078038150793
  0
ARC
  5
6099
  8
0
 10
43.7589974937741175
 20
23.1217245927157187
 30
0.0
 40
0.4538706323689984
 50
70.0864436787850593
 51
89.2538768062416636
  0
ARC
  5
609A
  8
0
 10
43.7645647789749077
 20
23.13709268637162
 30
0.0
 40
0.4375252058794989
 50
55.6221710014815613
 51
70.0864436787850593
  0
ARC
  5
609B
  8
0
 10
43.4990393982227985
 20
22.7489805650487398
 30
0.0
 40
0.9077748699318043
 50
51.328293045980331
 51
55.6221710014815613
  0
ARC
  5
609C
  8
0
 10
44.8330579896759502
 20
23.4583450213667284
 30
0.0
 40
0.023094875427197
 50
336.3789212417348722
 51
2.2105635699725639
  0
ARC
  5
609D
  8
0
 10
44.5533264454335978
 20
23.4575046405630516
 30
0.0
 40
0.3028141816616651
 50
0.3275633874676609
 51
12.4474662092650998
  0
ARC
  5
609E
  8
0
 10
44.795747626681738
 20
23.5275054405490884
 30
0.0
 40
0.0480894728538974
 50
39.3282146531568984
 51
92.2978738006483042
  0
ARC
  5
609F
  8
0
 10
44.7626843662775613
 20
23.5046258205755301
 30
0.0
 40
0.0882251784533855
 50
11.8710054296380907
 51
37.2130700197764099
  0
ARC
  5
60A0
  8
0
 10
44.8004598125946103
 20
23.4528474849783315
 30
0.0
 40
0.122888296241215
 50
93.0975095807574604
 51
120.2590806229438982
  0
ARC
  5
60A1
  8
0
 10
44.9596177120314806
 20
23.1962559459650102
 30
0.0
 40
0.4248007395943877
 50
121.3616680512359949
 51
142.0125921511811953
  0
ARC
  5
60A2
  8
0
 10
44.3791056509626074
 20
23.2576407942024694
 30
0.0
 40
0.3168626921290607
 50
39.1553351437219987
 51
72.531934779557389
  0
ARC
  5
60A3
  8
0
 10
44.372062074306811
 20
23.2352581807021892
 30
0.0
 40
0.3403274179788158
 50
72.5319221146781246
 51
90.7461233465873391
  0
ARC
  5
60A4
  8
0
 10
44.373540627342372
 20
23.1217245935353297
 30
0.0
 40
0.4538706323689984
 50
90.7461233465873391
 51
109.9135564740440998
  0
ARC
  5
60A5
  8
0
 10
44.3679733421005906
 20
23.1370926871763913
 30
0.0
 40
0.4375252058794989
 50
109.9135564740440998
 51
124.3778291513475978
  0
ARC
  5
60A6
  8
0
 10
44.6334987238879535
 20
22.7489805665617517
 30
0.0
 40
0.9077748699318043
 50
124.3778291513475978
 51
128.6717071068484017
  0
ARC
  5
60A7
  8
0
 10
43.531150887947021
 20
23.4704247389131808
 30
0.0
 40
0.0266508737752074
 50
208.480927969849489
 51
225.0852929709243142
  0
ARC
  5
60A8
  8
0
 10
41.3560866556143267
 20
22.8305093606469711
 30
0.0
 40
2.2439019513751899
 50
356.9741025554729958
 51
16.0674583521809495
  0
LINE
  5
60A9
  8
0
 10
43.5968601075472506
 20
22.7120597743326016
 30
0.0
 11
43.5935401592472473
 21
22.5527785633325983
 31
0.0
  0
ARC
  5
60AA
  8
0
 10
47.1809904850467206
 20
22.3986294486696593
 30
0.0
 40
3.590760614358766
 50
177.5395717758063086
 51
182.0036005358269904
  0
ARC
  5
60AB
  8
0
 10
44.7871898916570075
 20
22.3342523836225908
 30
0.0
 40
1.196329324271233
 50
182.9306128411814996
 51
204.374690568722599
  0
LINE
  5
60AC
  8
0
 10
43.6974941210472494
 20
21.8405247465326013
 30
0.0
 11
43.7316854072157426
 21
21.7574434584140484
 31
0.0
  0
LINE
  5
60AD
  8
0
 10
43.7336769132566516
 20
21.7527554650626804
 30
0.0
 11
43.7336774806472519
 21
21.7527540887326012
 31
0.0
  0
ARC
  5
60AE
  8
0
 10
43.8034821534540697
 20
23.5749494426492987
 30
0.0
 40
0.0385791645444612
 50
179.098033414341387
 51
196.3747217029790022
  0
ARC
  5
60AF
  8
0
 10
42.4244794377777694
 20
23.2194068355770611
 30
0.0
 40
1.3855424105167851
 50
6.7703995449432259
 51
14.4041009195042093
  0
ARC
  5
60B0
  8
0
 10
38.7428139317274329
 20
22.8280815028871906
 30
0.0
 40
5.0878706167635439
 50
358.9140498044644119
 51
6.2586968634348619
  0
LINE
  5
60B1
  8
0
 10
43.8297707138584371
 20
22.7316547967465503
 30
0.0
 11
43.826545413947251
 21
22.5516283901325991
 31
0.0
  0
ARC
  5
60B2
  8
0
 10
65.9777644729332451
 20
22.1547736941608306
 30
0.0
 40
22.1547737395103788
 50
178.9736155468895049
 51
179.6996180128433025
  0
ARC
  5
60B3
  8
0
 10
45.7415682067611797
 20
22.2608660554145388
 30
0.0
 40
1.918299369893715
 50
179.6996180128431035
 51
192.5878691768348006
  0
LINE
  5
60B4
  8
0
 10
43.8693791408449698
 20
21.8427983886446704
 30
0.0
 11
43.8856991436386892
 21
21.7574201523775415
 31
0.0
  0
ARC
  5
60B5
  8
0
 10
44.6013874343928265
 20
23.470424562423549
 30
0.0
 40
0.0266506051110385
 50
314.9146651087642113
 51
331.5191482328089023
  0
ARC
  5
60B6
  8
0
 10
46.7764514632259889
 20
22.8305093606469711
 30
0.0
 40
2.2439019513751899
 50
163.9325416478189936
 51
183.0258974445272031
  0
LINE
  5
60B7
  8
0
 10
44.5356780112930721
 20
22.7120597743326016
 30
0.0
 11
44.5389979595930825
 21
22.5527785633325983
 31
0.0
  0
ARC
  5
60B8
  8
0
 10
40.951547633793588
 20
22.3986294486696593
 30
0.0
 40
3.590760614358766
 50
357.9963994641727822
 51
2.4604282241937372
  0
ARC
  5
60B9
  8
0
 10
43.3453482271833082
 20
22.3342523836225908
 30
0.0
 40
1.196329324271233
 50
335.625309431277401
 51
357.069387158818472
  0
LINE
  5
60BA
  8
0
 10
44.4350439977930733
 20
21.8405247465326013
 30
0.0
 11
44.4008097095187608
 21
21.7573422035793484
 31
0.0
  0
ARC
  5
60BB
  8
0
 10
44.3290559187800568
 20
23.5749494526029792
 30
0.0
 40
0.0385792120663405
 50
343.6252836274882156
 51
0.9019518839933024
  0
ARC
  5
60BC
  8
0
 10
45.7080586810625533
 20
23.2194068355770611
 30
0.0
 40
1.3855424105167851
 50
165.5958990804959967
 51
173.2296004550566977
  0
ARC
  5
60BD
  8
0
 10
49.3897241871128969
 20
22.8280815028871906
 30
0.0
 40
5.0878706167635439
 50
173.7413031365653069
 51
181.0859501955355029
  0
LINE
  5
60BE
  8
0
 10
44.3027674049818927
 20
22.7316547967465503
 30
0.0
 11
44.3059927048930717
 21
22.5516283901325991
 31
0.0
  0
ARC
  5
60BF
  8
0
 10
22.1547736459070812
 20
22.1547736941608306
 30
0.0
 40
22.1547737395103788
 50
0.3003819871567467
 51
1.0263844531104911
  0
ARC
  5
60C0
  8
0
 10
42.390969912079143
 20
22.2608660554145388
 30
0.0
 40
1.918299369893715
 50
347.4121308231652279
 51
0.3003819871569502
  0
LINE
  5
60C1
  8
0
 10
44.2631589779953529
 20
21.8427983886446704
 30
0.0
 11
44.2468293320312114
 21
21.7573655045678507
 31
0.0
  0
LINE
  5
60C2
  8
0
 10
43.7808604105388213
 20
21.1239281584429293
 30
0.0
 11
44.3516772429472397
 21
21.123929759632599
 31
0.0
  0
ARC
  5
60C3
  8
0
 10
43.8388187806976433
 20
21.0093765299348902
 30
0.0
 40
0.0104480184223866
 50
243.3532207272706103
 51
270.5957687136370282
  0
LINE
  5
60C4
  8
0
 10
43.838927418548117
 20
20.9989290763326011
 30
0.0
 11
44.2938279765472416
 21
20.9989290763326011
 31
0.0
  0
ARC
  5
60C5
  8
0
 10
44.2935532853129175
 20
21.0099963963860006
 30
0.0
 40
0.0110707284511278
 50
271.4217911532713856
 51
295.8735006548988054
  0
ARC
  5
60C6
  8
0
 10
45.0891580048931218
 20
24.0957964245959211
 30
0.0
 40
0.1818354652579776
 50
332.5868361060486791
 51
0.0060205033420376
  0
ARC
  5
60C7
  8
0
 10
45.1747841025426311
 20
24.0711718217385418
 30
0.0
 40
0.0961055292673053
 50
269.6718664792390996
 51
322.0569803402307798
  0
ARC
  5
60C8
  8
0
 10
43.0355527893150196
 20
24.0938878160570304
 30
0.0
 40
0.174018816650375
 50
179.3652857988033134
 51
208.0418588069308043
  0
ARC
  5
60C9
  8
0
 10
42.9577540327234928
 20
24.0711718465933409
 30
0.0
 40
0.0961055540276258
 50
217.9430228309041127
 51
270.3281236433994081
  0
LINE
  5
60CA
  8
0
 10
43.231695833647251
 20
23.6647781417326009
 30
0.0
 11
44.9007105710396814
 21
23.6645232116453705
 31
0.0
  0
LINE
  5
60CB
  8
0
 10
44.0662690601101374
 20
23.4577158648291793
 30
0.0
 11
44.0662690596972482
 21
21.7573928277430291
 31
0.0
  0
ARC
  5
60CC
  8
0
 10
43.8499999759050425
 20
20.9645760015992515
 30
0.0
 40
0.0344000397327193
 50
92.9942960771473111
 51
137.7325119310715991
  0
ARC
  5
60CD
  8
0
 10
44.2181327378956226
 20
20.6299826161201594
 30
0.0
 40
0.5318680930358287
 50
137.7325119310715991
 51
180.2334510222061965
  0
ARC
  5
60CE
  8
0
 10
44.2453207263187878
 20
20.6300933938923912
 30
0.0
 40
0.5590563071407098
 50
180.2334510222061965
 51
213.2772013459581899
  0
ARC
  5
60CF
  8
0
 10
44.0660442941423085
 20
20.5124328792495199
 30
0.0
 40
0.3446174211149803
 50
213.2772013459581899
 51
270.0373693280332077
  0
ARC
  5
60D0
  8
0
 10
44.0660452152424966
 20
20.5110206209050787
 30
0.0
 40
0.3432051624701705
 50
270.0373693280328098
 51
319.8519563059641087
  0
ARC
  5
60D1
  8
0
 10
44.3190241049323177
 20
20.2976298116951099
 30
0.0
 40
0.0122460168283216
 50
319.8519563059622897
 51
359.2428256972864915
  0
LINE
  5
60D2
  8
0
 10
44.3312690524472472
 20
20.2974679830326004
 30
0.0
 11
44.3312690523472526
 21
20.9581630799326
 31
0.0
  0
ARC
  5
60D3
  8
0
 10
44.3178440000782032
 20
20.9575611369524886
 30
0.0
 40
0.0134385402398449
 50
2.5672680839652329
 51
43.5777750359280773
  0
ARC
  5
60D4
  8
0
 10
44.0339943425469613
 20
20.7111796584323891
 30
0.0
 40
0.3892899299003547
 50
41.048383502745672
 51
45.845242094591498
  0
ARC
  5
60D5
  8
0
 10
44.2840935752381597
 20
20.9684122033653288
 30
0.0
 40
0.030517828964659
 50
46.311859894222593
 51
89.5464864163494809
  0
LINE
  5
60D6
  8
0
 10
63.2709934692472515
 20
24.0958155314325992
 30
0.0
 11
60.8615446503472484
 21
24.0958155314325992
 31
0.0
  0
LINE
  5
60D7
  8
0
 10
63.1742337088472681
 20
23.9750678685326015
 30
0.0
 11
60.9583044113014125
 21
23.9750678685326015
 31
0.0
  0
ARC
  5
60D8
  8
0
 10
63.3302073373518581
 20
23.6053515874269308
 30
0.0
 40
0.4012703593632391
 50
112.8736089382067007
 51
159.7840484930001992
  0
ARC
  5
60D9
  8
0
 10
63.0711929592072877
 20
23.6999183421178188
 30
0.0
 40
0.1255359677083261
 50
159.4354748537911917
 51
166.2222471607290117
  0
ARC
  5
60DA
  8
0
 10
62.8454110775749371
 20
23.7566001207854214
 30
0.0
 40
0.1072562104854697
 50
301.1185935276029113
 51
345.5387425369485186
  0
ARC
  5
60DB
  8
0
 10
62.9521037289214931
 20
23.5807556219222398
 30
0.0
 40
0.0984251968823797
 50
121.3870206429568981
 51
181.1691393114952007
  0
LINE
  5
60DC
  8
0
 10
62.85369902234725
 20
23.5787473626326012
 30
0.0
 11
62.8561356776809532
 21
23.4592358357559405
 31
0.0
  0
ARC
  5
60DD
  8
0
 10
62.8330579889518503
 20
23.4583450193214205
 30
0.0
 40
0.023094875427197
 50
336.3789210889059973
 51
2.2105634171433519
  0
ARC
  5
60DE
  8
0
 10
64.4464037545440931
 20
22.8220298630281917
 30
0.0
 40
1.711216480524552
 50
158.5036554394507959
 51
183.6840362704795098
  0
ARC
  5
60DF
  8
0
 10
795.3262514291094476
 20
40.2250610897323213
 30
0.0
 40
732.7968278024984556
 50
181.3694322695833989
 51
181.3950468061563868
  0
ARC
  5
60E0
  8
0
 10
61.6698421157086898
 20
22.3925243669277307
 30
0.0
 40
1.0768131955339371
 50
323.8601143395305257
 51
359.5767309955151063
  0
ARC
  5
60E1
  8
0
 10
62.5881034341609066
 20
21.7252423463636717
 30
0.0
 40
0.0583522977021552
 50
146.4819888647608934
 51
162.0258108763167115
  0
ARC
  5
60E2
  8
0
 10
62.8799284772179234
 20
21.6511593196802892
 30
0.0
 40
0.3593303804895346
 50
165.1504423778627881
 51
179.8163112832093873
  0
ARC
  5
60E3
  8
0
 10
57.2303068812127478
 20
21.4946380236464982
 30
0.0
 40
5.2926422089813103
 50
1.1153487435105209
 51
1.7071532435816359
  0
ARC
  5
60E4
  8
0
 10
62.4197916639575823
 20
21.5956719324927988
 30
0.0
 40
0.1021740064896509
 50
314.9699578465329068
 51
1.1153487435103171
  0
ARC
  5
60E5
  8
0
 10
65.4139622406008669
 20
18.5983598145242901
 30
0.0
 40
4.1344446186118846
 50
134.9699578465327932
 51
136.5276265243294915
  0
ARC
  5
60E6
  8
0
 10
62.6413579941834371
 20
21.2331950776506808
 30
0.0
 40
0.3096028541257104
 50
137.3699502136080071
 51
200.6663915536161085
  0
ARC
  5
60E7
  8
0
 10
62.2498808156051808
 20
21.0943021742148211
 30
0.0
 40
0.106020311437462
 50
297.2380916061881067
 51
16.2265983719505797
  0
ARC
  5
60E8
  8
0
 10
60.8009162567137125
 20
23.6039894182910288
 30
0.0
 40
0.403075982214528
 50
20.28673070327741
 51
67.0163953658864244
  0
ARC
  5
60E9
  8
0
 10
61.0728547843449974
 20
23.7035073160291816
 30
0.0
 40
0.1135052175466629
 50
13.4018780556298598
 51
20.7619269007674312
  0
ARC
  5
60EA
  8
0
 10
61.2874195389760601
 20
23.7565703312441698
 30
0.0
 40
0.1075320493459838
 50
194.4069681003537085
 51
238.8700623911711034
  0
ARC
  5
60EB
  8
0
 10
61.181049516637799
 20
23.5809222331581303
 30
0.0
 40
0.0978137624224504
 50
358.7259341394899934
 51
58.726106584014758
  0
LINE
  5
60EC
  8
0
 10
61.2788390971521935
 20
23.5787473625743011
 30
0.0
 11
61.2764024410918111
 21
23.4592358378628099
 31
0.0
  0
ARC
  5
60ED
  8
0
 10
59.6885157068619492
 20
22.8213942815178115
 30
0.0
 40
1.7092343132180381
 50
356.3261368976135941
 51
21.5454196579949695
  0
ARC
  5
60EE
  8
0
 10
-671.1986063491781351
 20
40.001059886182361
 30
0.0
 40
732.796827802498683
 50
358.6224562363613018
 51
358.6480707729340907
  0
ARC
  5
60EF
  8
0
 10
62.4632148645571874
 20
22.3926453095878699
 30
0.0
 40
1.0768117417813281
 50
180.4407598936527961
 51
216.1573410485638931
  0
ARC
  5
60F0
  8
0
 10
61.5451554104944378
 20
21.7250816484199696
 30
0.0
 40
0.0583560343637671
 50
17.9919413991943493
 51
33.5363063544136821
  0
ARC
  5
60F1
  8
0
 10
61.2533564878965109
 20
21.6509108724198605
 30
0.0
 40
0.3593303804895347
 50
0.2011917593082272
 51
14.8670606646547796
  0
ARC
  5
60F2
  8
0
 10
66.9030256353062498
 20
21.4961154623895396
 30
0.0
 40
5.2926422089813112
 50
178.3103497989359028
 51
178.9021542990072078
  0
ARC
  5
60F3
  8
0
 10
61.7135102302907228
 20
21.5955640530454396
 30
0.0
 40
0.1021740064896509
 50
178.9021542990072078
 51
225.0475451959848101
  0
ARC
  5
60F4
  8
0
 10
58.7202554293970493
 20
18.5973373985904793
 30
0.0
 40
4.1344446186118864
 50
43.4898765181879128
 51
45.0475451959846183
  0
ARC
  5
60F5
  8
0
 10
61.4947715536868813
 20
21.2343935971144688
 30
0.0
 40
0.3066746811295746
 50
338.8875974227900087
 51
42.8026206388177712
  0
ARC
  5
60F6
  8
0
 10
61.8860490981758105
 20
21.0957671387172105
 30
0.0
 40
0.1088930447099516
 50
165.0114242137570102
 51
241.5382505111763862
  0
LINE
  5
60F7
  8
0
 10
62.9492690597472517
 20
23.7298155314325996
 30
0.0
 11
61.1832690597472606
 21
23.7298155314325996
 31
0.0
  0
LINE
  5
60F8
  8
0
 10
62.5394544071472467
 20
21.7574644322325987
 30
0.0
 11
61.5937972607771584
 21
21.757321331230731
 31
0.0
  0
ARC
  5
60F9
  8
0
 10
62.5533264447072384
 20
23.4575046392638811
 30
0.0
 40
0.3028141816616651
 50
0.3275632346385444
 51
12.44746605643601
  0
ARC
  5
60FA
  8
0
 10
62.7957461516291815
 20
23.527503512067991
 30
0.0
 40
0.0480918343990624
 50
39.3288765985810471
 51
92.2959060491733254
  0
ARC
  5
60FB
  8
0
 10
62.7626843656768898
 20
23.5046258187179298
 30
0.0
 40
0.0882251784533855
 50
11.8710052768089902
 51
37.2130698669473006
  0
ARC
  5
60FC
  8
0
 10
62.800463356449292
 20
23.4528393188070901
 30
0.0
 40
0.1228971342899516
 50
93.0989035785275263
 51
120.2585898440887036
  0
ARC
  5
60FD
  8
0
 10
62.9596176739899605
 20
23.1962559930247707
 30
0.0
 40
0.4248006783177701
 50
121.361667151661905
 51
142.0125908039005935
  0
ARC
  5
60FE
  8
0
 10
62.3791055186080001
 20
23.2576405223321316
 30
0.0
 40
0.3168629900173572
 50
39.1553586941618619
 51
72.5319267263214442
  0
ARC
  5
60FF
  8
0
 10
62.3720620729876387
 20
23.2352581798865216
 30
0.0
 40
0.3403274179788158
 50
72.5319219618491786
 51
90.7461231937583364
  0
ARC
  5
6100
  8
0
 10
62.3735406257203735
 20
23.1217245927157187
 30
0.0
 40
0.4538706323689984
 50
90.7461231937583364
 51
109.913556321214898
  0
ARC
  5
6101
  8
0
 10
62.3679733405195833
 20
23.13709268637162
 30
0.0
 40
0.4375252058794989
 50
109.913556321214898
 51
124.377828998518396
  0
ARC
  5
6102
  8
0
 10
62.6334987212716996
 20
22.7489805650487398
 30
0.0
 40
0.9077748699318043
 50
124.377828998518396
 51
128.6717069540196974
  0
ARC
  5
6103
  8
0
 10
61.2994801298185479
 20
23.4583450213667284
 30
0.0
 40
0.023094875427197
 50
177.7894364300275925
 51
203.6210787582652131
  0
ARC
  5
6104
  8
0
 10
61.5792116740609004
 20
23.4575046405630516
 30
0.0
 40
0.3028141816616651
 50
167.5525337907349126
 51
179.6724366125322945
  0
ARC
  5
6105
  8
0
 10
61.336790492812753
 20
23.5275054405490884
 30
0.0
 40
0.0480894728538974
 50
87.7021261993517243
 51
140.6717853468429098
  0
ARC
  5
6106
  8
0
 10
61.3698537532169368
 20
23.5046258205755301
 30
0.0
 40
0.0882251784533855
 50
142.7869299802235901
 51
168.1289945703618969
  0
ARC
  5
6107
  8
0
 10
61.3320783068998878
 20
23.4528474849783315
 30
0.0
 40
0.122888296241215
 50
59.7409193770560378
 51
86.9024904192425254
  0
ARC
  5
6108
  8
0
 10
61.1729204074630175
 20
23.1962559459650102
 30
0.0
 40
0.4248007395943877
 50
37.9874078488188189
 51
58.6383319487639625
  0
ARC
  5
6109
  8
0
 10
61.7534324685318765
 20
23.2576407942024694
 30
0.0
 40
0.3168626921290607
 50
107.4680652204425968
 51
140.8446648562780013
  0
ARC
  5
610A
  8
0
 10
61.7604760451876871
 20
23.2352581807021892
 30
0.0
 40
0.3403274179788158
 50
89.2538766534126751
 51
107.4680778853219039
  0
ARC
  5
610B
  8
0
 10
61.758997492152119
 20
23.1217245935353297
 30
0.0
 40
0.4538706323689984
 50
70.0864435259559428
 51
89.2538766534126751
  0
ARC
  5
610C
  8
0
 10
61.7645647773939004
 20
23.1370926871763913
 30
0.0
 40
0.4375252058794989
 50
55.6221708486523809
 51
70.0864435259559428
  0
ARC
  5
610D
  8
0
 10
61.4990393956065518
 20
22.7489805665617517
 30
0.0
 40
0.9077748699318043
 50
51.3282928931511009
 51
55.6221708486523809
  0
ARC
  5
610E
  8
0
 10
62.6013872315474771
 20
23.4704247389131808
 30
0.0
 40
0.0266508737752074
 50
314.9147070290756005
 51
331.5190720301504825
  0
ARC
  5
610F
  8
0
 10
64.7764514638801643
 20
22.8305093606469711
 30
0.0
 40
2.2439019513751899
 50
163.9325416478189936
 51
183.0258974445272031
  0
LINE
  5
6110
  8
0
 10
62.5356780119472475
 20
22.7120597743326016
 30
0.0
 11
62.5389979602472508
 21
22.5527785633325983
 31
0.0
  0
ARC
  5
6111
  8
0
 10
58.9515476344477776
 20
22.3986294486696593
 30
0.0
 40
3.590760614358766
 50
357.9963994641727822
 51
2.4604282241937372
  0
ARC
  5
6112
  8
0
 10
61.3453482278374906
 20
22.3342523836225908
 30
0.0
 40
1.196329324271233
 50
335.625309431277401
 51
357.069387158818472
  0
LINE
  5
6113
  8
0
 10
62.4350439984472487
 20
21.8405247465326013
 30
0.0
 11
62.4008527122787484
 21
21.7574434584140484
 31
0.0
  0
LINE
  5
6114
  8
0
 10
62.3988612062378465
 20
21.7527554650626804
 30
0.0
 11
62.3988606388472533
 21
21.7527540887326012
 31
0.0
  0
ARC
  5
6115
  8
0
 10
62.3290559660404284
 20
23.5749494426492987
 30
0.0
 40
0.0385791645444612
 50
343.6252782970209978
 51
0.9019665856585731
  0
ARC
  5
6116
  8
0
 10
63.7080586817167287
 20
23.2194068355770611
 30
0.0
 40
1.3855424105167851
 50
165.5958990804959967
 51
173.2296004550566977
  0
ARC
  5
6117
  8
0
 10
67.3897241877670723
 20
22.8280815028871906
 30
0.0
 40
5.0878706167635439
 50
173.7413031365653069
 51
181.0859501955355029
  0
LINE
  5
6118
  8
0
 10
62.302767405636061
 20
22.7316547967465503
 30
0.0
 11
62.3059927055472471
 21
22.5516283901325991
 31
0.0
  0
ARC
  5
6119
  8
0
 10
40.1547736465612601
 20
22.1547736941608306
 30
0.0
 40
22.1547737395103788
 50
0.3003819871567467
 51
1.0263844531104911
  0
ARC
  5
611A
  8
0
 10
60.3909699127333184
 20
22.2608660554145388
 30
0.0
 40
1.918299369893715
 50
347.4121308231652279
 51
0.3003819871569502
  0
LINE
  5
611B
  8
0
 10
62.2631589786495283
 20
21.8427983886446704
 30
0.0
 11
62.2468389758558089
 21
21.7574201523775415
 31
0.0
  0
ARC
  5
611C
  8
0
 10
61.5311506851016716
 20
23.470424562423549
 30
0.0
 40
0.0266506051110385
 50
208.4808517671910977
 51
225.0853348912357035
  0
ARC
  5
611D
  8
0
 10
59.3560866562685092
 20
22.8305093606469711
 30
0.0
 40
2.2439019513751899
 50
356.9741025554729958
 51
16.0674583521809495
  0
LINE
  5
611E
  8
0
 10
61.5968601082014189
 20
22.7120597743326016
 30
0.0
 11
61.5935401599014227
 21
22.5527785633325983
 31
0.0
  0
ARC
  5
611F
  8
0
 10
65.180990485700903
 20
22.3986294486696593
 30
0.0
 40
3.590760614358766
 50
177.5395717758063086
 51
182.0036005358269904
  0
ARC
  5
6120
  8
0
 10
62.78718989231119
 20
22.3342523836225908
 30
0.0
 40
1.196329324271233
 50
182.9306128411814996
 51
204.374690568722599
  0
LINE
  5
6121
  8
0
 10
61.6974941217014319
 20
21.8405247465326013
 30
0.0
 11
61.7317284099757373
 21
21.7573422035793484
 31
0.0
  0
ARC
  5
6122
  8
0
 10
61.8034822007144271
 20
23.5749494526029792
 30
0.0
 40
0.0385792120663405
 50
179.0980481160069075
 51
196.3747163725118128
  0
ARC
  5
6123
  8
0
 10
60.4244794384319377
 20
23.2194068355770611
 30
0.0
 40
1.3855424105167851
 50
6.7703995449432259
 51
14.4041009195042093
  0
ARC
  5
6124
  8
0
 10
56.7428139323816012
 20
22.8280815028871906
 30
0.0
 40
5.0878706167635439
 50
358.9140498044644119
 51
6.2586968634346594
  0
LINE
  5
6125
  8
0
 10
61.8297707145126125
 20
22.7316547967465503
 30
0.0
 11
61.8265454146014193
 21
22.5516283901325991
 31
0.0
  0
ARC
  5
6126
  8
0
 10
83.9777644735874134
 20
22.1547736941608306
 30
0.0
 40
22.1547737395103788
 50
178.9736155468895049
 51
179.6996180128433025
  0
ARC
  5
6127
  8
0
 10
63.7415682074153622
 20
22.2608660554145388
 30
0.0
 40
1.918299369893715
 50
179.6996180128431035
 51
192.5878691768348006
  0
LINE
  5
6128
  8
0
 10
61.8693791414991523
 20
21.8427983886446704
 30
0.0
 11
61.8857087874632867
 21
21.7573655045678507
 31
0.0
  0
LINE
  5
6129
  8
0
 10
62.3516777089556768
 20
21.1239281584429293
 30
0.0
 11
61.7808608765472513
 21
21.123929759632599
 31
0.0
  0
ARC
  5
612A
  8
0
 10
62.293719338796862
 20
21.0093765299348902
 30
0.0
 40
0.0104480184223866
 50
269.4042312863629718
 51
296.6467792727290202
  0
LINE
  5
612B
  8
0
 10
62.2936107009463811
 20
20.9989290763326011
 30
0.0
 11
61.8387101429472494
 21
20.9989290763326011
 31
0.0
  0
ARC
  5
612C
  8
0
 10
61.8389848341815807
 20
21.0099963963860006
 30
0.0
 40
0.0110707284511278
 50
244.1264993451011094
 51
268.5782088467286144
  0
ARC
  5
612D
  8
0
 10
61.0355527903494632
 20
24.0938878116794299
 30
0.0
 40
0.1740188176332326
 50
179.3652843614202936
 51
208.0418590291891121
  0
ARC
  5
612E
  8
0
 10
60.957754016951867
 20
24.0711718217385418
 30
0.0
 40
0.0961055292673053
 50
217.9430196597691918
 51
270.3281335207606162
  0
ARC
  5
612F
  8
0
 10
63.0969853301794785
 20
24.0938878160570304
 30
0.0
 40
0.174018816650375
 50
331.9581411930691957
 51
0.6347142011966631
  0
ARC
  5
6130
  8
0
 10
63.1747840867710124
 20
24.0711718465933409
 30
0.0
 40
0.0961055540276258
 50
269.6718763566003076
 51
322.0569771690956031
  0
LINE
  5
6131
  8
0
 10
62.90084228584724
 20
23.6647781417326009
 30
0.0
 11
61.2318275484548167
 21
23.6645232116453705
 31
0.0
  0
LINE
  5
6132
  8
0
 10
62.0662690593843465
 20
23.4577158648291793
 30
0.0
 11
62.0662690597972428
 21
21.7573928277430291
 31
0.0
  0
ARC
  5
6133
  8
0
 10
62.2825381435894627
 20
20.9645760015992515
 30
0.0
 40
0.0344000397327193
 50
42.2674880689284933
 51
87.0057039228527032
  0
ARC
  5
6134
  8
0
 10
61.9144053815988684
 20
20.6299826161201594
 30
0.0
 40
0.5318680930358287
 50
359.7665489777937751
 51
42.2674880689284933
  0
ARC
  5
6135
  8
0
 10
61.8872173931757033
 20
20.6300933938923912
 30
0.0
 40
0.5590563071407098
 50
326.7227986540419238
 51
359.7665489777937751
  0
ARC
  5
6136
  8
0
 10
62.0664938253521825
 20
20.5124328792495199
 30
0.0
 40
0.3446174211149803
 50
269.9626306719666786
 51
326.7227986540416964
  0
ARC
  5
6137
  8
0
 10
62.0664929042520015
 20
20.5110206209050787
 30
0.0
 40
0.3432051624701705
 50
220.1480436940358913
 51
269.9626306719666786
  0
ARC
  5
6138
  8
0
 10
61.8135140145621804
 20
20.2976298116951099
 30
0.0
 40
0.0122460168283216
 50
180.7571743027135085
 51
220.1480436940377956
  0
LINE
  5
6139
  8
0
 10
61.8012690670472509
 20
20.2974679830326004
 30
0.0
 11
61.8012690671472527
 21
20.9581630799326
 31
0.0
  0
ARC
  5
613A
  8
0
 10
61.814694119416302
 20
20.9575611369524886
 30
0.0
 40
0.0134385402398449
 50
136.4222249640718871
 51
177.4327319160348111
  0
ARC
  5
613B
  8
0
 10
62.0985437769475297
 20
20.7111796584323891
 30
0.0
 40
0.3892899299003547
 50
134.154757905408502
 51
138.9516164972542924
  0
ARC
  5
613C
  8
0
 10
61.8484445442563384
 20
20.9684122033653288
 30
0.0
 40
0.030517828964659
 50
90.4535135836505333
 51
133.6881401057773928
  0
LINE
  5
613D
  8
0
 10
44.3312690524472472
 20
20.9404139566326108
 30
0.0
 11
61.8012690670472509
 21
20.9404139566326108
 31
0.0
  0
LINE
  5
613E
  8
0
 10
44.3312690524472472
 20
20.3152171062325984
 30
0.0
 11
61.8012690670472509
 21
20.3152171062325984
 31
0.0
  0
LINE
  5
613F
  8
0
 62
     1
 10
53.0662690597472491
 20
20.9404139566326108
 30
0.0
 11
56.7026777318832771
 21
24.2947958226450602
 31
0.0
  0
ENDBLK
  5
6143
  8
0
  0
ENDSEC
  0
SECTION
  2
ENTITIES
  0
ATTDEF
  5
3930
  8
DEFPOINTS
 10
2918.8099606794571628
 20
176.6124968230843137
 30
0.0
 40
0.001
  1
K-13500
  3

  2
MODELNUMBER
 70
     0
1001
ACDBATTR
1070
     0
1070
     1
  0
ATTDEF
  5
3931
  8
DEFPOINTS
 10
2918.8099606794571628
 20
176.6108301564175918
 30
0.0
 40
0.001
  1
KELSTON
  3

  2
TRADENAME
 70
     0
1001
ACDBATTR
1070
     0
1070
     1
  0
ATTDEF
  5
3932
  8
DEFPOINTS
 10
2918.8099606794571628
 20
176.6091634897510119
 30
0.0
 40
0.001
  1
TOWEL BAR
  3

  2
PRODUCT
 70
     0
1001
ACDBATTR
1070
     0
1070
     1
  0
LINE
  5
690D
  8
0
 10
2908.6077862440388344
 20
176.607903723257408
 30
0.0
 11
2911.0176865362441276
 21
176.607903723257408
 31
0.0
  0
LINE
  5
690E
  8
0
 10
2908.7045520441329245
 20
176.4871560603573926
 30
0.0
 11
2910.920941460316044
 21
176.4871672762554056
 31
0.0
  0
ARC
  5
690F
  8
0
 10
2908.5509680418881544
 20
176.1200475138900003
 30
0.0
 40
0.3979406119451391
 50
17.8314009117680214
 51
67.2974535953914028
  0
ARC
  5
6910
  8
0
 10
2909.0484859245898406
 20
176.2797349400449889
 30
0.0
 40
0.1245768232670103
 50
197.6786354283742924
 51
235.6640285070803031
  0
ARC
  5
6911
  8
0
 10
2908.9124688402048378
 20
176.0884989748878979
 30
0.0
 40
0.1101448101477535
 50
1.2155469774352561
 51
53.3487126978053965
  0
LINE
  5
6912
  8
0
 10
2909.0225888638087781
 20
176.0908355544574135
 30
0.0
 11
2909.0225888638087781
 21
175.9713240275808062
 31
0.0
  0
ARC
  5
6913
  8
0
 10
2909.054914673346957
 20
175.9731854535739046
 30
0.0
 40
0.0323793586879048
 50
183.2956392689222866
 51
201.764530404535293
  0
ARC
  5
6914
  8
0
 10
2907.4326575739742111
 20
175.3341180548530076
 30
0.0
 40
1.711216480524552
 50
356.3159637295217976
 51
21.4963445605464685
  0
ARC
  5
6915
  8
0
 10
2176.5528098994082029
 20
192.7371492815572083
 30
0.0
 40
732.7968278024984556
 50
358.6049531938434143
 51
358.6305677304167148
  0
ARC
  5
6916
  8
0
 10
2910.2092192128097849
 20
174.9046125587526035
 30
0.0
 40
1.0768131955339371
 50
180.4232690044854905
 51
216.1398856604704122
  0
ARC
  5
6917
  8
0
 10
2909.2909578943567794
 20
174.2373305381885018
 30
0.0
 40
0.0583522977021552
 50
17.974189123683189
 51
33.5180111352332233
  0
ARC
  5
6918
  8
0
 10
2908.9985013580571831
 20
174.1631226661428968
 30
0.0
 40
0.3599727811341124
 50
4.9868384366954741
 51
14.8430055918554196
  0
ARC
  5
6919
  8
0
 10
2909.4774669172038557
 20
174.1150965382514926
 30
0.0
 40
0.1204706456458685
 50
182.5441368632727972
 51
221.3705565466806888
  0
ARC
  5
691A
  8
0
 10
2906.4650990879172241
 20
171.1104480063490882
 30
0.0
 40
4.1344446186118846
 50
43.4723734756694213
 51
45.0300421534698572
  0
ARC
  5
691B
  8
0
 10
2909.2377033343350377
 20
173.7452832694754932
 30
0.0
 40
0.3096028541257104
 50
339.3336084463796851
 51
42.6300497863963415
  0
ARC
  5
691C
  8
0
 10
2909.6291805129130807
 20
173.6063903660397045
 30
0.0
 40
0.106020311437462
 50
163.7734016280496974
 51
242.761908393815304
  0
ARC
  5
691D
  8
0
 10
2911.0761222370360883
 20
176.1187390701128948
 30
0.0
 40
0.3997754576572282
 50
112.8406695373265052
 51
162.0561638846203039
  0
ARC
  5
691E
  8
0
 10
2910.5833629993339855
 20
176.274815534217197
 30
0.0
 40
0.1171474623144554
 50
303.0394896794019814
 51
343.6834798290723825
  0
ARC
  5
691F
  8
0
 10
2910.698147248503119
 20
176.0928808810126043
 30
0.0
 40
0.0979948042477563
 50
121.3022545426568968
 51
181.1959521094175898
  0
LINE
  5
6920
  8
0
 10
2910.6001737913898069
 20
176.0908355543990922
 30
0.0
 11
2910.6001737913898069
 21
175.9713240296877075
 31
0.0
  0
ARC
  5
6921
  8
0
 10
2912.2524619747778161
 20
175.3306356908900057
 30
0.0
 40
1.770854099773864
 50
159.1411121889545939
 51
183.4535791464240049
  0
ARC
  5
6922
  8
0
 10
3643.0776676776958993
 20
192.5131480780071911
 30
0.0
 40
732.796827802498683
 50
181.3519292270653978
 51
181.3775437636383003
  0
ARC
  5
6923
  8
0
 10
2909.415846463960861
 20
174.9047335014126929
 30
0.0
 40
1.0768117417813281
 50
323.8426589514342027
 51
359.5592401063469765
  0
ARC
  5
6924
  8
0
 10
2910.3339059180239019
 20
174.2371698402448033
 30
0.0
 40
0.0583560343637671
 50
146.4636936455937075
 51
162.008058600805299
  0
ARC
  5
6925
  8
0
 10
2910.5029477573448276
 20
174.1873069425772087
 30
0.0
 40
0.2345824361579758
 50
163.1779767933934124
 51
178.2638689810738981
  0
ARC
  5
6926
  8
0
 10
2910.1578585770362224
 20
174.1118880278839924
 30
0.0
 40
0.1106337195839258
 50
316.2220457610588937
 51
358.8178460491844248
  0
ARC
  5
6927
  8
0
 10
2913.1588058991210346
 20
171.1094255904152988
 30
0.0
 40
4.1344446186118864
 50
134.9524548040172078
 51
136.5101234818075113
  0
ARC
  5
6928
  8
0
 10
2910.3842897748309042
 20
173.7464817889392918
 30
0.0
 40
0.3066746811295746
 50
137.1973793611743133
 51
201.1124025772080017
  0
ARC
  5
6929
  8
0
 10
2909.9930122303430835
 20
173.607855330542094
 30
0.0
 40
0.1088930447099516
 50
298.4617494888257738
 51
14.9885757862441107
  0
LINE
  5
692A
  8
0
 10
2909.339606921370887
 20
174.2695526240574111
 30
0.0
 11
2910.2852640677410818
 21
174.2694095230556002
 31
0.0
  0
ARC
  5
692B
  8
0
 10
2909.3587687661738528
 20
175.9641137463719929
 30
0.0
 40
0.3362572154010337
 50
167.8541259485178898
 51
178.7713264486579874
  0
ARC
  5
692C
  8
0
 10
2909.0833151768888456
 20
176.0395917038929099
 30
0.0
 40
0.0480918343990624
 50
87.7040939508323873
 51
140.6711234014115064
  0
ARC
  5
692D
  8
0
 10
2909.1163769628410591
 20
176.0167140105428132
 30
0.0
 40
0.0882251784533855
 50
142.7869301330551934
 51
168.1289947231921929
  0
ARC
  5
692E
  8
0
 10
2909.0785979720690193
 20
175.9649275106318953
 30
0.0
 40
0.1228971342899516
 50
59.7414101559106001
 51
86.9010964214834445
  0
ARC
  5
692F
  8
0
 10
2908.9194436545280951
 20
175.7083441848496079
 30
0.0
 40
0.4248006783177701
 50
37.9874091961011402
 51
58.6383328483446391
  0
ARC
  5
6930
  8
0
 10
2909.4999558099098067
 20
175.7697287141569973
 30
0.0
 40
0.3168629900173572
 50
107.4680732736798063
 51
140.844641305840895
  0
ARC
  5
6931
  8
0
 10
2909.5069992555309
 20
175.7473463717113873
 30
0.0
 40
0.3403274179788158
 50
89.253876806237983
 51
107.4680780381619059
  0
ARC
  5
6932
  8
0
 10
2909.5055207027971846
 20
175.633812784540595
 30
0.0
 40
0.4538706323689984
 50
70.0864436787932021
 51
89.253876806237983
  0
ARC
  5
6933
  8
0
 10
2909.5110879879989625
 20
175.6491808781964892
 30
0.0
 40
0.4375252058794989
 50
55.6221710014761967
 51
70.0864436787932021
  0
ARC
  5
6934
  8
0
 10
2909.2455626072460291
 20
175.2610687568736125
 30
0.0
 40
0.9077748699318043
 50
51.3282930459859799
 51
55.6221710014761967
  0
ARC
  5
6935
  8
0
 10
2910.5586080022198985
 20
175.9762043536167937
 30
0.0
 40
0.0418513128941242
 50
338.9607421482476752
 51
353.3034455435756058
  0
ARC
  5
6936
  8
0
 10
2909.7653014615661959
 20
175.9424533289692079
 30
0.0
 40
0.835371369192059
 50
1.9805547989378609
 51
6.3510994742538136
  0
ARC
  5
6937
  8
0
 10
2910.5422708357050396
 20
176.0395936323739079
 30
0.0
 40
0.0480894728538974
 50
39.3282146531631014
 51
92.2978738006551964
  0
ARC
  5
6938
  8
0
 10
2910.509207575300934
 20
176.0167140124003993
 30
0.0
 40
0.0882251784533855
 50
11.8710054296395704
 51
37.2130700197841975
  0
ARC
  5
6939
  8
0
 10
2910.5469830216179616
 20
175.9649356768032078
 30
0.0
 40
0.122888296241215
 50
93.0975095807578867
 51
120.2590806229412976
  0
ARC
  5
693A
  8
0
 10
2910.7061409210550664
 20
175.7083441377899078
 30
0.0
 40
0.4248007395943877
 50
121.3616680512386949
 51
142.0125921511751983
  0
ARC
  5
693B
  8
0
 10
2910.1256288599870459
 20
175.7697289860273031
 30
0.0
 40
0.3168626921290607
 50
39.1553351437293529
 51
72.5319347795527847
  0
ARC
  5
693C
  8
0
 10
2910.1185852833300487
 20
175.7473463725270051
 30
0.0
 40
0.3403274179788158
 50
72.5319221146895075
 51
90.746123346588135
  0
ARC
  5
693D
  8
0
 10
2910.120063836366171
 20
175.6338127853601918
 30
0.0
 40
0.4538706323689984
 50
90.746123346588135
 51
109.9135564740383018
  0
ARC
  5
693E
  8
0
 10
2910.1144965511239207
 20
175.649180879001193
 30
0.0
 40
0.4375252058794989
 50
109.9135564740383018
 51
124.3778291513511931
  0
ARC
  5
693F
  8
0
 10
2910.380021932911859
 20
175.2610687583866138
 30
0.0
 40
0.9077748699318043
 50
124.3778291513511931
 51
128.6717071068532903
  0
ARC
  5
6940
  8
0
 10
2909.2776740969711682
 20
175.9825129307380109
 30
0.0
 40
0.0266508737752074
 50
208.4809279698503133
 51
225.0852929709180046
  0
ARC
  5
6941
  8
0
 10
2907.1026098646370883
 20
175.3425975524718012
 30
0.0
 40
2.2439019513751899
 50
356.9741025554732232
 51
16.0674583521839303
  0
LINE
  5
6942
  8
0
 10
2909.3433833165709075
 20
175.2241479661574886
 30
0.0
 11
2909.3400633682708758
 21
175.0648667551575102
 31
0.0
  0
ARC
  5
6943
  8
0
 10
2912.9275136940700577
 20
174.9107176404945108
 30
0.0
 40
3.590760614358766
 50
177.5395717758063938
 51
182.0036005358271041
  0
ARC
  5
6944
  8
0
 10
2910.5337131006808704
 20
174.8463405754474991
 30
0.0
 40
1.196329324271233
 50
182.9306128411822101
 51
204.3746905687216895
  0
LINE
  5
6945
  8
0
 10
2909.4440173300708921
 20
174.3526129383575096
 30
0.0
 11
2909.4782086162390442
 21
174.2695316502388891
 31
0.0
  0
ARC
  5
6946
  8
0
 10
2910.3479106434160713
 20
175.982512754248404
 30
0.0
 40
0.0266506051110385
 50
314.9146651087659734
 51
331.5191482328074244
  0
ARC
  5
6947
  8
0
 10
2912.5229746722488926
 20
175.3425975524718012
 30
0.0
 40
2.2439019513751899
 50
163.9325416478160093
 51
183.0258974445268052
  0
LINE
  5
6948
  8
0
 10
2910.2822012203168924
 20
175.2241479661574886
 30
0.0
 11
2910.2855211686169241
 21
175.0648667551575102
 31
0.0
  0
ARC
  5
6949
  8
0
 10
2906.6980708428168327
 20
174.9107176404945108
 30
0.0
 40
3.590760614358766
 50
357.9963994641727822
 51
2.46042822419356
  0
ARC
  5
694A
  8
0
 10
2909.0918714362069295
 20
174.8463405754474991
 30
0.0
 40
1.196329324271233
 50
335.6253094312783105
 51
357.0693871588176762
  0
LINE
  5
694B
  8
0
 10
2910.1815672068169079
 20
174.3526129383575096
 30
0.0
 11
2910.1473329185428156
 21
174.2694303954042141
 31
0.0
  0
ARC
  5
694C
  8
0
 10
2909.5853419897221102
 20
173.5214647217597133
 30
0.0
 40
0.0104480184223866
 50
243.3532207272781989
 51
270.5957687136386198
  0
LINE
  5
694D
  8
0
 10
2909.585450627571845
 20
173.5110172681573886
 30
0.0
 11
2910.0403511855711258
 21
173.5110172681573886
 31
0.0
  0
ARC
  5
694E
  8
0
 10
2910.0400764943360628
 20
173.5220845882109018
 30
0.0
 40
0.0110707284511278
 50
271.4217911532840048
 51
295.8735006549042055
  0
ARC
  5
694F
  8
0
 10
2910.8357795075808099
 20
176.6097736212516054
 30
0.0
 40
0.1819166391389557
 50
332.586593707245072
 51
359.4110535991616189
  0
ARC
  5
6950
  8
0
 10
2910.9107458887970097
 20
176.6015999269355063
 30
0.0
 40
0.1148859487503118
 50
275.0914209884127217
 51
318.8609988752169215
  0
ARC
  5
6951
  8
0
 10
2908.8046148432567861
 20
176.6121333552736985
 30
0.0
 40
0.1968740390634844
 50
181.231034375430113
 51
206.5395823307142962
  0
ARC
  5
6952
  8
0
 10
2908.7050499608080827
 20
176.5848512267961041
 30
0.0
 40
0.0976964352803057
 50
218.400307806965003
 51
269.7079868119345178
  0
LINE
  5
6953
  8
0
 10
2908.9782190426708439
 20
176.1768663335575127
 30
0.0
 11
2910.6472337800628338
 21
176.17661140347019
 31
0.0
  0
LINE
  5
6954
  8
0
 10
2909.8127922691342064
 20
175.9698040566539987
 30
0.0
 11
2909.8127922687208411
 21
174.2694810195679054
 31
0.0
  0
ARC
  5
6955
  8
0
 10
2909.5965231849290831
 20
173.4766641934241136
 30
0.0
 40
0.0344000397327193
 50
92.9942960771452505
 51
137.7325119310669947
  0
ARC
  5
6956
  8
0
 10
2910.0382142510620724
 20
173.1138093491973109
 30
0.0
 40
0.605984069922116
 50
140.4339485218262098
 51
177.532014431410289
  0
ARC
  5
6957
  8
0
 10
2910.1476721134049512
 20
173.1890963423529968
 30
0.0
 40
0.7165703775884131
 50
183.9364563915333122
 51
209.5741959765917102
  0
ARC
  5
6958
  8
0
 10
2909.8125675031660649
 20
173.0245210710743891
 30
0.0
 40
0.3446174211149803
 50
213.2772013459602931
 51
270.0373693280396878
  0
ARC
  5
6959
  8
0
 10
2909.812568424265919
 20
173.0231088127299017
 30
0.0
 40
0.3432051624701705
 50
270.0373693280396878
 51
319.8519563059654729
  0
ARC
  5
695A
  8
0
 10
2910.0655473139559035
 20
172.809718003520004
 30
0.0
 40
0.0122460168283216
 50
319.8519563059642792
 51
359.2428256972867757
  0
LINE
  5
695B
  8
0
 10
2910.0777922614711315
 20
172.8095561748573914
 30
0.0
 11
2910.0777922613701776
 21
173.4702512717574052
 31
0.0
  0
ARC
  5
695C
  8
0
 10
2910.0643672091018743
 20
173.469649328777308
 30
0.0
 40
0.0134385402398449
 50
2.5672680839649078
 51
43.5777750359355167
  0
ARC
  5
695D
  8
0
 10
2909.7805175515709379
 20
173.2232678502572014
 30
0.0
 40
0.3892899299003547
 50
41.0483835027430715
 51
45.8452420945839094
  0
ARC
  5
695E
  8
0
 10
2910.0306167842618379
 20
173.4805003951902052
 30
0.0
 40
0.030517828964659
 50
46.3118598942261031
 51
89.546486416349893
  0
LINE
  5
695F
  8
0
 10
2910.0777922614711315
 20
173.452502148457512
 30
0.0
 11
2927.547510660836906
 21
173.452502148457512
 31
0.0
  0
LINE
  5
6960
  8
0
 10
2910.0777922614711315
 20
172.827305298057496
 30
0.0
 11
2927.5475106607418638
 21
172.827305298057496
 31
0.0
  0
LINE
  5
6961
  8
0
 10
2909.3571115315521638
 20
174.1944139847973929
 30
0.0
 11
2909.3571150166208099
 21
174.1097489698042864
 31
0.0
  0
LINE
  5
6962
  8
0
 10
2910.2684730053902058
 20
174.1944139847973929
 30
0.0
 11
2910.2684687491141631
 21
174.1096055419704953
 31
0.0
  0
LINE
  5
6963
  8
0
 10
2929.0175166781700682
 20
176.607903723257408
 30
0.0
 11
2926.6080678593712037
 21
176.607903723257408
 31
0.0
  0
LINE
  5
6964
  8
0
 10
2928.9210324934088021
 20
176.4871560603573926
 30
0.0
 11
2926.7046430772261374
 21
176.4871672762554056
 31
0.0
  0
ARC
  5
6965
  8
0
 10
2929.0746164956540269
 20
176.1200475138900003
 30
0.0
 40
0.3979406119451592
 50
112.7025464046085972
 51
162.168599088230394
  0
ARC
  5
6966
  8
0
 10
2928.5736782853800833
 20
176.2822817124593939
 30
0.0
 40
0.1286165111936177
 50
304.9542275801251208
 51
341.7031084844226143
  0
ARC
  5
6967
  8
0
 10
2928.7131156973359793
 20
176.0884989748878979
 30
0.0
 40
0.1101448101477535
 50
126.6512873021946035
 51
178.7844530225646906
  0
LINE
  5
6968
  8
0
 10
2928.6029956737329485
 20
176.0908355544574135
 30
0.0
 11
2928.6029956737329485
 21
175.9713240275808062
 31
0.0
  0
ARC
  5
6969
  8
0
 10
2928.5706698641952244
 20
175.9731854535739046
 30
0.0
 40
0.0323793586879048
 50
338.2354695954646786
 51
356.7043607310777134
  0
ARC
  5
696A
  8
0
 10
2930.1929269635679702
 20
175.3341180548530076
 30
0.0
 40
1.711216480524552
 50
158.503655439453496
 51
183.6840362704782024
  0
ARC
  5
696B
  8
0
 10
3661.0727746381330689
 20
192.7371492815572083
 30
0.0
 40
732.7968278024984556
 50
181.3694322695832
 51
181.3950468061566141
  0
ARC
  5
696C
  8
0
 10
2927.4163653247319417
 20
174.9046125587526035
 30
0.0
 40
1.0768131955339371
 50
323.8601143395296162
 51
359.5767309955144242
  0
ARC
  5
696D
  8
0
 10
2928.3346266431849472
 20
174.2373305381885018
 30
0.0
 40
0.0583522977021552
 50
146.4819888647666914
 51
162.0258108763167968
  0
ARC
  5
696E
  8
0
 10
2928.6270831794849983
 20
174.1631226661428968
 30
0.0
 40
0.3599727811341124
 50
165.1569944081446124
 51
175.013161563304493
  0
ARC
  5
696F
  8
0
 10
2928.1481176203378709
 20
174.1150965382514926
 30
0.0
 40
0.1204706456458685
 50
318.6294434533193112
 51
357.4558631367270891
  0
ARC
  5
6970
  8
0
 10
2931.1604854496249573
 20
171.1104480063490882
 30
0.0
 40
4.1344446186118846
 50
134.9699578465300931
 51
136.5276265243304863
  0
ARC
  5
6971
  8
0
 10
2928.3878812032071437
 20
173.7452832694754932
 30
0.0
 40
0.3096028541257104
 50
137.3699502136036017
 51
200.6663915536202012
  0
ARC
  5
6972
  8
0
 10
2927.9964040246291006
 20
173.6063903660397045
 30
0.0
 40
0.106020311437462
 50
297.238091606184696
 51
16.2265983719503204
  0
ARC
  5
6973
  8
0
 10
2926.5494623005051835
 20
176.1187390701128948
 30
0.0
 40
0.3997754576572234
 50
17.9438361153796606
 51
67.1593304626734664
  0
ARC
  5
6974
  8
0
 10
2927.0395094646951293
 20
176.2727985406183109
 30
0.0
 40
0.1139840024785985
 50
195.7264721205621072
 51
237.5505583709640121
  0
ARC
  5
6975
  8
0
 10
2926.9274372890390623
 20
176.0928808810126043
 30
0.0
 40
0.0979948042477563
 50
358.8040478905824102
 51
58.6977454573431174
  0
LINE
  5
6976
  8
0
 10
2927.0254107461519197
 20
176.0908355543990922
 30
0.0
 11
2927.0254107461519197
 21
175.9713240296877075
 31
0.0
  0
ARC
  5
6977
  8
0
 10
2925.3731225627639105
 20
175.3306356908900057
 30
0.0
 40
1.770854099773864
 50
356.5464208535760235
 51
20.8588878110453884
  0
ARC
  5
6978
  8
0
 10
2194.5479168598449178
 20
192.5131480780071911
 30
0.0
 40
732.796827802498683
 50
358.6224562363616997
 51
358.6480707729346022
  0
ARC
  5
6979
  8
0
 10
2928.2097380735808656
 20
174.9047335014126929
 30
0.0
 40
1.0768117417813281
 50
180.4407598936529951
 51
216.1573410485657973
  0
ARC
  5
697A
  8
0
 10
2927.2916786195178247
 20
174.2371698402448033
 30
0.0
 40
0.0583560343637671
 50
17.9919413991946691
 51
33.5363063544062499
  0
ARC
  5
697B
  8
0
 10
2927.1226367801959896
 20
174.1873069425772087
 30
0.0
 40
0.2345824361579758
 50
1.736131018926101
 51
16.8220232066065911
  0
ARC
  5
697C
  8
0
 10
2927.4677259605059589
 20
174.1118880278839924
 30
0.0
 40
0.1106337195839258
 50
181.1821539508154899
 51
223.7779542389411063
  0
ARC
  5
697D
  8
0
 10
2924.4667786384211468
 20
171.1094255904152988
 30
0.0
 40
4.1344446186118864
 50
43.4898765181925029
 51
45.0475451959827424
  0
ARC
  5
697E
  8
0
 10
2927.2412947627108224
 20
173.7464817889392918
 30
0.0
 40
0.3066746811295746
 50
338.887597422792112
 51
42.8026206388256369
  0
ARC
  5
697F
  8
0
 10
2927.6325723071990978
 20
173.607855330542094
 30
0.0
 40
0.1088930447099516
 50
165.0114242137559017
 51
241.5382505111741978
  0
LINE
  5
6980
  8
0
 10
2928.2859776161708396
 20
174.2695526240574111
 30
0.0
 11
2927.3403204698010995
 21
174.2694095230556002
 31
0.0
  0
ARC
  5
6981
  8
0
 10
2928.2668157713678738
 20
175.9641137463719929
 30
0.0
 40
0.3362572154010337
 50
1.228673551342006
 51
12.1458740514820693
  0
ARC
  5
6982
  8
0
 10
2928.542269360652881
 20
176.0395917038929099
 30
0.0
 40
0.0480918343990624
 50
39.3288765985884723
 51
92.2959060491676127
  0
ARC
  5
6983
  8
0
 10
2928.5092075747002127
 20
176.0167140105428132
 30
0.0
 40
0.0882251784533855
 50
11.8710052768077805
 51
37.2130698669447568
  0
ARC
  5
6984
  8
0
 10
2928.546986565473162
 20
175.9649275106318953
 30
0.0
 40
0.1228971342899516
 50
93.0989035785165555
 51
120.2585898440893999
  0
ARC
  5
6985
  8
0
 10
2928.7061408830140863
 20
175.7083441848496079
 30
0.0
 40
0.4248006783177701
 50
121.3616671516552969
 51
142.012590803898803
  0
ARC
  5
6986
  8
0
 10
2928.1256287276310104
 20
175.7697287141569973
 30
0.0
 40
0.3168629900173572
 50
39.1553586941590765
 51
72.5319267263201652
  0
ARC
  5
6987
  8
0
 10
2928.1185852820108266
 20
175.7473463717113873
 30
0.0
 40
0.3403274179788158
 50
72.5319219618380657
 51
90.7461231937620028
  0
ARC
  5
6988
  8
0
 10
2928.1200638347431777
 20
175.633812784540595
 30
0.0
 40
0.4538706323689984
 50
90.7461231937620028
 51
109.9135563212067979
  0
ARC
  5
6989
  8
0
 10
2928.1144965495432189
 20
175.6491808781964892
 30
0.0
 40
0.4375252058794989
 50
109.9135563212067979
 51
124.3778289985237961
  0
ARC
  5
698A
  8
0
 10
2928.3800219302961523
 20
175.2610687568736125
 30
0.0
 40
0.9077748699318043
 50
124.3778289985237961
 51
128.671706954014013
  0
ARC
  5
698B
  8
0
 10
2927.0669765353218281
 20
175.9762043536167937
 30
0.0
 40
0.0418513128941242
 50
186.6965544564243942
 51
201.0392578517522963
  0
ARC
  5
698C
  8
0
 10
2927.8602830759759854
 20
175.9424533289692079
 30
0.0
 40
0.835371369192059
 50
173.6489005257461997
 51
178.0194452010620978
  0
ARC
  5
698D
  8
0
 10
2927.0833137018371417
 20
176.0395936323739079
 30
0.0
 40
0.0480894728538974
 50
87.7021261993448036
 51
140.6717853468369128
  0
ARC
  5
698E
  8
0
 10
2927.1163769622407926
 20
176.0167140124003993
 30
0.0
 40
0.0882251784533855
 50
142.7869299802158025
 51
168.1289945703603905
  0
ARC
  5
698F
  8
0
 10
2927.0786015159242197
 20
175.9649356768032078
 30
0.0
 40
0.122888296241215
 50
59.7409193770586882
 51
86.9024904192421133
  0
ARC
  5
6990
  8
0
 10
2926.9194436164871149
 20
175.7083441377899078
 30
0.0
 40
0.4248007395943877
 50
37.987407848824752
 51
58.6383319487612624
  0
ARC
  5
6991
  8
0
 10
2927.4999556775551355
 20
175.7697289860273031
 30
0.0
 40
0.3168626921290607
 50
107.4680652204472011
 51
140.8446648562706116
  0
ARC
  5
6992
  8
0
 10
2927.5069992542112232
 20
175.7473463725270051
 30
0.0
 40
0.3403274179788158
 50
89.253876653411865
 51
107.4680778853105068
  0
ARC
  5
6993
  8
0
 10
2927.5055207011760103
 20
175.6338127853601918
 30
0.0
 40
0.4538706323689984
 50
70.086443525961684
 51
89.253876653411865
  0
ARC
  5
6994
  8
0
 10
2927.5110879864168965
 20
175.649180879001193
 30
0.0
 40
0.4375252058794989
 50
55.6221708486487927
 51
70.086443525961684
  0
ARC
  5
6995
  8
0
 10
2927.2455626046298676
 20
175.2610687583866138
 30
0.0
 40
0.9077748699318043
 50
51.32829289314666
 51
55.6221708486487927
  0
ARC
  5
6996
  8
0
 10
2928.3479104405710132
 20
175.9825129307380109
 30
0.0
 40
0.0266508737752074
 50
314.9147070290819102
 51
331.5190720301496867
  0
ARC
  5
6997
  8
0
 10
2930.5229746729041835
 20
175.3425975524718012
 30
0.0
 40
2.2439019513751899
 50
163.9325416478160093
 51
183.0258974445268052
  0
LINE
  5
6998
  8
0
 10
2928.2822012209708191
 20
175.2241479661574886
 30
0.0
 11
2928.2855211692708508
 21
175.0648667551575102
 31
0.0
  0
ARC
  5
6999
  8
0
 10
2924.6980708434712142
 20
174.9107176404945108
 30
0.0
 40
3.590760614358766
 50
357.9963994641727822
 51
2.46042822419356
  0
ARC
  5
699A
  8
0
 10
2927.0918714368608562
 20
174.8463405754474991
 30
0.0
 40
1.196329324271233
 50
335.6253094312783105
 51
357.0693871588176762
  0
LINE
  5
699B
  8
0
 10
2928.1815672074708345
 20
174.3526129383575096
 30
0.0
 11
2928.1473759213017729
 21
174.2695316502388891
 31
0.0
  0
ARC
  5
699C
  8
0
 10
2927.2776738941261101
 20
175.982512754248404
 30
0.0
 40
0.0266506051110385
 50
208.480851767192604
 51
225.0853348912339982
  0
ARC
  5
699D
  8
0
 10
2925.1026098652919245
 20
175.3425975524718012
 30
0.0
 40
2.2439019513751899
 50
356.9741025554732232
 51
16.0674583521839303
  0
LINE
  5
699E
  8
0
 10
2927.3433833172248342
 20
175.2241479661574886
 30
0.0
 11
2927.3400633689248025
 21
175.0648667551575102
 31
0.0
  0
ARC
  5
699F
  8
0
 10
2930.9275136947239844
 20
174.9107176404945108
 30
0.0
 40
3.590760614358766
 50
177.5395717758063938
 51
182.0036005358271041
  0
ARC
  5
69A0
  8
0
 10
2928.5337131013347971
 20
174.8463405754474991
 30
0.0
 40
1.196329324271233
 50
182.9306128411822101
 51
204.3746905687216895
  0
LINE
  5
69A1
  8
0
 10
2927.4440173307248187
 20
174.3526129383575096
 30
0.0
 11
2927.4782516189998205
 21
174.2694303954042141
 31
0.0
  0
ARC
  5
69A2
  8
0
 10
2928.0402425478200712
 20
173.5214647217597133
 30
0.0
 40
0.0104480184223866
 50
269.4042312863613802
 51
296.6467792727219148
  0
LINE
  5
69A3
  8
0
 10
2928.0401339099698816
 20
173.5110172681573886
 30
0.0
 11
2927.5852333519710555
 21
173.5110172681573886
 31
0.0
  0
ARC
  5
69A4
  8
0
 10
2927.5855080432052091
 20
173.5220845882109018
 30
0.0
 40
0.0110707284511278
 50
244.1264993450957093
 51
268.5782088467159952
  0
ARC
  5
69A5
  8
0
 10
2926.7869201986450207
 20
176.6086831147804048
 30
0.0
 40
0.1788540374581195
 50
180.2496783792086887
 51
207.5287792449564961
  0
ARC
  5
69A6
  8
0
 10
2926.7148386487451717
 20
176.6015999269355063
 30
0.0
 40
0.1148859487503118
 50
221.1390011247829932
 51
264.9085790115872783
  0
ARC
  5
69A7
  8
0
 10
2928.8262875900090876
 20
176.610175160074192
 30
0.0
 40
0.191242577854411
 50
333.2733880939746882
 51
359.3194674294568927
  0
ARC
  5
69A8
  8
0
 10
2928.9205345767340987
 20
176.5848512267961041
 30
0.0
 40
0.0976964352803057
 50
270.2920131880654822
 51
321.5996921930349117
  0
LINE
  5
69A9
  8
0
 10
2928.6473654948708827
 20
176.1768663335575127
 30
0.0
 11
2926.9783507574788928
 21
176.17661140347019
 31
0.0
  0
LINE
  5
69AA
  8
0
 10
2927.8127922684079749
 20
175.9698040566539987
 30
0.0
 11
2927.8127922688208855
 21
174.2694810195679054
 31
0.0
  0
ARC
  5
69AB
  8
0
 10
2928.0290613526130983
 20
173.4766641934241136
 30
0.0
 40
0.0344000397327193
 50
42.2674880689329626
 51
87.0057039228547637
  0
ARC
  5
69AC
  8
0
 10
2927.5873702864791994
 20
173.1138093491973109
 30
0.0
 40
0.605984069922116
 50
2.4679855685896639
 51
39.5660514781737973
  0
ARC
  5
69AD
  8
0
 10
2927.4779124241367754
 20
173.1890963423529968
 30
0.0
 40
0.7165703775884131
 50
330.4258040234083182
 51
356.0635436084667163
  0
ARC
  5
69AE
  8
0
 10
2927.8130170343761165
 20
173.0245210710743891
 30
0.0
 40
0.3446174211149803
 50
269.9626306719601985
 51
326.7227986540397069
  0
ARC
  5
69AF
  8
0
 10
2927.8130161132758076
 20
173.0231088127299017
 30
0.0
 40
0.3432051624701705
 50
220.1480436940344134
 51
269.9626306719601985
  0
ARC
  5
69B0
  8
0
 10
2927.56261428375592
 20
172.8112239355855024
 30
0.0
 40
0.0151954221418876
 50
186.3011439229275084
 51
218.2228236782478064
  0
ARC
  5
69B1
  8
0
 10
2927.5634334437982034
 20
173.4681922202686053
 30
0.0
 40
0.0160553639069029
 50
138.1071044792880116
 51
172.6316978814317906
  0
ARC
  5
69B2
  8
0
 10
2927.8450669859707887
 20
173.2232678502572014
 30
0.0
 40
0.3892899299003547
 50
134.1547579054160906
 51
138.9516164972569072
  0
ARC
  5
69B3
  8
0
 10
2927.5949677532798887
 20
173.4805003951902052
 30
0.0
 40
0.030517828964659
 50
90.453513583650107
 51
133.6881401057738969
  0
LINE
  5
69B4
  8
0
 10
2928.2684730059900176
 20
174.1944139847973929
 30
0.0
 11
2928.2684695209209167
 21
174.1097489698042864
 31
0.0
  0
LINE
  5
69B5
  8
0
 10
2927.3571115321519756
 20
174.1944139847973929
 30
0.0
 11
2927.3571157884280183
 21
174.1096055419704953
 31
0.0
  0
LINE
  5
69B7
  8
0
 10
2927.5475106607391353
 20
172.8095561748573914
 30
0.0
 11
2927.5475106608400893
 21
173.4702512717574052
 31
0.0
  0
ENDSEC
  0
EOF
