  0
SECTION
  2
HEADER
  9
$ACADVER
  1
AC1009
  9
$INSBASE
 10
2869.2706992097860166
 20
163.9594882966707132
 30
0.0
  9
$EXTMIN
 10
2865.3426992097761286
 20
162.7547638872707125
 30
0.0
  9
$EXTMAX
 10
2869.2841137027999139
 20
165.1642127060707992
 30
0.0
  9
$LIMMIN
 10
0.0
 20
0.0
  9
$LIMMAX
 10
11.6929133858000007
 20
8.2677165353999982
  9
$ORTHOMODE
 70
     0
  9
$REGENMODE
 70
     1
  9
$FILLMODE
 70
     1
  9
$QTEXTMODE
 70
     0
  9
$MIRRTEXT
 70
     0
  9
$DRAGMODE
 70
     2
  9
$LTSCALE
 40
0.6431102362
  9
$OSMODE
 70
  4095
  9
$ATTMODE
 70
     1
  9
$TEXTSIZE
 40
0.2
  9
$TRACEWID
 40
0.05
  9
$TEXTSTYLE
  7
STANDARD
  9
$CLAYER
  8
0
  9
$CELTYPE
  6
BYLAYER
  9
$CECOLOR
 62
   256
  9
$DIMSCALE
 40
1.0
  9
$DIMASZ
 40
0.1875
  9
$DIMEXO
 40
0.0625
  9
$DIMDLI
 40
0.4443307087
  9
$DIMRND
 40
0.0
  9
$DIMDLE
 40
0.0
  9
$DIMEXE
 40
0.125
  9
$DIMTP
 40
0.01
  9
$DIMTM
 40
0.01
  9
$DIMTXT
 40
2.0
  9
$DIMCEN
 40
0.1052362205
  9
$DIMTSZ
 40
0.0
  9
$DIMTOL
 70
     1
  9
$DIMLIM
 70
     0
  9
$DIMTIH
 70
     1
  9
$DIMTOH
 70
     1
  9
$DIMSE1
 70
     0
  9
$DIMSE2
 70
     0
  9
$DIMTAD
 70
     0
  9
$DIMZIN
 70
     0
  9
$DIMBLK
  1

  9
$DIMASO
 70
     1
  9
$DIMSHO
 70
     1
  9
$DIMPOST
  1
\X
  9
$DIMAPOST
  1

  9
$DIMALT
 70
     1
  9
$DIMALTD
 70
     2
  9
$DIMALTF
 40
25.3999999999999986
  9
$DIMLFAC
 40
1.0
  9
$DIMTOFL
 70
     0
  9
$DIMTVP
 40
0.0
  9
$DIMTIX
 70
     0
  9
$DIMSOXD
 70
     0
  9
$DIMSAH
 70
     0
  9
$DIMBLK1
  1

  9
$DIMBLK2
  1

  9
$DIMSTYLE
  2
STANDARD
  9
$DIMCLRD
 70
     0
  9
$DIMCLRE
 70
     0
  9
$DIMCLRT
 70
     0
  9
$DIMTFAC
 40
1.0
  9
$DIMGAP
 40
0.09
  9
$LUNITS
 70
     2
  9
$LUPREC
 70
     4
  9
$SKETCHINC
 40
0.1
  9
$FILLETRAD
 40
0.0
  9
$AUNITS
 70
     0
  9
$AUPREC
 70
     0
  9
$MENU
  1
.
  9
$ELEVATION
 40
0.0
  9
$PELEVATION
 40
0.0
  9
$THICKNESS
 40
0.0
  9
$LIMCHECK
 70
     0
  9
$BLIPMODE
 70
     0
  9
$CHAMFERA
 40
0.0
  9
$CHAMFERB
 40
0.0
  9
$SKPOLY
 70
     0
  9
$TDCREATE
 40
2458060.468368056230247
  9
$TDUPDATE
 40
2458781.6154629630036652
  9
$TDINDWG
 40
0.3679096181
  9
$TDUSRTIMER
 40
0.3679096181
  9
$USRTIMER
 70
     1
  9
$ANGBASE
 50
0.0
  9
$ANGDIR
 70
     0
  9
$PDMODE
 70
     0
  9
$PDSIZE
 40
0.3125
  9
$PLINEWID
 40
0.0
  9
$COORDS
 70
     1
  9
$SPLFRAME
 70
     0
  9
$SPLINETYPE
 70
     6
  9
$SPLINESEGS
 70
     8
  9
$ATTDIA
 70
     1
  9
$ATTREQ
 70
     1
  9
$HANDLING
 70
     1
  9
$HANDSEED
  5
62CD
  9
$SURFTAB1
 70
     6
  9
$SURFTAB2
 70
     6
  9
$SURFTYPE
 70
     6
  9
$SURFU
 70
     6
  9
$SURFV
 70
     6
  9
$UCSNAME
  2

  9
$UCSORG
 10
0.0
 20
0.0
 30
0.0
  9
$UCSXDIR
 10
1.0
 20
0.0
 30
0.0
  9
$UCSYDIR
 10
0.0
 20
1.0
 30
0.0
  9
$PUCSNAME
  2

  9
$PUCSORG
 10
0.0
 20
0.0
 30
0.0
  9
$PUCSXDIR
 10
1.0
 20
0.0
 30
0.0
  9
$PUCSYDIR
 10
0.0
 20
1.0
 30
0.0
  9
$USERI1
 70
     0
  9
$USERI2
 70
     0
  9
$USERI3
 70
     0
  9
$USERI4
 70
     0
  9
$USERI5
 70
     0
  9
$USERR1
 40
0.0
  9
$USERR2
 40
0.0
  9
$USERR3
 40
0.0
  9
$USERR4
 40
0.0
  9
$USERR5
 40
0.0
  9
$WORLDVIEW
 70
     1
  9
$SHADEDGE
 70
     3
  9
$SHADEDIF
 70
    70
  9
$TILEMODE
 70
     1
  9
$MAXACTVP
 70
    64
  9
$PLIMCHECK
 70
     0
  9
$PEXTMIN
 10
1.0000000000000000E+20
 20
1.0000000000000000E+20
 30
1.0000000000000000E+20
  9
$PEXTMAX
 10
-1.0000000000000000E+20
 20
-1.0000000000000000E+20
 30
-1.0000000000000000E+20
  9
$PLIMMIN
 10
0.0
 20
0.0
  9
$PLIMMAX
 10
12.0
 20
9.0
  9
$UNITMODE
 70
     0
  9
$VISRETAIN
 70
     1
  9
$PLINEGEN
 70
     0
  9
$PSLTSCALE
 70
     1
  0
ENDSEC
  0
SECTION
  2
TABLES
  0
TABLE
  2
VPORT
 70
     1
  0
VPORT
  2
*ACTIVE
 70
     0
 10
0.0
 20
0.0
 11
1.0
 21
1.0
 12
0.0
 22
0.0
 13
0.0
 23
0.0
 14
1.0
 24
1.0
 15
0.0
 25
0.0
 16
0.0
 26
0.0
 36
13.1003561435627098
 17
2867.313443570308209
 27
163.9594879150390057
 37
0.0
 40
4.6194840981856178
 41
2.1209039548022588
 42
50.0
 43
0.0
 44
0.0
 50
0.0
 51
0.0
 71
     0
 72
   100
 73
     1
 74
     1
 75
     0
 76
     0
 77
     0
 78
     0
  0
ENDTAB
  0
TABLE
  2
LTYPE
 70
     2
  0
LTYPE
  2
CONTINUOUS
 70
     0
  3
Solid line
 72
    65
 73
     0
 40
0.0
  0
LTYPE
  2
PHANTOM2
 70
     0
  3
___ _ _ ___ _ _ ___ _ _ ___ _ _
 72
    65
 73
     6
 40
1.25
 49
0.625
 49
-0.125
 49
0.125
 49
-0.125
 49
0.125
 49
-0.125
  0
ENDTAB
  0
TABLE
  2
LAYER
 70
     2
  0
LAYER
  2
0
 70
     0
 62
   255
  6
CONTINUOUS
  0
LAYER
  2
DEFPOINTS
 70
     0
 62
     7
  6
CONTINUOUS
  0
ENDTAB
  0
TABLE
  2
STYLE
 70
     1
  0
STYLE
  2
STANDARD
 70
     0
 40
0.0
 41
0.8
 50
0.0
 71
     0
 42
0.2
  3
txt
  4

  0
ENDTAB
  0
TABLE
  2
VIEW
 70
     0
  0
ENDTAB
  0
TABLE
  2
UCS
 70
     0
  0
ENDTAB
  0
TABLE
  2
APPID
 70
     9
  0
APPID
  2
ACAD
 70
     0
  0
APPID
  2
ACAD_MLEADERVER
 70
     0
  0
APPID
  2
ACAD_EXEMPT_FROM_CAD_STANDARDS
 70
     0
  0
APPID
  2
ACAD_NAV_VCDISPLAY
 70
     0
  0
APPID
  2
ACAECLAYERSTANDARD
 70
     0
  0
APPID
  2
ACCMTRANSPARENCY
 70
     0
  0
APPID
  2
ACAD_DSTYLE_DIMJAG
 70
     0
  0
APPID
  2
ACAD_DSTYLE_DIMTALN
 70
     0
  0
APPID
  2
ACDBATTR
 70
     0
  0
ENDTAB
  0
TABLE
  2
DIMSTYLE
 70
     1
  0
DIMSTYLE
  2
STANDARD
 70
     0
  3

  4

  5

  6

  7

 40
1.0
 41
0.1875
 42
0.0625
 43
0.38
 44
0.125
 45
0.0
 46
0.0
 47
0.01
 48
0.01
140
0.15625
141
0.09
142
0.0
143
25.3999999999999986
144
1.0
145
0.0
146
1.0
147
0.09
 71
     1
 72
     0
 73
     1
 74
     1
 75
     0
 76
     0
 77
     0
 78
     4
170
     0
171
     2
172
     0
173
     0
174
     0
175
     0
176
     0
177
     0
178
     0
  0
ENDTAB
  0
ENDSEC
  0
SECTION
  2
BLOCKS
  0
BLOCK
  8
0
  2
$MODEL_SPACE
 70
     0
 10
0.0
 20
0.0
 30
0.0
  3
$MODEL_SPACE
  1

  0
ENDBLK
  5
21
  8
0
  0
BLOCK
 67
     1
  8
0
  2
$PAPER_SPACE
 70
     0
 10
0.0
 20
0.0
 30
0.0
  3
$PAPER_SPACE
  1

  0
ENDBLK
  5
1D
 67
     1
  8
0
  0
BLOCK
  8
0
  2
_CLOSED
 70
     0
 10
0.0
 20
0.0
 30
0.0
  3
_CLOSED
  1

  0
LINE
  5
57DF
  8
0
  6
BYBLOCK
 62
     0
 10
0.0
 20
0.0
 30
0.0
 11
-1.0
 21
0.1666666667
 31
0.0
  0
LINE
  5
57E0
  8
0
  6
BYBLOCK
 62
     0
 10
-1.0
 20
0.1666666667
 30
0.0
 11
-1.0
 21
-0.1666666667
 31
0.0
  0
LINE
  5
57E1
  8
0
  6
BYBLOCK
 62
     0
 10
-1.0
 20
-0.1666666667
 30
0.0
 11
0.0
 21
0.0
 31
0.0
  0
LINE
  5
57E2
  8
0
  6
BYBLOCK
 62
     0
 10
-1.0
 20
0.0
 30
0.0
 11
0.0
 21
0.0
 31
0.0
  0
ENDBLK
  5
57E3
  8
0
  6
BYBLOCK
 62
     0
  0
ENDSEC
  0
SECTION
  2
ENTITIES
  0
ATTDEF
  5
3930
  8
DEFPOINTS
 10
2869.2734470361310741
 20
163.9611188686598098
 30
0.0
 40
0.001
  1
K-13500
  3

  2
MODELNUMBER
 70
     0
1001
ACDBATTR
1070
     0
1070
     1
  0
ATTDEF
  5
3931
  8
DEFPOINTS
 10
2869.2734470361310741
 20
163.9594522019930878
 30
0.0
 40
0.001
  1
KELSTON
  3

  2
TRADENAME
 70
     0
1001
ACDBATTR
1070
     0
1070
     1
  0
ATTDEF
  5
3932
  8
DEFPOINTS
 10
2869.2734470361310741
 20
163.9577855353265079
 30
0.0
 40
0.001
  1
TOWEL BAR
  3

  2
PRODUCT
 70
     0
1001
ACDBATTR
1070
     0
1070
     1
  0
LINE
  5
61FD
  8
0
 10
2869.2706992097860166
 20
162.7547638872707125
 30
0.0
 11
2869.2706992097860166
 21
165.1642127060707992
 31
0.0
  0
LINE
  5
61FE
  8
0
 10
2869.1500403325107982
 20
162.8506425811002885
 30
0.0
 11
2869.1498820506872107
 21
165.0670112731177142
 31
0.0
  0
ARC
  5
61FF
  8
0
 10
2868.7834958958587777
 20
162.6986301552217924
 30
0.0
 40
0.3968155763854794
 50
22.5246451455795516
 51
72.2069693757732836
  0
ARC
  5
6200
  8
0
 10
2868.953032432110831
 20
163.2092024070693128
 30
0.0
 40
0.1412446573436264
 50
216.6512794227182042
 51
250.0132443295136966
  0
ARC
  5
6201
  8
0
 10
2868.7531095018080123
 20
163.0659285419386038
 30
0.0
 40
0.104768852658762
 50
34.2462999841461411
 51
89.6877687129143339
  0
LINE
  5
6202
  8
0
 10
2868.7536804330711675
 20
163.1706958389588067
 30
0.0
 11
2868.6341690592680607
 21
163.1706958389588067
 31
0.0
  0
ARC
  5
6203
  8
0
 10
2868.636745845356927
 20
163.2036854880556973
 30
0.0
 40
0.0330901310677941
 50
247.3903660024265037
 51
265.5337562745081073
  0
ARC
  5
6204
  8
0
 10
2867.99557993175722
 20
161.5467105750396115
 30
0.0
 40
1.7436198225806321
 50
68.8736932344015997
 51
93.5701825608916664
  0
ARC
  5
6205
  8
0
 10
2885.4459380344460442
 20
-569.2994815926156207
 30
0.0
 40
732.7968278024984556
 50
91.3730261134239043
 51
91.3986406499830792
  0
ARC
  5
6206
  8
0
 10
2867.5673831829758456
 20
164.3558077422499935
 30
0.0
 40
1.0768131955339371
 50
233.8637081833682032
 51
269.5803248393477816
  0
ARC
  5
6207
  8
0
 10
2866.9001587611228388
 20
163.4375045707346032
 30
0.0
 40
0.0583522977021552
 50
56.4855827086036868
 51
72.029404720146573
  0
ARC
  5
6208
  8
0
 10
2866.8260940391378426
 20
163.1456748814377136
 30
0.0
 40
0.3593303804895346
 50
75.1540362217114222
 51
89.8199051270565434
  0
ARC
  5
6209
  8
0
 10
2866.6692183742429734
 20
168.7952866486234882
 30
0.0
 40
5.2926422089813103
 50
271.118942587337699
 51
271.7107470874136084
  0
ARC
  5
620A
  8
0
 10
2866.7705777902501723
 20
163.6058082133793903
 30
0.0
 40
0.1021740064896509
 50
224.9735516903718064
 51
271.118942587337699
  0
ARC
  5
620B
  8
0
 10
2863.7734534857540893
 20
160.6114496379987884
 30
0.0
 40
4.1344446186118846
 50
44.973551690371778
 51
46.5312203681656911
  0
ARC
  5
620C
  8
0
 10
2866.4061612787518243
 20
163.3750797972095938
 30
0.0
 40
0.3176859656798347
 50
48.2306009072134501
 51
109.7494113072984021
  0
ARC
  5
620D
  8
0
 10
2868.7807889089631317
 20
165.2239242151792951
 30
0.0
 40
0.4010628612255709
 50
287.9879347978223905
 51
336.9681501161109054
  0
ARC
  5
620E
  8
0
 10
2868.9450693781868722
 20
164.7199452103224075
 30
0.0
 40
0.1290164537391818
 50
108.2604139801510996
 51
145.0238041990486977
  0
ARC
  5
620F
  8
0
 10
2868.752545388722865
 20
164.8536707548038009
 30
0.0
 40
0.1053950827383459
 50
270.5633507926667107
 51
325.4523413351823251
  0
LINE
  5
6210
  8
0
 10
2868.7535816508570861
 20
164.7482807665402049
 30
0.0
 11
2868.6340699735428643
 21
164.7482807665402049
 31
0.0
  0
ARC
  5
6211
  8
0
 10
2867.9939386363780613
 20
166.3847591997131872
 30
0.0
 40
1.756602430134677
 50
266.5004067409785762
 51
291.0166605212357922
  0
ARC
  5
6212
  8
0
 10
2885.1299499282249599
 20
897.2253592504173412
 30
0.0
 40
732.796827802498683
 50
268.6260500802002866
 51
268.6516646167680733
  0
ARC
  5
6213
  8
0
 10
2867.5675538894720376
 20
163.5624350025481988
 30
0.0
 40
1.0768117417813281
 50
90.4443537374985738
 51
126.1609348924041001
  0
ARC
  5
6214
  8
0
 10
2866.8999326448820284
 20
164.4804525822696917
 30
0.0
 40
0.0583560343637671
 50
287.9955352430372955
 51
303.5399001982564755
  0
ARC
  5
6215
  8
0
 10
2866.825743566113033
 20
164.7722468519756944
 30
0.0
 40
0.3593303804895347
 50
270.2047856031330753
 51
284.8706545084818913
  0
ARC
  5
6216
  8
0
 10
2866.6713025285389449
 20
159.1225680062293861
 30
0.0
 40
5.2926422089813112
 50
88.3139436427765929
 51
88.9057481428394141
  0
ARC
  5
6217
  8
0
 10
2866.7704256097190409
 20
164.3120896388901997
 30
0.0
 40
0.1021740064896509
 50
88.9057481428394141
 51
135.051139039817599
  0
ARC
  5
6218
  8
0
 10
2863.7720112110268929
 20
167.3051563719045021
 30
0.0
 40
4.1344446186118864
 50
313.4934703620230039
 51
315.051139039817599
  0
ARC
  5
6219
  8
0
 10
2866.4063815348399658
 20
164.5466811696630032
 30
0.0
 40
0.3203830699032468
 50
250.3818547349110872
 51
311.2520249943203794
  0
LINE
  5
621A
  8
0
 10
2866.9323777954468824
 20
163.486155618763803
 30
0.0
 11
2866.9321753786612135
 21
164.4318127542977095
 31
0.0
  0
ARC
  5
621B
  8
0
 10
2868.644062261675117
 20
163.4052707074667978
 30
0.0
 40
0.2347833988794873
 50
272.4150200774110999
 51
283.2080343762780785
  0
ARC
  5
621C
  8
0
 10
2868.7024329475480044
 20
163.2299748994389859
 30
0.0
 40
0.0480918343990624
 50
309.3324704424105107
 51
2.2994998930102182
  0
ARC
  5
621D
  8
0
 10
2868.6795531804618804
 20
163.2630352503364861
 30
0.0
 40
0.0882251784533855
 50
281.8745991206532722
 51
307.2166637107878273
  0
ARC
  5
621E
  8
0
 10
2868.6277690503179656
 20
163.2252530113609055
 30
0.0
 40
0.1228971342899516
 50
3.1024974223652642
 51
30.2621836879314401
  0
ARC
  5
621F
  8
0
 10
2868.3711957079008243
 20
163.0660826000961094
 30
0.0
 40
0.4248006783177701
 50
31.3652609955030997
 51
52.0161846477469823
  0
ARC
  5
6220
  8
0
 10
2868.4325438248060891
 20
163.6465986046443959
 30
0.0
 40
0.3168629900173572
 50
309.1589525380063037
 51
342.5355205701562795
  0
ARC
  5
6221
  8
0
 10
2868.4101610406091822
 20
163.6536406463316951
 30
0.0
 40
0.3403274179788158
 50
342.5355158056864866
 51
0.7497170375952033
  0
ARC
  5
6222
  8
0
 10
2868.2966275464032151
 20
163.6521549722749
 30
0.0
 40
0.4538706323689984
 50
0.7497170375952033
 51
19.9171501650525791
  0
ARC
  5
6223
  8
0
 10
2868.3119952908227788
 20
163.6577232214193032
 30
0.0
 40
0.4375252058794989
 50
19.9171501650525791
 51
34.3814228423574093
  0
ARC
  5
6224
  8
0
 10
2867.9238998251857993
 20
163.3921734970865884
 30
0.0
 40
0.9077748699318043
 50
34.3814228423574093
 51
38.6753007978609489
  0
ARC
  5
6225
  8
0
 10
2868.6498541891451168
 20
164.6819061625203062
 30
0.0
 40
0.0682255782017992
 50
103.3767618070744021
 51
112.3363957888023066
  0
ARC
  5
6226
  8
0
 10
2868.6433241162330887
 20
164.509768716055504
 30
0.0
 40
0.2386915109159259
 50
76.8543388019200648
 51
87.7780682687622544
  0
ARC
  5
6227
  8
0
 10
2868.7023433638992174
 20
164.688930555506289
 30
0.0
 40
0.0480894728538974
 50
357.7057200431891033
 51
50.675379190681042
  0
ARC
  5
6228
  8
0
 10
2868.679465817844175
 20
164.6558658600565934
 30
0.0
 40
0.0882251784533855
 50
52.7905238240626673
 51
78.1325884142059977
  0
ARC
  5
6229
  8
0
 10
2868.6276851129068746
 20
164.6936380585339066
 30
0.0
 40
0.122888296241215
 50
329.7445132208919745
 51
356.9060842630798902
  0
ARC
  5
622A
  8
0
 10
2868.3710835913129813
 20
164.8527798631054111
 30
0.0
 40
0.4248007395943877
 50
307.991001692663815
 51
328.6419257926016257
  0
ARC
  5
622B
  8
0
 10
2868.4325048517048344
 20
164.2722716535066922
 30
0.0
 40
0.3168626921290607
 50
17.4716590642844487
 51
50.8482587001176185
  0
ARC
  5
622C
  8
0
 10
2868.410122680053064
 20
164.2652266729286055
 30
0.0
 40
0.3403274179788158
 50
359.2574704972490167
 51
17.471671729162729
  0
ARC
  5
622D
  8
0
 10
2868.2965890003670211
 20
164.2666981046342869
 30
0.0
 40
0.4538706323689984
 50
340.0900373697959935
 51
359.2574704972490167
  0
ARC
  5
622E
  8
0
 10
2868.3119574431830188
 20
164.261131783357996
 30
0.0
 40
0.4375252058794989
 50
325.6257646924831874
 51
340.0900373697959935
  0
ARC
  5
622F
  8
0
 10
2867.9238286684098966
 20
164.5266328205200921
 30
0.0
 40
0.9077748699318043
 50
321.3318867369806071
 51
325.6257646924831874
  0
ARC
  5
6230
  8
0
 10
2868.6453419834570013
 20
163.4243302389060943
 30
0.0
 40
0.0266508737752074
 50
224.9183008729119138
 51
241.5226658739912864
  0
ARC
  5
6231
  8
0
 10
2868.0055630360648138
 20
161.2492258725391139
 30
0.0
 40
2.2439019513751899
 50
73.93613549165471
 51
93.0294912883655059
  0
LINE
  5
6232
  8
0
 10
2867.8869728987961025
 20
163.4899918903838056
 30
0.0
 11
2867.7276918963520984
 21
163.4866619512706905
 31
0.0
  0
ARC
  5
6233
  8
0
 10
2867.5733177612951295
 20
167.0741026011012025
 30
0.0
 40
3.590760614358766
 50
267.9999933080175083
 51
272.4640220680436187
  0
ARC
  5
6234
  8
0
 10
2867.509090846098843
 20
164.6802979744072104
 30
0.0
 40
1.196329324271233
 50
245.62890327511019
 51
267.0729810026488167
  0
LINE
  5
6235
  8
0
 10
2867.0154315605018382
 20
163.5905712371674952
 30
0.0
 11
2866.9323481279188854
 21
163.6247573120440961
 31
0.0
  0
ARC
  5
6236
  8
0
 10
2868.6452746770141857
 20
164.4945667832355127
 30
0.0
 40
0.0266506051110385
 50
118.4844456110216981
 51
135.0889287350798895
  0
ARC
  5
6237
  8
0
 10
2868.0052230468932066
 20
166.6695906694878886
 30
0.0
 40
2.2439019513751899
 50
266.977696399297713
 51
286.0710521960156143
  0
LINE
  5
6238
  8
0
 10
2867.8869140120000338
 20
164.4288097922828058
 30
0.0
 11
2867.7276325930711209
 21
164.4321197497567084
 31
0.0
  0
ARC
  5
6239
  8
0
 10
2867.5737084994079851
 20
160.8446597621025091
 30
0.0
 40
3.590760614358766
 50
87.543165619648974
 51
92.0071943796682632
  0
ARC
  5
623A
  8
0
 10
2867.509181284764054
 20
163.2384563127698982
 30
0.0
 40
1.196329324271233
 50
92.9342066850307162
 51
114.3782844125709062
  0
LINE
  5
623B
  8
0
 10
2867.0153852981229647
 20
164.3281211124624122
 30
0.0
 11
2866.932204902659123
 21
164.2938816066796903
 31
0.0
  0
ARC
  5
623C
  8
0
 10
2869.2793750510268183
 20
164.9703904402159083
 30
0.0
 40
0.1940163419981084
 50
92.5629536948127765
 51
118.0453013186854037
  0
ARC
  5
623D
  8
0
 10
2869.2501192927470584
 20
165.0627177164743102
 30
0.0
 40
0.1003291549069748
 50
128.1421935515774919
 51
177.5472949551048885
  0
ARC
  5
623E
  8
0
 10
2869.2707044107210095
 20
162.9364411643873041
 30
0.0
 40
0.1816772771910272
 50
242.5787188567215935
 51
269.9983597750572812
  0
ARC
  5
623F
  8
0
 10
2869.2509113403011725
 20
162.8532916696215125
 30
0.0
 40
0.1009057871610807
 50
181.5043639891285068
 51
230.7272307516093122
  0
LINE
  5
6240
  8
0
 10
2868.839714169034778
 20
163.1248873758974867
 30
0.0
 11
2868.8393545509879914
 21
164.7939020940164028
 31
0.0
  0
LINE
  5
6241
  8
0
 10
2868.6325995444281034
 20
163.9594476128600036
 30
0.0
 11
2866.9322765106858242
 21
163.9593409606916055
 31
0.0
  0
ARC
  5
6242
  8
0
 10
2865.8026992097761649
 20
163.9594876368707048
 30
0.0
 40
0.46
 50
35.964212046768921
 51
324.0357894596805863
  0
ARC
  5
6243
  8
0
 10
2866.2553509974081862
 20
164.0580773504302954
 30
0.0
 40
0.1918075472641469
 50
76.9035198669771489
 51
113.3445650870632022
  0
ARC
  5
6244
  8
0
 10
2866.1848855642488161
 20
164.2245731574307115
 30
0.0
 40
0.0110926619164132
 50
119.9633147679245013
 51
176.5716170298273937
  0
ARC
  5
6245
  8
0
 10
2866.2553509974081862
 20
163.8608979233119953
 30
0.0
 40
0.1918075472641469
 50
246.6554349130240098
 51
283.0964801331040803
  0
ARC
  5
6246
  8
0
 10
2866.1848855642488161
 20
163.6944021163114087
 30
0.0
 40
0.0110926619164273
 50
183.4283829703236108
 51
240.0366852321378133
  0
LINE
  5
6247
  8
0
 10
2866.1738127545759198
 20
164.2252365082707115
 30
0.0
 11
2866.1738127545859243
 21
163.6937387653188125
 31
0.0
  0
ENDSEC
  0
EOF
