  0
SECTION
  2
HEADER
  9
$ACADVER
  1
AC1009
  9
$INSBASE
 10
5.0735895569000027
 20
12.4705550522
 30
0.0
  9
$EXTMIN
 10
0.7115377871864866
 20
8.5334966703477022
 30
-0.0000000000112498
  9
$EXTMAX
 10
9.4353689604678586
 20
12.4707454016472
 30
0.0000000000002956
  9
$LIMMIN
 10
0.0
 20
0.0
  9
$LIMMAX
 10
11.692913385800001
 20
8.2677165353999982
  9
$ORTHOMODE
 70
     0
  9
$REGENMODE
 70
     1
  9
$FILLMODE
 70
     1
  9
$QTEXTMODE
 70
     0
  9
$MIRRTEXT
 70
     0
  9
$DRAGMODE
 70
     2
  9
$LTSCALE
 40
0.6431102362
  9
$OSMODE
 70
  3071
  9
$ATTMODE
 70
     1
  9
$TEXTSIZE
 40
0.2
  9
$TRACEWID
 40
0.05
  9
$TEXTSTYLE
  7
STANDARD
  9
$CLAYER
  8
0
  9
$CELTYPE
  6
BYLAYER
  9
$CECOLOR
 62
   256
  9
$DIMSCALE
 40
1.0
  9
$DIMASZ
 40
0.1875
  9
$DIMEXO
 40
0.0625
  9
$DIMDLI
 40
0.4443307087
  9
$DIMRND
 40
0.0
  9
$DIMDLE
 40
0.0
  9
$DIMEXE
 40
0.125
  9
$DIMTP
 40
0.01
  9
$DIMTM
 40
0.01
  9
$DIMTXT
 40
1.0
  9
$DIMCEN
 40
0.1052362205
  9
$DIMTSZ
 40
0.0
  9
$DIMTOL
 70
     1
  9
$DIMLIM
 70
     0
  9
$DIMTIH
 70
     1
  9
$DIMTOH
 70
     1
  9
$DIMSE1
 70
     0
  9
$DIMSE2
 70
     0
  9
$DIMTAD
 70
     0
  9
$DIMZIN
 70
     0
  9
$DIMBLK
  1

  9
$DIMASO
 70
     1
  9
$DIMSHO
 70
     1
  9
$DIMPOST
  1
\X
  9
$DIMAPOST
  1

  9
$DIMALT
 70
     1
  9
$DIMALTD
 70
     2
  9
$DIMALTF
 40
25.399999999999999
  9
$DIMLFAC
 40
1.0
  9
$DIMTOFL
 70
     0
  9
$DIMTVP
 40
0.0
  9
$DIMTIX
 70
     0
  9
$DIMSOXD
 70
     0
  9
$DIMSAH
 70
     0
  9
$DIMBLK1
  1

  9
$DIMBLK2
  1

  9
$DIMSTYLE
  2
STANDARD
  9
$DIMCLRD
 70
     0
  9
$DIMCLRE
 70
     0
  9
$DIMCLRT
 70
     0
  9
$DIMTFAC
 40
1.0
  9
$DIMGAP
 40
0.09
  9
$LUNITS
 70
     2
  9
$LUPREC
 70
     4
  9
$SKETCHINC
 40
0.1
  9
$FILLETRAD
 40
0.0
  9
$AUNITS
 70
     0
  9
$AUPREC
 70
     0
  9
$MENU
  1
.
  9
$ELEVATION
 40
0.0
  9
$PELEVATION
 40
0.0
  9
$THICKNESS
 40
0.0
  9
$LIMCHECK
 70
     0
  9
$BLIPMODE
 70
     0
  9
$CHAMFERA
 40
0.0
  9
$CHAMFERB
 40
0.0
  9
$SKPOLY
 70
     0
  9
$TDCREATE
 40
2457968.5505856252
  9
$TDUPDATE
 40
2457970.7679727082
  9
$TDINDWG
 40
0.916508125
  9
$TDUSRTIMER
 40
0.916508125
  9
$USRTIMER
 70
     1
  9
$ANGBASE
 50
0.0
  9
$ANGDIR
 70
     0
  9
$PDMODE
 70
     3
  9
$PDSIZE
 40
0.3125
  9
$PLINEWID
 40
0.0
  9
$COORDS
 70
     1
  9
$SPLFRAME
 70
     0
  9
$SPLINETYPE
 70
     6
  9
$SPLINESEGS
 70
     8
  9
$ATTDIA
 70
     1
  9
$ATTREQ
 70
     1
  9
$HANDLING
 70
     1
  9
$HANDSEED
  5
129A
  9
$SURFTAB1
 70
     6
  9
$SURFTAB2
 70
     6
  9
$SURFTYPE
 70
     6
  9
$SURFU
 70
     6
  9
$SURFV
 70
     6
  9
$UCSNAME
  2

  9
$UCSORG
 10
0.0
 20
0.0
 30
0.0
  9
$UCSXDIR
 10
1.0
 20
0.0
 30
0.0
  9
$UCSYDIR
 10
0.0
 20
1.0
 30
0.0
  9
$PUCSNAME
  2

  9
$PUCSORG
 10
0.0
 20
0.0
 30
0.0
  9
$PUCSXDIR
 10
1.0
 20
0.0
 30
0.0
  9
$PUCSYDIR
 10
0.0
 20
1.0
 30
0.0
  9
$USERI1
 70
     0
  9
$USERI2
 70
     0
  9
$USERI3
 70
     0
  9
$USERI4
 70
     0
  9
$USERI5
 70
     0
  9
$USERR1
 40
0.0
  9
$USERR2
 40
0.0
  9
$USERR3
 40
0.0
  9
$USERR4
 40
0.0
  9
$USERR5
 40
0.0
  9
$WORLDVIEW
 70
     1
  9
$SHADEDGE
 70
     3
  9
$SHADEDIF
 70
    70
  9
$TILEMODE
 70
     1
  9
$MAXACTVP
 70
    64
  9
$PLIMCHECK
 70
     0
  9
$PEXTMIN
 10
1.0000000000000000E+020
 20
1.0000000000000000E+020
 30
1.0000000000000000E+020
  9
$PEXTMAX
 10
-1.0000000000000000E+020
 20
-1.0000000000000000E+020
 30
-1.0000000000000000E+020
  9
$PLIMMIN
 10
0.0
 20
0.0
  9
$PLIMMAX
 10
12.0
 20
9.0
  9
$UNITMODE
 70
     0
  9
$VISRETAIN
 70
     1
  9
$PLINEGEN
 70
     0
  9
$PSLTSCALE
 70
     1
  0
ENDSEC
  0
SECTION
  2
TABLES
  0
TABLE
  2
VPORT
 70
     1
  0
VPORT
  2
*ACTIVE
 70
     0
 10
0.0
 20
0.0
 11
1.0
 21
1.0
 12
-0.0001716140458257
 22
-0.0002134747885272
 13
0.0
 23
0.0
 14
1.0
 24
1.0
 15
0.0
 25
0.0
 16
-0.0000000000000062
 26
0.0
 36
28.798112758897169
 17
5.0736249878729982
 27
10.50233451078598
 37
0.0
 40
4.3072219727688523
 41
2.0329087048832268
 42
50.0
 43
0.0
 44
0.0
 50
0.0
 51
0.0
 71
     0
 72
   100
 73
     1
 74
     1
 75
     0
 76
     0
 77
     0
 78
     0
  0
ENDTAB
  0
TABLE
  2
LTYPE
 70
     2
  0
LTYPE
  2
CONTINUOUS
 70
     0
  3
Solid line
 72
    65
 73
     0
 40
0.0
  0
LTYPE
  2
PHANTOM2
 70
     0
  3
___ _ _ ___ _ _ ___ _ _ ___ _ _
 72
    65
 73
     6
 40
1.25
 49
0.625
 49
-0.125
 49
0.125
 49
-0.125
 49
0.125
 49
-0.125
  0
ENDTAB
  0
TABLE
  2
LAYER
 70
     2
  0
LAYER
  2
0
 70
     0
 62
     7
  6
CONTINUOUS
  0
LAYER
  2
DEFPOINTS
 70
     0
 62
     7
  6
CONTINUOUS
  0
ENDTAB
  0
TABLE
  2
STYLE
 70
     1
  0
STYLE
  2
STANDARD
 70
     0
 40
0.0
 41
0.8
 50
0.0
 71
     0
 42
0.2
  3
txt
  4

  0
ENDTAB
  0
TABLE
  2
VIEW
 70
     0
  0
ENDTAB
  0
TABLE
  2
UCS
 70
     0
  0
ENDTAB
  0
TABLE
  2
APPID
 70
     8
  0
APPID
  2
ACAD
 70
     0
  0
APPID
  2
ACAD_NAV_VCDISPLAY
 70
     0
  0
APPID
  2
ACAD_EXEMPT_FROM_CAD_STANDARDS
 70
     0
  0
APPID
  2
ACAD_DSTYLE_DIMRADIAL_EXTENSION
 70
     0
  0
APPID
  2
ACAD_MLEADERVER
 70
     0
  0
APPID
  2
ACDBATTR
 70
     0
  0
APPID
  2
ACAD_DSTYLE_DIMJAG
 70
     0
  0
APPID
  2
ACAD_DSTYLE_DIMTALN
 70
     0
  0
ENDTAB
  0
TABLE
  2
DIMSTYLE
 70
     2
  0
DIMSTYLE
  2
STANDARD
 70
     0
  3

  4

  5

  6

  7

 40
1.0
 41
0.1875
 42
0.0625
 43
0.38
 44
0.125
 45
0.0
 46
0.0
 47
0.01
 48
0.01
140
0.15625
141
0.09
142
0.0
143
25.399999999999999
144
1.0
145
0.0
146
1.0
147
0.09
 71
     1
 72
     0
 73
     1
 74
     1
 75
     0
 76
     0
 77
     0
 78
     4
170
     0
171
     2
172
     0
173
     0
174
     0
175
     0
176
     0
177
     0
178
     0
  0
ENDTAB
  0
ENDSEC
  0
SECTION
  2
BLOCKS
  0
BLOCK
  8
0
  2
$MODEL_SPACE
 70
     0
 10
0.0
 20
0.0
 30
0.0
  3
$MODEL_SPACE
  1

  0
ENDBLK
  5
21
  8
0
  0
BLOCK
 67
     1
  8
0
  2
$PAPER_SPACE
 70
     0
 10
0.0
 20
0.0
 30
0.0
  3
$PAPER_SPACE
  1

  0
ENDBLK
  5
1D
 67
     1
  8
0
  0
ENDSEC
  0
SECTION
  2
ENTITIES
  0
LINE
  5
31A
  8
0
 10
2.1828546191567488
 20
9.3092765141000005
 30
0.0
 11
2.1828546191567488
 21
8.6938335903000006
 31
0.0
  0
LINE
  5
31E
  8
0
 10
2.2319849864567489
 20
9.2829889711999982
 30
0.0
 11
2.2319849864567489
 21
8.720121133200001
 31
0.0
  0
LINE
  5
31F
  8
0
 10
2.2581953602567491
 20
8.720121133200001
 30
0.0
 11
2.2581953602567491
 21
9.2829889711999982
 31
0.0
  0
LINE
  5
320
  8
0
 10
2.3145128551567491
 20
8.6788380926999995
 30
0.0
 11
2.3145128551567491
 21
9.3242720116999998
 31
0.0
  0
LINE
  5
321
  8
0
 10
2.37083035005675
 20
9.3655550521999995
 30
0.0
 11
2.37083035005675
 21
8.6375550521999997
 31
0.0
  0
POLYLINE
  5
32F
  8
0
 66
     1
 10
0.0
 20
0.0
 30
0.0
  0
VERTEX
  5
1257
  8
0
 10
1.684778867056749
 20
9.3747800871999996
 30
0.0
  0
VERTEX
  5
1258
  8
0
 10
1.686283203156749
 20
9.3741539680999981
 30
0.0
  0
VERTEX
  5
1259
  8
0
 10
1.687821549856749
 20
9.3737877788000006
 30
0.0
  0
VERTEX
  5
125A
  8
0
 10
1.689360852856749
 20
9.3736685969999982
 30
0.0
  0
SEQEND
  5
125B
  8
0
  0
LINE
  5
333
  8
0
 10
7.7760101810432563
 20
8.6375550521999997
 30
0.0
 11
2.37083035005675
 21
8.6375550521999997
 31
0.0
  0
LINE
  5
335
  8
0
 10
7.914855544643256
 20
8.720121133200001
 30
0.0
 11
7.8886451708432572
 21
8.720121133200001
 31
0.0
  0
LINE
  5
336
  8
0
 10
2.2581953602567491
 20
8.720121133200001
 30
0.0
 11
2.2319849864567489
 21
8.720121133200001
 31
0.0
  0
LINE
  5
344
  8
0
 10
2.2581953602567491
 20
9.2829889711999982
 30
0.0
 11
2.2319849864567489
 21
9.2829889711999982
 31
0.0
  0
LINE
  5
351
  8
0
 10
1.688024957556749
 20
9.3579702820000001
 30
0.0
 11
2.0704630767567491
 21
9.3579702820000001
 31
0.0
  0
LINE
  5
352
  8
0
 10
2.0704630767567491
 20
9.3579702820000001
 30
0.0
 11
2.1451374164567492
 21
9.3579702820000001
 31
0.0
  0
LINE
  5
353
  8
0
 10
7.7760101810432563
 20
9.3655550521999977
 30
0.0
 11
2.37083035005675
 21
9.3655550521999995
 31
0.0
  0
LINE
  5
354
  8
0
 10
8.4272593440432573
 20
9.3683930064999998
 30
0.0
 11
8.2871756477432577
 21
9.3683930064999998
 31
0.0
  0
LINE
  5
355
  8
0
 10
8.2721100546432567
 20
9.3683930064999998
 30
0.0
 11
8.1884086334432542
 21
9.3683930064999998
 31
0.0
  0
LINE
  5
356
  8
0
 10
8.1733430403432568
 20
9.3683930064999998
 30
0.0
 11
8.0332593440432571
 21
9.3683930064999998
 31
0.0
  0
LINE
  5
357
  8
0
 10
1.6893643788567489
 20
9.3736685969999982
 30
0.0
 11
2.1444751605567491
 21
9.3736685969999982
 31
0.0
  0
LINE
  5
358
  8
0
 10
8.0027039532432571
 20
9.3736685969999982
 30
0.0
 11
8.4578147349432573
 21
9.3736685969999982
 31
0.0
  0
LINE
  5
388
  8
0
 10
9.1143989860546242
 20
12.1045550522
 30
0.0
 11
7.342871908916651
 21
12.11875388006138
 31
0.0
  0
LINE
  5
38E
  8
0
 10
9.3093533076432564
 20
12.340367220799999
 30
0.0
 11
7.1511653805432571
 21
12.340367220799999
 31
0.0
  0
LINE
  5
395
  8
0
 10
9.434983753543257
 20
12.4705550522
 30
0.0
 11
7.0255349346432556
 21
12.4705550522
 31
0.0
  0
LINE
  5
396
  8
0
 10
3.1216441791567489
 20
12.4705550522
 30
0.0
 11
0.7121953602567497
 21
12.4705550522
 31
0.0
  0
LINE
  5
397
  8
0
 10
7.760045956343256
 20
10.127256946099999
 30
0.0
 11
7.7570731904432568
 21
10.1322052945
 31
0.0
  0
LINE
  5
39E
  8
0
 10
7.4428293814432562
 20
11.9534868831
 30
0.0
 11
7.440359719543256
 21
11.832473451
 31
0.0
  0
LINE
  5
3A5
  8
0
 10
7.7760101810432571
 20
8.6375550521999997
 30
0.0
 11
7.7760101810432571
 21
9.3655550521999995
 31
0.0
  0
LINE
  5
3A6
  8
0
 10
7.8323276759432572
 20
8.6788380926999995
 30
0.0
 11
7.8323276759432572
 21
9.3242720116999998
 31
0.0
  0
LINE
  5
3A7
  8
0
 10
7.8886451708432572
 20
9.2829889711999982
 30
0.0
 11
7.8886451708432572
 21
8.720121133200001
 31
0.0
  0
LINE
  5
3A8
  8
0
 10
7.914855544643256
 20
8.720121133200001
 30
0.0
 11
7.914855544643256
 21
9.2829889711999982
 31
0.0
  0
LINE
  5
3A9
  8
0
 10
7.9639859118432561
 20
8.6938335903000006
 30
0.0
 11
7.9639859118432561
 21
9.3092765141000005
 31
0.0
  0
LINE
  5
3B1
  8
0
 10
8.0332593440432571
 20
9.3683930064999998
 30
0.0
 11
8.0332593440432571
 21
9.3579702820000001
 31
0.0
  0
LINE
  5
3B7
  8
0
 10
8.0443660596432558
 20
9.3736685969999982
 30
0.0
 11
8.0443430403432572
 21
9.3683930064999998
 31
0.0
  0
LINE
  5
3BB
  8
0
 10
8.4161526284432568
 20
9.3736685969999982
 30
0.0
 11
8.4161756477432572
 21
9.3683930064999998
 31
0.0
  0
LINE
  5
3BC
  8
0
 10
8.4272593440432573
 20
9.3683930064999998
 30
0.0
 11
8.4272593440432573
 21
9.3579702820000001
 31
0.0
  0
LINE
  5
3CB
  8
0
 10
9.0176893066432573
 20
11.9534868834
 30
0.0
 11
9.0201589686432566
 21
11.8324734485
 31
0.0
  0
ARC
  5
575
  8
0
 10
2.37083035005675
 20
8.6966101702999996
 30
0.0
 40
0.0590551181
 50
197.51410134310001
 51
270.0
  0
ARC
  5
576
  8
0
 10
2.37083035005675
 20
9.3064999340999996
 30
0.0
 40
0.0590551181
 50
90.0
 51
162.48589865689999
  0
ARC
  5
577
  8
0
 10
2.2581953602567491
 20
9.3420440892999999
 30
0.0
 40
0.0590551181
 50
270.0
 51
342.48589865719998
  0
ARC
  5
578
  8
0
 10
2.2581953602567491
 20
8.6610660150999994
 30
0.0
 40
0.0590551181
 50
17.5141013428
 51
90.0
  0
ARC
  5
579
  8
0
 10
2.2319849864567489
 20
8.6610660150999994
 30
0.0
 40
0.0590551181
 50
90.0
 51
146.29863315669999
  0
ARC
  5
57A
  8
0
 10
2.2319849864567489
 20
9.3420440892999999
 30
0.0
 40
0.0590551181
 50
213.70136684330001
 51
270.0
  0
ARC
  5
595
  8
0
 10
6.9388026915432572
 20
11.962938468000001
 30
0.0
 40
0.4330708661
 50
21.087419607800001
 51
60.635441352299992
  0
ARC
  5
598
  8
0
 10
7.344424674843256
 20
11.9554951427
 30
0.0
 40
0.0984251969
 50
358.8308604412
 51
58.612975702200004
  0
ARC
  5
59A
  8
0
 10
7.7760101810432571
 20
8.6966101702999996
 30
0.0
 40
0.0590551181
 50
270.0
 51
342.48589865700001
  0
ARC
  5
59B
  8
0
 10
7.7760101810432571
 20
9.3064999340999996
 30
0.0
 40
0.0590551181
 50
17.514101343
 51
90.0
  0
ARC
  5
59D
  8
0
 10
7.729944770487724
 20
10.109196997809629
 30
0.0
 40
0.0351034289126939
 50
14.5037675385332
 51
30.962689080452868
  0
ARC
  5
5A3
  8
0
 10
7.914855544643256
 20
8.6610660150999994
 30
0.0
 40
0.0590551181
 50
33.701366843199999
 51
90.0
  0
ARC
  5
5A4
  8
0
 10
7.914855544643256
 20
9.3420440892999999
 30
0.0
 40
0.0590551181
 50
270.0
 51
326.29863315680001
  0
ARC
  5
5A5
  8
0
 10
7.8886451708432572
 20
8.6610660150999994
 30
0.0
 40
0.0590551181
 50
90.0
 51
162.48589865700001
  0
ARC
  5
5A6
  8
0
 10
7.8886451708432572
 20
9.3420440892999999
 30
0.0
 40
0.0590551181
 50
197.51410134299999
 51
270.0
  0
ARC
  5
5D8
  8
0
 10
8.7305922409432561
 20
10.109187630199999
 30
0.0
 40
0.0351239607
 50
149.03958526869999
 51
164.5696720425
  0
ARC
  5
5E2
  8
0
 10
9.5217159965432572
 20
11.962938468000001
 30
0.0
 40
0.4330708661
 50
119.36455864769999
 51
158.9125803922
  0
ARC
  5
5E3
  8
0
 10
9.1160940132432575
 20
11.9554951427
 30
0.0
 40
0.0984251969
 50
121.38702429769999
 51
181.16913932790001
  0
ARC
  5
5E4
  8
0
 10
9.3418286997432567
 20
12.2899157698
 30
0.0
 40
0.06
 50
93.444315356299995
 51
122.769217654
  0
ARC
  5
9C9
  8
0
 10
9.3382239928661797
 20
12.447046627661321
 30
0.0
 40
0.0972392383613201
 50
269.99999983673882
 51
321.72884703763083
  0
ARC
  5
9D0
  8
0
 10
9.0040146265062067
 20
12.13727486568639
 30
0.0
 40
0.1151316334788069
 50
301.8870870283418
 51
350.74272341343601
  0
ARC
  5
9D8
  8
0
 10
9.2880730620520193
 20
12.462019897084771
 30
0.0
 40
0.147158418540275
 50
329.26784819140028
 51
3.3250082876816451
  0
ARC
  5
9D9
  8
0
 10
7.4565040611713496
 20
12.137274865415151
 30
0.0
 40
0.1151316330315427
 50
189.25727648608009
 51
238.11291312625841
  0
ARC
  5
9DB
  8
0
 10
7.1480776762460154
 20
12.47497597497639
 30
0.0
 40
0.1346441629927904
 50
220.28217297171309
 51
271.31404085215928
  0
ARC
  5
9DC
  8
0
 10
7.1720032856473157
 20
12.46200276741364
 30
0.0
 40
0.1467178224378876
 50
176.65829458549081
 51
210.32628767343761
  0
ARC
  5
9DE
  8
0
 10
7.6973168755007544
 20
11.82644576673858
 30
0.0
 40
0.2570278447470628
 50
158.00062683180801
 51
178.656205777758
  0
ARC
  5
9DF
  8
0
 10
7.5029751918421734
 20
11.90144570858809
 30
0.0
 40
0.0488508067470099
 50
53.330219725452849
 51
154.1734396208862
  0
ARC
  5
9E1
  8
0
 10
7.5151474964919842
 20
11.82625164521421
 30
0.0
 40
0.1156335304726562
 50
43.821724330010483
 51
81.545197535333941
  0
ARC
  5
9E2
  8
0
 10
5.813625346620098
 20
10.084847727529731
 30
0.0
 40
2.5502687827737458
 50
43.084710542978613
 51
45.589954563562699
  0
ARC
  5
9E3
  8
0
 10
7.9147399037485737
 20
11.65887161380409
 30
0.0
 40
0.2917683907825018
 50
87.218683955356099
 51
144.84175863025661
  0
ARC
  5
9E4
  8
0
 10
7.9202727316939718
 20
11.483973447524511
 30
0.0
 40
0.4664025772175861
 50
48.34582085992924
 51
88.940351681332388
  0
ARC
  5
9E5
  8
0
 10
8.5095311036100547
 20
11.562522089104251
 30
0.0
 40
0.3884028296835446
 50
44.025843358519992
 51
135.97414061444621
  0
ARC
  5
9E6
  8
0
 10
9.0282863136211642
 20
11.66910127192385
 30
0.0
 40
0.2898911332278693
 50
104.0703885133432
 51
145.70168404450661
  0
ARC
  5
9EC
  8
0
 10
8.9556077635068476
 20
11.89451526144186
 30
0.0
 40
0.0558231745935535
 50
358.15535001497068
 51
87.739441188752053
  0
ARC
  5
9EE
  8
0
 10
5.893738118838983
 20
11.204361036036021
 30
0.0
 40
1.669300326962444
 50
355.36314608989619
 51
22.103005472121531
  0
ARC
  5
9EF
  8
0
 10
10.717498577512449
 20
11.18017719199386
 30
0.0
 40
1.8183652422129439
 50
158.97797794569149
 51
182.64040682564911
  0
ARC
  5
9F0
  8
0
 10
10.146961696893779
 20
10.870445358381399
 30
0.0
 40
2.597019911205352
 50
175.60600757070611
 51
187.74590932222841
  0
ARC
  5
9F1
  8
0
 10
8.8348980476700785
 20
10.87896165076943
 30
0.0
 40
1.3112320479920541
 50
195.86906211312109
 51
214.7099959328431
  0
ARC
  5
9F2
  8
0
 10
7.0122023765653898
 20
10.88537985047129
 30
0.0
 40
1.90061337864096
 50
345.52838007892029
 51
6.3748373756769627
  0
ARC
  5
9F3
  8
0
 10
7.139498193919076
 20
11.147199515696011
 30
0.0
 40
1.8646465497229729
 50
326.84322453876217
 51
336.74607405164232
  0
ARC
  5
9F4
  8
0
 10
7.4024995347637361
 20
10.0186822635534
 30
0.0
 40
0.3748243991752461
 50
351.21733720572189
 51
15.363417633062699
  0
ARC
  5
9F5
  8
0
 10
7.8739364691290508
 20
9.9701009983759494
 30
0.0
 40
0.1013771499402033
 50
184.89441186969231
 51
235.487682715022
  0
ARC
  5
9F6
  8
0
 10
9.0654459369024032
 20
10.023212987975141
 30
0.0
 40
0.380833479017067
 50
165.50514985029841
 51
181.42088302570471
  0
ARC
  5
9F7
  8
0
 10
8.5235711295737033
 20
9.9837624854408684
 30
0.0
 40
0.163928239523214
 50
340.69580107606009
 51
10.54749408621381
  0
ARC
  5
9F8
  8
0
 10
7.5022809180085233
 20
9.5180898228614232
 30
0.0
 40
0.4842590397388223
 50
19.811890249251078
 51
49.544197620101507
  0
ARC
  5
9F9
  8
0
 10
8.0870466648288151
 20
10.36186957788397
 30
0.0
 40
0.7324224469556864
 50
311.9955211087622
 51
323.82653561500598
  0
ARC
  5
9FA
  8
0
 10
7.5676769197151943
 20
9.6180129467906408
 30
0.0
 40
0.3954474953353122
 50
342.43684733857521
 51
9.3444154115724043
  0
ARC
  5
9FB
  8
0
 10
8.8219482256542516
 20
9.6025505192760132
 30
0.0
 40
0.3255440012823743
 50
138.24616282423901
 51
174.19130451584579
  0
ARC
  5
9FC
  8
0
 10
8.8261302732433133
 20
9.6074839883342555
 30
0.0
 40
0.3292484399565128
 50
175.11911320164609
 51
199.84686244568169
  0
ARC
  5
9FD
  8
0
 10
8.046555297606357
 20
9.4691026637653888
 30
0.0
 40
0.1059146649337661
 50
163.79021640388649
 51
243.69711357723099
  0
ARC
  5
9FE
  8
0
 10
8.4141770410203893
 20
9.4688734955447789
 30
0.0
 40
0.1057216723667096
 50
299.68951921175238
 51
14.70028623687098
  0
ARC
  5
A04
  8
0
 10
5.8215562177051678
 20
11.265999630129199
 30
0.0
 40
1.9376001764446109
 50
354.69337539560348
 51
16.82640694771953
  0
ARC
  5
A05
  8
0
 10
18.991546874482371
 20
11.098868629711751
 30
0.0
 40
11.24070149186722
 50
180.06151947668849
 51
182.7262815253452
  0
ARC
  5
A06
  8
0
 10
8.6783298236876512
 20
10.63113513627567
 30
0.0
 40
0.9172067774780508
 50
184.1844543633749
 51
207.50245401311651
  0
ARC
  5
A07
  8
0
 10
4.1658570232153789
 20
11.23662080795118
 30
0.0
 40
3.830118507372533
 50
358.05153113674152
 51
10.738829066712521
  0
ARC
  5
A08
  8
0
 10
25.654899199622719
 20
10.699941478483961
 30
0.0
 40
17.66581462826143
 50
178.68162958451759
 51
180.4199518944763
  0
ARC
  5
A09
  8
0
 10
9.2082966500509276
 20
10.541189232790851
 30
0.0
 40
1.2190890159163039
 50
178.6241620294077
 51
196.2083816103432
  0
ARC
  5
A0A
  8
0
 10
26.098002277220701
 20
11.290174960161419
 30
0.0
 40
17.87597011253467
 50
178.2616244169204
 51
180.65187056372361
  0
ARC
  5
A0B
  8
0
 10
424.57800988143589
 20
12.593657258127861
 30
0.0
 40
416.35754754953302
 50
180.20736213537879
 51
180.27829009112861
  0
ARC
  5
A0C
  8
0
 10
38.144890507766313
 20
10.692450379751589
 30
0.0
 40
29.919761936996728
 50
180.2318405174241
 51
181.0548020604935
  0
ARC
  5
A0D
  8
0
 10
-11.058970906709829
 20
2.7953939565260342
 30
0.0
 40
20.323599685316239
 50
21.153203969084348
 51
21.38963780323672
  0
ARC
  5
A0E
  8
0
 10
7.724851053417864
 20
10.106200188078139
 30
0.0
 40
0.3268331257656114
 50
5.6022808328069011
 51
16.843520991197149
  0
ARC
  5
A0F
  8
0
 10
15.616053527619711
 20
11.167648092745271
 30
0.0
 40
7.1495582225109304
 50
173.7102798513846
 51
180.49088706761941
  0
ARC
  5
A10
  8
0
 10
-9.1944827783379548
 20
10.69994170156245
 30
0.0
 40
17.66591689403662
 50
359.58004981237178
 51
1.3183620586246021
  0
ARC
  5
A12
  8
0
 10
11.280341845762649
 20
11.191002246798391
 30
0.0
 40
2.5727860984232249
 50
165.56258136936029
 51
182.3212283591449
  0
ARC
  5
A13
  8
0
 10
4.1408853369889789
 20
10.93651813632167
 30
0.0
 40
4.5712524242244106
 50
355.3283233304183
 51
1.8839536966839701
  0
ARC
  5
A14
  8
0
 10
7.649885591119638
 20
10.664572627782119
 30
0.0
 40
1.0518644910338459
 50
334.712904757388
 51
354.52477924484629
  0
ARC
  5
A15
  8
0
 10
8.8098104934887491
 20
10.081582508536609
 30
0.0
 40
0.2479711660674821
 50
147.37746585818039
 51
168.80798584179601
  0
ARC
  5
A2C
  8
0
 10
8.0765429941705342
 20
9.2583753142537084
 30
0.0
 40
0.1235314895547671
 50
126.2706520995786
 51
155.66629697972749
  0
LINE
  5
A2D
  8
0
 10
8.0034617290526207
 20
9.3579702820000001
 30
0.0
 11
8.2302593440432563
 21
9.3579702820000001
 31
0.0
  0
LINE
  5
A2E
  8
0
 10
8.2302593440432563
 20
9.3579702820000001
 30
0.0
 11
8.4599250361552336
 21
9.3567299257173353
 31
0.0
  0
ARC
  5
A2F
  8
0
 10
8.0574398360929518
 20
9.0178075237195348
 30
0.0
 40
0.5262092541121715
 50
3.6860196696044309
 51
40.088729098880421
  0
ARC
  5
A30
  8
0
 10
8.0530135673102041
 20
9.0015383087035161
 30
0.0
 40
0.5319115185795557
 50
305.51084297370562
 51
5.4044671483692577
  0
ARC
  5
A31
  8
0
 10
8.2243551613191102
 20
8.8261769845030553
 30
0.0
 40
0.2920734839434933
 50
206.94382932821259
 51
298.11175592337088
  0
ARC
  5
A32
  8
0
 10
8.2330377460554711
 20
5.4828481822395698
 30
0.0
 40
4.6588182687047226
 50
84.287839110925503
 51
95.779051477701131
  0
ARC
  5
A39
  8
0
 10
77.708241498921723
 20
5.6462240999502962
 30
0.0
 40
69.412169735254764
 50
175.93190725810089
 51
176.29052985797449
  0
ARC
  5
A3A
  8
0
 10
8.0027004333758853
 20
9.3836687166398036
 30
0.0
 40
0.0100001202592691
 50
252.07559723542681
 51
270.02016711236809
  0
ARC
  5
A3B
  8
0
 10
8.4552874632256323
 20
9.3932305705676207
 30
0.0
 40
0.0197250030911983
 50
277.37160063783398
 51
304.78645477028482
  0
LINE
  5
A3C
  8
0
 10
8.1733430403432568
 20
9.3683930064999998
 30
0.0
 11
8.1884086334432542
 21
9.3683930064999998
 31
0.0
  0
LINE
  5
A3D
  8
0
 10
8.2721100546432567
 20
9.3683930064999998
 30
0.0
 11
8.2871756477432577
 21
9.3683930064999998
 31
0.0
  0
LINE
  5
A3E
  8
0
 10
8.2871756477432577
 20
9.3683930064999998
 30
0.0
 11
8.2968104594509402
 21
9.3683930064999998
 31
0.0
  0
LINE
  5
B1E
  8
0
 10
1.133250150477022
 20
11.956544341968851
 30
0.0
 11
2.708067780685766
 21
11.96803121001723
 31
0.0
  0
LINE
  5
B20
  8
0
 10
1.03552900854101
 20
12.1066158468621
 30
0.0
 11
2.8033388939832942
 21
12.11978077301141
 31
0.0
  0
LINE
  5
B23
  8
0
 10
0.8098332681878673
 20
12.350516357341579
 30
0.0
 11
3.0257036206959218
 21
12.366679124858081
 31
0.0
  0
LINE
  5
B26
  8
0
 10
2.7080681830743321
 20
11.96803121305229
 30
0.0
 11
2.71068573839363
 21
11.8428058178584
 31
0.0
  0
LINE
  5
B2B
  8
0
 10
1.133250150477022
 20
11.956544341968851
 30
0.0
 11
1.1316632141091201
 21
11.82908133074692
 31
0.0
  0
ARC
  5
B2C
  8
0
 10
3.1642869618573402
 20
12.00933481518172
 30
0.0
 40
0.3785914596059933
 50
108.0064359191903
 51
160.77083539713121
  0
ARC
  5
B2D
  8
0
 10
2.8064556239805469
 20
11.97075717335629
 30
0.0
 40
0.0984251969
 50
121.80493771053359
 51
181.58705297153361
  0
ARC
  5
B32
  8
0
 10
0.6291679291965459
 20
11.962319354691219
 30
0.0
 40
0.4330708661
 50
21.50533302053362
 51
61.053354765033568
  0
ARC
  5
B33
  8
0
 10
1.034833413482134
 20
11.957834793722061
 30
0.0
 40
0.0984251969
 50
359.2487740848336
 51
59.030889115033588
  0
ARC
  5
B34
  8
0
 10
0.8066655009814503
 20
12.290600038638489
 30
0.0
 40
0.06
 50
57.648695758733581
 51
86.973598056433616
  0
ARC
  5
B35
  8
0
 10
0.80912401514875
 20
12.44775300905901
 30
0.0
 40
0.0972392383613201
 50
218.6890663751029
 51
270.41791357599482
  0
ARC
  5
B36
  8
0
 10
1.1455839356249209
 20
12.14042717709405
 30
0.0
 40
0.1151316334788069
 50
189.67518999929769
 51
238.5308263843917
  0
ARC
  5
B37
  8
0
 10
0.859164398370456
 20
12.463091676073409
 30
0.0
 40
0.147158418540275
 50
177.092905125052
 51
211.15006522133331
  0
ARC
  5
B38
  8
0
 10
2.6930533358729609
 20
12.15171456470034
 30
0.0
 40
0.1151316330315427
 50
302.30500028647521
 51
351.16063692665352
  0
ARC
  5
B39
  8
0
 10
3.0275658455598222
 20
12.45828892317099
 30
0.0
 40
0.0916287238325411
 50
268.8354633887825
 51
324.70977410918113
  0
ARC
  5
B3A
  8
0
 10
2.4740762127707621
 20
11.845244200991299
 30
0.0
 40
0.2366220896868714
 50
359.40955835811172
 51
22.85667106927157
  0
ARC
  5
B3B
  8
0
 10
2.6483035557465731
 20
11.915552725331169
 30
0.0
 40
0.0488508067470099
 50
26.244473791847419
 51
127.08769368728071
  0
ARC
  5
B3C
  8
0
 10
2.63668003289665
 20
11.84027187860559
 30
0.0
 40
0.1156335304726562
 50
98.872715877399671
 51
136.5961890827231
  0
ARC
  5
B3D
  8
0
 10
4.0181507335764266
 20
10.43879847077041
 30
0.0
 40
2.0834695987228882
 50
134.68762691528181
 51
137.757846953734
  0
ARC
  5
B3E
  8
0
 10
2.238380576659893
 20
11.670291999724149
 30
0.0
 40
0.2914620281242606
 50
35.47541871051321
 51
93.214698186457127
  0
ARC
  5
B3F
  8
0
 10
2.2340621174393789
 20
11.49504784270424
 30
0.0
 40
0.4664025772175861
 50
91.477561731401224
 51
132.07209255280429
  0
ARC
  5
B40
  8
0
 10
1.6442464943284549
 20
11.56929640296967
 30
0.0
 40
0.3884028296835446
 50
44.44377279828737
 51
136.3920700542136
  0
ARC
  5
B41
  8
0
 10
1.1247277057038341
 20
11.672089001877231
 30
0.0
 40
0.2898911332278693
 50
34.716229368227012
 51
76.347524899390336
  0
ARC
  5
B42
  8
0
 10
1.1957601753268521
 20
11.89802710529584
 30
0.0
 40
0.0558231745935535
 50
92.678472223981515
 51
182.2625633977629
  0
ARC
  5
B43
  8
0
 10
1.5451853039246679
 20
11.811437880490161
 30
0.0
 40
0.4138983088904571
 50
168.23608524422551
 51
177.55688386517161
  0
ARC
  5
B44
  8
0
 10
4.2462959314384703
 20
11.23067720323189
 30
0.0
 40
1.653118297590277
 50
158.2666666903668
 51
185.12014113104399
  0
ARC
  5
B45
  8
0
 10
-0.5063635405203961
 20
11.17432613249669
 30
0.0
 40
1.764039687342037
 50
357.59625427797101
 51
21.78767295424711
  0
ARC
  5
B46
  8
0
 10
0.0119073968011684
 20
10.8652948264705
 30
0.0
 40
2.597019911205352
 50
352.6720040905052
 51
4.8119058420274721
  0
ARC
  5
B52
  8
0
 10
1.3228563338506989
 20
9.5740718505543523
 30
0.0
 40
0.3261501152211652
 50
339.2797266925233
 51
6.5395493878317641
  0
ARC
  5
B55
  8
0
 10
4.3292981109537001
 20
11.292370518453239
 30
0.0
 40
1.932608963567557
 50
163.55620699280749
 51
185.73886142527999
  0
ARC
  5
B56
  8
0
 10
-8.8341086039295575
 20
11.02920049849264
 30
0.0
 40
11.24070149186722
 50
357.69163188738833
 51
0.3563939360451349
  0
ARC
  5
B57
  8
0
 10
1.281130547146869
 20
10.670704813633639
 30
0.0
 40
1.1203127126792509
 50
330.94048683748139
 51
355.1738837933068
  0
ARC
  5
B58
  8
0
 10
5.689034741826803
 20
11.278955085101879
 30
0.0
 40
3.5294253247090581
 50
168.85384278615649
 51
182.63099109340399
  0
ARC
  5
B59
  8
0
 10
-15.49437394337305
 20
10.58168213110692
 30
0.0
 40
17.66581462826143
 50
359.99796151825723
 51
1.736283828215998
  0
ARC
  5
B5A
  8
0
 10
0.9122818463964378
 20
10.54474231331354
 30
0.0
 40
1.259682286480696
 50
340.69244744346122
 51
1.6518232144149489
  0
ARC
  5
B5B
  8
0
 10
-15.94177591703958
 20
11.16866792745763
 30
0.0
 40
17.875975691122932
 50
359.76604303394089
 51
2.156288441433643
  0
ARC
  5
B5C
  8
0
 10
-414.42068550754038
 20
9.5656421136533005
 30
0.0
 40
416.35754754953302
 50
0.1396233216049832
 51
0.2105512773547411
  0
ARC
  5
B5D
  8
0
 10
-41.311547380696219
 20
10.487665333840519
 30
0.0
 40
43.247272290272868
 50
359.53791627350358
 51
0.1226697285128269
  0
ARC
  5
B60
  8
0
 10
-5.4592067185938493
 20
11.1225986440894
 30
0.0
 40
7.1495582225117857
 50
359.9270263451146
 51
6.707633561348576
  0
ARC
  5
B61
  8
0
 10
19.354081009949699
 20
10.83587027411278
 30
0.0
 40
17.66591689403662
 50
179.099551354109
 51
180.8378636003618
  0
ARC
  5
B62
  8
0
 10
-1.1237810069990981
 20
11.177576414388669
 30
0.0
 40
2.5727863916737679
 50
358.09668552759348
 51
14.85533022468716
  0
ARC
  5
B63
  8
0
 10
6.0173420617400941
 20
10.975173569373499
 30
0.0
 40
4.5712524242244106
 50
178.53395971604959
 51
185.0895900823154
  0
ARC
  5
B74
  8
0
 10
4.0673032238945552
 20
12.15536116322013
 30
0.0
 40
0.9968040010677475
 50
161.56645764304449
 51
165.47551592775449
  0
ARC
  5
B7C
  8
0
 10
0.933900682331302
 20
11.09667262824992
 30
0.0
 40
1.746897558462132
 50
326.29370815893708
 51
341.2117588961105
  0
ARC
  5
B7D
  8
0
 10
2.9253134920305008
 20
10.84063887432688
 30
0.0
 40
1.6892716496747049
 50
171.1565092641498
 51
193.9833070269207
  0
ARC
  5
B7E
  8
0
 10
2.7776282687235132
 20
11.02406223732911
 30
0.0
 40
1.604575857781503
 50
201.6358678637267
 51
213.76252468170961
  0
ARC
  5
B7F
  8
0
 10
2.2466137758364879
 20
10.56804025228597
 30
0.0
 40
0.7825022444790787
 50
179.88267721513361
 51
206.79698923535051
  0
ARC
  5
B80
  8
0
 10
1.7558159231883179
 20
10.28734771538215
 30
0.0
 40
0.2198256264644371
 50
199.14208780497859
 51
226.7391784535715
  0
ARC
  5
B82
  8
0
 10
1.2768911817049671
 20
19.243249182519769
 30
0.0
 40
9.1219077590023012
 50
271.07778674935651
 51
273.87336770126052
  0
ARC
  5
B89
  8
0
 10
2.2597384986993378
 20
14.0955960435418
 30
0.0
 40
3.9703837052323339
 50
264.70142406762147
 51
271.83871707519012
  0
ARC
  5
B8C
  8
0
 10
1.349403475335057
 20
10.07793279210555
 30
0.0
 40
0.108826300787795
 50
8.3054750401052235
 51
29.98197630350565
  0
ARC
  5
B8D
  8
0
 10
0.7225425305078133
 20
10.00196839583572
 30
0.0
 40
0.7402456873221232
 50
356.02832559934387
 51
7.1147403322727678
  0
ARC
  5
B8F
  8
0
 10
1.599198142545549
 20
9.9913696380162982
 30
0.0
 40
0.144049081988494
 50
196.40085809705101
 51
234.49168671155201
  0
ARC
  5
B90
  8
0
 10
2.883088568900507
 20
9.999875289866976
 30
0.0
 40
0.5120528081175402
 50
165.5954925044017
 51
184.09141093122091
  0
ARC
  5
B91
  8
0
 10
2.217623150937714
 20
9.9914629157991115
 30
0.0
 40
0.1572525053862187
 50
304.56849008952059
 51
349.69835863357531
  0
ARC
  5
B92
  8
0
 10
1.2766298320149569
 20
9.5904820046541115
 30
0.0
 40
0.3708346474229385
 50
3.2052944507407188
 51
49.89228180080562
  0
ARC
  5
B93
  8
0
 10
2.4766624553392829
 20
9.6278694617187952
 30
0.0
 40
0.289186637593333
 50
125.7061063702683
 51
179.908759410757
  0
ARC
  5
B94
  8
0
 10
1.7335473408741879
 20
9.4690590660859293
 30
0.0
 40
0.1061454913872684
 50
185.6124954187874
 51
242.65133992824931
  0
ARC
  5
B95
  8
0
 10
2.492652959520834
 20
9.5929074361879163
 30
0.0
 40
0.3072256831990748
 50
173.3791802047742
 51
202.54651582419311
  0
ARC
  5
B96
  8
0
 10
2.0937654906378822
 20
9.4756496653284579
 30
0.0
 40
0.1151447711283222
 50
301.07663219004797
 51
359.72990012308969
  0
ARC
  5
B97
  8
0
 10
2.142542121530143
 20
9.391688900609747
 30
0.0
 40
0.0181240620802769
 50
276.13379206364971
 51
306.02426334495618
  0
ARC
  5
B98
  8
0
 10
1.830668793227632
 20
9.0751854420621836
 30
0.0
 40
0.4229158080449031
 50
33.611212278689713
 51
41.963354556049261
  0
ARC
  5
B9E
  8
0
 10
2.102137787516912
 20
9.0098858754019933
 30
0.0
 40
0.5410014258150218
 50
139.95101919348329
 51
186.19822385808121
  0
ARC
  5
B9F
  8
0
 10
2.0191549094845178
 20
8.9570663042975962
 30
0.0
 40
0.4548903892643305
 50
180.7043036220991
 51
230.7299210342004
  0
ARC
  5
BA0
  8
0
 10
1.9133048505079691
 20
8.804929708147716
 30
0.0
 40
0.2704911175321161
 50
227.68824600649211
 51
288.25105204941491
  0
ARC
  5
BA1
  8
0
 10
1.8870137343555149
 20
8.8803800580280665
 30
0.0
 40
0.3503822575059069
 50
288.4699885483634
 51
328.81182778008878
  0
ARC
  5
BA2
  8
0
 10
3.1415509767480918
 20
10.5035350109014
 30
0.0
 40
1.453383475981942
 50
177.08119608794991
 51
194.774197393393
  0
ATTDEF
  5
D05
  8
DEFPOINTS
 10
5.0734761877364694
 20
12.462943692501019
 30
0.0
 40
0.001
  1
METAL
  3

  2
MATERIAL
 70
     0
1001
ACDBATTR
1070
     0
1070
     1
  0
ATTDEF
  5
D06
  8
DEFPOINTS
 10
5.0734761877364694
 20
12.46461035916769
 30
0.0
 40
0.001
  1
TISSUE HOLDER
  3

  2
PRODUCT
 70
     0
1001
ACDBATTR
1070
     0
1070
     1
  0
ATTDEF
  5
D07
  8
DEFPOINTS
 10
5.0734761877364694
 20
12.46627702583436
 30
0.0
 40
0.001
  1
KELSTON
  3

  2
TRADENAME
 70
     0
1001
ACDBATTR
1070
     0
1070
     1
  0
ATTDEF
  5
D08
  8
DEFPOINTS
 10
5.0734761877364694
 20
12.46794369250102
 30
0.0
 40
0.001
  1
K-13504
  3

  2
MODELNUMBER
 70
     0
1001
ACDBATTR
1070
     0
1070
     1
  0
LINE
  5
D96
  8
0
 10
8.0332593440432571
 20
9.3579702820000001
 30
0.0
 11
8.0332593440432571
 21
9.3579702820000001
 31
0.0
  0
LINE
  5
D97
  8
0
 10
8.0332593440432571
 20
9.3579702820000001
 30
0.0
 11
8.0332593440432571
 21
9.3683930064999998
 31
0.0
  0
LINE
  5
D98
  8
0
 10
8.0332593440432571
 20
9.3683930064999998
 30
0.0
 11
8.3572174958932575
 21
9.3683930064999998
 31
0.0
  0
LINE
  5
D99
  8
0
 10
8.3572174958932575
 20
9.3683930064999998
 30
0.0
 11
8.4272593440432573
 21
9.3683930064999998
 31
0.0
  0
LINE
  5
D9A
  8
0
 10
8.4272593440432573
 20
9.3683930064999998
 30
0.0
 11
8.4272593440432573
 21
9.3579702820000001
 31
0.0
  0
LINE
  5
D9C
  8
0
 10
1.6893643788567489
 20
9.3736685969999982
 30
0.0
 11
1.6893643788567489
 21
9.3736685969999982
 31
0.0
  0
LINE
  5
D9D
  8
0
 10
1.6893643788567489
 20
9.3736685969999982
 30
0.0
 11
2.1188045864943308
 21
9.3736685969999982
 31
0.0
  0
LINE
  5
DA4
  8
0
 10
1.7347493897183019
 20
9.3736577498977312
 30
0.0
 11
1.734893025601042
 21
9.3578392713060214
 31
0.0
  0
LINE
  5
DA5
  8
0
 10
2.0054930770060921
 20
9.3736685969999982
 30
0.0
 11
2.0065240669433382
 21
9.3579709214120719
 31
0.0
  0
ARC
  5
ED7
  8
0
 10
9.3084344100539855
 20
11.905134912918379
 30
0.0
 40
0.2972918070380931
 50
182.39369069030479
 51
194.14704355958841
  0
ARC
  5
EE7
  8
0
 10
7.9017503577432571
 20
9.2238006561168202
 30
0.0
 40
0.0606217994294914
 50
77.515268109667005
 51
102.48473189033299
  0
ENDSEC
  0
EOF
